  0
SECTION
  2
HEADER
  9
$ACADVER
  1
AC1015
  9
$ACADMAINTVER
 70
     6
  9
$DWGCODEPAGE
  3
ANSI_1252
  9
$INSBASE
 10
0.0
 20
0.0
 30
0.0
  9
$EXTMIN
 10
0.0
 20
0.0
 30
0.0
  9
$EXTMAX
 10
25.0
 20
35.0
 30
0.0
  9
$LIMMIN
 10
0.0
 20
0.0
  9
$LIMMAX
 10
420.0
 20
297.0
  9
$ORTHOMODE
 70
     0
  9
$REGENMODE
 70
     1
  9
$FILLMODE
 70
     1
  9
$QTEXTMODE
 70
     0
  9
$MIRRTEXT
 70
     1
  9
$LTSCALE
 40
4.3
  9
$ATTMODE
 70
     1
  9
$TEXTSIZE
 40
2.5
  9
$TRACEWID
 40
1.0
  9
$TEXTSTYLE
  7
Standard
  9
$CLAYER
  8
0
  9
$CELTYPE
  6
ByLayer
  9
$CECOLOR
 62
   256
  9
$CELTSCALE
 40
1.0
  9
$DISPSILH
 70
     0
  9
$DIMSCALE
 40
1.0
  9
$DIMASZ
 40
2.5
  9
$DIMEXO
 40
0.625
  9
$DIMDLI
 40
3.75
  9
$DIMRND
 40
0.0
  9
$DIMDLE
 40
0.0
  9
$DIMEXE
 40
1.25
  9
$DIMTP
 40
0.0
  9
$DIMTM
 40
0.0
  9
$DIMTXT
 40
2.5
  9
$DIMCEN
 40
2.5
  9
$DIMTSZ
 40
0.0
  9
$DIMTOL
 70
     0
  9
$DIMLIM
 70
     0
  9
$DIMTIH
 70
     0
  9
$DIMTOH
 70
     0
  9
$DIMSE1
 70
     0
  9
$DIMSE2
 70
     0
  9
$DIMTAD
 70
     1
  9
$DIMZIN
 70
     8
  9
$DIMBLK
  1

  9
$DIMASO
 70
     1
  9
$DIMSHO
 70
     1
  9
$DIMPOST
  1

  9
$DIMAPOST
  1

  9
$DIMALT
 70
     0
  9
$DIMALTD
 70
     3
  9
$DIMALTF
 40
0.03937007874016
  9
$DIMLFAC
 40
1.0
  9
$DIMTOFL
 70
     1
  9
$DIMTVP
 40
0.0
  9
$DIMTIX
 70
     0
  9
$DIMSOXD
 70
     0
  9
$DIMSAH
 70
     0
  9
$DIMBLK1
  1

  9
$DIMBLK2
  1

  9
$DIMSTYLE
  2
ISO-25
  9
$DIMCLRD
 70
     0
  9
$DIMCLRE
 70
     0
  9
$DIMCLRT
 70
     0
  9
$DIMTFAC
 40
1.0
  9
$DIMGAP
 40
0.625
  9
$DIMJUST
 70
     0
  9
$DIMSD1
 70
     0
  9
$DIMSD2
 70
     0
  9
$DIMTOLJ
 70
     0
  9
$DIMTZIN
 70
     8
  9
$DIMALTZ
 70
     0
  9
$DIMALTTZ
 70
     0
  9
$DIMUPT
 70
     0
  9
$DIMDEC
 70
     2
  9
$DIMTDEC
 70
     2
  9
$DIMALTU
 70
     2
  9
$DIMALTTD
 70
     3
  9
$DIMTXSTY
  7
Standard
  9
$DIMAUNIT
 70
     0
  9
$DIMADEC
 70
     0
  9
$DIMALTRND
 40
0.0
  9
$DIMAZIN
 70
     0
  9
$DIMDSEP
 70
    44
  9
$DIMATFIT
 70
     3
  9
$DIMFRAC
 70
     0
  9
$DIMLDRBLK
  1

  9
$DIMLUNIT
 70
     2
  9
$DIMLWD
 70
    -2
  9
$DIMLWE
 70
    -2
  9
$DIMTMOVE
 70
     0
  9
$LUNITS
 70
     2
  9
$LUPREC
 70
     4
  9
$SKETCHINC
 40
1.0
  9
$FILLETRAD
 40
10.0
  9
$AUNITS
 70
     0
  9
$AUPREC
 70
     0
  9
$MENU
  1
.
  9
$ELEVATION
 40
0.0
  9
$PELEVATION
 40
0.0
  9
$THICKNESS
 40
0.0
  9
$LIMCHECK
 70
     0
  9
$CHAMFERA
 40
10.0
  9
$CHAMFERB
 40
10.0
  9
$CHAMFERC
 40
20.0
  9
$CHAMFERD
 40
0.0
  9
$SKPOLY
 70
     0
  9
$TDCREATE
 40
2457249.916666667
  9
$TDUCREATE
 40
2457249.833333333
  9
$TDUPDATE
 40
2457249.920138889
  9
$TDUUPDATE
 40
2457249.836805556
  9
$TDINDWG
 40
0.0000000116
  9
$TDUSRTIMER
 40
0.0000000116
  9
$USRTIMER
 70
     1
  9
$ANGBASE
 50
0.0
  9
$ANGDIR
 70
     0
  9
$PDMODE
 70
     0
  9
$PDSIZE
 40
0.0
  9
$PLINEWID
 40
0.0
  9
$SPLFRAME
 70
     0
  9
$SPLINETYPE
 70
     6
  9
$SPLINESEGS
 70
     8
  9
$HANDSEED
  5
86C
  9
$SURFTAB1
 70
     6
  9
$SURFTAB2
 70
     6
  9
$SURFTYPE
 70
     6
  9
$SURFU
 70
     6
  9
$SURFV
 70
     6
  9
$UCSBASE
  2

  9
$UCSNAME
  2

  9
$UCSORG
 10
0.0
 20
0.0
 30
0.0
  9
$UCSXDIR
 10
1.0
 20
0.0
 30
0.0
  9
$UCSYDIR
 10
0.0
 20
1.0
 30
0.0
  9
$UCSORTHOREF
  2

  9
$UCSORTHOVIEW
 70
     0
  9
$UCSORGTOP
 10
0.0
 20
0.0
 30
0.0
  9
$UCSORGBOTTOM
 10
0.0
 20
0.0
 30
0.0
  9
$UCSORGLEFT
 10
0.0
 20
0.0
 30
0.0
  9
$UCSORGRIGHT
 10
0.0
 20
0.0
 30
0.0
  9
$UCSORGFRONT
 10
0.0
 20
0.0
 30
0.0
  9
$UCSORGBACK
 10
0.0
 20
0.0
 30
0.0
  9
$PUCSBASE
  2

  9
$PUCSNAME
  2

  9
$PUCSORG
 10
0.0
 20
0.0
 30
0.0
  9
$PUCSXDIR
 10
1.0
 20
0.0
 30
0.0
  9
$PUCSYDIR
 10
0.0
 20
1.0
 30
0.0
  9
$PUCSORTHOREF
  2

  9
$PUCSORTHOVIEW
 70
     0
  9
$PUCSORGTOP
 10
0.0
 20
0.0
 30
0.0
  9
$PUCSORGBOTTOM
 10
0.0
 20
0.0
 30
0.0
  9
$PUCSORGLEFT
 10
0.0
 20
0.0
 30
0.0
  9
$PUCSORGRIGHT
 10
0.0
 20
0.0
 30
0.0
  9
$PUCSORGFRONT
 10
0.0
 20
0.0
 30
0.0
  9
$PUCSORGBACK
 10
0.0
 20
0.0
 30
0.0
  9
$USERI1
 70
     0
  9
$USERI2
 70
     0
  9
$USERI3
 70
     0
  9
$USERI4
 70
     0
  9
$USERI5
 70
     0
  9
$USERR1
 40
0.0
  9
$USERR2
 40
0.0
  9
$USERR3
 40
0.0
  9
$USERR4
 40
0.0
  9
$USERR5
 40
0.0
  9
$WORLDVIEW
 70
     1
  9
$SHADEDGE
 70
     3
  9
$SHADEDIF
 70
    70
  9
$TILEMODE
 70
     1
  9
$MAXACTVP
 70
    64
  9
$PINSBASE
 10
0.0
 20
0.0
 30
0.0
  9
$PLIMCHECK
 70
     0
  9
$PEXTMIN
 10
1.000000000000000E+20
 20
1.000000000000000E+20
 30
1.000000000000000E+20
  9
$PEXTMAX
 10
-1.000000000000000E+20
 20
-1.000000000000000E+20
 30
-1.000000000000000E+20
  9
$PLIMMIN
 10
0.0
 20
0.0
  9
$PLIMMAX
 10
420.0
 20
297.0
  9
$UNITMODE
 70
     0
  9
$VISRETAIN
 70
     1
  9
$PLINEGEN
 70
     0
  9
$PSLTSCALE
 70
     1
  9
$TREEDEPTH
 70
  3020
  9
$CMLSTYLE
  2
Standard
  9
$CMLJUST
 70
     0
  9
$CMLSCALE
 40
20.0
  9
$PROXYGRAPHICS
 70
     1
  9
$MEASUREMENT
 70
     1
  9
$CELWEIGHT
370
    -1
  9
$ENDCAPS
280
     0
  9
$JOINSTYLE
280
     0
  9
$LWDISPLAY
290
     0
  9
$INSUNITS
 70
     4
  9
$HYPERLINKBASE
  1

  9
$STYLESHEET
  1

  9
$XEDIT
290
     1
  9
$CEPSNTYPE
380
     0
  9
$PSTYLEMODE
290
     1
  9
$FINGERPRINTGUID
  2
{8FAD9D7D-9046-4F8F-B114-5A16640F329F}
  9
$VERSIONGUID
  2
{FAEB1C32-E019-11D5-929B-00C0DF256EC4}
  9
$EXTNAMES
290
     1
  9
$PSVPSCALE
 40
0.0
  9
$OLESTARTUP
290
     0
  0
ENDSEC
  0
SECTION
  2
CLASSES
  0
CLASS
  1
ACDBDICTIONARYWDFLT
  2
AcDbDictionaryWithDefault
  3
ObjectDBX Classes
 90
        0
280
     0
281
     0
  0
CLASS
  1
VISUALSTYLE
  2
AcDbVisualStyle
  3
ObjectDBX Classes
 90
     4095
280
     0
281
     0
  0
CLASS
  1
MATERIAL
  2
AcDbMaterial
  3
ObjectDBX Classes
 90
     1153
280
     0
281
     0
  0
CLASS
  1
SCALE
  2
AcDbScale
  3
ObjectDBX Classes
 90
     1153
280
     0
281
     0
  0
CLASS
  1
DICTIONARYVAR
  2
AcDbDictionaryVar
  3
ObjectDBX Classes
 90
        0
280
     0
281
     0
  0
CLASS
  1
ACDBPLACEHOLDER
  2
AcDbPlaceHolder
  3
ObjectDBX Classes
 90
        0
280
     0
281
     0
  0
CLASS
  1
LAYOUT
  2
AcDbLayout
  3
ObjectDBX Classes
 90
        0
280
     0
281
     0
  0
ENDSEC
  0
SECTION
  2
TABLES
  0
TABLE
  2
VPORT
  5
8
330
0
100
AcDbSymbolTable
 70
     1
  0
VPORT
  5
29
330
8
100
AcDbSymbolTableRecord
100
AcDbViewportTableRecord
  2
*Active
 70
     0
 10
0.0
 20
0.0
 11
1.0
 21
1.0
 12
11.26
 22
4.5
 13
0.0
 23
0.0
 14
10.0
 24
10.0
 15
10.0
 25
10.0
 16
0.0
 26
0.0
 36
1.0
 17
0.0
 27
0.0
 37
0.0
 40
9.0
 41
2.503333333333333
 42
50.0
 43
0.0
 44
0.0
 50
0.0
 51
0.0
 71
     0
 72
   100
 73
     1
 74
     3
 75
     0
 76
     0
 77
     0
 78
     0
281
     0
 65
     1
110
0.0
120
0.0
130
0.0
111
1.0
121
0.0
131
0.0
112
0.0
122
1.0
132
0.0
 79
     0
146
0.0
  0
ENDTAB
  0
TABLE
  2
LTYPE
  5
5
330
0
100
AcDbSymbolTable
 70
    10
  0
LTYPE
  5
14
330
5
100
AcDbSymbolTableRecord
100
AcDbLinetypeTableRecord
  2
ByBlock
 70
     0
  3

 72
    65
 73
     0
 40
0.0
  0
LTYPE
  5
15
330
5
100
AcDbSymbolTableRecord
100
AcDbLinetypeTableRecord
  2
ByLayer
 70
     0
  3

 72
    65
 73
     0
 40
0.0
  0
LTYPE
  5
16
330
5
100
AcDbSymbolTableRecord
100
AcDbLinetypeTableRecord
  2
Continuous
 70
     0
  3
Solid line
 72
    65
 73
     0
 40
0.0
  0
LTYPE
  5
45
330
5
100
AcDbSymbolTableRecord
100
AcDbLinetypeTableRecord
  2
phl_thick
 70
     0
  3
THICK
 72
    65
 73
     0
 40
0.0
  0
LTYPE
  5
240
330
5
100
AcDbSymbolTableRecord
100
AcDbLinetypeTableRecord
  2
ls1
 70
     0
  3
THICK
 72
    65
 73
     0
 40
0.0
  0
LTYPE
  5
24F
330
5
100
AcDbSymbolTableRecord
100
AcDbLinetypeTableRecord
  2
SK1
 70
     0
  3
THICK
 72
    65
 73
     0
 40
0.0
  0
LTYPE
  5
256
330
5
100
AcDbSymbolTableRecord
100
AcDbLinetypeTableRecord
  2
SK2
 70
     0
  3
THIN
 72
    65
 73
     0
 40
0.0
  0
LTYPE
  5
2BB
330
5
100
AcDbSymbolTableRecord
100
AcDbLinetypeTableRecord
  2
dim_text
 70
     0
  3
THICK
 72
    65
 73
     0
 40
0.0
  0
LTYPE
  5
302
330
5
100
AcDbSymbolTableRecord
100
AcDbLinetypeTableRecord
  2
L2
 70
     0
  3
THIN
 72
    65
 73
     0
 40
0.0
  0
LTYPE
  5
40E
330
5
100
AcDbSymbolTableRecord
100
AcDbLinetypeTableRecord
  2
LONGDASH_DASH
 70
     0
  3
THIN_DASHDOT
 72
    65
 73
     4
 40
0.85
 49
0.4
 74
     0
 49
-0.2
 74
     0
 49
0.05
 74
     0
 49
-0.2
 74
     0
  0
LTYPE
  5
41B
330
5
100
AcDbSymbolTableRecord
100
AcDbLinetypeTableRecord
  2
INFTOTAL
 70
     0
  3
THIN
 72
    65
 73
     0
 40
0.0
  0
LTYPE
  5
42B
330
5
100
AcDbSymbolTableRecord
100
AcDbLinetypeTableRecord
  2
cc_dim_arrow
 70
     0
  3
THICK
 72
    65
 73
     0
 40
0.0
  0
ENDTAB
  0
TABLE
  2
LAYER
  5
2
330
0
100
AcDbSymbolTable
 70
    11
  0
LAYER
  5
10
330
2
100
AcDbSymbolTableRecord
100
AcDbLayerTableRecord
  2
0
 70
     0
 62
     7
  6
Continuous
370
    -3
390
F
  0
LAYER
  5
44
330
2
100
AcDbSymbolTableRecord
100
AcDbLayerTableRecord
  2
1
 70
     0
 62
4
  6
CONTINUOUS
370
50
370
    -3
390
F
  0
LAYER
  5
23F
330
2
100
AcDbSymbolTableRecord
100
AcDbLayerTableRecord
  2
CUT
 70
     0
 62
1
  6
CONTINUOUS
370
25
370
    -3
390
F
  0
LAYER
  5
245
330
2
100
AcDbSymbolTableRecord
100
AcDbLayerTableRecord
  2
NOCUT
 70
     0
 62
7
  6
CONTINUOUS
370
25
370
    -3
390
F
  0
LAYER
  5
24E
330
2
100
AcDbSymbolTableRecord
100
AcDbLayerTableRecord
  2
SK1
 70
     0
 62
4
  6
CONTINUOUS
370
50
370
    -3
390
F
  0
LAYER
  5
255
330
2
100
AcDbSymbolTableRecord
100
AcDbLayerTableRecord
  2
SK2
 70
     0
 62
7
  6
CONTINUOUS
370
25
370
    -3
390
F
  0
LAYER
  5
301
330
2
100
AcDbSymbolTableRecord
100
AcDbLayerTableRecord
  2
2
 70
     0
 62
7
  6
CONTINUOUS
370
25
370
    -3
390
F
  0
LAYER
  5
40D
330
2
100
AcDbSymbolTableRecord
100
AcDbLayerTableRecord
  2
4
 70
     0
 62
2
  6
LONGDASH_DASH
370
25
370
    -3
390
F
  0
LAYER
  5
410
330
2
100
AcDbSymbolTableRecord
100
AcDbLayerTableRecord
  2
SK4
 70
     0
 62
2
  6
LONGDASH_DASH
370
25
370
    -3
390
F
  0
LAYER
  5
41A
330
2
100
AcDbSymbolTableRecord
100
AcDbLayerTableRecord
  2
INFTOTAL
 70
     0
 62
9
  6
CONTINUOUS
370
18
370
    -3
390
F
  0
LAYER
  5
420
330
2
100
AcDbSymbolTableRecord
100
AcDbLayerTableRecord
  2
SK6
 70
     0
 62
5
  6
CONTINUOUS
370
25
370
    -3
390
F
  0
ENDTAB
  0
TABLE
  2
STYLE
  5
3
330
0
100
AcDbSymbolTable
 70
     1
  0
STYLE
  5
11
330
3
100
AcDbSymbolTableRecord
100
AcDbTextStyleTableRecord
  2
Standard
 70
     0
 40
0.0
 41
1.0
 50
0.0
 71
     0
 42
2.5
  3
Monospac821 BT
  4

  0
ENDTAB
  0
TABLE
  2
VIEW
  5
6
330
0
100
AcDbSymbolTable
 70
     0
  0
ENDTAB
  0
TABLE
  2
UCS
  5
7
330
0
100
AcDbSymbolTable
 70
     0
  0
ENDTAB
  0
TABLE
  2
APPID
  5
9
330
0
100
AcDbSymbolTable
 70
     2
  0
APPID
  5
12
330
9
100
AcDbSymbolTableRecord
100
AcDbRegAppTableRecord
  2
ACAD
 70
     0
  0
APPID
  5
3F
330
9
100
AcDbSymbolTableRecord
100
AcDbRegAppTableRecord
  2
ccLab
 70
     0
  0
ENDTAB
  0
TABLE
  2
DIMSTYLE
  5
A
330
0
100
AcDbSymbolTable
 70
     1
100
AcDbDimStyleTable
  0
DIMSTYLE
105
27
330
A
100
AcDbSymbolTableRecord
100
AcDbDimStyleTableRecord
  2
ISO-25
 70
     0
 41
2.5
 42
0.625
 43
3.75
 44
1.25
 73
     0
 74
     0
 77
     1
 78
     8
140
2.5
141
2.5
143
0.03937007874016
147
0.625
171
     3
172
     1
271
     2
272
     2
274
     3
278
    44
283
     0
284
     8
340
11
  0
ENDTAB
  0
TABLE
  2
BLOCK_RECORD
  5
1
330
0
100
AcDbSymbolTable
 70
     2
  0
BLOCK_RECORD
  5
1F
330
1
100
AcDbSymbolTableRecord
100
AcDbBlockTableRecord
  2
*Model_Space
340
22
  0
BLOCK_RECORD
  5
1B
330
1
100
AcDbSymbolTableRecord
100
AcDbBlockTableRecord
  2
*Paper_Space
340
1E
  0
BLOCK_RECORD
  5
23
330
1
100
AcDbSymbolTableRecord
100
AcDbBlockTableRecord
  2
*Paper_Space0
340
26
  0
ENDTAB
  0
ENDSEC
  0
SECTION
  2
BLOCKS
  0
BLOCK
  5
20
330
1F
100
AcDbEntity
  8
0
100
AcDbBlockBegin
  2
*Model_Space
 70
     0
 10
0.0
 20
0.0
 30
0.0
  3
*Model_Space
  1

  0
ENDBLK
  5
21
330
1F
100
AcDbEntity
  8
0
100
AcDbBlockEnd
  0
BLOCK
  5
1C
330
1B
100
AcDbEntity
 67
     1
  8
0
100
AcDbBlockBegin
  2
*Paper_Space
 70
     0
 10
0.0
 20
0.0
 30
0.0
  3
*Paper_Space
  1

  0
ENDBLK
  5
1D
330
1B
100
AcDbEntity
 67
     1
  8
0
100
AcDbBlockEnd
  0
BLOCK
  5
24
330
23
100
AcDbEntity
  8
0
100
AcDbBlockBegin
  2
*Paper_Space0
 70
     0
 10
0.0
 20
0.0
 30
0.0
  3
*Paper_Space0
  1

  0
ENDBLK
  5
25
330
23
100
AcDbEntity
  8
0
100
AcDbBlockEnd
  0
ENDSEC
  0
SECTION
  2
ENTITIES
  0
LINE
  5
45B
330
1F
100
AcDbEntity
  8
1
  6
CONTINUOUS
370
50
 62
4
100
AcDbLine
 10
44.414169
 20
0.680159
 30
0.0
 11
44.413166
 21
0.7215389999999999
 31
0.0
  0
LINE
  5
45C
330
1F
100
AcDbEntity
  8
1
  6
CONTINUOUS
370
50
 62
4
100
AcDbLine
 10
44.623924
 20
0.8595999999999999
 30
0.0
 11
44.623539
 21
0.866726
 31
0.0
  0
LINE
  5
45D
330
1F
100
AcDbEntity
  8
1
  6
CONTINUOUS
370
50
 62
4
100
AcDbLine
 10
44.417027
 20
0.636606
 30
0.0
 11
44.414169
 21
0.680159
 31
0.0
  0
LINE
  5
45E
330
1F
100
AcDbEntity
  8
1
  6
CONTINUOUS
370
50
 62
4
100
AcDbLine
 10
44.42173
 20
0.5909639999999999
 30
0.0
 11
44.417027
 21
0.636606
 31
0.0
  0
LINE
  5
45F
330
1F
100
AcDbEntity
  8
1
  6
CONTINUOUS
370
50
 62
4
100
AcDbLine
 10
44.62024299999999
 20
0.8946879999999999
 30
0.0
 11
44.619713
 21
0.89935
 31
0.0
  0
LINE
  5
460
330
1F
100
AcDbEntity
  8
1
  6
CONTINUOUS
370
50
 62
4
100
AcDbLine
 10
44.620777
 20
0.890027
 30
0.0
 11
44.62024299999999
 21
0.8946879999999999
 31
0.0
  0
LINE
  5
461
330
1F
100
AcDbEntity
  8
1
  6
CONTINUOUS
370
50
 62
4
100
AcDbLine
 10
44.621319
 20
0.885366
 30
0.0
 11
44.620777
 21
0.890027
 31
0.0
  0
LINE
  5
462
330
1F
100
AcDbEntity
  8
1
  6
CONTINUOUS
370
50
 62
4
100
AcDbLine
 10
44.621864
 20
0.880706
 30
0.0
 11
44.621319
 21
0.885366
 31
0.0
  0
LINE
  5
463
330
1F
100
AcDbEntity
  8
1
  6
CONTINUOUS
370
50
 62
4
100
AcDbLine
 10
44.622417
 20
0.876045
 30
0.0
 11
44.621864
 21
0.880706
 31
0.0
  0
LINE
  5
464
330
1F
100
AcDbEntity
  8
1
  6
CONTINUOUS
370
50
 62
4
100
AcDbLine
 10
44.622974
 20
0.871386
 30
0.0
 11
44.622417
 21
0.876045
 31
0.0
  0
LINE
  5
465
330
1F
100
AcDbEntity
  8
1
  6
CONTINUOUS
370
50
 62
4
100
AcDbLine
 10
44.623539
 20
0.866726
 30
0.0
 11
44.622974
 21
0.871386
 31
0.0
  0
LINE
  5
466
330
1F
100
AcDbEntity
  8
1
  6
CONTINUOUS
370
50
 62
4
100
AcDbLine
 10
44.42828
 20
0.5433209999999999
 30
0.0
 11
44.42173
 21
0.5909639999999999
 31
0.0
  0
LINE
  5
467
330
1F
100
AcDbEntity
  8
1
  6
CONTINUOUS
370
50
 62
4
100
AcDbLine
 10
44.436668
 20
0.493763
 30
0.0
 11
44.42828
 21
0.5433209999999999
 31
0.0
  0
LINE
  5
468
330
1F
100
AcDbEntity
  8
1
  6
CONTINUOUS
370
50
 62
4
100
AcDbLine
 10
44.44685399999999
 20
0.442553
 30
0.0
 11
44.436668
 21
0.493763
 31
0.0
  0
LINE
  5
469
330
1F
100
AcDbEntity
  8
1
  6
CONTINUOUS
370
50
 62
4
100
AcDbLine
 10
44.458721
 20
0.39017
 30
0.0
 11
44.44685399999999
 21
0.442553
 31
0.0
  0
LINE
  5
46A
330
1F
100
AcDbEntity
  8
1
  6
CONTINUOUS
370
50
 62
4
100
AcDbLine
 10
44.472218
 20
0.33675
 30
0.0
 11
44.458721
 21
0.39017
 31
0.0
  0
LINE
  5
46B
330
1F
100
AcDbEntity
  8
1
  6
CONTINUOUS
370
50
 62
4
100
AcDbLine
 10
37.84655
 20
0.278645
 30
0.0
 11
37.835213
 21
0.320715
 31
0.0
  0
LINE
  5
46C
330
1F
100
AcDbEntity
  8
1
  6
CONTINUOUS
370
50
 62
4
100
AcDbLine
 10
37.857826
 20
0.236836
 30
0.0
 11
37.84655
 21
0.278645
 31
0.0
  0
LINE
  5
46D
330
1F
100
AcDbEntity
  8
1
  6
CONTINUOUS
370
50
 62
4
100
AcDbLine
 10
37.835213
 20
0.320715
 30
0.0
 11
37.82373
 21
0.362984
 31
0.0
  0
LINE
  5
46E
330
1F
100
AcDbEntity
  8
1
  6
CONTINUOUS
370
50
 62
4
100
AcDbLine
 10
37.869118
 20
0.195353
 30
0.0
 11
37.857826
 21
0.236836
 31
0.0
  0
LINE
  5
46F
330
1F
100
AcDbEntity
  8
1
  6
CONTINUOUS
370
50
 62
4
100
AcDbLine
 10
37.82373
 20
0.362984
 30
0.0
 11
37.812019
 21
0.405385
 31
0.0
  0
LINE
  5
470
330
1F
100
AcDbEntity
  8
1
  6
CONTINUOUS
370
50
 62
4
100
AcDbLine
 10
37.880508
 20
0.154261
 30
0.0
 11
37.869118
 21
0.195353
 31
0.0
  0
LINE
  5
471
330
1F
100
AcDbEntity
  8
1
  6
CONTINUOUS
370
50
 62
4
100
AcDbLine
 10
44.487289
 20
0.282418
 30
0.0
 11
44.472218
 21
0.33675
 31
0.0
  0
LINE
  5
472
330
1F
100
AcDbEntity
  8
1
  6
CONTINUOUS
370
50
 62
4
100
AcDbLine
 10
37.812019
 20
0.405385
 30
0.0
 11
37.799999
 21
0.447854
 31
0.0
  0
LINE
  5
473
330
1F
100
AcDbEntity
  8
1
  6
CONTINUOUS
370
50
 62
4
100
AcDbLine
 10
37.892086
 20
0.113625
 30
0.0
 11
37.880508
 21
0.154261
 31
0.0
  0
LINE
  5
474
330
1F
100
AcDbEntity
  8
1
  6
CONTINUOUS
370
50
 62
4
100
AcDbLine
 10
37.903858
 20
0.073764
 30
0.0
 11
37.892086
 21
0.113625
 31
0.0
  0
LINE
  5
475
330
1F
100
AcDbEntity
  8
1
  6
CONTINUOUS
370
50
 62
4
100
AcDbLine
 10
44.503872
 20
0.227302
 30
0.0
 11
44.487289
 21
0.282418
 31
0.0
  0
LINE
  5
476
330
1F
100
AcDbEntity
  8
1
  6
CONTINUOUS
370
50
 62
4
100
AcDbLine
 10
37.915607
 20
0.035811
 30
0.0
 11
37.903858
 21
0.073764
 31
0.0
  0
LINE
  5
477
330
1F
100
AcDbEntity
  8
1
  6
CONTINUOUS
370
50
 62
4
100
AcDbLine
 10
44.521915
 20
0.171525
 30
0.0
 11
44.503872
 21
0.227302
 31
0.0
  0
LINE
  5
478
330
1F
100
AcDbEntity
  8
1
  6
CONTINUOUS
370
50
 62
4
100
AcDbLine
 10
37.92733399999999
 20
0.0
 30
0.0
 11
37.915607
 21
0.035811
 31
0.0
  0
LINE
  5
479
330
1F
100
AcDbEntity
  8
1
  6
CONTINUOUS
370
50
 62
4
100
AcDbLine
 10
44.541363
 20
0.115215
 30
0.0
 11
44.521915
 21
0.171525
 31
0.0
  0
LINE
  5
47A
330
1F
100
AcDbEntity
  8
1
  6
CONTINUOUS
370
50
 62
4
100
AcDbLine
 10
37.947128
 20
-0.054978
 30
0.0
 11
37.92733399999999
 21
0.0
 31
0.0
  0
LINE
  5
47B
330
1F
100
AcDbEntity
  8
1
  6
CONTINUOUS
370
50
 62
4
100
AcDbLine
 10
44.56207999999999
 20
0.058698
 30
0.0
 11
44.541363
 21
0.115215
 31
0.0
  0
LINE
  5
47C
330
1F
100
AcDbEntity
  8
1
  6
CONTINUOUS
370
50
 62
4
100
AcDbLine
 10
44.583931
 20
0.002272
 30
0.0
 11
44.56207999999999
 21
0.058698
 31
0.0
  0
LINE
  5
47D
330
1F
100
AcDbEntity
  8
1
  6
CONTINUOUS
370
50
 62
4
100
AcDbLine
 10
44.60685
 20
-0.053966
 30
0.0
 11
44.583931
 21
0.002272
 31
0.0
  0
LINE
  5
47E
330
1F
100
AcDbEntity
  8
1
  6
CONTINUOUS
370
50
 62
4
100
AcDbLine
 10
37.967178
 20
-0.102958
 30
0.0
 11
37.947128
 21
-0.054978
 31
0.0
  0
LINE
  5
47F
330
1F
100
AcDbEntity
  8
1
  6
CONTINUOUS
370
50
 62
4
100
AcDbLine
 10
44.630764
 20
-0.109917
 30
0.0
 11
44.60685
 21
-0.053966
 31
0.0
  0
LINE
  5
480
330
1F
100
AcDbEntity
  8
1
  6
CONTINUOUS
370
50
 62
4
100
AcDbLine
 10
44.655609
 20
-0.165482
 30
0.0
 11
44.630764
 21
-0.109917
 31
0.0
  0
LINE
  5
481
330
1F
100
AcDbEntity
  8
1
  6
CONTINUOUS
370
50
 62
4
100
AcDbLine
 10
44.681316
 20
-0.220563
 30
0.0
 11
44.655609
 21
-0.165482
 31
0.0
  0
LINE
  5
482
330
1F
100
AcDbEntity
  8
1
  6
CONTINUOUS
370
50
 62
4
100
AcDbLine
 10
35.59131199999999
 20
1.025611
 30
0.0
 11
35.588913
 21
1.03068
 31
0.0
  0
LINE
  5
483
330
1F
100
AcDbEntity
  8
1
  6
CONTINUOUS
370
50
 62
4
100
AcDbLine
 10
37.987579
 20
-0.143169
 30
0.0
 11
37.967178
 21
-0.102958
 31
0.0
  0
LINE
  5
484
330
1F
100
AcDbEntity
  8
1
  6
CONTINUOUS
370
50
 62
4
100
AcDbLine
 10
38.008621
 20
-0.175188
 30
0.0
 11
37.987579
 21
-0.143169
 31
0.0
  0
LINE
  5
485
330
1F
100
AcDbEntity
  8
1
  6
CONTINUOUS
370
50
 62
4
100
AcDbLine
 10
44.584309
 20
0.5396099999999999
 30
0.0
 11
44.414021
 21
0.760658
 31
0.0
  0
LINE
  5
486
330
1F
100
AcDbEntity
  8
1
  6
CONTINUOUS
370
50
 62
4
100
AcDbLine
 10
44.799999
 20
0.259583
 30
0.0
 11
44.584309
 21
0.5395329999999999
 31
0.0
  0
LINE
  5
487
330
1F
100
AcDbEntity
  8
1
  6
CONTINUOUS
370
50
 62
4
100
AcDbLine
 10
38.03368
 20
-0.201628
 30
0.0
 11
38.008621
 21
-0.175188
 31
0.0
  0
LINE
  5
488
330
1F
100
AcDbEntity
  8
1
  6
CONTINUOUS
370
50
 62
4
100
AcDbLine
 10
38.504696
 20
-0.37371
 30
0.0
 11
38.441418
 21
-0.310206
 31
0.0
  0
LINE
  5
489
330
1F
100
AcDbEntity
  8
1
  6
CONTINUOUS
370
50
 62
4
100
AcDbLine
 10
38.598614
 20
-0.458084
 30
0.0
 11
38.504696
 21
-0.37371
 31
0.0
  0
LINE
  5
48A
330
1F
100
AcDbEntity
  8
1
  6
CONTINUOUS
370
50
 62
4
100
AcDbLine
 10
35.596634
 20
1.021095
 30
0.0
 11
35.59131199999999
 21
1.025611
 31
0.0
  0
LINE
  5
48B
330
1F
100
AcDbEntity
  8
1
  6
CONTINUOUS
370
50
 62
4
100
AcDbLine
 10
37.79998399999999
 20
1.199958
 30
0.0
 11
37.799973
 21
1.199967
 31
0.0
  0
LINE
  5
48C
330
1F
100
AcDbEntity
  8
1
  6
CONTINUOUS
370
50
 62
4
100
AcDbLine
 10
38.061867
 20
-0.22449
 30
0.0
 11
38.03368
 21
-0.201628
 31
0.0
  0
LINE
  5
48D
330
1F
100
AcDbEntity
  8
1
  6
CONTINUOUS
370
50
 62
4
100
AcDbLine
 10
43.612785
 20
-0.206645
 30
0.0
 11
43.515877
 21
-0.13498
 31
0.0
  0
LINE
  5
48E
330
1F
100
AcDbEntity
  8
1
  6
CONTINUOUS
370
50
 62
4
100
AcDbLine
 10
43.712914
 20
-0.280369
 30
0.0
 11
43.612785
 21
-0.206645
 31
0.0
  0
LINE
  5
48F
330
1F
100
AcDbEntity
  8
1
  6
CONTINUOUS
370
50
 62
4
100
AcDbLine
 10
43.515877
 20
-0.13498
 30
0.0
 11
43.420624
 21
-0.065948
 31
0.0
  0
LINE
  5
490
330
1F
100
AcDbEntity
  8
1
  6
CONTINUOUS
370
50
 62
4
100
AcDbLine
 10
40.588154
 20
0.067232
 30
0.0
 11
40.466244
 21
0.1555
 31
0.0
  0
LINE
  5
491
330
1F
100
AcDbEntity
  8
1
  6
CONTINUOUS
370
50
 62
4
100
AcDbLine
 10
40.603596
 20
0.056141
 30
0.0
 11
40.588154
 21
0.067232
 31
0.0
  0
LINE
  5
492
330
1F
100
AcDbEntity
  8
1
  6
CONTINUOUS
370
50
 62
4
100
AcDbLine
 10
42.845863
 20
0.319282
 30
0.0
 11
42.70549
 21
0.420039
 31
0.0
  0
LINE
  5
493
330
1F
100
AcDbEntity
  8
1
  6
CONTINUOUS
370
50
 62
4
100
AcDbLine
 10
40.619225
 20
0.044967
 30
0.0
 11
40.603596
 21
0.056141
 31
0.0
  0
LINE
  5
494
330
1F
100
AcDbEntity
  8
1
  6
CONTINUOUS
370
50
 62
4
100
AcDbLine
 10
42.987431
 20
0.218182
 30
0.0
 11
42.845863
 21
0.319282
 31
0.0
  0
LINE
  5
495
330
1F
100
AcDbEntity
  8
1
  6
CONTINUOUS
370
50
 62
4
100
AcDbLine
 10
43.813175
 20
-0.351959
 30
0.0
 11
43.712914
 21
-0.280369
 31
0.0
  0
LINE
  5
496
330
1F
100
AcDbEntity
  8
1
  6
CONTINUOUS
370
50
 62
4
100
AcDbLine
 10
40.63505199999999
 20
0.033711
 30
0.0
 11
40.619225
 21
0.044967
 31
0.0
  0
LINE
  5
497
330
1F
100
AcDbEntity
  8
1
  6
CONTINUOUS
370
50
 62
4
100
AcDbLine
 10
40.65094
 20
0.022454
 30
0.0
 11
40.63505199999999
 21
0.033711
 31
0.0
  0
LINE
  5
498
330
1F
100
AcDbEntity
  8
1
  6
CONTINUOUS
370
50
 62
4
100
AcDbLine
 10
40.666851
 20
0.011217
 30
0.0
 11
40.65094
 21
0.022454
 31
0.0
  0
LINE
  5
499
330
1F
100
AcDbEntity
  8
1
  6
CONTINUOUS
370
50
 62
4
100
AcDbLine
 10
40.466244
 20
0.1555
 30
0.0
 11
40.341499
 21
0.243591
 31
0.0
  0
LINE
  5
49A
330
1F
100
AcDbEntity
  8
1
  6
CONTINUOUS
370
50
 62
4
100
AcDbLine
 10
40.682785
 20
0.0
 30
0.0
 11
40.666851
 21
0.011217
 31
0.0
  0
LINE
  5
49B
330
1F
100
AcDbEntity
  8
1
  6
CONTINUOUS
370
50
 62
4
100
AcDbLine
 10
43.420624
 20
-0.065948
 30
0.0
 11
43.325298
 21
0.0
 31
0.0
  0
LINE
  5
49C
330
1F
100
AcDbEntity
  8
1
  6
CONTINUOUS
370
50
 62
4
100
AcDbLine
 10
38.689423
 20
-0.5206999999999999
 30
0.0
 11
38.598614
 21
-0.458084
 31
0.0
  0
LINE
  5
49D
330
1F
100
AcDbEntity
  8
1
  6
CONTINUOUS
370
50
 62
4
100
AcDbLine
 10
40.924812
 20
-0.166662
 30
0.0
 11
40.682785
 21
0.0
 31
0.0
  0
LINE
  5
49E
330
1F
100
AcDbEntity
  8
1
  6
CONTINUOUS
370
50
 62
4
100
AcDbLine
 10
42.70549
 20
0.420039
 30
0.0
 11
42.560497
 21
0.518891
 31
0.0
  0
LINE
  5
49F
330
1F
100
AcDbEntity
  8
1
  6
CONTINUOUS
370
50
 62
4
100
AcDbLine
 10
40.341499
 20
0.243591
 30
0.0
 11
40.214314
 21
0.329603
 31
0.0
  0
LINE
  5
4A0
330
1F
100
AcDbEntity
  8
1
  6
CONTINUOUS
370
50
 62
4
100
AcDbLine
 10
41.169178
 20
-0.330723
 30
0.0
 11
40.924812
 21
-0.166662
 31
0.0
  0
LINE
  5
4A1
330
1F
100
AcDbEntity
  8
1
  6
CONTINUOUS
370
50
 62
4
100
AcDbLine
 10
43.913605
 20
-0.419371
 30
0.0
 11
43.813175
 21
-0.351959
 31
0.0
  0
LINE
  5
4A2
330
1F
100
AcDbEntity
  8
1
  6
CONTINUOUS
370
50
 62
4
100
AcDbLine
 10
41.40229
 20
-0.486814
 30
0.0
 11
41.169178
 21
-0.330723
 31
0.0
  0
LINE
  5
4A3
330
1F
100
AcDbEntity
  8
1
  6
CONTINUOUS
370
50
 62
4
100
AcDbLine
 10
43.121384
 20
0.128669
 30
0.0
 11
42.987431
 21
0.218182
 31
0.0
  0
LINE
  5
4A4
330
1F
100
AcDbEntity
  8
1
  6
CONTINUOUS
370
50
 62
4
100
AcDbLine
 10
38.441418
 20
-0.310206
 30
0.0
 11
38.36845
 21
-0.261587
 31
0.0
  0
LINE
  5
4A5
330
1F
100
AcDbEntity
  8
1
  6
CONTINUOUS
370
50
 62
4
100
AcDbLine
 10
40.214314
 20
0.329603
 30
0.0
 11
40.086697
 21
0.412685
 31
0.0
  0
LINE
  5
4A6
330
1F
100
AcDbEntity
  8
1
  6
CONTINUOUS
370
50
 62
4
100
AcDbLine
 10
43.325298
 20
0.0
 30
0.0
 11
43.229298
 21
0.061757
 31
0.0
  0
LINE
  5
4A7
330
1F
100
AcDbEntity
  8
1
  6
CONTINUOUS
370
50
 62
4
100
AcDbLine
 10
40.086697
 20
0.412685
 30
0.0
 11
39.959225
 21
0.493012
 31
0.0
  0
LINE
  5
4A8
330
1F
100
AcDbEntity
  8
1
  6
CONTINUOUS
370
50
 62
4
100
AcDbLine
 10
41.628872
 20
-0.6293799999999999
 30
0.0
 11
41.40229
 21
-0.486814
 31
0.0
  0
LINE
  5
4A9
330
1F
100
AcDbEntity
  8
1
  6
CONTINUOUS
370
50
 62
4
100
AcDbLine
 10
38.09269
 20
-0.243656
 30
0.0
 11
38.061867
 21
-0.22449
 31
0.0
  0
LINE
  5
4AA
330
1F
100
AcDbEntity
  8
1
  6
CONTINUOUS
370
50
 62
4
100
AcDbLine
 10
43.229298
 20
0.061757
 30
0.0
 11
43.121384
 21
0.128669
 31
0.0
  0
LINE
  5
4AB
330
1F
100
AcDbEntity
  8
1
  6
CONTINUOUS
370
50
 62
4
100
AcDbLine
 10
40.55904
 20
-0.030244
 30
0.0
 11
40.433628
 21
0.047231
 31
0.0
  0
LINE
  5
4AC
330
1F
100
AcDbEntity
  8
1
  6
CONTINUOUS
370
50
 62
4
100
AcDbLine
 10
39.959225
 20
0.493012
 30
0.0
 11
39.831966
 21
0.571117
 31
0.0
  0
LINE
  5
4AD
330
1F
100
AcDbEntity
  8
1
  6
CONTINUOUS
370
50
 62
4
100
AcDbLine
 10
42.560497
 20
0.518891
 30
0.0
 11
42.412525
 21
0.609493
 31
0.0
  0
LINE
  5
4AE
330
1F
100
AcDbEntity
  8
1
  6
CONTINUOUS
370
50
 62
4
100
AcDbLine
 10
44.017467
 20
-0.482701
 30
0.0
 11
43.913605
 21
-0.419371
 31
0.0
  0
LINE
  5
4AF
330
1F
100
AcDbEntity
  8
1
  6
CONTINUOUS
370
50
 62
4
100
AcDbLine
 10
40.684448
 20
-0.105614
 30
0.0
 11
40.55904
 21
-0.030244
 31
0.0
  0
LINE
  5
4B0
330
1F
100
AcDbEntity
  8
1
  6
CONTINUOUS
370
50
 62
4
100
AcDbLine
 10
39.831966
 20
0.571117
 30
0.0
 11
39.705482
 21
0.647077
 31
0.0
  0
LINE
  5
4B1
330
1F
100
AcDbEntity
  8
1
  6
CONTINUOUS
370
50
 62
4
100
AcDbLine
 10
37.799942
 20
1.199983
 30
0.0
 11
37.799927
 21
1.199992
 31
0.0
  0
LINE
  5
4B2
330
1F
100
AcDbEntity
  8
1
  6
CONTINUOUS
370
50
 62
4
100
AcDbLine
 10
40.433628
 20
0.047231
 30
0.0
 11
40.308216
 21
0.122317
 31
0.0
  0
LINE
  5
4B3
330
1F
100
AcDbEntity
  8
1
  6
CONTINUOUS
370
50
 62
4
100
AcDbLine
 10
44.443535
 20
-0.725267
 30
0.0
 11
44.28995099999999
 21
-0.633458
 31
0.0
  0
LINE
  5
4B4
330
1F
100
AcDbEntity
  8
1
  6
CONTINUOUS
370
50
 62
4
100
AcDbLine
 10
44.593342
 20
-0.8139799999999999
 30
0.0
 11
44.443535
 21
-0.725267
 31
0.0
  0
LINE
  5
4B5
330
1F
100
AcDbEntity
  8
1
  6
CONTINUOUS
370
50
 62
4
100
AcDbLine
 10
38.862915
 20
-0.622626
 30
0.0
 11
38.77602
 21
-0.571257
 31
0.0
  0
LINE
  5
4B6
330
1F
100
AcDbEntity
  8
1
  6
CONTINUOUS
370
50
 62
4
100
AcDbLine
 10
38.948601
 20
-0.6731159999999999
 30
0.0
 11
38.862915
 21
-0.622626
 31
0.0
  0
LINE
  5
4B7
330
1F
100
AcDbEntity
  8
1
  6
CONTINUOUS
370
50
 62
4
100
AcDbLine
 10
39.705482
 20
0.647077
 30
0.0
 11
39.582317
 21
0.719549
 31
0.0
  0
LINE
  5
4B8
330
1F
100
AcDbEntity
  8
1
  6
CONTINUOUS
370
50
 62
4
100
AcDbLine
 10
38.77602
 20
-0.571257
 30
0.0
 11
38.689423
 21
-0.5206999999999999
 31
0.0
  0
LINE
  5
4B9
330
1F
100
AcDbEntity
  8
1
  6
CONTINUOUS
370
50
 62
4
100
AcDbLine
 10
40.809856
 20
-0.178492
 30
0.0
 11
40.684448
 21
-0.105614
 31
0.0
  0
LINE
  5
4BA
330
1F
100
AcDbEntity
  8
1
  6
CONTINUOUS
370
50
 62
4
100
AcDbLine
 10
40.308216
 20
0.122317
 30
0.0
 11
40.182804
 21
0.194801
 31
0.0
  0
LINE
  5
4BB
330
1F
100
AcDbEntity
  8
1
  6
CONTINUOUS
370
50
 62
4
100
AcDbLine
 10
29.385553
 20
1.2
 30
0.0
 11
28.0
 21
1.99995
 31
0.0
  0
LINE
  5
4BC
330
1F
100
AcDbEntity
  8
1
  6
CONTINUOUS
370
50
 62
4
100
AcDbLine
 10
39.0345
 20
-0.722478
 30
0.0
 11
38.948601
 21
-0.6731159999999999
 31
0.0
  0
LINE
  5
4BD
330
1F
100
AcDbEntity
  8
1
  6
CONTINUOUS
370
50
 62
4
100
AcDbLine
 10
40.935265
 20
-0.249434
 30
0.0
 11
40.809856
 21
-0.178492
 31
0.0
  0
LINE
  5
4BE
330
1F
100
AcDbEntity
  8
1
  6
CONTINUOUS
370
50
 62
4
100
AcDbLine
 10
40.182804
 20
0.194801
 30
0.0
 11
40.057392
 21
0.265207
 31
0.0
  0
LINE
  5
4BF
330
1F
100
AcDbEntity
  8
1
  6
CONTINUOUS
370
50
 62
4
100
AcDbLine
 10
44.28995099999999
 20
-0.633458
 30
0.0
 11
44.141838
 21
-0.550542
 31
0.0
  0
LINE
  5
4C0
330
1F
100
AcDbEntity
  8
1
  6
CONTINUOUS
370
50
 62
4
100
AcDbLine
 10
41.85873
 20
-0.758038
 30
0.0
 11
41.628872
 21
-0.6293799999999999
 31
0.0
  0
LINE
  5
4C1
330
1F
100
AcDbEntity
  8
1
  6
CONTINUOUS
370
50
 62
4
100
AcDbLine
 10
39.582317
 20
0.719549
 30
0.0
 11
39.459354
 21
0.7879149999999999
 31
0.0
  0
LINE
  5
4C2
330
1F
100
AcDbEntity
  8
1
  6
CONTINUOUS
370
50
 62
4
100
AcDbLine
 10
41.060677
 20
-0.318977
 30
0.0
 11
40.935265
 21
-0.249434
 31
0.0
  0
LINE
  5
4C3
330
1F
100
AcDbEntity
  8
1
  6
CONTINUOUS
370
50
 62
4
100
AcDbLine
 10
40.057392
 20
0.265207
 30
0.0
 11
39.931984
 21
0.334044
 31
0.0
  0
LINE
  5
4C4
330
1F
100
AcDbEntity
  8
1
  6
CONTINUOUS
370
50
 62
4
100
AcDbLine
 10
39.122036
 20
-0.7704599999999999
 30
0.0
 11
39.0345
 21
-0.722478
 31
0.0
  0
LINE
  5
4C5
330
1F
100
AcDbEntity
  8
1
  6
CONTINUOUS
370
50
 62
4
100
AcDbLine
 10
41.186089
 20
-0.387542
 30
0.0
 11
41.060677
 21
-0.318977
 31
0.0
  0
LINE
  5
4C6
330
1F
100
AcDbEntity
  8
1
  6
CONTINUOUS
370
50
 62
4
100
AcDbLine
 10
44.141838
 20
-0.550542
 30
0.0
 11
44.017467
 21
-0.482701
 31
0.0
  0
LINE
  5
4C7
330
1F
100
AcDbEntity
  8
1
  6
CONTINUOUS
370
50
 62
4
100
AcDbLine
 10
41.311501
 20
-0.455507
 30
0.0
 11
41.186089
 21
-0.387542
 31
0.0
  0
LINE
  5
4C8
330
1F
100
AcDbEntity
  8
1
  6
CONTINUOUS
370
50
 62
4
100
AcDbLine
 10
39.931984
 20
0.334044
 30
0.0
 11
39.806572
 21
0.401723
 31
0.0
  0
LINE
  5
4C9
330
1F
100
AcDbEntity
  8
1
  6
CONTINUOUS
370
50
 62
4
100
AcDbLine
 10
41.436909
 20
-0.52301
 30
0.0
 11
41.311501
 21
-0.455507
 31
0.0
  0
LINE
  5
4CA
330
1F
100
AcDbEntity
  8
1
  6
CONTINUOUS
370
50
 62
4
100
AcDbLine
 10
39.806572
 20
0.401723
 30
0.0
 11
39.681164
 21
0.468631
 31
0.0
  0
LINE
  5
4CB
330
1F
100
AcDbEntity
  8
1
  6
CONTINUOUS
370
50
 62
4
100
AcDbLine
 10
37.799999
 20
1.19995
 30
0.0
 11
37.79998399999999
 21
1.199958
 31
0.0
  0
LINE
  5
4CC
330
1F
100
AcDbEntity
  8
1
  6
CONTINUOUS
370
50
 62
4
100
AcDbLine
 10
37.799957
 20
1.199975
 30
0.0
 11
37.799942
 21
1.199983
 31
0.0
  0
LINE
  5
4CD
330
1F
100
AcDbEntity
  8
1
  6
CONTINUOUS
370
50
 62
4
100
AcDbLine
 10
42.078957
 20
0.7848609999999999
 30
0.0
 11
41.886391
 21
0.8869009999999999
 31
0.0
  0
LINE
  5
4CE
330
1F
100
AcDbEntity
  8
1
  6
CONTINUOUS
370
50
 62
4
100
AcDbLine
 10
42.412525
 20
0.609493
 30
0.0
 11
42.26041
 21
0.689858
 31
0.0
  0
LINE
  5
4CF
330
1F
100
AcDbEntity
  8
1
  6
CONTINUOUS
370
50
 62
4
100
AcDbLine
 10
39.681164
 20
0.468631
 30
0.0
 11
39.555752
 21
0.534864
 31
0.0
  0
LINE
  5
4D0
330
1F
100
AcDbEntity
  8
1
  6
CONTINUOUS
370
50
 62
4
100
AcDbLine
 10
42.26041
 20
0.689858
 30
0.0
 11
42.078957
 21
0.7848609999999999
 31
0.0
  0
LINE
  5
4D1
330
1F
100
AcDbEntity
  8
1
  6
CONTINUOUS
370
50
 62
4
100
AcDbLine
 10
39.20525
 20
-0.8136709999999999
 30
0.0
 11
39.122036
 21
-0.7704599999999999
 31
0.0
  0
LINE
  5
4D2
330
1F
100
AcDbEntity
  8
1
  6
CONTINUOUS
370
50
 62
4
100
AcDbLine
 10
39.459354
 20
0.7879149999999999
 30
0.0
 11
39.33479699999999
 21
0.852007
 31
0.0
  0
LINE
  5
4D3
330
1F
100
AcDbEntity
  8
1
  6
CONTINUOUS
370
50
 62
4
100
AcDbLine
 10
41.562321
 20
-0.5864929999999999
 30
0.0
 11
41.436909
 21
-0.52301
 31
0.0
  0
LINE
  5
4D4
330
1F
100
AcDbEntity
  8
1
  6
CONTINUOUS
370
50
 62
4
100
AcDbLine
 10
39.2859
 20
-0.8542569999999999
 30
0.0
 11
39.20525
 21
-0.8136709999999999
 31
0.0
  0
LINE
  5
4D5
330
1F
100
AcDbEntity
  8
1
  6
CONTINUOUS
370
50
 62
4
100
AcDbLine
 10
42.089928
 20
-0.87434
 30
0.0
 11
41.85873
 21
-0.758038
 31
0.0
  0
LINE
  5
4D6
330
1F
100
AcDbEntity
  8
1
  6
CONTINUOUS
370
50
 62
4
100
AcDbLine
 10
37.243008
 20
0.619485
 30
0.0
 11
37.154537
 21
0.663917
 31
0.0
  0
LINE
  5
4D7
330
1F
100
AcDbEntity
  8
1
  6
CONTINUOUS
370
50
 62
4
100
AcDbLine
 10
37.799973
 20
1.199967
 30
0.0
 11
37.799957
 21
1.199975
 31
0.0
  0
LINE
  5
4D8
330
1F
100
AcDbEntity
  8
1
  6
CONTINUOUS
370
50
 62
4
100
AcDbLine
 10
37.799927
 20
1.199992
 30
0.0
 11
37.799911
 21
1.2
 31
0.0
  0
LINE
  5
4D9
330
1F
100
AcDbEntity
  8
1
  6
CONTINUOUS
370
50
 62
4
100
AcDbLine
 10
39.555752
 20
0.534864
 30
0.0
 11
39.430344
 21
0.597465
 31
0.0
  0
LINE
  5
4DA
330
1F
100
AcDbEntity
  8
1
  6
CONTINUOUS
370
50
 62
4
100
AcDbLine
 10
37.154537
 20
0.663917
 30
0.0
 11
37.06295
 21
0.709425
 31
0.0
  0
LINE
  5
4DB
330
1F
100
AcDbEntity
  8
1
  6
CONTINUOUS
370
50
 62
4
100
AcDbLine
 10
37.326382
 20
0.578761
 30
0.0
 11
37.243008
 21
0.619485
 31
0.0
  0
LINE
  5
4DC
330
1F
100
AcDbEntity
  8
1
  6
CONTINUOUS
370
50
 62
4
100
AcDbLine
 10
35.604137
 20
1.017452
 30
0.0
 11
35.596634
 21
1.021095
 31
0.0
  0
LINE
  5
4DD
330
1F
100
AcDbEntity
  8
1
  6
CONTINUOUS
370
50
 62
4
100
AcDbLine
 10
39.365265
 20
-0.892358
 30
0.0
 11
39.2859
 21
-0.8542569999999999
 31
0.0
  0
LINE
  5
4DE
330
1F
100
AcDbEntity
  8
1
  6
CONTINUOUS
370
50
 62
4
100
AcDbLine
 10
39.33479699999999
 20
0.852007
 30
0.0
 11
39.209839
 21
0.911326
 31
0.0
  0
LINE
  5
4DF
330
1F
100
AcDbEntity
  8
1
  6
CONTINUOUS
370
50
 62
4
100
AcDbLine
 10
37.06295
 20
0.709425
 30
0.0
 11
36.972958
 21
0.752135
 31
0.0
  0
LINE
  5
4E0
330
1F
100
AcDbEntity
  8
1
  6
CONTINUOUS
370
50
 62
4
100
AcDbLine
 10
41.886391
 20
0.8869009999999999
 30
0.0
 11
41.690083
 21
0.9791709999999999
 31
0.0
  0
LINE
  5
4E1
330
1F
100
AcDbEntity
  8
1
  6
CONTINUOUS
370
50
 62
4
100
AcDbLine
 10
39.430344
 20
0.597465
 30
0.0
 11
39.304932
 21
0.655928
 31
0.0
  0
LINE
  5
4E2
330
1F
100
AcDbEntity
  8
1
  6
CONTINUOUS
370
50
 62
4
100
AcDbLine
 10
37.406193
 20
0.542338
 30
0.0
 11
37.326382
 21
0.578761
 31
0.0
  0
LINE
  5
4E3
330
1F
100
AcDbEntity
  8
1
  6
CONTINUOUS
370
50
 62
4
100
AcDbLine
 10
42.30983
 20
-0.9742599999999999
 30
0.0
 11
42.089928
 21
-0.87434
 31
0.0
  0
LINE
  5
4E4
330
1F
100
AcDbEntity
  8
1
  6
CONTINUOUS
370
50
 62
4
100
AcDbLine
 10
39.444553
 20
-0.9279679999999999
 30
0.0
 11
39.365265
 21
-0.892358
 31
0.0
  0
LINE
  5
4E5
330
1F
100
AcDbEntity
  8
1
  6
CONTINUOUS
370
50
 62
4
100
AcDbLine
 10
36.972958
 20
0.752135
 30
0.0
 11
36.883282
 21
0.791917
 31
0.0
  0
LINE
  5
4E6
330
1F
100
AcDbEntity
  8
1
  6
CONTINUOUS
370
50
 62
4
100
AcDbLine
 10
39.304932
 20
0.655928
 30
0.0
 11
39.17952
 21
0.7107209999999999
 31
0.0
  0
LINE
  5
4E7
330
1F
100
AcDbEntity
  8
1
  6
CONTINUOUS
370
50
 62
4
100
AcDbLine
 10
39.209839
 20
0.911326
 30
0.0
 11
39.085392
 21
0.9655189999999999
 31
0.0
  0
LINE
  5
4E8
330
1F
100
AcDbEntity
  8
1
  6
CONTINUOUS
370
50
 62
4
100
AcDbLine
 10
44.619713
 20
0.89935
 30
0.0
 11
44.413311
 21
0.985695
 31
0.0
  0
LINE
  5
4E9
330
1F
100
AcDbEntity
  8
1
  6
CONTINUOUS
370
50
 62
4
100
AcDbLine
 10
38.126141
 20
-0.257641
 30
0.0
 11
38.09269
 21
-0.243656
 31
0.0
  0
LINE
  5
4EA
330
1F
100
AcDbEntity
  8
1
  6
CONTINUOUS
370
50
 62
4
100
AcDbLine
 10
39.524986
 20
-0.9610789999999999
 30
0.0
 11
39.444553
 21
-0.9279679999999999
 31
0.0
  0
LINE
  5
4EB
330
1F
100
AcDbEntity
  8
1
  6
CONTINUOUS
370
50
 62
4
100
AcDbLine
 10
44.623539
 20
0.866726
 30
0.0
 11
44.480156
 21
0.9255019999999999
 31
0.0
  0
LINE
  5
4EC
330
1F
100
AcDbEntity
  8
1
  6
CONTINUOUS
370
50
 62
4
100
AcDbLine
 10
39.17952
 20
0.7107209999999999
 30
0.0
 11
39.054111
 21
0.7618659999999999
 31
0.0
  0
LINE
  5
4ED
330
1F
100
AcDbEntity
  8
1
  6
CONTINUOUS
370
50
 62
4
100
AcDbLine
 10
36.883282
 20
0.791917
 30
0.0
 11
36.79253
 21
0.8287089999999999
 31
0.0
  0
LINE
  5
4EE
330
1F
100
AcDbEntity
  8
1
  6
CONTINUOUS
370
50
 62
4
100
AcDbLine
 10
37.483978
 20
0.510807
 30
0.0
 11
37.406193
 21
0.542338
 31
0.0
  0
LINE
  5
4EF
330
1F
100
AcDbEntity
  8
1
  6
CONTINUOUS
370
50
 62
4
100
AcDbLine
 10
39.085392
 20
0.9655189999999999
 30
0.0
 11
38.961388
 21
1.014408
 31
0.0
  0
LINE
  5
4F0
330
1F
100
AcDbEntity
  8
1
  6
CONTINUOUS
370
50
 62
4
100
AcDbLine
 10
42.52515
 20
-1.055543
 30
0.0
 11
42.30983
 21
-0.9742599999999999
 31
0.0
  0
LINE
  5
4F1
330
1F
100
AcDbEntity
  8
1
  6
CONTINUOUS
370
50
 62
4
100
AcDbLine
 10
39.054111
 20
0.7618659999999999
 30
0.0
 11
38.928703
 21
0.808681
 31
0.0
  0
LINE
  5
4F2
330
1F
100
AcDbEntity
  8
1
  6
CONTINUOUS
370
50
 62
4
100
AcDbLine
 10
44.480156
 20
0.9255019999999999
 30
0.0
 11
44.336773
 21
0.978989
 31
0.0
  0
LINE
  5
4F3
330
1F
100
AcDbEntity
  8
1
  6
CONTINUOUS
370
50
 62
4
100
AcDbLine
 10
39.615345
 20
-0.994655
 30
0.0
 11
39.524986
 21
-0.9610789999999999
 31
0.0
  0
LINE
  5
4F4
330
1F
100
AcDbEntity
  8
1
  6
CONTINUOUS
370
50
 62
4
100
AcDbLine
 10
41.690083
 20
0.9791709999999999
 30
0.0
 11
41.488514
 21
1.053384
 31
0.0
  0
LINE
  5
4F5
330
1F
100
AcDbEntity
  8
1
  6
CONTINUOUS
370
50
 62
4
100
AcDbLine
 10
44.436363
 20
0.760203
 30
0.0
 11
44.29184
 21
0.813309
 31
0.0
  0
LINE
  5
4F6
330
1F
100
AcDbEntity
  8
1
  6
CONTINUOUS
370
50
 62
4
100
AcDbLine
 10
44.413311
 20
0.985695
 30
0.0
 11
44.208569
 21
1.060134
 31
0.0
  0
LINE
  5
4F7
330
1F
100
AcDbEntity
  8
1
  6
CONTINUOUS
370
50
 62
4
100
AcDbLine
 10
36.79253
 20
0.8287089999999999
 30
0.0
 11
36.699318
 21
0.8624489999999999
 31
0.0
  0
LINE
  5
4F8
330
1F
100
AcDbEntity
  8
1
  6
CONTINUOUS
370
50
 62
4
100
AcDbLine
 10
38.961388
 20
1.014408
 30
0.0
 11
38.837273
 21
1.058158
 31
0.0
  0
LINE
  5
4F9
330
1F
100
AcDbEntity
  8
1
  6
CONTINUOUS
370
50
 62
4
100
AcDbLine
 10
39.754269
 20
-1.043378
 30
0.0
 11
39.615345
 21
-0.994655
 31
0.0
  0
LINE
  5
4FA
330
1F
100
AcDbEntity
  8
1
  6
CONTINUOUS
370
50
 62
4
100
AcDbLine
 10
38.928703
 20
0.808681
 30
0.0
 11
38.803291
 21
0.851362
 31
0.0
  0
LINE
  5
4FB
330
1F
100
AcDbEntity
  8
1
  6
CONTINUOUS
370
50
 62
4
100
AcDbLine
 10
44.29184
 20
0.813309
 30
0.0
 11
44.147308
 21
0.862207
 31
0.0
  0
LINE
  5
4FC
330
1F
100
AcDbEntity
  8
1
  6
CONTINUOUS
370
50
 62
4
100
AcDbLine
 10
37.56127499999999
 20
0.484759
 30
0.0
 11
37.483978
 21
0.510807
 31
0.0
  0
LINE
  5
4FD
330
1F
100
AcDbEntity
  8
1
  6
CONTINUOUS
370
50
 62
4
100
AcDbLine
 10
44.336773
 20
0.978989
 30
0.0
 11
44.193375
 21
1.027133
 31
0.0
  0
LINE
  5
4FE
330
1F
100
AcDbEntity
  8
1
  6
CONTINUOUS
370
50
 62
4
100
AcDbLine
 10
39.924511
 20
-1.099205
 30
0.0
 11
39.754269
 21
-1.043378
 31
0.0
  0
LINE
  5
4FF
330
1F
100
AcDbEntity
  8
1
  6
CONTINUOUS
370
50
 62
4
100
AcDbLine
 10
35.613068
 20
1.014622
 30
0.0
 11
35.604137
 21
1.017452
 31
0.0
  0
LINE
  5
500
330
1F
100
AcDbEntity
  8
1
  6
CONTINUOUS
370
50
 62
4
100
AcDbLine
 10
36.699318
 20
0.8624489999999999
 30
0.0
 11
36.602249
 21
0.893076
 31
0.0
  0
LINE
  5
501
330
1F
100
AcDbEntity
  8
1
  6
CONTINUOUS
370
50
 62
4
100
AcDbLine
 10
38.837273
 20
1.058158
 30
0.0
 11
38.714165
 21
1.096553
 31
0.0
  0
LINE
  5
502
330
1F
100
AcDbEntity
  8
1
  6
CONTINUOUS
370
50
 62
4
100
AcDbLine
 10
38.803291
 20
0.851362
 30
0.0
 11
38.677883
 21
0.890054
 31
0.0
  0
LINE
  5
503
330
1F
100
AcDbEntity
  8
1
  6
CONTINUOUS
370
50
 62
4
100
AcDbLine
 10
44.147308
 20
0.862207
 30
0.0
 11
44.002769
 21
0.9059379999999999
 31
0.0
  0
LINE
  5
504
330
1F
100
AcDbEntity
  8
1
  6
CONTINUOUS
370
50
 62
4
100
AcDbLine
 10
44.208569
 20
1.060134
 30
0.0
 11
44.011181
 21
1.119718
 31
0.0
  0
LINE
  5
505
330
1F
100
AcDbEntity
  8
1
  6
CONTINUOUS
370
50
 62
4
100
AcDbLine
 10
44.193375
 20
1.027133
 30
0.0
 11
44.049946
 21
1.0696
 31
0.0
  0
LINE
  5
506
330
1F
100
AcDbEntity
  8
1
  6
CONTINUOUS
370
50
 62
4
100
AcDbLine
 10
42.743443
 20
-1.118528
 30
0.0
 11
42.52515
 21
-1.055543
 31
0.0
  0
LINE
  5
507
330
1F
100
AcDbEntity
  8
1
  6
CONTINUOUS
370
50
 62
4
100
AcDbLine
 10
41.488514
 20
1.053384
 30
0.0
 11
41.295567
 21
1.106033
 31
0.0
  0
LINE
  5
508
330
1F
100
AcDbEntity
  8
1
  6
CONTINUOUS
370
50
 62
4
100
AcDbLine
 10
40.091843
 20
-1.144113
 30
0.0
 11
39.924511
 21
-1.099205
 31
0.0
  0
LINE
  5
509
330
1F
100
AcDbEntity
  8
1
  6
CONTINUOUS
370
50
 62
4
100
AcDbLine
 10
36.602249
 20
0.893076
 30
0.0
 11
36.499954
 21
0.920526
 31
0.0
  0
LINE
  5
50A
330
1F
100
AcDbEntity
  8
1
  6
CONTINUOUS
370
50
 62
4
100
AcDbLine
 10
38.714165
 20
1.096553
 30
0.0
 11
38.58696399999999
 21
1.129042
 31
0.0
  0
LINE
  5
50B
330
1F
100
AcDbEntity
  8
1
  6
CONTINUOUS
370
50
 62
4
100
AcDbLine
 10
37.639297
 20
0.464929
 30
0.0
 11
37.56127499999999
 21
0.484759
 31
0.0
  0
LINE
  5
50C
330
1F
100
AcDbEntity
  8
1
  6
CONTINUOUS
370
50
 62
4
100
AcDbLine
 10
38.677883
 20
0.890054
 30
0.0
 11
38.552467
 21
0.921431
 31
0.0
  0
LINE
  5
50D
330
1F
100
AcDbEntity
  8
1
  6
CONTINUOUS
370
50
 62
4
100
AcDbLine
 10
44.002769
 20
0.9059379999999999
 30
0.0
 11
43.858223
 21
0.9415699999999999
 31
0.0
  0
LINE
  5
50E
330
1F
100
AcDbEntity
  8
1
  6
CONTINUOUS
370
50
 62
4
100
AcDbLine
 10
44.049946
 20
1.0696
 30
0.0
 11
43.90649
 21
1.10338
 31
0.0
  0
LINE
  5
50F
330
1F
100
AcDbEntity
  8
1
  6
CONTINUOUS
370
50
 62
4
100
AcDbLine
 10
41.295567
 20
1.106033
 30
0.0
 11
41.077023
 21
1.15644
 31
0.0
  0
LINE
  5
510
330
1F
100
AcDbEntity
  8
1
  6
CONTINUOUS
370
50
 62
4
100
AcDbLine
 10
36.499954
 20
0.920526
 30
0.0
 11
36.394745
 21
0.944074
 31
0.0
  0
LINE
  5
511
330
1F
100
AcDbEntity
  8
1
  6
CONTINUOUS
370
50
 62
4
100
AcDbLine
 10
35.622742
 20
1.012495
 30
0.0
 11
35.613068
 21
1.014622
 31
0.0
  0
LINE
  5
512
330
1F
100
AcDbEntity
  8
1
  6
CONTINUOUS
370
50
 62
4
100
AcDbLine
 10
44.011181
 20
1.119718
 30
0.0
 11
43.801521
 21
1.164217
 31
0.0
  0
LINE
  5
513
330
1F
100
AcDbEntity
  8
1
  6
CONTINUOUS
370
50
 62
4
100
AcDbLine
 10
38.427048
 20
0.9456749999999999
 30
0.0
 11
38.301643
 21
0.972235
 31
0.0
  0
LINE
  5
514
330
1F
100
AcDbEntity
  8
1
  6
CONTINUOUS
370
50
 62
4
100
AcDbLine
 10
38.16124
 20
-0.264996
 30
0.0
 11
38.126141
 21
-0.257641
 31
0.0
  0
LINE
  5
515
330
1F
100
AcDbEntity
  8
1
  6
CONTINUOUS
370
50
 62
4
100
AcDbLine
 10
42.963257
 20
-1.164221
 30
0.0
 11
42.743443
 21
-1.118528
 31
0.0
  0
LINE
  5
516
330
1F
100
AcDbEntity
  8
1
  6
CONTINUOUS
370
50
 62
4
100
AcDbLine
 10
38.301643
 20
0.972235
 30
0.0
 11
38.176258
 21
0.9973409999999999
 31
0.0
  0
LINE
  5
517
330
1F
100
AcDbEntity
  8
1
  6
CONTINUOUS
370
50
 62
4
100
AcDbLine
 10
43.858223
 20
0.9415699999999999
 30
0.0
 11
43.713676
 21
0.969613
 31
0.0
  0
LINE
  5
518
330
1F
100
AcDbEntity
  8
1
  6
CONTINUOUS
370
50
 62
4
100
AcDbLine
 10
38.552467
 20
0.921431
 30
0.0
 11
38.427048
 21
0.9456749999999999
 31
0.0
  0
LINE
  5
519
330
1F
100
AcDbEntity
  8
1
  6
CONTINUOUS
370
50
 62
4
100
AcDbLine
 10
38.58696399999999
 20
1.129042
 30
0.0
 11
38.474243
 21
1.15039
 31
0.0
  0
LINE
  5
51A
330
1F
100
AcDbEntity
  8
1
  6
CONTINUOUS
370
50
 62
4
100
AcDbLine
 10
40.262978
 20
-1.176049
 30
0.0
 11
40.091843
 21
-1.144113
 31
0.0
  0
LINE
  5
51B
330
1F
100
AcDbEntity
  8
1
  6
CONTINUOUS
370
50
 62
4
100
AcDbLine
 10
36.394745
 20
0.944074
 30
0.0
 11
36.28886
 21
0.9634459999999999
 31
0.0
  0
LINE
  5
51C
330
1F
100
AcDbEntity
  8
1
  6
CONTINUOUS
370
50
 62
4
100
AcDbLine
 10
38.36845
 20
-0.261587
 30
0.0
 11
38.283257
 21
-0.246111
 31
0.0
  0
LINE
  5
51D
330
1F
100
AcDbEntity
  8
1
  6
CONTINUOUS
370
50
 62
4
100
AcDbLine
 10
38.39093
 20
1.164611
 30
0.0
 11
38.312893
 21
1.178229
 31
0.0
  0
LINE
  5
51E
330
1F
100
AcDbEntity
  8
1
  6
CONTINUOUS
370
50
 62
4
100
AcDbLine
 10
43.90649
 20
1.10338
 30
0.0
 11
43.763031
 21
1.128276
 31
0.0
  0
LINE
  5
51F
330
1F
100
AcDbEntity
  8
1
  6
CONTINUOUS
370
50
 62
4
100
AcDbLine
 10
38.474243
 20
1.15039
 30
0.0
 11
38.39093
 21
1.164611
 31
0.0
  0
LINE
  5
520
330
1F
100
AcDbEntity
  8
1
  6
CONTINUOUS
370
50
 62
4
100
AcDbLine
 10
37.718658
 20
0.452294
 30
0.0
 11
37.639297
 21
0.464929
 31
0.0
  0
LINE
  5
521
330
1F
100
AcDbEntity
  8
1
  6
CONTINUOUS
370
50
 62
4
100
AcDbLine
 10
38.312893
 20
1.178229
 30
0.0
 11
38.251106
 21
1.188059
 31
0.0
  0
LINE
  5
522
330
1F
100
AcDbEntity
  8
1
  6
CONTINUOUS
370
50
 62
4
100
AcDbLine
 10
35.632732
 20
1.010928
 30
0.0
 11
35.622742
 21
1.012495
 31
0.0
  0
LINE
  5
523
330
1F
100
AcDbEntity
  8
1
  6
CONTINUOUS
370
50
 62
4
100
AcDbLine
 10
41.077023
 20
1.15644
 30
0.0
 11
40.857574
 21
1.18944
 31
0.0
  0
LINE
  5
524
330
1F
100
AcDbEntity
  8
1
  6
CONTINUOUS
370
50
 62
4
100
AcDbLine
 10
43.713676
 20
0.969613
 30
0.0
 11
43.569126
 21
0.9907969999999999
 31
0.0
  0
LINE
  5
525
330
1F
100
AcDbEntity
  8
1
  6
CONTINUOUS
370
50
 62
4
100
AcDbLine
 10
36.28886
 20
0.9634459999999999
 30
0.0
 11
36.182037
 21
0.978996
 31
0.0
  0
LINE
  5
526
330
1F
100
AcDbEntity
  8
1
  6
CONTINUOUS
370
50
 62
4
100
AcDbLine
 10
43.174946
 20
-1.191471
 30
0.0
 11
42.963257
 21
-1.164221
 31
0.0
  0
LINE
  5
527
330
1F
100
AcDbEntity
  8
1
  6
CONTINUOUS
370
50
 62
4
100
AcDbLine
 10
43.801521
 20
1.164217
 30
0.0
 11
43.588047
 21
1.190966
 31
0.0
  0
LINE
  5
528
330
1F
100
AcDbEntity
  8
1
  6
CONTINUOUS
370
50
 62
4
100
AcDbLine
 10
43.763031
 20
1.128276
 30
0.0
 11
43.619583
 21
1.145072
 31
0.0
  0
LINE
  5
529
330
1F
100
AcDbEntity
  8
1
  6
CONTINUOUS
370
50
 62
4
100
AcDbLine
 10
38.251106
 20
1.188059
 30
0.0
 11
38.19817
 21
1.19424
 31
0.0
  0
LINE
  5
52A
330
1F
100
AcDbEntity
  8
1
  6
CONTINUOUS
370
50
 62
4
100
AcDbLine
 10
36.182037
 20
0.978996
 30
0.0
 11
36.074001
 21
0.991077
 31
0.0
  0
LINE
  5
52B
330
1F
100
AcDbEntity
  8
1
  6
CONTINUOUS
370
50
 62
4
100
AcDbLine
 10
38.176258
 20
0.9973409999999999
 30
0.0
 11
38.050846
 21
1.010683
 31
0.0
  0
LINE
  5
52C
330
1F
100
AcDbEntity
  8
1
  6
CONTINUOUS
370
50
 62
4
100
AcDbLine
 10
40.4375
 20
-1.193808
 30
0.0
 11
40.262978
 21
-1.176049
 31
0.0
  0
LINE
  5
52D
330
1F
100
AcDbEntity
  8
1
  6
CONTINUOUS
370
50
 62
4
100
AcDbLine
 10
43.569126
 20
0.9907969999999999
 30
0.0
 11
43.42457599999999
 21
1.00531
 31
0.0
  0
LINE
  5
52E
330
1F
100
AcDbEntity
  8
1
  6
CONTINUOUS
370
50
 62
4
100
AcDbLine
 10
40.972542
 20
1.177969
 30
0.0
 11
40.934231
 21
1.18181
 31
0.0
  0
LINE
  5
52F
330
1F
100
AcDbEntity
  8
1
  6
CONTINUOUS
370
50
 62
4
100
AcDbLine
 10
41.010845
 20
1.17413
 30
0.0
 11
40.972542
 21
1.177969
 31
0.0
  0
LINE
  5
530
330
1F
100
AcDbEntity
  8
1
  6
CONTINUOUS
370
50
 62
4
100
AcDbLine
 10
40.934231
 20
1.18181
 30
0.0
 11
40.895908
 21
1.185638
 31
0.0
  0
LINE
  5
531
330
1F
100
AcDbEntity
  8
1
  6
CONTINUOUS
370
50
 62
4
100
AcDbLine
 10
41.058651
 20
1.169362
 30
0.0
 11
41.010845
 21
1.17413
 31
0.0
  0
LINE
  5
532
330
1F
100
AcDbEntity
  8
1
  6
CONTINUOUS
370
50
 62
4
100
AcDbLine
 10
40.895908
 20
1.185638
 30
0.0
 11
40.857574
 21
1.18944
 31
0.0
  0
LINE
  5
533
330
1F
100
AcDbEntity
  8
1
  6
CONTINUOUS
370
50
 62
4
100
AcDbLine
 10
41.106441
 20
1.164645
 30
0.0
 11
41.058651
 21
1.169362
 31
0.0
  0
LINE
  5
534
330
1F
100
AcDbEntity
  8
1
  6
CONTINUOUS
370
50
 62
4
100
AcDbLine
 10
41.173275
 20
1.15818
 30
0.0
 11
41.106441
 21
1.164645
 31
0.0
  0
LINE
  5
535
330
1F
100
AcDbEntity
  8
1
  6
CONTINUOUS
370
50
 62
4
100
AcDbLine
 10
41.240101
 20
1.15193
 30
0.0
 11
41.173275
 21
1.15818
 31
0.0
  0
LINE
  5
536
330
1F
100
AcDbEntity
  8
1
  6
CONTINUOUS
370
50
 62
4
100
AcDbLine
 10
41.76458
 20
1.106045
 30
0.0
 11
41.699135
 21
1.112028
 31
0.0
  0
LINE
  5
537
330
1F
100
AcDbEntity
  8
1
  6
CONTINUOUS
370
50
 62
4
100
AcDbLine
 10
41.699135
 20
1.112028
 30
0.0
 11
41.64267
 21
1.117175
 31
0.0
  0
LINE
  5
538
330
1F
100
AcDbEntity
  8
1
  6
CONTINUOUS
370
50
 62
4
100
AcDbLine
 10
41.830006
 20
1.100103
 30
0.0
 11
41.76458
 21
1.106045
 31
0.0
  0
LINE
  5
539
330
1F
100
AcDbEntity
  8
1
  6
CONTINUOUS
370
50
 62
4
100
AcDbLine
 10
41.64267
 20
1.117175
 30
0.0
 11
41.586201
 21
1.12227
 31
0.0
  0
LINE
  5
53A
330
1F
100
AcDbEntity
  8
1
  6
CONTINUOUS
370
50
 62
4
100
AcDbLine
 10
41.293724
 20
1.147108
 30
0.0
 11
41.240101
 21
1.15193
 31
0.0
  0
LINE
  5
53B
330
1F
100
AcDbEntity
  8
1
  6
CONTINUOUS
370
50
 62
4
100
AcDbLine
 10
41.879326
 20
1.095683
 30
0.0
 11
41.830006
 21
1.100103
 31
0.0
  0
LINE
  5
53C
330
1F
100
AcDbEntity
  8
1
  6
CONTINUOUS
370
50
 62
4
100
AcDbLine
 10
40.857574
 20
1.18944
 30
0.0
 11
40.820034
 21
1.192804
 31
0.0
  0
LINE
  5
53D
330
1F
100
AcDbEntity
  8
1
  6
CONTINUOUS
370
50
 62
4
100
AcDbLine
 10
41.586201
 20
1.12227
 30
0.0
 11
41.527794
 21
1.127438
 31
0.0
  0
LINE
  5
53E
330
1F
100
AcDbEntity
  8
1
  6
CONTINUOUS
370
50
 62
4
100
AcDbLine
 10
41.928635
 20
1.091341
 30
0.0
 11
41.879326
 21
1.095683
 31
0.0
  0
LINE
  5
53F
330
1F
100
AcDbEntity
  8
1
  6
CONTINUOUS
370
50
 62
4
100
AcDbLine
 10
41.347363
 20
1.142487
 30
0.0
 11
41.293724
 21
1.147108
 31
0.0
  0
LINE
  5
540
330
1F
100
AcDbEntity
  8
1
  6
CONTINUOUS
370
50
 62
4
100
AcDbLine
 10
41.527794
 20
1.127438
 30
0.0
 11
41.469475
 21
1.132451
 31
0.0
  0
LINE
  5
541
330
1F
100
AcDbEntity
  8
1
  6
CONTINUOUS
370
50
 62
4
100
AcDbLine
 10
42.001308
 20
1.08512
 30
0.0
 11
41.928635
 21
1.091341
 31
0.0
  0
LINE
  5
542
330
1F
100
AcDbEntity
  8
1
  6
CONTINUOUS
370
50
 62
4
100
AcDbLine
 10
41.469475
 20
1.132451
 30
0.0
 11
41.408398
 21
1.137495
 31
0.0
  0
LINE
  5
543
330
1F
100
AcDbEntity
  8
1
  6
CONTINUOUS
370
50
 62
4
100
AcDbLine
 10
42.073975
 20
1.079164
 30
0.0
 11
42.001308
 21
1.08512
 31
0.0
  0
LINE
  5
544
330
1F
100
AcDbEntity
  8
1
  6
CONTINUOUS
370
50
 62
4
100
AcDbLine
 10
36.074001
 20
0.991077
 30
0.0
 11
35.964497
 21
1.000043
 31
0.0
  0
LINE
  5
545
330
1F
100
AcDbEntity
  8
1
  6
CONTINUOUS
370
50
 62
4
100
AcDbLine
 10
41.408398
 20
1.137495
 30
0.0
 11
41.347363
 21
1.142487
 31
0.0
  0
LINE
  5
546
330
1F
100
AcDbEntity
  8
1
  6
CONTINUOUS
370
50
 62
4
100
AcDbLine
 10
42.115974
 20
1.075861
 30
0.0
 11
42.073975
 21
1.079164
 31
0.0
  0
LINE
  5
547
330
1F
100
AcDbEntity
  8
1
  6
CONTINUOUS
370
50
 62
4
100
AcDbLine
 10
42.157978
 20
1.072667
 30
0.0
 11
42.115974
 21
1.075861
 31
0.0
  0
LINE
  5
548
330
1F
100
AcDbEntity
  8
1
  6
CONTINUOUS
370
50
 62
4
100
AcDbLine
 10
42.19685399999999
 20
1.069815
 30
0.0
 11
42.157978
 21
1.072667
 31
0.0
  0
LINE
  5
549
330
1F
100
AcDbEntity
  8
1
  6
CONTINUOUS
370
50
 62
4
100
AcDbLine
 10
40.820034
 20
1.192804
 30
0.0
 11
40.782532
 21
1.195495
 31
0.0
  0
LINE
  5
54A
330
1F
100
AcDbEntity
  8
1
  6
CONTINUOUS
370
50
 62
4
100
AcDbLine
 10
42.235737
 20
1.067065
 30
0.0
 11
42.19685399999999
 21
1.069815
 31
0.0
  0
LINE
  5
54B
330
1F
100
AcDbEntity
  8
1
  6
CONTINUOUS
370
50
 62
4
100
AcDbLine
 10
38.19817
 20
1.19424
 30
0.0
 11
38.142555
 21
1.198056
 31
0.0
  0
LINE
  5
54C
330
1F
100
AcDbEntity
  8
1
  6
CONTINUOUS
370
50
 62
4
100
AcDbLine
 10
42.274559
 20
1.064425
 30
0.0
 11
42.235737
 21
1.067065
 31
0.0
  0
LINE
  5
54D
330
1F
100
AcDbEntity
  8
1
  6
CONTINUOUS
370
50
 62
4
100
AcDbLine
 10
42.313393
 20
1.061882
 30
0.0
 11
42.274559
 21
1.064425
 31
0.0
  0
LINE
  5
54E
330
1F
100
AcDbEntity
  8
1
  6
CONTINUOUS
370
50
 62
4
100
AcDbLine
 10
42.38747
 20
1.057047
 30
0.0
 11
42.35043
 21
1.059467
 31
0.0
  0
LINE
  5
54F
330
1F
100
AcDbEntity
  8
1
  6
CONTINUOUS
370
50
 62
4
100
AcDbLine
 10
42.42902
 20
1.054337
 30
0.0
 11
42.38747
 21
1.057047
 31
0.0
  0
LINE
  5
550
330
1F
100
AcDbEntity
  8
1
  6
CONTINUOUS
370
50
 62
4
100
AcDbLine
 10
42.35043
 20
1.059467
 30
0.0
 11
42.313393
 21
1.061882
 31
0.0
  0
LINE
  5
551
330
1F
100
AcDbEntity
  8
1
  6
CONTINUOUS
370
50
 62
4
100
AcDbLine
 10
42.47057
 20
1.051643
 30
0.0
 11
42.42902
 21
1.054337
 31
0.0
  0
LINE
  5
552
330
1F
100
AcDbEntity
  8
1
  6
CONTINUOUS
370
50
 62
4
100
AcDbLine
 10
42.51218799999999
 20
1.048974
 30
0.0
 11
42.47057
 21
1.051643
 31
0.0
  0
LINE
  5
553
330
1F
100
AcDbEntity
  8
1
  6
CONTINUOUS
370
50
 62
4
100
AcDbLine
 10
43.619583
 20
1.145072
 30
0.0
 11
43.476151
 21
1.154229
 31
0.0
  0
LINE
  5
554
330
1F
100
AcDbEntity
  8
1
  6
CONTINUOUS
370
50
 62
4
100
AcDbLine
 10
42.553802
 20
1.046344
 30
0.0
 11
42.51218799999999
 21
1.048974
 31
0.0
  0
LINE
  5
555
330
1F
100
AcDbEntity
  8
1
  6
CONTINUOUS
370
50
 62
4
100
AcDbLine
 10
42.617096
 20
1.042442
 30
0.0
 11
42.553802
 21
1.046344
 31
0.0
  0
LINE
  5
556
330
1F
100
AcDbEntity
  8
1
  6
CONTINUOUS
370
50
 62
4
100
AcDbLine
 10
42.66238
 20
1.039739
 30
0.0
 11
42.617096
 21
1.042442
 31
0.0
  0
LINE
  5
557
330
1F
100
AcDbEntity
  8
1
  6
CONTINUOUS
370
50
 62
4
100
AcDbLine
 10
42.707653
 20
1.037119
 30
0.0
 11
42.66238
 21
1.039739
 31
0.0
  0
LINE
  5
558
330
1F
100
AcDbEntity
  8
1
  6
CONTINUOUS
370
50
 62
4
100
AcDbLine
 10
42.752926
 20
1.034592
 30
0.0
 11
42.707653
 21
1.037119
 31
0.0
  0
LINE
  5
559
330
1F
100
AcDbEntity
  8
1
  6
CONTINUOUS
370
50
 62
4
100
AcDbLine
 10
35.964497
 20
1.000043
 30
0.0
 11
35.85331
 21
1.006244
 31
0.0
  0
LINE
  5
55A
330
1F
100
AcDbEntity
  8
1
  6
CONTINUOUS
370
50
 62
4
100
AcDbLine
 10
37.799911
 20
0.447854
 30
0.0
 11
37.718658
 21
0.452294
 31
0.0
  0
LINE
  5
55B
330
1F
100
AcDbEntity
  8
1
  6
CONTINUOUS
370
50
 62
4
100
AcDbLine
 10
40.782532
 20
1.195495
 30
0.0
 11
40.744949
 21
1.197536
 31
0.0
  0
LINE
  5
55C
330
1F
100
AcDbEntity
  8
1
  6
CONTINUOUS
370
50
 62
4
100
AcDbLine
 10
42.798191
 20
1.032165
 30
0.0
 11
42.752926
 21
1.034592
 31
0.0
  0
LINE
  5
55D
330
1F
100
AcDbEntity
  8
1
  6
CONTINUOUS
370
50
 62
4
100
AcDbLine
 10
43.42457599999999
 20
1.00531
 30
0.0
 11
43.28002499999999
 21
1.012868
 31
0.0
  0
LINE
  5
55E
330
1F
100
AcDbEntity
  8
1
  6
CONTINUOUS
370
50
 62
4
100
AcDbLine
 10
42.846622
 20
1.029684
 30
0.0
 11
42.798191
 21
1.032165
 31
0.0
  0
LINE
  5
55F
330
1F
100
AcDbEntity
  8
1
  6
CONTINUOUS
370
50
 62
4
100
AcDbLine
 10
42.89537
 20
1.027312
 30
0.0
 11
42.846622
 21
1.029684
 31
0.0
  0
LINE
  5
560
330
1F
100
AcDbEntity
  8
1
  6
CONTINUOUS
370
50
 62
4
100
AcDbLine
 10
42.944115
 20
1.025067
 30
0.0
 11
42.89537
 21
1.027312
 31
0.0
  0
LINE
  5
561
330
1F
100
AcDbEntity
  8
1
  6
CONTINUOUS
370
50
 62
4
100
AcDbLine
 10
42.992802
 20
1.022951
 30
0.0
 11
42.944115
 21
1.025067
 31
0.0
  0
LINE
  5
562
330
1F
100
AcDbEntity
  8
1
  6
CONTINUOUS
370
50
 62
4
100
AcDbLine
 10
43.588047
 20
1.190966
 30
0.0
 11
43.37656399999999
 21
1.200001
 31
0.0
  0
LINE
  5
563
330
1F
100
AcDbEntity
  8
1
  6
CONTINUOUS
370
50
 62
4
100
AcDbLine
 10
43.376495
 20
-1.200001
 30
0.0
 11
43.174946
 21
-1.191471
 31
0.0
  0
LINE
  5
564
330
1F
100
AcDbEntity
  8
1
  6
CONTINUOUS
370
50
 62
4
100
AcDbLine
 10
43.041496
 20
1.02096
 30
0.0
 11
42.992802
 21
1.022951
 31
0.0
  0
LINE
  5
565
330
1F
100
AcDbEntity
  8
1
  6
CONTINUOUS
370
50
 62
4
100
AcDbLine
 10
43.076115
 20
1.019617
 30
0.0
 11
43.041496
 21
1.02096
 31
0.0
  0
LINE
  5
566
330
1F
100
AcDbEntity
  8
1
  6
CONTINUOUS
370
50
 62
4
100
AcDbLine
 10
40.744949
 20
1.197536
 30
0.0
 11
40.707172
 21
1.198951
 31
0.0
  0
LINE
  5
567
330
1F
100
AcDbEntity
  8
1
  6
CONTINUOUS
370
50
 62
4
100
AcDbLine
 10
43.127117
 20
1.017744
 30
0.0
 11
43.076115
 21
1.019617
 31
0.0
  0
LINE
  5
568
330
1F
100
AcDbEntity
  8
1
  6
CONTINUOUS
370
50
 62
4
100
AcDbLine
 10
43.17812
 20
1.015988
 30
0.0
 11
43.127117
 21
1.017744
 31
0.0
  0
LINE
  5
569
330
1F
100
AcDbEntity
  8
1
  6
CONTINUOUS
370
50
 62
4
100
AcDbLine
 10
35.85331
 20
1.006244
 30
0.0
 11
35.742287
 21
1.009868
 31
0.0
  0
LINE
  5
56A
330
1F
100
AcDbEntity
  8
1
  6
CONTINUOUS
370
50
 62
4
100
AcDbLine
 10
43.229084
 20
1.014344
 30
0.0
 11
43.17812
 21
1.015988
 31
0.0
  0
LINE
  5
56B
330
1F
100
AcDbEntity
  8
1
  6
CONTINUOUS
370
50
 62
4
100
AcDbLine
 10
40.630646
 20
-1.2
 30
0.0
 11
40.4375
 21
-1.193808
 31
0.0
  0
LINE
  5
56C
330
1F
100
AcDbEntity
  8
1
  6
CONTINUOUS
370
50
 62
4
100
AcDbLine
 10
38.050846
 20
1.010683
 30
0.0
 11
37.925385
 21
1.014419
 31
0.0
  0
LINE
  5
56D
330
1F
100
AcDbEntity
  8
1
  6
CONTINUOUS
370
50
 62
4
100
AcDbLine
 10
43.280045
 20
1.012835
 30
0.0
 11
43.229084
 21
1.014344
 31
0.0
  0
LINE
  5
56E
330
1F
100
AcDbEntity
  8
1
  6
CONTINUOUS
370
50
 62
4
100
AcDbLine
 10
38.142555
 20
1.198056
 30
0.0
 11
38.08403
 21
1.199787
 31
0.0
  0
LINE
  5
56F
330
1F
100
AcDbEntity
  8
1
  6
CONTINUOUS
370
50
 62
4
100
AcDbLine
 10
40.707172
 20
1.198951
 30
0.0
 11
40.669098
 21
1.199764
 31
0.0
  0
LINE
  5
570
330
1F
100
AcDbEntity
  8
1
  6
CONTINUOUS
370
50
 62
4
100
AcDbLine
 10
44.420395
 20
0.7605259999999999
 30
0.0
 11
44.41721
 21
0.7605919999999999
 31
0.0
  0
LINE
  5
571
330
1F
100
AcDbEntity
  8
1
  6
CONTINUOUS
370
50
 62
4
100
AcDbLine
 10
44.41721
 20
0.7605919999999999
 30
0.0
 11
44.414021
 21
0.760658
 31
0.0
  0
LINE
  5
572
330
1F
100
AcDbEntity
  8
1
  6
CONTINUOUS
370
50
 62
4
100
AcDbLine
 10
44.426777
 20
0.760396
 30
0.0
 11
44.423588
 21
0.7604609999999999
 31
0.0
  0
LINE
  5
573
330
1F
100
AcDbEntity
  8
1
  6
CONTINUOUS
370
50
 62
4
100
AcDbLine
 10
44.42997
 20
0.760331
 30
0.0
 11
44.426777
 21
0.760396
 31
0.0
  0
LINE
  5
574
330
1F
100
AcDbEntity
  8
1
  6
CONTINUOUS
370
50
 62
4
100
AcDbLine
 10
44.423588
 20
0.7604609999999999
 30
0.0
 11
44.420395
 21
0.7605259999999999
 31
0.0
  0
LINE
  5
575
330
1F
100
AcDbEntity
  8
1
  6
CONTINUOUS
370
50
 62
4
100
AcDbLine
 10
44.436363
 20
0.760203
 30
0.0
 11
44.433167
 21
0.7602669999999999
 31
0.0
  0
LINE
  5
576
330
1F
100
AcDbEntity
  8
1
  6
CONTINUOUS
370
50
 62
4
100
AcDbLine
 10
44.433167
 20
0.7602669999999999
 30
0.0
 11
44.42997
 21
0.760331
 31
0.0
  0
LINE
  5
577
330
1F
100
AcDbEntity
  8
1
  6
CONTINUOUS
370
50
 62
4
100
AcDbLine
 10
38.000313
 20
-1.199613
 30
0.0
 11
37.986153
 21
-1.199447
 31
0.0
  0
LINE
  5
578
330
1F
100
AcDbEntity
  8
1
  6
CONTINUOUS
370
50
 62
4
100
AcDbLine
 10
37.866726
 20
1.199415
 30
0.0
 11
37.852497
 21
1.199579
 31
0.0
  0
LINE
  5
579
330
1F
100
AcDbEntity
  8
1
  6
CONTINUOUS
370
50
 62
4
100
AcDbLine
 10
38.014023
 20
-1.199769
 30
0.0
 11
38.000313
 21
-1.199613
 31
0.0
  0
LINE
  5
57A
330
1F
100
AcDbEntity
  8
1
  6
CONTINUOUS
370
50
 62
4
100
AcDbLine
 10
37.852497
 20
1.199579
 30
0.0
 11
37.838699
 21
1.199736
 31
0.0
  0
LINE
  5
57B
330
1F
100
AcDbEntity
  8
1
  6
CONTINUOUS
370
50
 62
4
100
AcDbLine
 10
37.986153
 20
-1.199447
 30
0.0
 11
37.971661
 21
-1.199293
 31
0.0
  0
LINE
  5
57C
330
1F
100
AcDbEntity
  8
1
  6
CONTINUOUS
370
50
 62
4
100
AcDbLine
 10
37.881371
 20
1.199264
 30
0.0
 11
37.866726
 21
1.199415
 31
0.0
  0
LINE
  5
57D
330
1F
100
AcDbEntity
  8
1
  6
CONTINUOUS
370
50
 62
4
100
AcDbLine
 10
37.838699
 20
1.199736
 30
0.0
 11
37.825344
 21
1.199871
 31
0.0
  0
LINE
  5
57E
330
1F
100
AcDbEntity
  8
1
  6
CONTINUOUS
370
50
 62
4
100
AcDbLine
 10
35.742287
 20
1.009868
 30
0.0
 11
35.632732
 21
1.010928
 31
0.0
  0
LINE
  5
57F
330
1F
100
AcDbEntity
  8
1
  6
CONTINUOUS
370
50
 62
4
100
AcDbLine
 10
38.030262
 20
-1.199922
 30
0.0
 11
38.014023
 21
-1.199769
 31
0.0
  0
LINE
  5
580
330
1F
100
AcDbEntity
  8
1
  6
CONTINUOUS
370
50
 62
4
100
AcDbLine
 10
43.476151
 20
1.154229
 30
0.0
 11
43.332729
 21
1.155508
 31
0.0
  0
LINE
  5
581
330
1F
100
AcDbEntity
  8
1
  6
CONTINUOUS
370
50
 62
4
100
AcDbLine
 10
37.971661
 20
-1.199293
 30
0.0
 11
37.95686
 21
-1.199165
 31
0.0
  0
LINE
  5
582
330
1F
100
AcDbEntity
  8
1
  6
CONTINUOUS
370
50
 62
4
100
AcDbLine
 10
37.896278
 20
1.199145
 30
0.0
 11
37.881371
 21
1.199264
 31
0.0
  0
LINE
  5
583
330
1F
100
AcDbEntity
  8
1
  6
CONTINUOUS
370
50
 62
4
100
AcDbLine
 10
37.825344
 20
1.199871
 30
0.0
 11
37.812439
 21
1.199965
 31
0.0
  0
LINE
  5
584
330
1F
100
AcDbEntity
  8
1
  6
CONTINUOUS
370
50
 62
4
100
AcDbLine
 10
40.669098
 20
1.199764
 30
0.0
 11
40.630646
 21
1.2
 31
0.0
  0
LINE
  5
585
330
1F
100
AcDbEntity
  8
1
  6
CONTINUOUS
370
50
 62
4
100
AcDbLine
 10
37.95686
 20
-1.199165
 30
0.0
 11
37.941753
 21
-1.199078
 31
0.0
  0
LINE
  5
586
330
1F
100
AcDbEntity
  8
1
  6
CONTINUOUS
370
50
 62
4
100
AcDbLine
 10
37.911312
 20
1.19907
 30
0.0
 11
37.896278
 21
1.199145
 31
0.0
  0
LINE
  5
587
330
1F
100
AcDbEntity
  8
1
  6
CONTINUOUS
370
50
 62
4
100
AcDbLine
 10
38.197475
 20
-0.265173
 30
0.0
 11
38.16124
 21
-0.264996
 31
0.0
  0
LINE
  5
588
330
1F
100
AcDbEntity
  8
1
  6
CONTINUOUS
370
50
 62
4
100
AcDbLine
 10
37.812439
 20
1.199965
 30
0.0
 11
37.799999
 21
1.2
 31
0.0
  0
LINE
  5
589
330
1F
100
AcDbEntity
  8
1
  6
CONTINUOUS
370
50
 62
4
100
AcDbLine
 10
38.08403
 20
1.199787
 30
0.0
 11
38.030262
 21
1.199922
 31
0.0
  0
LINE
  5
58A
330
1F
100
AcDbEntity
  8
1
  6
CONTINUOUS
370
50
 62
4
100
AcDbLine
 10
37.941753
 20
-1.199078
 30
0.0
 11
37.926476
 21
-1.199046
 31
0.0
  0
LINE
  5
58B
330
1F
100
AcDbEntity
  8
1
  6
CONTINUOUS
370
50
 62
4
100
AcDbLine
 10
37.926476
 20
1.199046
 30
0.0
 11
37.911312
 21
1.19907
 31
0.0
  0
LINE
  5
58C
330
1F
100
AcDbEntity
  8
1
  6
CONTINUOUS
370
50
 62
4
100
AcDbLine
 10
37.799911
 20
1.2
 30
0.0
 11
37.643177
 21
1.200013
 31
0.0
  0
LINE
  5
58D
330
1F
100
AcDbEntity
  8
1
  6
CONTINUOUS
370
50
 62
4
100
AcDbLine
 10
29.385553
 20
-1.2
 30
0.0
 11
37.799911
 21
-1.2
 31
0.0
  0
LINE
  5
58E
330
1F
100
AcDbEntity
  8
1
  6
CONTINUOUS
370
50
 62
4
100
AcDbLine
 10
38.051704
 20
-1.2
 30
0.0
 11
40.63373199999999
 21
-1.2
 31
0.0
  0
LINE
  5
58F
330
1F
100
AcDbEntity
  8
1
  6
CONTINUOUS
370
50
 62
4
100
AcDbLine
 10
43.374969
 20
-1.2
 30
0.0
 11
44.740849
 21
-1.2
 31
0.0
  0
LINE
  5
590
330
1F
100
AcDbEntity
  8
1
  6
CONTINUOUS
370
50
 62
4
100
AcDbLine
 10
44.799999
 20
-0.5396099999999999
 30
0.0
 11
45.0
 21
-0.5396099999999999
 31
0.0
  0
LINE
  5
591
330
1F
100
AcDbEntity
  8
1
  6
CONTINUOUS
370
50
 62
4
100
AcDbLine
 10
44.584309
 20
0.5395329999999999
 30
0.0
 11
44.799999
 21
0.5395329999999999
 31
0.0
  0
LINE
  5
592
330
1F
100
AcDbEntity
  8
1
  6
CONTINUOUS
370
50
 62
4
100
AcDbLine
 10
44.584309
 20
0.5396099999999999
 30
0.0
 11
45.0
 21
0.5396099999999999
 31
0.0
  0
LINE
  5
593
330
1F
100
AcDbEntity
  8
1
  6
CONTINUOUS
370
50
 62
4
100
AcDbLine
 10
44.619713
 20
0.89935
 30
0.0
 11
45.0
 21
0.89935
 31
0.0
  0
LINE
  5
594
330
1F
100
AcDbEntity
  8
1
  6
CONTINUOUS
370
50
 62
4
100
AcDbLine
 10
35.632732
 20
1.010928
 30
0.0
 11
37.799999
 21
1.010928
 31
0.0
  0
LINE
  5
595
330
1F
100
AcDbEntity
  8
1
  6
CONTINUOUS
370
50
 62
4
100
AcDbLine
 10
36.035713
 20
1.152
 30
0.0
 11
37.799999
 21
1.152
 31
0.0
  0
LINE
  5
596
330
1F
100
AcDbEntity
  8
1
  6
CONTINUOUS
370
50
 62
4
100
AcDbLine
 10
29.385553
 20
1.2
 30
0.0
 11
37.799911
 21
1.2
 31
0.0
  0
LINE
  5
597
330
1F
100
AcDbEntity
  8
1
  6
CONTINUOUS
370
50
 62
4
100
AcDbLine
 10
38.051704
 20
1.2
 30
0.0
 11
40.63373199999999
 21
1.2
 31
0.0
  0
LINE
  5
598
330
1F
100
AcDbEntity
  8
1
  6
CONTINUOUS
370
50
 62
4
100
AcDbLine
 10
43.374973
 20
1.2
 30
0.0
 11
44.740849
 21
1.2
 31
0.0
  0
LINE
  5
599
330
1F
100
AcDbEntity
  8
1
  6
CONTINUOUS
370
50
 62
4
100
AcDbLine
 10
37.482975
 20
1.199973
 30
0.0
 11
37.643177
 21
1.200013
 31
0.0
  0
LINE
  5
59A
330
1F
100
AcDbEntity
  8
1
  6
CONTINUOUS
370
50
 62
4
100
AcDbLine
 10
37.320244
 20
1.19976
 30
0.0
 11
37.482975
 21
1.199973
 31
0.0
  0
LINE
  5
59B
330
1F
100
AcDbEntity
  8
1
  6
CONTINUOUS
370
50
 62
4
100
AcDbLine
 10
37.911312
 20
-1.19907
 30
0.0
 11
37.926476
 21
-1.199046
 31
0.0
  0
LINE
  5
59C
330
1F
100
AcDbEntity
  8
1
  6
CONTINUOUS
370
50
 62
4
100
AcDbLine
 10
37.926476
 20
1.199046
 30
0.0
 11
37.941753
 21
1.199078
 31
0.0
  0
LINE
  5
59D
330
1F
100
AcDbEntity
  8
1
  6
CONTINUOUS
370
50
 62
4
100
AcDbLine
 10
37.799999
 20
-1.2
 30
0.0
 11
37.812439
 21
-1.199965
 31
0.0
  0
LINE
  5
59E
330
1F
100
AcDbEntity
  8
1
  6
CONTINUOUS
370
50
 62
4
100
AcDbLine
 10
37.155918
 20
1.199227
 30
0.0
 11
37.320244
 21
1.19976
 31
0.0
  0
LINE
  5
59F
330
1F
100
AcDbEntity
  8
1
  6
CONTINUOUS
370
50
 62
4
100
AcDbLine
 10
37.896278
 20
-1.199145
 30
0.0
 11
37.911312
 21
-1.19907
 31
0.0
  0
LINE
  5
5A0
330
1F
100
AcDbEntity
  8
1
  6
CONTINUOUS
370
50
 62
4
100
AcDbLine
 10
37.941753
 20
1.199078
 30
0.0
 11
37.95686
 21
1.199165
 31
0.0
  0
LINE
  5
5A1
330
1F
100
AcDbEntity
  8
1
  6
CONTINUOUS
370
50
 62
4
100
AcDbLine
 10
40.630646
 20
-1.2
 30
0.0
 11
40.669098
 21
-1.199764
 31
0.0
  0
LINE
  5
5A2
330
1F
100
AcDbEntity
  8
1
  6
CONTINUOUS
370
50
 62
4
100
AcDbLine
 10
36.990917
 20
1.198053
 30
0.0
 11
37.155918
 21
1.199227
 31
0.0
  0
LINE
  5
5A3
330
1F
100
AcDbEntity
  8
1
  6
CONTINUOUS
370
50
 62
4
100
AcDbLine
 10
37.812439
 20
-1.199965
 30
0.0
 11
37.825344
 21
-1.199871
 31
0.0
  0
LINE
  5
5A4
330
1F
100
AcDbEntity
  8
1
  6
CONTINUOUS
370
50
 62
4
100
AcDbLine
 10
37.881371
 20
-1.199264
 30
0.0
 11
37.896278
 21
-1.199145
 31
0.0
  0
LINE
  5
5A5
330
1F
100
AcDbEntity
  8
1
  6
CONTINUOUS
370
50
 62
4
100
AcDbLine
 10
37.95686
 20
1.199165
 30
0.0
 11
37.971661
 21
1.199293
 31
0.0
  0
LINE
  5
5A6
330
1F
100
AcDbEntity
  8
1
  6
CONTINUOUS
370
50
 62
4
100
AcDbLine
 10
38.014023
 20
1.199769
 30
0.0
 11
38.030262
 21
1.199922
 31
0.0
  0
LINE
  5
5A7
330
1F
100
AcDbEntity
  8
1
  6
CONTINUOUS
370
50
 62
4
100
AcDbLine
 10
37.825344
 20
-1.199871
 30
0.0
 11
37.838699
 21
-1.199736
 31
0.0
  0
LINE
  5
5A8
330
1F
100
AcDbEntity
  8
1
  6
CONTINUOUS
370
50
 62
4
100
AcDbLine
 10
37.866726
 20
-1.199415
 30
0.0
 11
37.881371
 21
-1.199264
 31
0.0
  0
LINE
  5
5A9
330
1F
100
AcDbEntity
  8
1
  6
CONTINUOUS
370
50
 62
4
100
AcDbLine
 10
37.971661
 20
1.199293
 30
0.0
 11
37.986153
 21
1.199447
 31
0.0
  0
LINE
  5
5AA
330
1F
100
AcDbEntity
  8
1
  6
CONTINUOUS
370
50
 62
4
100
AcDbLine
 10
37.838699
 20
-1.199736
 30
0.0
 11
37.852497
 21
-1.199579
 31
0.0
  0
LINE
  5
5AB
330
1F
100
AcDbEntity
  8
1
  6
CONTINUOUS
370
50
 62
4
100
AcDbLine
 10
38.000313
 20
1.199613
 30
0.0
 11
38.014023
 21
1.199769
 31
0.0
  0
LINE
  5
5AC
330
1F
100
AcDbEntity
  8
1
  6
CONTINUOUS
370
50
 62
4
100
AcDbLine
 10
37.852497
 20
-1.199579
 30
0.0
 11
37.866726
 21
-1.199415
 31
0.0
  0
LINE
  5
5AD
330
1F
100
AcDbEntity
  8
1
  6
CONTINUOUS
370
50
 62
4
100
AcDbLine
 10
37.986153
 20
1.199447
 30
0.0
 11
38.000313
 21
1.199613
 31
0.0
  0
LINE
  5
5AE
330
1F
100
AcDbEntity
  8
1
  6
CONTINUOUS
370
50
 62
4
100
AcDbLine
 10
36.826141
 20
1.195843
 30
0.0
 11
36.990917
 21
1.198053
 31
0.0
  0
LINE
  5
5AF
330
1F
100
AcDbEntity
  8
1
  6
CONTINUOUS
370
50
 62
4
100
AcDbLine
 10
40.669098
 20
-1.199764
 30
0.0
 11
40.707176
 21
-1.198951
 31
0.0
  0
LINE
  5
5B0
330
1F
100
AcDbEntity
  8
1
  6
CONTINUOUS
370
50
 62
4
100
AcDbLine
 10
36.662487
 20
1.192188
 30
0.0
 11
36.826141
 21
1.195843
 31
0.0
  0
LINE
  5
5B1
330
1F
100
AcDbEntity
  8
1
  6
CONTINUOUS
370
50
 62
4
100
AcDbLine
 10
37.799999
 20
1.010928
 30
0.0
 11
37.925385
 21
1.014419
 31
0.0
  0
LINE
  5
5B2
330
1F
100
AcDbEntity
  8
1
  6
CONTINUOUS
370
50
 62
4
100
AcDbLine
 10
43.238937
 20
1.196089
 30
0.0
 11
43.37656399999999
 21
1.200001
 31
0.0
  0
LINE
  5
5B3
330
1F
100
AcDbEntity
  8
1
  6
CONTINUOUS
370
50
 62
4
100
AcDbLine
 10
36.500782
 20
1.186555
 30
0.0
 11
36.662487
 21
1.192188
 31
0.0
  0
LINE
  5
5B4
330
1F
100
AcDbEntity
  8
1
  6
CONTINUOUS
370
50
 62
4
100
AcDbLine
 10
40.707176
 20
-1.198951
 30
0.0
 11
40.744949
 21
-1.197536
 31
0.0
  0
LINE
  5
5B5
330
1F
100
AcDbEntity
  8
1
  6
CONTINUOUS
370
50
 62
4
100
AcDbLine
 10
43.189304
 20
1.148583
 30
0.0
 11
43.332729
 21
1.155508
 31
0.0
  0
LINE
  5
5B6
330
1F
100
AcDbEntity
  8
1
  6
CONTINUOUS
370
50
 62
4
100
AcDbLine
 10
36.341869
 20
1.178368
 30
0.0
 11
36.500782
 21
1.186555
 31
0.0
  0
LINE
  5
5B7
330
1F
100
AcDbEntity
  8
1
  6
CONTINUOUS
370
50
 62
4
100
AcDbLine
 10
40.744949
 20
-1.197536
 30
0.0
 11
40.782532
 21
-1.195495
 31
0.0
  0
LINE
  5
5B8
330
1F
100
AcDbEntity
  8
1
  6
CONTINUOUS
370
50
 62
4
100
AcDbLine
 10
42.465504
 20
-1.05197
 30
0.0
 11
42.50829299999999
 21
-1.049222
 31
0.0
  0
LINE
  5
5B9
330
1F
100
AcDbEntity
  8
1
  6
CONTINUOUS
370
50
 62
4
100
AcDbLine
 10
42.422691
 20
-1.054748
 30
0.0
 11
42.465504
 21
-1.05197
 31
0.0
  0
LINE
  5
5BA
330
1F
100
AcDbEntity
  8
1
  6
CONTINUOUS
370
50
 62
4
100
AcDbLine
 10
42.304508
 20
-1.06246
 30
0.0
 11
42.34277
 21
-1.059967
 31
0.0
  0
LINE
  5
5BB
330
1F
100
AcDbEntity
  8
1
  6
CONTINUOUS
370
50
 62
4
100
AcDbLine
 10
42.380856
 20
-1.057479
 30
0.0
 11
42.422691
 21
-1.054748
 31
0.0
  0
LINE
  5
5BC
330
1F
100
AcDbEntity
  8
1
  6
CONTINUOUS
370
50
 62
4
100
AcDbLine
 10
42.34277
 20
-1.059967
 30
0.0
 11
42.380856
 21
-1.057479
 31
0.0
  0
LINE
  5
5BD
330
1F
100
AcDbEntity
  8
1
  6
CONTINUOUS
370
50
 62
4
100
AcDbLine
 10
42.264328
 20
-1.06511
 30
0.0
 11
42.304508
 21
-1.06246
 31
0.0
  0
LINE
  5
5BE
330
1F
100
AcDbEntity
  8
1
  6
CONTINUOUS
370
50
 62
4
100
AcDbLine
 10
42.2244
 20
-1.067856
 30
0.0
 11
42.264328
 21
-1.06511
 31
0.0
  0
LINE
  5
5BF
330
1F
100
AcDbEntity
  8
1
  6
CONTINUOUS
370
50
 62
4
100
AcDbLine
 10
42.184406
 20
-1.070717
 30
0.0
 11
42.2244
 21
-1.067856
 31
0.0
  0
LINE
  5
5C0
330
1F
100
AcDbEntity
  8
1
  6
CONTINUOUS
370
50
 62
4
100
AcDbLine
 10
40.782532
 20
-1.195495
 30
0.0
 11
40.820034
 21
-1.192804
 31
0.0
  0
LINE
  5
5C1
330
1F
100
AcDbEntity
  8
1
  6
CONTINUOUS
370
50
 62
4
100
AcDbLine
 10
36.186584
 20
1.167045
 30
0.0
 11
36.341869
 21
1.178368
 31
0.0
  0
LINE
  5
5C2
330
1F
100
AcDbEntity
  8
1
  6
CONTINUOUS
370
50
 62
4
100
AcDbLine
 10
42.143803
 20
-1.073732
 30
0.0
 11
42.184406
 21
-1.070717
 31
0.0
  0
LINE
  5
5C3
330
1F
100
AcDbEntity
  8
1
  6
CONTINUOUS
370
50
 62
4
100
AcDbLine
 10
42.100147
 20
-1.077093
 30
0.0
 11
42.143803
 21
-1.073732
 31
0.0
  0
LINE
  5
5C4
330
1F
100
AcDbEntity
  8
1
  6
CONTINUOUS
370
50
 62
4
100
AcDbLine
 10
44.436363
 20
0.760203
 30
0.0
 11
44.445988
 21
0.76095
 31
0.0
  0
LINE
  5
5C5
330
1F
100
AcDbEntity
  8
1
  6
CONTINUOUS
370
50
 62
4
100
AcDbLine
 10
42.048931
 20
-1.081191
 30
0.0
 11
42.100147
 21
-1.077093
 31
0.0
  0
LINE
  5
5C6
330
1F
100
AcDbEntity
  8
1
  6
CONTINUOUS
370
50
 62
4
100
AcDbLine
 10
41.363575
 20
-1.141138
 30
0.0
 11
41.427608
 21
-1.135934
 31
0.0
  0
LINE
  5
5C7
330
1F
100
AcDbEntity
  8
1
  6
CONTINUOUS
370
50
 62
4
100
AcDbLine
 10
41.967323
 20
-1.088004
 30
0.0
 11
42.048931
 21
-1.081191
 31
0.0
  0
LINE
  5
5C8
330
1F
100
AcDbEntity
  8
1
  6
CONTINUOUS
370
50
 62
4
100
AcDbLine
 10
41.427608
 20
-1.135934
 30
0.0
 11
41.489296
 21
-1.130767
 31
0.0
  0
LINE
  5
5C9
330
1F
100
AcDbEntity
  8
1
  6
CONTINUOUS
370
50
 62
4
100
AcDbLine
 10
41.307396
 20
-1.14591
 30
0.0
 11
41.363575
 21
-1.141138
 31
0.0
  0
LINE
  5
5CA
330
1F
100
AcDbEntity
  8
1
  6
CONTINUOUS
370
50
 62
4
100
AcDbLine
 10
41.905865
 20
-1.093335
 30
0.0
 11
41.967323
 21
-1.088004
 31
0.0
  0
LINE
  5
5CB
330
1F
100
AcDbEntity
  8
1
  6
CONTINUOUS
370
50
 62
4
100
AcDbLine
 10
41.489296
 20
-1.130767
 30
0.0
 11
41.549454
 21
-1.125536
 31
0.0
  0
LINE
  5
5CC
330
1F
100
AcDbEntity
  8
1
  6
CONTINUOUS
370
50
 62
4
100
AcDbLine
 10
43.10207
 20
1.184026
 30
0.0
 11
43.238937
 21
1.196089
 31
0.0
  0
LINE
  5
5CD
330
1F
100
AcDbEntity
  8
1
  6
CONTINUOUS
370
50
 62
4
100
AcDbLine
 10
41.855152
 20
-1.097841
 30
0.0
 11
41.905865
 21
-1.093335
 31
0.0
  0
LINE
  5
5CE
330
1F
100
AcDbEntity
  8
1
  6
CONTINUOUS
370
50
 62
4
100
AcDbLine
 10
41.252251
 20
-1.150821
 30
0.0
 11
41.307396
 21
-1.14591
 31
0.0
  0
LINE
  5
5CF
330
1F
100
AcDbEntity
  8
1
  6
CONTINUOUS
370
50
 62
4
100
AcDbLine
 10
41.549454
 20
-1.125536
 30
0.0
 11
41.608597
 21
-1.120258
 31
0.0
  0
LINE
  5
5D0
330
1F
100
AcDbEntity
  8
1
  6
CONTINUOUS
370
50
 62
4
100
AcDbLine
 10
40.820034
 20
-1.192804
 30
0.0
 11
40.857574
 21
-1.18944
 31
0.0
  0
LINE
  5
5D1
330
1F
100
AcDbEntity
  8
1
  6
CONTINUOUS
370
50
 62
4
100
AcDbLine
 10
41.798023
 20
-1.103
 30
0.0
 11
41.855152
 21
-1.097841
 31
0.0
  0
LINE
  5
5D2
330
1F
100
AcDbEntity
  8
1
  6
CONTINUOUS
370
50
 62
4
100
AcDbLine
 10
41.608597
 20
-1.120258
 30
0.0
 11
41.66666
 21
-1.114992
 31
0.0
  0
LINE
  5
5D3
330
1F
100
AcDbEntity
  8
1
  6
CONTINUOUS
370
50
 62
4
100
AcDbLine
 10
41.727581
 20
-1.109426
 30
0.0
 11
41.798023
 21
-1.103
 31
0.0
  0
LINE
  5
5D4
330
1F
100
AcDbEntity
  8
1
  6
CONTINUOUS
370
50
 62
4
100
AcDbLine
 10
41.66666
 20
-1.114992
 30
0.0
 11
41.727581
 21
-1.109426
 31
0.0
  0
LINE
  5
5D5
330
1F
100
AcDbEntity
  8
1
  6
CONTINUOUS
370
50
 62
4
100
AcDbLine
 10
41.186943
 20
-1.156884
 30
0.0
 11
41.252251
 21
-1.150821
 31
0.0
  0
LINE
  5
5D6
330
1F
100
AcDbEntity
  8
1
  6
CONTINUOUS
370
50
 62
4
100
AcDbLine
 10
41.115574
 20
-1.163752
 30
0.0
 11
41.186943
 21
-1.156884
 31
0.0
  0
LINE
  5
5D7
330
1F
100
AcDbEntity
  8
1
  6
CONTINUOUS
370
50
 62
4
100
AcDbLine
 10
44.445988
 20
0.76095
 30
0.0
 11
44.455612
 21
0.76189
 31
0.0
  0
LINE
  5
5D8
330
1F
100
AcDbEntity
  8
1
  6
CONTINUOUS
370
50
 62
4
100
AcDbLine
 10
41.065418
 20
-1.16869
 30
0.0
 11
41.115574
 21
-1.163752
 31
0.0
  0
LINE
  5
5D9
330
1F
100
AcDbEntity
  8
1
  6
CONTINUOUS
370
50
 62
4
100
AcDbLine
 10
40.857574
 20
-1.18944
 30
0.0
 11
40.896992
 21
-1.18553
 31
0.0
  0
LINE
  5
5DA
330
1F
100
AcDbEntity
  8
1
  6
CONTINUOUS
370
50
 62
4
100
AcDbLine
 10
41.015415
 20
-1.173673
 30
0.0
 11
41.065418
 21
-1.16869
 31
0.0
  0
LINE
  5
5DB
330
1F
100
AcDbEntity
  8
1
  6
CONTINUOUS
370
50
 62
4
100
AcDbLine
 10
36.035713
 20
1.152
 30
0.0
 11
36.186584
 21
1.167045
 31
0.0
  0
LINE
  5
5DC
330
1F
100
AcDbEntity
  8
1
  6
CONTINUOUS
370
50
 62
4
100
AcDbLine
 10
40.896992
 20
-1.18553
 30
0.0
 11
40.936401
 21
-1.181593
 31
0.0
  0
LINE
  5
5DD
330
1F
100
AcDbEntity
  8
1
  6
CONTINUOUS
370
50
 62
4
100
AcDbLine
 10
40.9758
 20
-1.177643
 30
0.0
 11
41.015415
 21
-1.173673
 31
0.0
  0
LINE
  5
5DE
330
1F
100
AcDbEntity
  8
1
  6
CONTINUOUS
370
50
 62
4
100
AcDbLine
 10
40.936401
 20
-1.181593
 30
0.0
 11
40.9758
 21
-1.177643
 31
0.0
  0
LINE
  5
5DF
330
1F
100
AcDbEntity
  8
1
  6
CONTINUOUS
370
50
 62
4
100
AcDbLine
 10
43.04586
 20
1.133497
 30
0.0
 11
43.189304
 21
1.148583
 31
0.0
  0
LINE
  5
5E0
330
1F
100
AcDbEntity
  8
1
  6
CONTINUOUS
370
50
 62
4
100
AcDbLine
 10
36.018768
 20
1.15001
 30
0.0
 11
36.035713
 21
1.152
 31
0.0
  0
LINE
  5
5E1
330
1F
100
AcDbEntity
  8
1
  6
CONTINUOUS
370
50
 62
4
100
AcDbLine
 10
44.455612
 20
0.76189
 30
0.0
 11
44.465218
 21
0.763027
 31
0.0
  0
LINE
  5
5E2
330
1F
100
AcDbEntity
  8
1
  6
CONTINUOUS
370
50
 62
4
100
AcDbLine
 10
36.001751
 20
1.147935
 30
0.0
 11
36.018768
 21
1.15001
 31
0.0
  0
LINE
  5
5E3
330
1F
100
AcDbEntity
  8
1
  6
CONTINUOUS
370
50
 62
4
100
AcDbLine
 10
35.984692
 20
1.145774
 30
0.0
 11
36.001751
 21
1.147935
 31
0.0
  0
LINE
  5
5E4
330
1F
100
AcDbEntity
  8
1
  6
CONTINUOUS
370
50
 62
4
100
AcDbLine
 10
35.967613
 20
1.143527
 30
0.0
 11
35.984692
 21
1.145774
 31
0.0
  0
LINE
  5
5E5
330
1F
100
AcDbEntity
  8
1
  6
CONTINUOUS
370
50
 62
4
100
AcDbLine
 10
35.950535
 20
1.14119
 30
0.0
 11
35.967613
 21
1.143527
 31
0.0
  0
LINE
  5
5E6
330
1F
100
AcDbEntity
  8
1
  6
CONTINUOUS
370
50
 62
4
100
AcDbLine
 10
44.465218
 20
0.763027
 30
0.0
 11
44.474781
 21
0.7643639999999999
 31
0.0
  0
LINE
  5
5E7
330
1F
100
AcDbEntity
  8
1
  6
CONTINUOUS
370
50
 62
4
100
AcDbLine
 10
35.933479
 20
1.138764
 30
0.0
 11
35.950535
 21
1.14119
 31
0.0
  0
LINE
  5
5E8
330
1F
100
AcDbEntity
  8
1
  6
CONTINUOUS
370
50
 62
4
100
AcDbLine
 10
42.954891
 20
1.162801
 30
0.0
 11
43.10207
 21
1.184026
 31
0.0
  0
LINE
  5
5E9
330
1F
100
AcDbEntity
  8
1
  6
CONTINUOUS
370
50
 62
4
100
AcDbLine
 10
35.916477
 20
1.136247
 30
0.0
 11
35.933479
 21
1.138764
 31
0.0
  0
LINE
  5
5EA
330
1F
100
AcDbEntity
  8
1
  6
CONTINUOUS
370
50
 62
4
100
AcDbLine
 10
35.899544
 20
1.133636
 30
0.0
 11
35.916477
 21
1.136247
 31
0.0
  0
LINE
  5
5EB
330
1F
100
AcDbEntity
  8
1
  6
CONTINUOUS
370
50
 62
4
100
AcDbLine
 10
42.902412
 20
1.110682
 30
0.0
 11
43.04586
 21
1.133497
 31
0.0
  0
LINE
  5
5EC
330
1F
100
AcDbEntity
  8
1
  6
CONTINUOUS
370
50
 62
4
100
AcDbLine
 10
35.882706
 20
1.130932
 30
0.0
 11
35.899544
 21
1.133636
 31
0.0
  0
LINE
  5
5ED
330
1F
100
AcDbEntity
  8
1
  6
CONTINUOUS
370
50
 62
4
100
AcDbLine
 10
44.474781
 20
0.7643639999999999
 30
0.0
 11
44.484283
 21
0.7659039999999999
 31
0.0
  0
LINE
  5
5EE
330
1F
100
AcDbEntity
  8
1
  6
CONTINUOUS
370
50
 62
4
100
AcDbLine
 10
35.86599
 20
1.128132
 30
0.0
 11
35.882706
 21
1.130932
 31
0.0
  0
LINE
  5
5EF
330
1F
100
AcDbEntity
  8
1
  6
CONTINUOUS
370
50
 62
4
100
AcDbLine
 10
35.849415
 20
1.125235
 30
0.0
 11
35.86599
 21
1.128132
 31
0.0
  0
LINE
  5
5F0
330
1F
100
AcDbEntity
  8
1
  6
CONTINUOUS
370
50
 62
4
100
AcDbLine
 10
35.833004
 20
1.122239
 30
0.0
 11
35.849415
 21
1.125235
 31
0.0
  0
LINE
  5
5F1
330
1F
100
AcDbEntity
  8
1
  6
CONTINUOUS
370
50
 62
4
100
AcDbLine
 10
38.197475
 20
-0.265173
 30
0.0
 11
38.232967
 21
-0.258595
 31
0.0
  0
LINE
  5
5F2
330
1F
100
AcDbEntity
  8
1
  6
CONTINUOUS
370
50
 62
4
100
AcDbLine
 10
44.484283
 20
0.7659039999999999
 30
0.0
 11
44.49369799999999
 21
0.767651
 31
0.0
  0
LINE
  5
5F3
330
1F
100
AcDbEntity
  8
1
  6
CONTINUOUS
370
50
 62
4
100
AcDbLine
 10
35.816784
 20
1.119144
 30
0.0
 11
35.833004
 21
1.122239
 31
0.0
  0
LINE
  5
5F4
330
1F
100
AcDbEntity
  8
1
  6
CONTINUOUS
370
50
 62
4
100
AcDbLine
 10
42.805431
 20
1.133173
 30
0.0
 11
42.954891
 21
1.162801
 31
0.0
  0
LINE
  5
5F5
330
1F
100
AcDbEntity
  8
1
  6
CONTINUOUS
370
50
 62
4
100
AcDbLine
 10
35.800777
 20
1.115947
 30
0.0
 11
35.816784
 21
1.119144
 31
0.0
  0
LINE
  5
5F6
330
1F
100
AcDbEntity
  8
1
  6
CONTINUOUS
370
50
 62
4
100
AcDbLine
 10
35.785118
 20
1.112672
 30
0.0
 11
35.800777
 21
1.115947
 31
0.0
  0
LINE
  5
5F7
330
1F
100
AcDbEntity
  8
1
  6
CONTINUOUS
370
50
 62
4
100
AcDbLine
 10
44.49369799999999
 20
0.767651
 30
0.0
 11
44.50301
 21
0.769608
 31
0.0
  0
LINE
  5
5F8
330
1F
100
AcDbEntity
  8
1
  6
CONTINUOUS
370
50
 62
4
100
AcDbLine
 10
42.758968
 20
1.080485
 30
0.0
 11
42.902412
 21
1.110682
 31
0.0
  0
LINE
  5
5F9
330
1F
100
AcDbEntity
  8
1
  6
CONTINUOUS
370
50
 62
4
100
AcDbLine
 10
35.770046
 20
1.109368
 30
0.0
 11
35.785118
 21
1.112672
 31
0.0
  0
LINE
  5
5FA
330
1F
100
AcDbEntity
  8
1
  6
CONTINUOUS
370
50
 62
4
100
AcDbLine
 10
35.755573
 20
1.10604
 30
0.0
 11
35.770046
 21
1.109368
 31
0.0
  0
LINE
  5
5FB
330
1F
100
AcDbEntity
  8
1
  6
CONTINUOUS
370
50
 62
4
100
AcDbLine
 10
44.50301
 20
0.769608
 30
0.0
 11
44.512218
 21
0.7717849999999999
 31
0.0
  0
LINE
  5
5FC
330
1F
100
AcDbEntity
  8
1
  6
CONTINUOUS
370
50
 62
4
100
AcDbLine
 10
35.741695
 20
1.102692
 30
0.0
 11
35.755573
 21
1.10604
 31
0.0
  0
LINE
  5
5FD
330
1F
100
AcDbEntity
  8
1
  6
CONTINUOUS
370
50
 62
4
100
AcDbLine
 10
38.232967
 20
-0.258595
 30
0.0
 11
38.283257
 21
-0.246111
 31
0.0
  0
LINE
  5
5FE
330
1F
100
AcDbEntity
  8
1
  6
CONTINUOUS
370
50
 62
4
100
AcDbLine
 10
42.656425
 20
1.095602
 30
0.0
 11
42.805431
 21
1.133173
 31
0.0
  0
LINE
  5
5FF
330
1F
100
AcDbEntity
  8
1
  6
CONTINUOUS
370
50
 62
4
100
AcDbLine
 10
35.728413
 20
1.099329
 30
0.0
 11
35.741695
 21
1.102692
 31
0.0
  0
LINE
  5
600
330
1F
100
AcDbEntity
  8
1
  6
CONTINUOUS
370
50
 62
4
100
AcDbLine
 10
42.615543
 20
1.043109
 30
0.0
 11
42.758968
 21
1.080485
 31
0.0
  0
LINE
  5
601
330
1F
100
AcDbEntity
  8
1
  6
CONTINUOUS
370
50
 62
4
100
AcDbLine
 10
44.512218
 20
0.7717849999999999
 30
0.0
 11
44.521362
 21
0.7742049999999999
 31
0.0
  0
LINE
  5
602
330
1F
100
AcDbEntity
  8
1
  6
CONTINUOUS
370
50
 62
4
100
AcDbLine
 10
35.715725
 20
1.095956
 30
0.0
 11
35.728413
 21
1.099329
 31
0.0
  0
LINE
  5
603
330
1F
100
AcDbEntity
  8
1
  6
CONTINUOUS
370
50
 62
4
100
AcDbLine
 10
35.703636
 20
1.092576
 30
0.0
 11
35.715725
 21
1.095956
 31
0.0
  0
LINE
  5
604
330
1F
100
AcDbEntity
  8
1
  6
CONTINUOUS
370
50
 62
4
100
AcDbLine
 10
35.692146
 20
1.089193
 30
0.0
 11
35.703636
 21
1.092576
 31
0.0
  0
LINE
  5
605
330
1F
100
AcDbEntity
  8
1
  6
CONTINUOUS
370
50
 62
4
100
AcDbLine
 10
44.521362
 20
0.7742049999999999
 30
0.0
 11
44.530403
 21
0.776875
 31
0.0
  0
LINE
  5
606
330
1F
100
AcDbEntity
  8
1
  6
CONTINUOUS
370
50
 62
4
100
AcDbLine
 10
42.508213
 20
1.049874
 30
0.0
 11
42.656425
 21
1.095602
 31
0.0
  0
LINE
  5
607
330
1F
100
AcDbEntity
  8
1
  6
CONTINUOUS
370
50
 62
4
100
AcDbLine
 10
35.681255
 20
1.085812
 30
0.0
 11
35.692146
 21
1.089193
 31
0.0
  0
LINE
  5
608
330
1F
100
AcDbEntity
  8
1
  6
CONTINUOUS
370
50
 62
4
100
AcDbLine
 10
35.670963
 20
1.082437
 30
0.0
 11
35.681255
 21
1.085812
 31
0.0
  0
LINE
  5
609
330
1F
100
AcDbEntity
  8
1
  6
CONTINUOUS
370
50
 62
4
100
AcDbLine
 10
44.530403
 20
0.776875
 30
0.0
 11
44.539303
 21
0.779802
 31
0.0
  0
LINE
  5
60A
330
1F
100
AcDbEntity
  8
1
  6
CONTINUOUS
370
50
 62
4
100
AcDbLine
 10
35.661274
 20
1.079073
 30
0.0
 11
35.670963
 21
1.082437
 31
0.0
  0
LINE
  5
60B
330
1F
100
AcDbEntity
  8
1
  6
CONTINUOUS
370
50
 62
4
100
AcDbLine
 10
44.539303
 20
0.779802
 30
0.0
 11
44.548019
 21
0.782995
 31
0.0
  0
LINE
  5
60C
330
1F
100
AcDbEntity
  8
1
  6
CONTINUOUS
370
50
 62
4
100
AcDbLine
 10
35.65218
 20
1.075723
 30
0.0
 11
35.661274
 21
1.079073
 31
0.0
  0
LINE
  5
60D
330
1F
100
AcDbEntity
  8
1
  6
CONTINUOUS
370
50
 62
4
100
AcDbLine
 10
35.643688
 20
1.072392
 30
0.0
 11
35.65218
 21
1.075723
 31
0.0
  0
LINE
  5
60E
330
1F
100
AcDbEntity
  8
1
  6
CONTINUOUS
370
50
 62
4
100
AcDbLine
 10
44.548019
 20
0.782995
 30
0.0
 11
44.556511
 21
0.7864599999999999
 31
0.0
  0
LINE
  5
60F
330
1F
100
AcDbEntity
  8
1
  6
CONTINUOUS
370
50
 62
4
100
AcDbLine
 10
35.635799
 20
1.069084
 30
0.0
 11
35.643688
 21
1.072392
 31
0.0
  0
LINE
  5
610
330
1F
100
AcDbEntity
  8
1
  6
CONTINUOUS
370
50
 62
4
100
AcDbLine
 10
35.628372
 20
1.065738
 30
0.0
 11
35.635799
 21
1.069084
 31
0.0
  0
LINE
  5
611
330
1F
100
AcDbEntity
  8
1
  6
CONTINUOUS
370
50
 62
4
100
AcDbLine
 10
44.556511
 20
0.7864599999999999
 30
0.0
 11
44.564743
 21
0.7902049999999999
 31
0.0
  0
LINE
  5
612
330
1F
100
AcDbEntity
  8
1
  6
CONTINUOUS
370
50
 62
4
100
AcDbLine
 10
35.621006
 20
1.062135
 30
0.0
 11
35.628372
 21
1.065738
 31
0.0
  0
LINE
  5
613
330
1F
100
AcDbEntity
  8
1
  6
CONTINUOUS
370
50
 62
4
100
AcDbLine
 10
37.799911
 20
-1.2
 30
0.0
 11
37.799927
 21
-1.199992
 31
0.0
  0
LINE
  5
614
330
1F
100
AcDbEntity
  8
1
  6
CONTINUOUS
370
50
 62
4
100
AcDbLine
 10
37.799957
 20
-1.199975
 30
0.0
 11
37.799973
 21
-1.199967
 31
0.0
  0
LINE
  5
615
330
1F
100
AcDbEntity
  8
1
  6
CONTINUOUS
370
50
 62
4
100
AcDbLine
 10
44.564743
 20
0.7902049999999999
 30
0.0
 11
44.572712
 21
0.7942619999999999
 31
0.0
  0
LINE
  5
616
330
1F
100
AcDbEntity
  8
1
  6
CONTINUOUS
370
50
 62
4
100
AcDbLine
 10
44.799305
 20
-0.157035
 30
0.0
 11
44.799999
 21
-0.156674
 31
0.0
  0
LINE
  5
617
330
1F
100
AcDbEntity
  8
1
  6
CONTINUOUS
370
50
 62
4
100
AcDbLine
 10
44.681316
 20
-0.220563
 30
0.0
 11
44.80019799999999
 21
-0.158641
 31
0.0
  0
LINE
  5
618
330
1F
100
AcDbEntity
  8
1
  6
CONTINUOUS
370
50
 62
4
100
AcDbLine
 10
37.799942
 20
-1.199983
 30
0.0
 11
37.799957
 21
-1.199975
 31
0.0
  0
LINE
  5
619
330
1F
100
AcDbEntity
  8
1
  6
CONTINUOUS
370
50
 62
4
100
AcDbLine
 10
37.79998399999999
 20
-1.199958
 30
0.0
 11
37.799999
 21
-1.19995
 31
0.0
  0
LINE
  5
61A
330
1F
100
AcDbEntity
  8
1
  6
CONTINUOUS
370
50
 62
4
100
AcDbLine
 10
35.613873
 20
1.05829
 30
0.0
 11
35.621006
 21
1.062135
 31
0.0
  0
LINE
  5
61B
330
1F
100
AcDbEntity
  8
1
  6
CONTINUOUS
370
50
 62
4
100
AcDbLine
 10
44.572712
 20
0.7942619999999999
 30
0.0
 11
44.580372
 21
0.798647
 31
0.0
  0
LINE
  5
61C
330
1F
100
AcDbEntity
  8
1
  6
CONTINUOUS
370
50
 62
4
100
AcDbLine
 10
28.0
 20
-1.99995
 30
0.0
 11
29.385553
 21
-1.2
 31
0.0
  0
LINE
  5
61D
330
1F
100
AcDbEntity
  8
1
  6
CONTINUOUS
370
50
 62
4
100
AcDbLine
 10
37.799927
 20
-1.199992
 30
0.0
 11
37.799942
 21
-1.199983
 31
0.0
  0
LINE
  5
61E
330
1F
100
AcDbEntity
  8
1
  6
CONTINUOUS
370
50
 62
4
100
AcDbLine
 10
35.607201
 20
1.05424
 30
0.0
 11
35.613873
 21
1.05829
 31
0.0
  0
LINE
  5
61F
330
1F
100
AcDbEntity
  8
1
  6
CONTINUOUS
370
50
 62
4
100
AcDbLine
 10
44.580372
 20
0.798647
 30
0.0
 11
44.587658
 21
0.8033669999999999
 31
0.0
  0
LINE
  5
620
330
1F
100
AcDbEntity
  8
1
  6
CONTINUOUS
370
50
 62
4
100
AcDbLine
 10
35.601212
 20
1.050022
 30
0.0
 11
35.607201
 21
1.05424
 31
0.0
  0
LINE
  5
621
330
1F
100
AcDbEntity
  8
1
  6
CONTINUOUS
370
50
 62
4
100
AcDbLine
 10
44.587658
 20
0.8033669999999999
 30
0.0
 11
44.594494
 21
0.8084279999999999
 31
0.0
  0
LINE
  5
622
330
1F
100
AcDbEntity
  8
1
  6
CONTINUOUS
370
50
 62
4
100
AcDbLine
 10
37.799973
 20
-1.199967
 30
0.0
 11
37.79998399999999
 21
-1.199958
 31
0.0
  0
LINE
  5
623
330
1F
100
AcDbEntity
  8
1
  6
CONTINUOUS
370
50
 62
4
100
AcDbLine
 10
44.594494
 20
0.8084279999999999
 30
0.0
 11
44.600815
 21
0.813836
 31
0.0
  0
LINE
  5
624
330
1F
100
AcDbEntity
  8
1
  6
CONTINUOUS
370
50
 62
4
100
AcDbLine
 10
35.596088
 20
1.045628
 30
0.0
 11
35.601212
 21
1.050022
 31
0.0
  0
LINE
  5
625
330
1F
100
AcDbEntity
  8
1
  6
CONTINUOUS
370
50
 62
4
100
AcDbLine
 10
44.600815
 20
0.813836
 30
0.0
 11
44.606537
 21
0.819581
 31
0.0
  0
LINE
  5
626
330
1F
100
AcDbEntity
  8
1
  6
CONTINUOUS
370
50
 62
4
100
AcDbLine
 10
35.591946
 20
1.040879
 30
0.0
 11
35.596088
 21
1.045628
 31
0.0
  0
LINE
  5
627
330
1F
100
AcDbEntity
  8
1
  6
CONTINUOUS
370
50
 62
4
100
AcDbLine
 10
44.606537
 20
0.819581
 30
0.0
 11
44.61156099999999
 21
0.8256359999999999
 31
0.0
  0
LINE
  5
628
330
1F
100
AcDbEntity
  8
1
  6
CONTINUOUS
370
50
 62
4
100
AcDbLine
 10
44.61156099999999
 20
0.8256359999999999
 30
0.0
 11
44.615822
 21
0.8319949999999999
 31
0.0
  0
LINE
  5
629
330
1F
100
AcDbEntity
  8
1
  6
CONTINUOUS
370
50
 62
4
100
AcDbLine
 10
35.58934
 20
1.035868
 30
0.0
 11
35.591946
 21
1.040879
 31
0.0
  0
LINE
  5
62A
330
1F
100
AcDbEntity
  8
1
  6
CONTINUOUS
370
50
 62
4
100
AcDbLine
 10
44.615822
 20
0.8319949999999999
 30
0.0
 11
44.619259
 21
0.838654
 31
0.0
  0
LINE
  5
62B
330
1F
100
AcDbEntity
  8
1
  6
CONTINUOUS
370
50
 62
4
100
AcDbLine
 10
44.619259
 20
0.838654
 30
0.0
 11
44.621788
 21
0.845541
 31
0.0
  0
LINE
  5
62C
330
1F
100
AcDbEntity
  8
1
  6
CONTINUOUS
370
50
 62
4
100
AcDbLine
 10
37.799911
 20
0.447854
 30
0.0
 11
37.799927
 21
0.447898
 31
0.0
  0
LINE
  5
62D
330
1F
100
AcDbEntity
  8
1
  6
CONTINUOUS
370
50
 62
4
100
AcDbLine
 10
37.799957
 20
0.447987
 30
0.0
 11
37.799973
 21
0.448032
 31
0.0
  0
LINE
  5
62E
330
1F
100
AcDbEntity
  8
1
  6
CONTINUOUS
370
50
 62
4
100
AcDbLine
 10
37.799942
 20
0.447943
 30
0.0
 11
37.799957
 21
0.447987
 31
0.0
  0
LINE
  5
62F
330
1F
100
AcDbEntity
  8
1
  6
CONTINUOUS
370
50
 62
4
100
AcDbLine
 10
37.79998399999999
 20
0.448076
 30
0.0
 11
37.799999
 21
0.44812
 31
0.0
  0
LINE
  5
630
330
1F
100
AcDbEntity
  8
1
  6
CONTINUOUS
370
50
 62
4
100
AcDbLine
 10
37.799927
 20
0.447898
 30
0.0
 11
37.799942
 21
0.447943
 31
0.0
  0
LINE
  5
631
330
1F
100
AcDbEntity
  8
1
  6
CONTINUOUS
370
50
 62
4
100
AcDbLine
 10
37.799973
 20
0.448032
 30
0.0
 11
37.79998399999999
 21
0.448076
 31
0.0
  0
LINE
  5
632
330
1F
100
AcDbEntity
  8
1
  6
CONTINUOUS
370
50
 62
4
100
AcDbLine
 10
44.621788
 20
0.845541
 30
0.0
 11
44.623341
 21
0.8525309999999999
 31
0.0
  0
LINE
  5
633
330
1F
100
AcDbEntity
  8
1
  6
CONTINUOUS
370
50
 62
4
100
AcDbLine
 10
44.6688
 20
-0.27729
 30
0.0
 11
44.681316
 21
-0.220563
 31
0.0
  0
LINE
  5
634
330
1F
100
AcDbEntity
  8
1
  6
CONTINUOUS
370
50
 62
4
100
AcDbLine
 10
44.65707
 20
-0.333941
 30
0.0
 11
44.6688
 21
-0.27729
 31
0.0
  0
LINE
  5
635
330
1F
100
AcDbEntity
  8
1
  6
CONTINUOUS
370
50
 62
4
100
AcDbLine
 10
44.64615999999999
 20
-0.390416
 30
0.0
 11
44.65707
 21
-0.333941
 31
0.0
  0
LINE
  5
636
330
1F
100
AcDbEntity
  8
1
  6
CONTINUOUS
370
50
 62
4
100
AcDbLine
 10
44.636108
 20
-0.446588
 30
0.0
 11
44.64615999999999
 21
-0.390416
 31
0.0
  0
LINE
  5
637
330
1F
100
AcDbEntity
  8
1
  6
CONTINUOUS
370
50
 62
4
100
AcDbLine
 10
44.626987
 20
-0.502122
 30
0.0
 11
44.636108
 21
-0.446588
 31
0.0
  0
LINE
  5
638
330
1F
100
AcDbEntity
  8
1
  6
CONTINUOUS
370
50
 62
4
100
AcDbLine
 10
44.618828
 20
-0.556858
 30
0.0
 11
44.626987
 21
-0.502122
 31
0.0
  0
LINE
  5
639
330
1F
100
AcDbEntity
  8
1
  6
CONTINUOUS
370
50
 62
4
100
AcDbLine
 10
44.611656
 20
-0.61069
 30
0.0
 11
44.618828
 21
-0.556858
 31
0.0
  0
LINE
  5
63A
330
1F
100
AcDbEntity
  8
1
  6
CONTINUOUS
370
50
 62
4
100
AcDbLine
 10
44.605492
 20
-0.6635099999999999
 30
0.0
 11
44.611656
 21
-0.61069
 31
0.0
  0
LINE
  5
63B
330
1F
100
AcDbEntity
  8
1
  6
CONTINUOUS
370
50
 62
4
100
AcDbLine
 10
44.600365
 20
-0.7151839999999999
 30
0.0
 11
44.605492
 21
-0.6635099999999999
 31
0.0
  0
LINE
  5
63C
330
1F
100
AcDbEntity
  8
1
  6
CONTINUOUS
370
50
 62
4
100
AcDbLine
 10
44.623341
 20
0.8525309999999999
 30
0.0
 11
44.623924
 21
0.8595999999999999
 31
0.0
  0
LINE
  5
63D
330
1F
100
AcDbEntity
  8
1
  6
CONTINUOUS
370
50
 62
4
100
AcDbLine
 10
35.588913
 20
1.03068
 30
0.0
 11
35.58934
 21
1.035868
 31
0.0
  0
LINE
  5
63E
330
1F
100
AcDbEntity
  8
1
  6
CONTINUOUS
370
50
 62
4
100
AcDbLine
 10
44.59631
 20
-0.765389
 30
0.0
 11
44.600365
 21
-0.7151839999999999
 31
0.0
  0
LINE
  5
63F
330
1F
100
AcDbEntity
  8
1
  6
CONTINUOUS
370
50
 62
4
100
AcDbLine
 10
44.593342
 20
-0.8139799999999999
 30
0.0
 11
44.59631
 21
-0.765389
 31
0.0
  0
LINE
  5
640
330
1F
100
AcDbEntity
  8
1
  6
CONTINUOUS
370
50
 62
4
100
AcDbLine
 10
44.413166
 20
0.7215389999999999
 30
0.0
 11
44.414021
 21
0.760658
 31
0.0
  0
LINE
  5
641
330
1F
100
AcDbEntity
  8
1
  6
CONTINUOUS
370
50
 62
4
100
AcDbLine
 10
28.0
 20
-1.99995
 30
0.0
 11
28.0
 21
1.99995
 31
0.0
  0
LINE
  5
642
330
1F
100
AcDbEntity
  8
1
  6
CONTINUOUS
370
50
 62
4
100
AcDbLine
 10
29.385553
 20
-1.2
 30
0.0
 11
29.385553
 21
1.2
 31
0.0
  0
LINE
  5
643
330
1F
100
AcDbEntity
  8
1
  6
CONTINUOUS
370
50
 62
4
100
AcDbLine
 10
37.799911
 20
-1.2
 30
0.0
 11
37.799911
 21
0.447854
 31
0.0
  0
LINE
  5
644
330
1F
100
AcDbEntity
  8
1
  6
CONTINUOUS
370
50
 62
4
100
AcDbLine
 10
37.799999
 20
-1.2
 30
0.0
 11
37.799999
 21
1.2
 31
0.0
  0
LINE
  5
645
330
1F
100
AcDbEntity
  8
1
  6
CONTINUOUS
370
50
 62
4
100
AcDbLine
 10
44.799999
 20
-0.15826
 30
0.0
 11
44.799999
 21
0.539632
 31
0.0
  0
LINE
  5
646
330
1F
100
AcDbEntity
  8
1
  6
CONTINUOUS
370
50
 62
4
100
AcDbLine
 10
44.799999
 20
-0.679314
 30
0.0
 11
44.799999
 21
-0.159761
 31
0.0
  0
LINE
  5
647
330
1F
100
AcDbEntity
  8
1
  6
CONTINUOUS
370
50
 62
4
100
AcDbLine
 10
44.990505
 20
-0.967503
 30
0.0
 11
44.990505
 21
-0.6052839999999999
 31
0.0
  0
LINE
  5
648
330
1F
100
AcDbEntity
  8
1
  6
CONTINUOUS
370
50
 62
4
100
AcDbLine
 10
45.0
 20
0.5396099999999999
 30
0.0
 11
45.0
 21
0.89935
 31
0.0
  0
LINE
  5
649
330
1F
100
AcDbEntity
  8
1
  6
CONTINUOUS
370
50
 62
4
100
AcDbLine
 10
45.0
 20
-0.89935
 30
0.0
 11
45.0
 21
-0.5396099999999999
 31
0.0
  0
ELLIPSE
  5
64A
330
1F
100
AcDbEntity
  8
1
  6
CONTINUOUS
370
50
 62
4
100
AcDbEllipse
 10
45.0
 20
0.0
 30
0.0
 11
0.0418830229542912
 21
0.7199949986647199
 31
0.0
210
0.0
220
0.0
230
1.0
 40
0.0653490637254038
 41
3.717666368396029
 42
3.868945867871459
  0
ELLIPSE
  5
64B
330
1F
100
AcDbEntity
  8
1
  6
CONTINUOUS
370
50
 62
4
100
AcDbEllipse
 10
45.0
 20
0.0
 30
0.0
 11
-0.3499992563583305
 21
0.7114968738923709
 31
0.0
210
0.0
220
0.0
230
1.0
 40
0.3152200800334128
 41
0.5698755595870275
 42
1.636830921507667
  0
ELLIPSE
  5
64C
330
1F
100
AcDbEntity
  8
1
  6
CONTINUOUS
370
50
 62
4
100
AcDbEllipse
 10
45.0
 20
0.0
 30
0.0
 11
0.3500307570719343
 21
0.7114991195115069
 31
0.0
210
0.0
220
0.0
230
1.0
 40
0.315148820293915
 41
1.502456103872668
 42
1.50299635131095
  0
ELLIPSE
  5
64D
330
1F
100
AcDbEntity
  8
1
  6
CONTINUOUS
370
50
 62
4
100
AcDbEllipse
 10
45.0
 20
0.0
 30
0.0
 11
-0.3500307570719274
 21
0.7114991195115093
 31
0.0
210
0.0
220
0.0
230
1.0
 40
0.3151488202939143
 41
0.5697366756802066
 42
1.639136549717128
  0
ELLIPSE
  5
64E
330
1F
100
AcDbEntity
  8
1
  6
CONTINUOUS
370
50
 62
4
100
AcDbEllipse
 10
45.0
 20
0.0
 30
0.0
 11
0.06980499960710425
 21
1.199991000022855
 31
0.0
210
0.0
220
0.0
230
0.9999999999999999
 40
0.0653488391700872
 41
3.778401941343292
 42
3.86894757443224
  0
ELLIPSE
  5
64F
330
1F
100
AcDbEntity
  8
1
  6
CONTINUOUS
370
50
 62
4
100
AcDbEllipse
 10
45.0
 20
0.0
 30
0.0
 11
-0.0698049996071009
 21
1.199991000022856
 31
0.0
210
0.0
220
0.0
230
1.0
 40
0.0653488391700872
 41
5.555830386337159
 42
5.646376019426102
  0
ELLIPSE
  5
650
330
1F
100
AcDbEntity
  8
1
  6
CONTINUOUS
370
50
 62
4
100
AcDbEllipse
 10
45.03
 20
0.0
 30
0.0
 11
0.1861509693039594
 21
0.71841200795379
 31
0.0
210
0.0
220
0.0
230
1.0
 40
0.2567495424664097
 41
1.859383152096754
 42
3.780295654926797
  0
ELLIPSE
  5
651
330
1F
100
AcDbEntity
  8
1
  6
CONTINUOUS
370
50
 62
4
100
AcDbEllipse
 10
45.03
 20
0.0
 30
0.0
 11
-0.1861509693039489
 21
0.7184120079537925
 31
0.0
210
0.0
220
0.0
230
0.9999999999999999
 40
0.256749542466409
 41
1.28060385871697
 42
1.282209501493048
  0
ELLIPSE
  5
652
330
1F
100
AcDbEntity
  8
1
  6
CONTINUOUS
370
50
 62
4
100
AcDbEllipse
 10
45.03
 20
0.0
 30
0.0
 11
0.31025155554131
 21
1.197353115165779
 31
0.0
210
0.0
220
0.0
230
1.0
 40
0.2567496596876146
 41
2.382695494185217
 42
3.841029409417125
  0
ELLIPSE
  5
653
330
1F
100
AcDbEntity
  8
1
  6
CONTINUOUS
370
50
 62
4
100
AcDbEllipse
 10
45.03
 20
0.0
 30
0.0
 11
-0.310251555541303
 21
1.197353115165781
 31
0.0
210
0.0
220
0.0
230
1.0
 40
0.2567496596876169
 41
5.583748551352274
 42
6.213912263555611
  0
LINE
  5
654
330
1F
100
AcDbEntity
  8
CUT
  6
CONTINUOUS
370
25
 62
1
100
AcDbLine
 10
37.8
 20
0.72
 30
0.0
 11
45.0
 21
0.72
 31
0.0
  0
LINE
  5
655
330
1F
100
AcDbEntity
  8
CUT
  6
CONTINUOUS
370
25
 62
1
100
AcDbLine
 10
45.0
 20
0.72
 30
0.0
 11
45.0
 21
1.2
 31
0.0
  0
LINE
  5
656
330
1F
100
AcDbEntity
  8
CUT
  6
CONTINUOUS
370
25
 62
1
100
AcDbLine
 10
45.0
 20
1.2
 30
0.0
 11
37.8
 21
1.2
 31
0.0
  0
LINE
  5
657
330
1F
100
AcDbEntity
  8
CUT
  6
CONTINUOUS
370
25
 62
1
100
AcDbLine
 10
37.8
 20
1.2
 30
0.0
 11
37.8
 21
0.72
 31
0.0
  0
LINE
  5
658
330
1F
100
AcDbEntity
  8
NOCUT
  6
CONTINUOUS
370
25
 62
7
100
AcDbLine
 10
28.0
 20
0.0
 30
0.0
 11
44.8
 21
0.0
 31
0.0
  0
LINE
  5
659
330
1F
100
AcDbEntity
  8
NOCUT
  6
CONTINUOUS
370
25
 62
7
100
AcDbLine
 10
44.8
 20
0.0
 30
0.0
 11
44.8
 21
0.72
 31
0.0
  0
LINE
  5
65A
330
1F
100
AcDbEntity
  8
NOCUT
  6
CONTINUOUS
370
25
 62
7
100
AcDbLine
 10
44.8
 20
0.72
 30
0.0
 11
37.8
 21
0.72
 31
0.0
  0
LINE
  5
65B
330
1F
100
AcDbEntity
  8
NOCUT
  6
CONTINUOUS
370
25
 62
7
100
AcDbLine
 10
37.8
 20
0.72
 30
0.0
 11
37.8
 21
1.19995
 31
0.0
  0
LINE
  5
65C
330
1F
100
AcDbEntity
  8
NOCUT
  6
CONTINUOUS
370
25
 62
7
100
AcDbLine
 10
37.8
 20
1.19995
 30
0.0
 11
37.79991339745962
 21
1.2
 31
0.0
  0
LINE
  5
65D
330
1F
100
AcDbEntity
  8
NOCUT
  6
CONTINUOUS
370
25
 62
7
100
AcDbLine
 10
37.79991339745962
 20
1.2
 30
0.0
 11
29.38555404351472
 21
1.2
 31
0.0
  0
LINE
  5
65E
330
1F
100
AcDbEntity
  8
NOCUT
  6
CONTINUOUS
370
25
 62
7
100
AcDbLine
 10
29.38555404351472
 20
1.2
 30
0.0
 11
28.0
 21
1.99995
 31
0.0
  0
LINE
  5
65F
330
1F
100
AcDbEntity
  8
NOCUT
  6
CONTINUOUS
370
25
 62
7
100
AcDbLine
 10
28.0
 20
1.99995
 30
0.0
 11
28.0
 21
0.0
 31
0.0
  0
LINE
  5
660
330
1F
100
AcDbEntity
  8
SK1
  6
CONTINUOUS
370
50
 62
4
100
AcDbLine
 10
28.0
 20
2.0
 30
0.0
 11
0.3000000000000007
 21
2.0
 31
0.0
  0
LINE
  5
661
330
1F
100
AcDbEntity
  8
SK1
  6
CONTINUOUS
370
50
 62
4
100
AcDbLine
 10
0.3000000000000007
 20
2.0
 30
0.0
 11
0.0
 21
1.7
 31
0.0
  0
LINE
  5
662
330
1F
100
AcDbEntity
  8
SK1
  6
CONTINUOUS
370
50
 62
4
100
AcDbLine
 10
0.0
 20
1.7
 30
0.0
 11
0.0
 21
-1.7
 31
0.0
  0
LINE
  5
663
330
1F
100
AcDbEntity
  8
SK1
  6
CONTINUOUS
370
50
 62
4
100
AcDbLine
 10
0.0
 20
-1.7
 30
0.0
 11
0.3000000000000007
 21
-2.0
 31
0.0
  0
LINE
  5
664
330
1F
100
AcDbEntity
  8
SK1
  6
CONTINUOUS
370
50
 62
4
100
AcDbLine
 10
0.3000000000000007
 20
-2.0
 30
0.0
 11
28.0
 21
-2.0
 31
0.0
  0
LINE
  5
665
330
1F
100
AcDbEntity
  8
SK2
  6
CONTINUOUS
370
25
 62
7
100
AcDbLine
 10
-10.0000002
 20
-2.000001
 30
0.0
 11
-11.00000000000009
 21
-2.000001
 31
0.0
  0
LINE
  5
666
330
1F
100
AcDbEntity
  8
SK2
  6
CONTINUOUS
370
25
 62
7
100
AcDbLine
 10
0.0
 20
-2.000001
 30
0.0
 11
-9.999999800000001
 21
-2.000001
 31
0.0
  0
LINE
  5
667
330
1F
100
AcDbEntity
  8
SK2
  6
CONTINUOUS
370
25
 62
7
100
AcDbLine
 10
-11.0
 20
2.0
 30
0.0
 11
0.0
 21
2.0
 31
0.0
  0
LINE
  5
668
330
1F
100
AcDbEntity
  8
SK2
  6
CONTINUOUS
370
25
 62
7
100
AcDbLine
 10
-10.0
 20
-17.10625
 30
0.0
 11
-10.0
 21
12.0
 31
0.0
  0
LINE
  5
669
330
1F
100
AcDbEntity
  8
SK2
  6
CONTINUOUS
370
25
 62
7
100
AcDbLine
 10
-10.0
 20
-2.0
 30
0.0
 11
-9.0
 21
-7.0
 31
0.0
  0
LINE
  5
66A
330
1F
100
AcDbEntity
  8
SK2
  6
CONTINUOUS
370
25
 62
7
100
AcDbLine
 10
-9.0
 20
-7.0
 30
0.0
 11
-11.0
 21
-7.0
 31
0.0
  0
LINE
  5
66B
330
1F
100
AcDbEntity
  8
SK2
  6
CONTINUOUS
370
25
 62
7
100
AcDbLine
 10
-11.0
 20
-7.0
 30
0.0
 11
-10.0
 21
-2.0
 31
0.0
  0
LINE
  5
66C
330
1F
100
AcDbEntity
  8
SK2
  6
CONTINUOUS
370
25
 62
7
100
AcDbLine
 10
-9.122748878546894
 20
-7.0
 30
0.0
 11
-9.020458146424481
 21
-6.897709267877588
 31
0.0
  0
LINE
  5
66D
330
1F
100
AcDbEntity
  8
SK2
  6
CONTINUOUS
370
25
 62
7
100
AcDbLine
 10
-9.547012947258835
 20
-7.000000000000004
 30
0.0
 11
-9.09116882454314
 21
-6.544155877284307
 31
0.0
  0
LINE
  5
66E
330
1F
100
AcDbEntity
  8
SK2
  6
CONTINUOUS
370
25
 62
7
100
AcDbLine
 10
-9.971277015970763
 20
-7.0
 30
0.0
 11
-9.16187950266179
 21
-6.190602486691027
 31
0.0
  0
LINE
  5
66F
330
1F
100
AcDbEntity
  8
SK2
  6
CONTINUOUS
370
25
 62
7
100
AcDbLine
 10
-10.39554108468269
 20
-6.999999999999996
 30
0.0
 11
-9.232590180780448
 21
-5.837049096097754
 31
0.0
  0
LINE
  5
670
330
1F
100
AcDbEntity
  8
SK2
  6
CONTINUOUS
370
25
 62
7
100
AcDbLine
 10
-10.81980515339462
 20
-7.0
 30
0.0
 11
-9.3033008588991
 21
-5.483495705504481
 31
0.0
  0
LINE
  5
671
330
1F
100
AcDbEntity
  8
SK2
  6
CONTINUOUS
370
25
 62
7
100
AcDbLine
 10
-10.93898269447337
 20
-6.694913472366821
 30
0.0
 11
-9.374011537017758
 21
-5.129942314911212
 31
0.0
  0
LINE
  5
672
330
1F
100
AcDbEntity
  8
SK2
  6
CONTINUOUS
370
25
 62
7
100
AcDbLine
 10
-10.83291667729538
 20
-6.164583386476899
 30
0.0
 11
-9.444722215136416
 21
-4.776388924317935
 31
0.0
  0
LINE
  5
673
330
1F
100
AcDbEntity
  8
SK2
  6
CONTINUOUS
370
25
 62
7
100
AcDbLine
 10
-10.7268506601174
 20
-5.634253300586991
 30
0.0
 11
-9.515432893255067
 21
-4.422835533724658
 31
0.0
  0
LINE
  5
674
330
1F
100
AcDbEntity
  8
SK2
  6
CONTINUOUS
370
25
 62
7
100
AcDbLine
 10
-10.62078464293942
 20
-5.103923214697076
 30
0.0
 11
-9.586143571373718
 21
-4.069282143131375
 31
0.0
  0
LINE
  5
675
330
1F
100
AcDbEntity
  8
SK2
  6
CONTINUOUS
370
25
 62
7
100
AcDbLine
 10
-10.51471862576143
 20
-4.573593128807154
 30
0.0
 11
-9.656854249492376
 21
-3.715728752538098
 31
0.0
  0
LINE
  5
676
330
1F
100
AcDbEntity
  8
SK2
  6
CONTINUOUS
370
25
 62
7
100
AcDbLine
 10
-10.40865260858344
 20
-4.043263042917239
 30
0.0
 11
-9.727564927611034
 21
-3.362175361944828
 31
0.0
  0
LINE
  5
677
330
1F
100
AcDbEntity
  8
SK2
  6
CONTINUOUS
370
25
 62
7
100
AcDbLine
 10
-10.30258659140546
 20
-3.512932957027324
 30
0.0
 11
-9.798275605729692
 21
-3.008621971351552
 31
0.0
  0
LINE
  5
678
330
1F
100
AcDbEntity
  8
SK2
  6
CONTINUOUS
370
25
 62
7
100
AcDbLine
 10
-10.19652057422748
 20
-2.982602871137416
 30
0.0
 11
-9.868986283848344
 21
-2.655068580758275
 31
0.0
  0
LINE
  5
679
330
1F
100
AcDbEntity
  8
SK2
  6
CONTINUOUS
370
25
 62
7
100
AcDbLine
 10
-10.0904545570495
 20
-2.452272785247509
 30
0.0
 11
-9.939696961966995
 21
-2.301515190164999
 31
0.0
  0
LINE
  5
67A
330
1F
100
AcDbEntity
  8
SK2
  6
CONTINUOUS
370
25
 62
7
100
AcDbLine
 10
-10.97662979415877
 20
-6.883148970793854
 30
0.0
 11
-10.85977876495262
 21
-7.0
 31
0.0
  0
LINE
  5
67B
330
1F
100
AcDbEntity
  8
SK2
  6
CONTINUOUS
370
25
 62
7
100
AcDbLine
 10
-10.90591911604012
 20
-6.529595580200578
 30
0.0
 11
-10.43551469624069
 21
-7.0
 31
0.0
  0
LINE
  5
67C
330
1F
100
AcDbEntity
  8
SK2
  6
CONTINUOUS
370
25
 62
7
100
AcDbLine
 10
-10.83520843792146
 20
-6.176042189607294
 30
0.0
 11
-10.01125062752875
 21
-7.0
 31
0.0
  0
LINE
  5
67D
330
1F
100
AcDbEntity
  8
SK2
  6
CONTINUOUS
370
25
 62
7
100
AcDbLine
 10
-10.76449775980281
 20
-5.82248879901401
 30
0.0
 11
-9.586986558816818
 21
-7.0
 31
0.0
  0
LINE
  5
67E
330
1F
100
AcDbEntity
  8
SK2
  6
CONTINUOUS
370
25
 62
7
100
AcDbLine
 10
-10.69378708168415
 20
-5.468935408420741
 30
0.0
 11
-9.16272249010489
 21
-7.0
 31
0.0
  0
LINE
  5
67F
330
1F
100
AcDbEntity
  8
SK2
  6
CONTINUOUS
370
25
 62
7
100
AcDbLine
 10
-10.6230764035655
 20
-5.115382017827464
 30
0.0
 11
-9.065385394651756
 21
-6.673073026741207
 31
0.0
  0
LINE
  5
680
330
1F
100
AcDbEntity
  8
SK2
  6
CONTINUOUS
370
25
 62
7
100
AcDbLine
 10
-10.55236572544685
 20
-4.761828627234188
 30
0.0
 11
-9.171451411829736
 21
-6.142742940851299
 31
0.0
  0
LINE
  5
681
330
1F
100
AcDbEntity
  8
SK2
  6
CONTINUOUS
370
25
 62
7
100
AcDbLine
 10
-10.48165504732819
 20
-4.408275236640911
 30
0.0
 11
-9.277517429007723
 21
-5.612412854961377
 31
0.0
  0
LINE
  5
682
330
1F
100
AcDbEntity
  8
SK2
  6
CONTINUOUS
370
25
 62
7
100
AcDbLine
 10
-10.41094436920952
 20
-4.054721846047649
 30
0.0
 11
-9.38358344618571
 21
-5.082082769071462
 31
0.0
  0
LINE
  5
683
330
1F
100
AcDbEntity
  8
SK2
  6
CONTINUOUS
370
25
 62
7
100
AcDbLine
 10
-10.34023369109087
 20
-3.701168455454372
 30
0.0
 11
-9.489649463363698
 21
-4.55175268318154
 31
0.0
  0
LINE
  5
684
330
1F
100
AcDbEntity
  8
SK2
  6
CONTINUOUS
370
25
 62
7
100
AcDbLine
 10
-10.26952301297221
 20
-3.347615064861088
 30
0.0
 11
-9.595715480541678
 21
-4.021422597291625
 31
0.0
  0
LINE
  5
685
330
1F
100
AcDbEntity
  8
SK2
  6
CONTINUOUS
370
25
 62
7
100
AcDbLine
 10
-10.19881233485356
 20
-2.994061674267812
 30
0.0
 11
-9.701781497719658
 21
-3.491092511401718
 31
0.0
  0
LINE
  5
686
330
1F
100
AcDbEntity
  8
SK2
  6
CONTINUOUS
370
25
 62
7
100
AcDbLine
 10
-10.12810165673491
 20
-2.640508283674535
 30
0.0
 11
-9.807847514897638
 21
-2.960762425511803
 31
0.0
  0
LINE
  5
687
330
1F
100
AcDbEntity
  8
SK2
  6
CONTINUOUS
370
25
 62
7
100
AcDbLine
 10
-10.05739097861625
 20
-2.286954893081266
 30
0.0
 11
-9.913913532075625
 21
-2.430432339621888
 31
0.0
  0
LINE
  5
688
330
1F
100
AcDbEntity
  8
SK2
  6
CONTINUOUS
370
25
 62
7
100
AcDbLine
 10
-10.0
 20
2.0
 30
0.0
 11
-11.0
 21
7.0
 31
0.0
  0
LINE
  5
689
330
1F
100
AcDbEntity
  8
SK2
  6
CONTINUOUS
370
25
 62
7
100
AcDbLine
 10
-11.0
 20
7.0
 30
0.0
 11
-9.0
 21
7.0
 31
0.0
  0
LINE
  5
68A
330
1F
100
AcDbEntity
  8
SK2
  6
CONTINUOUS
370
25
 62
7
100
AcDbLine
 10
-9.0
 20
7.0
 30
0.0
 11
-10.0
 21
2.0
 31
0.0
  0
LINE
  5
68B
330
1F
100
AcDbEntity
  8
SK2
  6
CONTINUOUS
370
25
 62
7
100
AcDbLine
 10
-10.05084775460553
 20
2.254238773027666
 30
0.0
 11
-9.923728368091702
 21
2.381358159541492
 31
0.0
  0
LINE
  5
68C
330
1F
100
AcDbEntity
  8
SK2
  6
CONTINUOUS
370
25
 62
7
100
AcDbLine
 10
-10.12155843272419
 20
2.607792163620942
 30
0.0
 11
-9.817662350913722
 21
2.911688245431399
 31
0.0
  0
LINE
  5
68D
330
1F
100
AcDbEntity
  8
SK2
  6
CONTINUOUS
370
25
 62
7
100
AcDbLine
 10
-10.19226911084284
 20
2.961345554214212
 30
0.0
 11
-9.711596333735741
 21
3.442018331321314
 31
0.0
  0
LINE
  5
68E
330
1F
100
AcDbEntity
  8
SK2
  6
CONTINUOUS
370
25
 62
7
100
AcDbLine
 10
-10.26297978896149
 20
3.314898944807489
 30
0.0
 11
-9.605530316557761
 21
3.972348417211222
 31
0.0
  0
LINE
  5
68F
330
1F
100
AcDbEntity
  8
SK2
  6
CONTINUOUS
370
25
 62
7
100
AcDbLine
 10
-10.33369046708015
 20
3.668452335400765
 30
0.0
 11
-9.499464299379774
 21
4.502678503101144
 31
0.0
  0
LINE
  5
690
330
1F
100
AcDbEntity
  8
SK2
  6
CONTINUOUS
370
25
 62
7
100
AcDbLine
 10
-10.40440114519881
 20
4.022005725994042
 30
0.0
 11
-9.393398282201787
 21
5.033008588991066
 31
0.0
  0
LINE
  5
691
330
1F
100
AcDbEntity
  8
SK2
  6
CONTINUOUS
370
25
 62
7
100
AcDbLine
 10
-10.47511182331746
 20
4.375559116587318
 30
0.0
 11
-9.287332265023807
 21
5.563338674880974
 31
0.0
  0
LINE
  5
692
330
1F
100
AcDbEntity
  8
SK2
  6
CONTINUOUS
370
25
 62
7
100
AcDbLine
 10
-10.54582250143612
 20
4.729112507180588
 30
0.0
 11
-9.181266247845826
 21
6.093668760770882
 31
0.0
  0
LINE
  5
693
330
1F
100
AcDbEntity
  8
SK2
  6
CONTINUOUS
370
25
 62
7
100
AcDbLine
 10
-10.61653317955477
 20
5.082665897773865
 30
0.0
 11
-9.075200230667846
 21
6.62399884666079
 31
0.0
  0
LINE
  5
694
330
1F
100
AcDbEntity
  8
SK2
  6
CONTINUOUS
370
25
 62
7
100
AcDbLine
 10
-10.68724385767342
 20
5.436219288367148
 30
0.0
 11
-9.12346314604057
 21
7.0
 31
0.0
  0
LINE
  5
695
330
1F
100
AcDbEntity
  8
SK2
  6
CONTINUOUS
370
25
 62
7
100
AcDbLine
 10
-10.75795453579208
 20
5.789772678960425
 30
0.0
 11
-9.547727214752499
 21
7.0
 31
0.0
  0
LINE
  5
696
330
1F
100
AcDbEntity
  8
SK2
  6
CONTINUOUS
370
25
 62
7
100
AcDbLine
 10
-10.82866521391074
 20
6.143326069553702
 30
0.0
 11
-9.971991283464433
 21
7.0
 31
0.0
  0
LINE
  5
697
330
1F
100
AcDbEntity
  8
SK2
  6
CONTINUOUS
370
25
 62
7
100
AcDbLine
 10
-10.8993758920294
 20
6.496879460146971
 30
0.0
 11
-10.39625535217637
 21
7.0
 31
0.0
  0
LINE
  5
698
330
1F
100
AcDbEntity
  8
SK2
  6
CONTINUOUS
370
25
 62
7
100
AcDbLine
 10
-10.97008657014806
 20
6.850432850740241
 30
0.0
 11
-10.8205194208883
 21
7.0
 31
0.0
  0
LINE
  5
699
330
1F
100
AcDbEntity
  8
SK2
  6
CONTINUOUS
370
25
 62
7
100
AcDbLine
 10
-10.01980098238018
 20
2.09900491190092
 30
0.0
 11
-9.98679934507988
 21
2.066003274600618
 31
0.0
  0
LINE
  5
69A
330
1F
100
AcDbEntity
  8
SK2
  6
CONTINUOUS
370
25
 62
7
100
AcDbLine
 10
-10.12586699955817
 20
2.629334997790835
 30
0.0
 11
-9.916088666961222
 21
2.419556665193888
 31
0.0
  0
LINE
  5
69B
330
1F
100
AcDbEntity
  8
SK2
  6
CONTINUOUS
370
25
 62
7
100
AcDbLine
 10
-10.23193301673615
 20
3.159665083680743
 30
0.0
 11
-9.845377988842571
 21
2.773110055787171
 31
0.0
  0
LINE
  5
69C
330
1F
100
AcDbEntity
  8
SK2
  6
CONTINUOUS
370
25
 62
7
100
AcDbLine
 10
-10.33799903391413
 20
3.689995169570651
 30
0.0
 11
-9.774667310723913
 21
3.126663446380441
 31
0.0
  0
LINE
  5
69D
330
1F
100
AcDbEntity
  8
SK2
  6
CONTINUOUS
370
25
 62
7
100
AcDbLine
 10
-10.44406505109212
 20
4.220325255460573
 30
0.0
 11
-9.703956632605255
 21
3.480216836973717
 31
0.0
  0
LINE
  5
69E
330
1F
100
AcDbEntity
  8
SK2
  6
CONTINUOUS
370
25
 62
7
100
AcDbLine
 10
-10.5501310682701
 20
4.75065534135048
 30
0.0
 11
-9.633245954486604
 21
3.833770227566987
 31
0.0
  0
LINE
  5
69F
330
1F
100
AcDbEntity
  8
SK2
  6
CONTINUOUS
370
25
 62
7
100
AcDbLine
 10
-10.65619708544808
 20
5.280985427240402
 30
0.0
 11
-9.562535276367946
 21
4.187323618160264
 31
0.0
  0
LINE
  5
6A0
330
1F
100
AcDbEntity
  8
SK2
  6
CONTINUOUS
370
25
 62
7
100
AcDbLine
 10
-10.76226310262606
 20
5.81131551313031
 30
0.0
 11
-9.491824598249295
 21
4.54087700875354
 31
0.0
  0
LINE
  5
6A1
330
1F
100
AcDbEntity
  8
SK2
  6
CONTINUOUS
370
25
 62
7
100
AcDbLine
 10
-10.86832911980405
 20
6.341645599020232
 30
0.0
 11
-9.421113920130637
 21
4.894430399346824
 31
0.0
  0
LINE
  5
6A2
330
1F
100
AcDbEntity
  8
SK2
  6
CONTINUOUS
370
25
 62
7
100
AcDbLine
 10
-10.97439513698203
 20
6.871975684910133
 30
0.0
 11
-9.350403242011978
 21
5.247983789940086
 31
0.0
  0
LINE
  5
6A3
330
1F
100
AcDbEntity
  8
SK2
  6
CONTINUOUS
370
25
 62
7
100
AcDbLine
 10
-10.67815538335996
 20
7.0
 30
0.0
 11
-9.27969256389332
 21
5.601537180533363
 31
0.0
  0
LINE
  5
6A4
330
1F
100
AcDbEntity
  8
SK2
  6
CONTINUOUS
370
25
 62
7
100
AcDbLine
 10
-10.25389131464803
 20
7.0
 30
0.0
 11
-9.208981885774676
 21
5.955090571126654
 31
0.0
  0
LINE
  5
6A5
330
1F
100
AcDbEntity
  8
SK2
  6
CONTINUOUS
370
25
 62
7
100
AcDbLine
 10
-9.829627245936088
 20
7.0
 30
0.0
 11
-9.138271207656018
 21
6.30864396171993
 31
0.0
  0
LINE
  5
6A6
330
1F
100
AcDbEntity
  8
SK2
  6
CONTINUOUS
370
25
 62
7
100
AcDbLine
 10
-9.405363177224167
 20
7.0
 30
0.0
 11
-9.06756052953736
 21
6.662197352313193
 31
0.0
  0
TEXT
  5
6A7
330
1F
100
AcDbEntity
  8
SK2
  6
CONTINUOUS
370
25
 62
7
100
AcDbText
 10
-11.0
 20
-11.21979166666667
 30
0.0
 40
3.5
  1
4
 50
90.00000000000001
 72
     1
 11
-11.0
 21
-10.053125
 31
0.0
100
AcDbText
  0
CIRCLE
  5
6A8
330
1F
100
AcDbEntity
  8
SK2
  6
CONTINUOUS
370
25
 62
7
100
AcDbCircle
 10
-12.53125
 20
-14.463125
 30
0.0
 40
1.53125
  0
LINE
  5
6A9
330
1F
100
AcDbEntity
  8
SK2
  6
CONTINUOUS
370
25
 62
7
100
AcDbLine
 10
-11.0
 20
-15.994375
 30
0.0
 11
-14.0625
 21
-12.931875
 31
0.0
  0
LINE
  5
6AA
330
1F
100
AcDbEntity
  8
SK2
  6
CONTINUOUS
370
25
 62
7
100
AcDbLine
 10
0.0
 20
2.0
 30
0.0
 11
0.0
 21
13.00001
 31
0.0
  0
LINE
  5
6AB
330
1F
100
AcDbEntity
  8
SK2
  6
CONTINUOUS
370
25
 62
7
100
AcDbLine
 10
28.0
 20
13.00001
 30
0.0
 11
28.0
 21
2.0
 31
0.0
  0
LINE
  5
6AC
330
1F
100
AcDbEntity
  8
SK2
  6
CONTINUOUS
370
25
 62
7
100
AcDbLine
 10
0.0
 20
12.00001
 30
0.0
 11
28.0
 21
12.00001
 31
0.0
  0
LINE
  5
6AD
330
1F
100
AcDbEntity
  8
SK2
  6
CONTINUOUS
370
25
 62
7
100
AcDbLine
 10
0.0
 20
12.00001
 30
0.0
 11
5.0
 21
13.00001
 31
0.0
  0
LINE
  5
6AE
330
1F
100
AcDbEntity
  8
SK2
  6
CONTINUOUS
370
25
 62
7
100
AcDbLine
 10
5.0
 20
13.00001
 30
0.0
 11
5.0
 21
11.00001
 31
0.0
  0
LINE
  5
6AF
330
1F
100
AcDbEntity
  8
SK2
  6
CONTINUOUS
370
25
 62
7
100
AcDbLine
 10
5.0
 20
11.00001
 30
0.0
 11
0.0
 21
12.00001
 31
0.0
  0
LINE
  5
6B0
330
1F
100
AcDbEntity
  8
SK2
  6
CONTINUOUS
370
25
 62
7
100
AcDbLine
 10
4.695517028611505
 20
11.0609065942777
 30
0.0
 11
5.0
 21
11.36538956566619
 31
0.0
  0
LINE
  5
6B1
330
1F
100
AcDbEntity
  8
SK2
  6
CONTINUOUS
370
25
 62
7
100
AcDbLine
 10
4.341963638018232
 20
11.13161727239635
 30
0.0
 11
5.0
 21
11.78965363437812
 31
0.0
  0
LINE
  5
6B2
330
1F
100
AcDbEntity
  8
SK2
  6
CONTINUOUS
370
25
 62
7
100
AcDbLine
 10
3.988410247424959
 20
11.20232795051501
 30
0.0
 11
5.0
 21
12.21391770309005
 31
0.0
  0
LINE
  5
6B3
330
1F
100
AcDbEntity
  8
SK2
  6
CONTINUOUS
370
25
 62
7
100
AcDbLine
 10
3.634856856831686
 20
11.27303862863366
 30
0.0
 11
5.0
 21
12.63818177180197
 31
0.0
  0
LINE
  5
6B4
330
1F
100
AcDbEntity
  8
SK2
  6
CONTINUOUS
370
25
 62
7
100
AcDbLine
 10
3.281303466238413
 20
11.34374930675231
 30
0.0
 11
4.921955199357626
 21
12.98440103987153
 31
0.0
  0
LINE
  5
6B5
330
1F
100
AcDbEntity
  8
SK2
  6
CONTINUOUS
370
25
 62
7
100
AcDbLine
 10
2.92775007564514
 20
11.41445998487097
 30
0.0
 11
4.391625113467715
 21
12.87833502269354
 31
0.0
  0
LINE
  5
6B6
330
1F
100
AcDbEntity
  8
SK2
  6
CONTINUOUS
370
25
 62
7
100
AcDbLine
 10
2.574196685051866
 20
11.48517066298962
 30
0.0
 11
3.861295027577807
 21
12.77226900551556
 31
0.0
  0
LINE
  5
6B7
330
1F
100
AcDbEntity
  8
SK2
  6
CONTINUOUS
370
25
 62
7
100
AcDbLine
 10
2.220643294458593
 20
11.55588134110828
 30
0.0
 11
3.330964941687895
 21
12.66620298833758
 31
0.0
  0
LINE
  5
6B8
330
1F
100
AcDbEntity
  8
SK2
  6
CONTINUOUS
370
25
 62
7
100
AcDbLine
 10
1.86708990386532
 20
11.62659201922693
 30
0.0
 11
2.800634855797988
 21
12.5601369711596
 31
0.0
  0
LINE
  5
6B9
330
1F
100
AcDbEntity
  8
SK2
  6
CONTINUOUS
370
25
 62
7
100
AcDbLine
 10
1.513536513272047
 20
11.69730269734559
 30
0.0
 11
2.270304769908076
 21
12.45407095398162
 31
0.0
  0
LINE
  5
6BA
330
1F
100
AcDbEntity
  8
SK2
  6
CONTINUOUS
370
25
 62
7
100
AcDbLine
 10
1.159983122678778
 20
11.76801337546425
 30
0.0
 11
1.739974684018168
 21
12.34800493680364
 31
0.0
  0
LINE
  5
6BB
330
1F
100
AcDbEntity
  8
SK2
  6
CONTINUOUS
370
25
 62
7
100
AcDbLine
 10
0.8064297320855047
 20
11.8387240535829
 30
0.0
 11
1.209644598128261
 21
12.24193891962566
 31
0.0
  0
LINE
  5
6BC
330
1F
100
AcDbEntity
  8
SK2
  6
CONTINUOUS
370
25
 62
7
100
AcDbLine
 10
0.4528763414922317
 20
11.90943473170156
 30
0.0
 11
0.6793145122383493
 21
12.13587290244767
 31
0.0
  0
LINE
  5
6BD
330
1F
100
AcDbEntity
  8
SK2
  6
CONTINUOUS
370
25
 62
7
100
AcDbLine
 10
0.0993229508989586
 20
11.98014540982021
 30
0.0
 11
0.1489844263484415
 21
12.02980688526969
 31
0.0
  0
LINE
  5
6BE
330
1F
100
AcDbEntity
  8
SK2
  6
CONTINUOUS
370
25
 62
7
100
AcDbLine
 10
0.1156689167168317
 20
12.02314378334336
 30
0.0
 11
0.1735033750752386
 21
11.96530932498495
 31
0.0
  0
LINE
  5
6BF
330
1F
100
AcDbEntity
  8
SK2
  6
CONTINUOUS
370
25
 62
7
100
AcDbLine
 10
0.4692223073101047
 20
12.09385446146202
 30
0.0
 11
0.7038334609651535
 21
11.85924330780697
 31
0.0
  0
LINE
  5
6C0
330
1F
100
AcDbEntity
  8
SK2
  6
CONTINUOUS
370
25
 62
7
100
AcDbLine
 10
0.8227756979033742
 20
12.16456513958068
 30
0.0
 11
1.234163546855065
 21
11.75317729062899
 31
0.0
  0
LINE
  5
6C1
330
1F
100
AcDbEntity
  8
SK2
  6
CONTINUOUS
370
25
 62
7
100
AcDbLine
 10
1.176329088496647
 20
12.23527581769933
 30
0.0
 11
1.764493632744976
 21
11.647111273451
 31
0.0
  0
LINE
  5
6C2
330
1F
100
AcDbEntity
  8
SK2
  6
CONTINUOUS
370
25
 62
7
100
AcDbLine
 10
1.52988247908992
 20
12.30598649581799
 30
0.0
 11
2.294823718634888
 21
11.54104525627302
 31
0.0
  0
LINE
  5
6C3
330
1F
100
AcDbEntity
  8
SK2
  6
CONTINUOUS
370
25
 62
7
100
AcDbLine
 10
1.88343586968319
 20
12.37669717393664
 30
0.0
 11
2.825153804524795
 21
11.43497923909504
 31
0.0
  0
LINE
  5
6C4
330
1F
100
AcDbEntity
  8
SK2
  6
CONTINUOUS
370
25
 62
7
100
AcDbLine
 10
2.236989260276466
 20
12.4474078520553
 30
0.0
 11
3.355483890414707
 21
11.32891322191706
 31
0.0
  0
LINE
  5
6C5
330
1F
100
AcDbEntity
  8
SK2
  6
CONTINUOUS
370
25
 62
7
100
AcDbLine
 10
2.59054265086974
 20
12.51811853017395
 30
0.0
 11
3.885813976304618
 21
11.22284720473907
 31
0.0
  0
LINE
  5
6C6
330
1F
100
AcDbEntity
  8
SK2
  6
CONTINUOUS
370
25
 62
7
100
AcDbLine
 10
2.944096041463013
 20
12.5888292082926
 30
0.0
 11
4.41614406219453
 21
11.11678118756109
 31
0.0
  0
LINE
  5
6C7
330
1F
100
AcDbEntity
  8
SK2
  6
CONTINUOUS
370
25
 62
7
100
AcDbLine
 10
3.297649432056289
 20
12.65953988641126
 30
0.0
 11
4.946474148084441
 21
11.01071517038311
 31
0.0
  0
LINE
  5
6C8
330
1F
100
AcDbEntity
  8
SK2
  6
CONTINUOUS
370
25
 62
7
100
AcDbLine
 10
3.651202822649562
 20
12.73025056452991
 30
0.0
 11
5.0
 21
11.38145338717948
 31
0.0
  0
LINE
  5
6C9
330
1F
100
AcDbEntity
  8
SK2
  6
CONTINUOUS
370
25
 62
7
100
AcDbLine
 10
4.004756213242832
 20
12.80096124264857
 30
0.0
 11
5.0
 21
11.8057174558914
 31
0.0
  0
LINE
  5
6CA
330
1F
100
AcDbEntity
  8
SK2
  6
CONTINUOUS
370
25
 62
7
100
AcDbLine
 10
4.358309603836105
 20
12.87167192076722
 30
0.0
 11
5.0
 21
12.22998152460333
 31
0.0
  0
LINE
  5
6CB
330
1F
100
AcDbEntity
  8
SK2
  6
CONTINUOUS
370
25
 62
7
100
AcDbLine
 10
4.711862994429378
 20
12.94238259888588
 30
0.0
 11
5.0
 21
12.65424559331526
 31
0.0
  0
LINE
  5
6CC
330
1F
100
AcDbEntity
  8
SK2
  6
CONTINUOUS
370
25
 62
7
100
AcDbLine
 10
28.0
 20
12.00001
 30
0.0
 11
23.0
 21
11.00001
 31
0.0
  0
LINE
  5
6CD
330
1F
100
AcDbEntity
  8
SK2
  6
CONTINUOUS
370
25
 62
7
100
AcDbLine
 10
23.0
 20
11.00001
 30
0.0
 11
23.0
 21
13.00001
 31
0.0
  0
LINE
  5
6CE
330
1F
100
AcDbEntity
  8
SK2
  6
CONTINUOUS
370
25
 62
7
100
AcDbLine
 10
23.0
 20
13.00001
 30
0.0
 11
28.0
 21
12.00001
 31
0.0
  0
LINE
  5
6CF
330
1F
100
AcDbEntity
  8
SK2
  6
CONTINUOUS
370
25
 62
7
100
AcDbLine
 10
27.6204400091926
 20
11.92409800183852
 30
0.0
 11
27.7469600061284
 21
12.05061799877432
 31
0.0
  0
LINE
  5
6D0
330
1F
100
AcDbEntity
  8
SK2
  6
CONTINUOUS
370
25
 62
7
100
AcDbLine
 10
27.09010992330268
 20
11.81803198466054
 30
0.0
 11
27.39340661553512
 21
12.12132867689298
 31
0.0
  0
LINE
  5
6D1
330
1F
100
AcDbEntity
  8
SK2
  6
CONTINUOUS
370
25
 62
7
100
AcDbLine
 10
26.55977983741278
 20
11.71196596748256
 30
0.0
 11
27.03985322494185
 21
12.19203935501163
 31
0.0
  0
LINE
  5
6D2
330
1F
100
AcDbEntity
  8
SK2
  6
CONTINUOUS
370
25
 62
7
100
AcDbLine
 10
26.02944975152286
 20
11.60589995030457
 30
0.0
 11
26.68629983434858
 21
12.26275003313028
 31
0.0
  0
LINE
  5
6D3
330
1F
100
AcDbEntity
  8
SK2
  6
CONTINUOUS
370
25
 62
7
100
AcDbLine
 10
25.49911966563295
 20
11.49983393312659
 30
0.0
 11
26.3327464437553
 21
12.33346071124894
 31
0.0
  0
LINE
  5
6D4
330
1F
100
AcDbEntity
  8
SK2
  6
CONTINUOUS
370
25
 62
7
100
AcDbLine
 10
24.96878957974305
 20
11.39376791594861
 30
0.0
 11
25.97919305316203
 21
12.40417138936759
 31
0.0
  0
LINE
  5
6D5
330
1F
100
AcDbEntity
  8
SK2
  6
CONTINUOUS
370
25
 62
7
100
AcDbLine
 10
24.43845949385313
 20
11.28770189877063
 30
0.0
 11
25.62563966256876
 21
12.47488206748625
 31
0.0
  0
LINE
  5
6D6
330
1F
100
AcDbEntity
  8
SK2
  6
CONTINUOUS
370
25
 62
7
100
AcDbLine
 10
23.90812940796323
 20
11.18163588159264
 30
0.0
 11
25.27208627197548
 21
12.5455927456049
 31
0.0
  0
LINE
  5
6D7
330
1F
100
AcDbEntity
  8
SK2
  6
CONTINUOUS
370
25
 62
7
100
AcDbLine
 10
23.37779932207332
 20
11.07556986441466
 30
0.0
 11
24.91853288138221
 21
12.61630342372356
 31
0.0
  0
LINE
  5
6D8
330
1F
100
AcDbEntity
  8
SK2
  6
CONTINUOUS
370
25
 62
7
100
AcDbLine
 10
23.0
 20
11.12203461105327
 30
0.0
 11
24.56497949078894
 21
12.68701410184221
 31
0.0
  0
LINE
  5
6D9
330
1F
100
AcDbEntity
  8
SK2
  6
CONTINUOUS
370
25
 62
7
100
AcDbLine
 10
23.0
 20
11.5462986797652
 30
0.0
 11
24.21142610019566
 21
12.75772477996087
 31
0.0
  0
LINE
  5
6DA
330
1F
100
AcDbEntity
  8
SK2
  6
CONTINUOUS
370
25
 62
7
100
AcDbLine
 10
23.0
 20
11.97056274847713
 30
0.0
 11
23.85787270960239
 21
12.82843545807952
 31
0.0
  0
LINE
  5
6DB
330
1F
100
AcDbEntity
  8
SK2
  6
CONTINUOUS
370
25
 62
7
100
AcDbLine
 10
23.0
 20
12.39482681718906
 30
0.0
 11
23.50431931900912
 21
12.89914613619818
 31
0.0
  0
LINE
  5
6DC
330
1F
100
AcDbEntity
  8
SK2
  6
CONTINUOUS
370
25
 62
7
100
AcDbLine
 10
23.0
 20
12.81909088590099
 30
0.0
 11
23.15076592841584
 21
12.96985681431683
 31
0.0
  0
LINE
  5
6DD
330
1F
100
AcDbEntity
  8
SK2
  6
CONTINUOUS
370
25
 62
7
100
AcDbLine
 10
23.0
 20
11.36396103067893
 30
0.0
 11
23.30329252556577
 21
11.06066850511315
 31
0.0
  0
LINE
  5
6DE
330
1F
100
AcDbEntity
  8
SK2
  6
CONTINUOUS
370
25
 62
7
100
AcDbLine
 10
23.0
 20
11.78822509939085
 30
0.0
 11
23.65684591615905
 21
11.13137918323181
 31
0.0
  0
LINE
  5
6DF
330
1F
100
AcDbEntity
  8
SK2
  6
CONTINUOUS
370
25
 62
7
100
AcDbLine
 10
23.0
 20
12.21248916810278
 30
0.0
 11
24.01039930675232
 21
11.20208986135046
 31
0.0
  0
LINE
  5
6E0
330
1F
100
AcDbEntity
  8
SK2
  6
CONTINUOUS
370
25
 62
7
100
AcDbLine
 10
23.0
 20
12.63675323681471
 30
0.0
 11
24.3639526973456
 21
11.27280053946912
 31
0.0
  0
LINE
  5
6E1
330
1F
100
AcDbEntity
  8
SK2
  6
CONTINUOUS
370
25
 62
7
100
AcDbLine
 10
23.0762591319083
 20
12.98475817361834
 30
0.0
 11
24.71750608793887
 21
11.34351121758777
 31
0.0
  0
LINE
  5
6E2
330
1F
100
AcDbEntity
  8
SK2
  6
CONTINUOUS
370
25
 62
7
100
AcDbLine
 10
23.60658921779821
 20
12.87869215644036
 30
0.0
 11
25.07105947853214
 21
11.41422189570643
 31
0.0
  0
LINE
  5
6E3
330
1F
100
AcDbEntity
  8
SK2
  6
CONTINUOUS
370
25
 62
7
100
AcDbLine
 10
24.13691930368812
 20
12.77262613926238
 30
0.0
 11
25.42461286912541
 21
11.48493257382508
 31
0.0
  0
LINE
  5
6E4
330
1F
100
AcDbEntity
  8
SK2
  6
CONTINUOUS
370
25
 62
7
100
AcDbLine
 10
24.66724938957803
 20
12.66656012208439
 30
0.0
 11
25.77816625971869
 21
11.55564325194374
 31
0.0
  0
LINE
  5
6E5
330
1F
100
AcDbEntity
  8
SK2
  6
CONTINUOUS
370
25
 62
7
100
AcDbLine
 10
25.19757947546794
 20
12.56049410490641
 30
0.0
 11
26.13171965031196
 21
11.62635393006239
 31
0.0
  0
LINE
  5
6E6
330
1F
100
AcDbEntity
  8
SK2
  6
CONTINUOUS
370
25
 62
7
100
AcDbLine
 10
25.72790956135785
 20
12.45442808772843
 30
0.0
 11
26.48527304090524
 21
11.69706460818105
 31
0.0
  0
LINE
  5
6E7
330
1F
100
AcDbEntity
  8
SK2
  6
CONTINUOUS
370
25
 62
7
100
AcDbLine
 10
26.25823964724777
 20
12.34836207055045
 30
0.0
 11
26.83882643149851
 21
11.7677752862997
 31
0.0
  0
LINE
  5
6E8
330
1F
100
AcDbEntity
  8
SK2
  6
CONTINUOUS
370
25
 62
7
100
AcDbLine
 10
26.78856973313768
 20
12.24229605337246
 30
0.0
 11
27.19237982209178
 21
11.83848596441836
 31
0.0
  0
LINE
  5
6E9
330
1F
100
AcDbEntity
  8
SK2
  6
CONTINUOUS
370
25
 62
7
100
AcDbLine
 10
27.31889981902759
 20
12.13623003619448
 30
0.0
 11
27.54593321268506
 21
11.90919664253701
 31
0.0
  0
LINE
  5
6EA
330
1F
100
AcDbEntity
  8
SK2
  6
CONTINUOUS
370
25
 62
7
100
AcDbLine
 10
27.8492299049175
 20
12.0301640190165
 30
0.0
 11
27.89948660327833
 21
11.97990732065567
 31
0.0
  0
TEXT
  5
6EB
330
1F
100
AcDbEntity
  8
SK2
  6
CONTINUOUS
370
25
 62
7
100
AcDbText
 10
11.08333333333333
 20
13.00001
 30
0.0
 40
3.5
  1
28
 72
     1
 11
14.0
 21
13.00001
 31
0.0
100
AcDbText
  0
LINE
  5
6EC
330
1F
100
AcDbEntity
  8
2
  6
CONTINUOUS
370
25
 62
7
100
AcDbLine
 10
45.0
 20
-1.2
 30
0.0
 11
62.7375
 21
-1.2
 31
0.0
  0
LINE
  5
6ED
330
1F
100
AcDbEntity
  8
2
  6
CONTINUOUS
370
25
 62
7
100
AcDbLine
 10
62.7375
 20
1.2
 30
0.0
 11
45.0
 21
1.2
 31
0.0
  0
LINE
  5
6EE
330
1F
100
AcDbEntity
  8
2
  6
CONTINUOUS
370
25
 62
7
100
AcDbLine
 10
61.7375
 20
-23.04375
 30
0.0
 11
61.7375
 21
11.2
 31
0.0
  0
LINE
  5
6EF
330
1F
100
AcDbEntity
  8
2
  6
CONTINUOUS
370
25
 62
7
100
AcDbLine
 10
61.7375
 20
-1.2
 30
0.0
 11
62.7375
 21
-6.199999999999999
 31
0.0
  0
LINE
  5
6F0
330
1F
100
AcDbEntity
  8
2
  6
CONTINUOUS
370
25
 62
7
100
AcDbLine
 10
62.7375
 20
-6.199999999999999
 30
0.0
 11
60.7375
 21
-6.199999999999999
 31
0.0
  0
LINE
  5
6F1
330
1F
100
AcDbEntity
  8
2
  6
CONTINUOUS
370
25
 62
7
100
AcDbLine
 10
60.7375
 20
-6.199999999999999
 30
0.0
 11
61.7375
 21
-1.2
 31
0.0
  0
LINE
  5
6F2
330
1F
100
AcDbEntity
  8
2
  6
CONTINUOUS
370
25
 62
7
100
AcDbLine
 10
62.62594758949579
 20
-6.200000000000003
 30
0.0
 11
62.71890793158263
 21
-6.107039657913155
 31
0.0
  0
LINE
  5
6F3
330
1F
100
AcDbEntity
  8
2
  6
CONTINUOUS
370
25
 62
7
100
AcDbLine
 10
62.20168352078385
 20
-6.200000000000003
 30
0.0
 11
62.64819725346398
 21
-5.753486267319872
 31
0.0
  0
LINE
  5
6F4
330
1F
100
AcDbEntity
  8
2
  6
CONTINUOUS
370
25
 62
7
100
AcDbLine
 10
61.77741945207192
 20
-6.200000000000003
 30
0.0
 11
62.57748657534533
 21
-5.399932876726595
 31
0.0
  0
LINE
  5
6F5
330
1F
100
AcDbEntity
  8
2
  6
CONTINUOUS
370
25
 62
7
100
AcDbLine
 10
61.35315538336
 20
-6.200000000000003
 30
0.0
 11
62.50677589722667
 21
-5.046379486133326
 31
0.0
  0
LINE
  5
6F6
330
1F
100
AcDbEntity
  8
2
  6
CONTINUOUS
370
25
 62
7
100
AcDbLine
 10
60.92889131464808
 20
-6.199999999999996
 30
0.0
 11
62.43606521910802
 21
-4.692826095540049
 31
0.0
  0
LINE
  5
6F7
330
1F
100
AcDbEntity
  8
2
  6
CONTINUOUS
370
25
 62
7
100
AcDbLine
 10
60.79571818851596
 20
-5.908909057420182
 30
0.0
 11
62.36535454098936
 21
-4.339272704946779
 31
0.0
  0
LINE
  5
6F8
330
1F
100
AcDbEntity
  8
2
  6
CONTINUOUS
370
25
 62
7
100
AcDbLine
 10
60.90178420569394
 20
-5.378578971530267
 30
0.0
 11
62.2946438628707
 21
-3.985719314353503
 31
0.0
  0
LINE
  5
6F9
330
1F
100
AcDbEntity
  8
2
  6
CONTINUOUS
370
25
 62
7
100
AcDbLine
 10
61.00785022287193
 20
-4.848248885640352
 30
0.0
 11
62.22393318475204
 21
-3.63216592376024
 31
0.0
  0
LINE
  5
6FA
330
1F
100
AcDbEntity
  8
2
  6
CONTINUOUS
370
25
 62
7
100
AcDbLine
 10
61.11391624004991
 20
-4.317918799750437
 30
0.0
 11
62.15322250663339
 21
-3.278612533166957
 31
0.0
  0
LINE
  5
6FB
330
1F
100
AcDbEntity
  8
2
  6
CONTINUOUS
370
25
 62
7
100
AcDbLine
 10
61.21998225722789
 20
-3.787588713860529
 30
0.0
 11
62.08251182851474
 21
-2.92505914257368
 31
0.0
  0
LINE
  5
6FC
330
1F
100
AcDbEntity
  8
2
  6
CONTINUOUS
370
25
 62
7
100
AcDbLine
 10
61.32604827440587
 20
-3.257258627970621
 30
0.0
 11
62.01180115039608
 21
-2.571505751980403
 31
0.0
  0
LINE
  5
6FD
330
1F
100
AcDbEntity
  8
2
  6
CONTINUOUS
370
25
 62
7
100
AcDbLine
 10
61.43211429158386
 20
-2.726928542080699
 30
0.0
 11
61.94109047227742
 21
-2.217952361387127
 31
0.0
  0
LINE
  5
6FE
330
1F
100
AcDbEntity
  8
2
  6
CONTINUOUS
370
25
 62
7
100
AcDbLine
 10
61.53818030876184
 20
-2.196598456190785
 30
0.0
 11
61.87037979415877
 21
-1.864398970793843
 31
0.0
  0
LINE
  5
6FF
330
1F
100
AcDbEntity
  8
2
  6
CONTINUOUS
370
25
 62
7
100
AcDbLine
 10
61.64424632593983
 20
-1.666268370300863
 30
0.0
 11
61.79966911604011
 21
-1.510845580200574
 31
0.0
  0
LINE
  5
700
330
1F
100
AcDbEntity
  8
2
  6
CONTINUOUS
370
25
 62
7
100
AcDbLine
 10
60.76935605480858
 20
-6.040719725957096
 30
0.0
 11
60.92863632885147
 21
-6.199999999999996
 31
0.0
  0
LINE
  5
701
330
1F
100
AcDbEntity
  8
2
  6
CONTINUOUS
370
25
 62
7
100
AcDbLine
 10
60.84006673292723
 20
-5.687166335363823
 30
0.0
 11
61.35290039756341
 21
-6.199999999999999
 31
0.0
  0
LINE
  5
702
330
1F
100
AcDbEntity
  8
2
  6
CONTINUOUS
370
25
 62
7
100
AcDbLine
 10
60.91077741104588
 20
-5.333612944770547
 30
0.0
 11
61.77716446627534
 21
-6.199999999999999
 31
0.0
  0
LINE
  5
703
330
1F
100
AcDbEntity
  8
2
  6
CONTINUOUS
370
25
 62
7
100
AcDbLine
 10
60.98148808916454
 20
-4.98005955417727
 30
0.0
 11
62.20142853498727
 21
-6.199999999999999
 31
0.0
  0
LINE
  5
704
330
1F
100
AcDbEntity
  8
2
  6
CONTINUOUS
370
25
 62
7
100
AcDbLine
 10
61.05219876728319
 20
-4.626506163583997
 30
0.0
 11
62.6256926036992
 21
-6.199999999999996
 31
0.0
  0
LINE
  5
705
330
1F
100
AcDbEntity
  8
2
  6
CONTINUOUS
370
25
 62
7
100
AcDbLine
 10
61.12290944540185
 20
-4.27295277299072
 30
0.0
 11
62.65938583189723
 21
-5.809429159486086
 31
0.0
  0
LINE
  5
706
330
1F
100
AcDbEntity
  8
2
  6
CONTINUOUS
370
25
 62
7
100
AcDbLine
 10
61.19362012352051
 20
-3.919399382397454
 30
0.0
 11
62.55331981471924
 21
-5.279099073596175
 31
0.0
  0
LINE
  5
707
330
1F
100
AcDbEntity
  8
2
  6
CONTINUOUS
370
25
 62
7
100
AcDbLine
 10
61.26433080163916
 20
-3.565845991804181
 30
0.0
 11
62.44725379754126
 21
-4.748768987706271
 31
0.0
  0
LINE
  5
708
330
1F
100
AcDbEntity
  8
2
  6
CONTINUOUS
370
25
 62
7
100
AcDbLine
 10
61.33504147975782
 20
-3.212292601210908
 30
0.0
 11
62.34118778036328
 21
-4.218438901816359
 31
0.0
  0
LINE
  5
709
330
1F
100
AcDbEntity
  8
2
  6
CONTINUOUS
370
25
 62
7
100
AcDbLine
 10
61.40575215787648
 20
-2.858739210617639
 30
0.0
 11
62.23512176318529
 21
-3.688108815926444
 31
0.0
  0
LINE
  5
70A
330
1F
100
AcDbEntity
  8
2
  6
CONTINUOUS
370
25
 62
7
100
AcDbLine
 10
61.47646283599512
 20
-2.505185820024352
 30
0.0
 11
62.12905574600732
 21
-3.157778730036547
 31
0.0
  0
LINE
  5
70B
330
1F
100
AcDbEntity
  8
2
  6
CONTINUOUS
370
25
 62
7
100
AcDbLine
 10
61.54717351411378
 20
-2.151632429431082
 30
0.0
 11
62.02298972882932
 21
-2.627448644146625
 31
0.0
  0
LINE
  5
70C
330
1F
100
AcDbEntity
  8
2
  6
CONTINUOUS
370
25
 62
7
100
AcDbLine
 10
61.61788419223244
 20
-1.798079038837805
 30
0.0
 11
61.91692371165135
 21
-2.097118558256717
 31
0.0
  0
LINE
  5
70D
330
1F
100
AcDbEntity
  8
2
  6
CONTINUOUS
370
25
 62
7
100
AcDbLine
 10
61.6885948703511
 20
-1.444525648244543
 30
0.0
 11
61.81085769447336
 21
-1.566788472366802
 31
0.0
  0
LINE
  5
70E
330
1F
100
AcDbEntity
  8
2
  6
CONTINUOUS
370
25
 62
7
100
AcDbLine
 10
61.7375
 20
1.2
 30
0.0
 11
60.7375
 21
6.2
 31
0.0
  0
LINE
  5
70F
330
1F
100
AcDbEntity
  8
2
  6
CONTINUOUS
370
25
 62
7
100
AcDbLine
 10
60.7375
 20
6.2
 30
0.0
 11
62.7375
 21
6.2
 31
0.0
  0
LINE
  5
710
330
1F
100
AcDbEntity
  8
2
  6
CONTINUOUS
370
25
 62
7
100
AcDbLine
 10
62.7375
 20
6.2
 30
0.0
 11
61.7375
 21
1.2
 31
0.0
  0
LINE
  5
711
330
1F
100
AcDbEntity
  8
2
  6
CONTINUOUS
370
25
 62
7
100
AcDbLine
 10
61.71290143669578
 20
1.322992816521079
 30
0.0
 11
61.77439784495633
 21
1.384489224781632
 31
0.0
  0
LINE
  5
712
330
1F
100
AcDbEntity
  8
2
  6
CONTINUOUS
370
25
 62
7
100
AcDbLine
 10
61.64219075857712
 20
1.676546207114349
 30
0.0
 11
61.88046386213431
 21
1.91481931067154
 31
0.0
  0
LINE
  5
713
330
1F
100
AcDbEntity
  8
2
  6
CONTINUOUS
370
25
 62
7
100
AcDbLine
 10
61.57148008045847
 20
2.030099597707629
 30
0.0
 11
61.98652987931229
 21
2.445149396561451
 31
0.0
  0
LINE
  5
714
330
1F
100
AcDbEntity
  8
2
  6
CONTINUOUS
370
25
 62
7
100
AcDbLine
 10
61.50076940233982
 20
2.383652988300906
 30
0.0
 11
62.09259589649027
 21
2.975479482451359
 31
0.0
  0
LINE
  5
715
330
1F
100
AcDbEntity
  8
2
  6
CONTINUOUS
370
25
 62
7
100
AcDbLine
 10
61.43005872422116
 20
2.737206378894179
 30
0.0
 11
62.19866191366825
 21
3.50580956834127
 31
0.0
  0
LINE
  5
716
330
1F
100
AcDbEntity
  8
2
  6
CONTINUOUS
370
25
 62
7
100
AcDbLine
 10
61.35934804610251
 20
3.090759769487455
 30
0.0
 11
62.30472793084623
 21
4.036139654231178
 31
0.0
  0
LINE
  5
717
330
1F
100
AcDbEntity
  8
2
  6
CONTINUOUS
370
25
 62
7
100
AcDbLine
 10
61.28863736798385
 20
3.444313160080732
 30
0.0
 11
62.41079394802422
 21
4.5664697401211
 31
0.0
  0
LINE
  5
718
330
1F
100
AcDbEntity
  8
2
  6
CONTINUOUS
370
25
 62
7
100
AcDbLine
 10
61.2179266898652
 20
3.797866550674009
 30
0.0
 11
62.5168599652022
 21
5.096799826011015
 31
0.0
  0
LINE
  5
719
330
1F
100
AcDbEntity
  8
2
  6
CONTINUOUS
370
25
 62
7
100
AcDbLine
 10
61.14721601174654
 20
4.151419941267282
 30
0.0
 11
62.62292598238019
 21
5.627129911900933
 31
0.0
  0
LINE
  5
71A
330
1F
100
AcDbEntity
  8
2
  6
CONTINUOUS
370
25
 62
7
100
AcDbLine
 10
61.07650533362789
 20
4.504973331860551
 30
0.0
 11
62.72899199955818
 21
6.157459997790848
 31
0.0
  0
LINE
  5
71B
330
1F
100
AcDbEntity
  8
2
  6
CONTINUOUS
370
25
 62
7
100
AcDbLine
 10
61.00579465550923
 20
4.858526722453831
 30
0.0
 11
62.3472679330554
 21
6.200000000000003
 31
0.0
  0
LINE
  5
71C
330
1F
100
AcDbEntity
  8
2
  6
CONTINUOUS
370
25
 62
7
100
AcDbLine
 10
60.93508397739058
 20
5.212080113047104
 30
0.0
 11
61.92300386434346
 21
6.199999999999999
 31
0.0
  0
LINE
  5
71D
330
1F
100
AcDbEntity
  8
2
  6
CONTINUOUS
370
25
 62
7
100
AcDbLine
 10
60.86437329927193
 20
5.565633503640385
 30
0.0
 11
61.49873979563154
 21
6.200000000000003
 31
0.0
  0
LINE
  5
71E
330
1F
100
AcDbEntity
  8
2
  6
CONTINUOUS
370
25
 62
7
100
AcDbLine
 10
60.79366262115327
 20
5.919186894233654
 30
0.0
 11
61.07447572691962
 21
6.200000000000003
 31
0.0
  0
LINE
  5
71F
330
1F
100
AcDbEntity
  8
2
  6
CONTINUOUS
370
25
 62
7
100
AcDbLine
 10
61.66839557422748
 20
1.545522128862579
 30
0.0
 11
61.78356961718168
 21
1.430348085908385
 31
0.0
  0
LINE
  5
720
330
1F
100
AcDbEntity
  8
2
  6
CONTINUOUS
370
25
 62
7
100
AcDbLine
 10
61.5623295570495
 20
2.075852214752487
 30
0.0
 11
61.85428029530033
 21
1.783901476501661
 31
0.0
  0
LINE
  5
721
330
1F
100
AcDbEntity
  8
2
  6
CONTINUOUS
370
25
 62
7
100
AcDbLine
 10
61.45626353987152
 20
2.606182300642395
 30
0.0
 11
61.92499097341899
 21
2.137454867094931
 31
0.0
  0
LINE
  5
722
330
1F
100
AcDbEntity
  8
2
  6
CONTINUOUS
370
25
 62
7
100
AcDbLine
 10
61.35019752269354
 20
3.13651238653231
 30
0.0
 11
61.99570165153764
 21
2.491008257688208
 31
0.0
  0
LINE
  5
723
330
1F
100
AcDbEntity
  8
2
  6
CONTINUOUS
370
25
 62
7
100
AcDbLine
 10
61.24413150551555
 20
3.666842472422218
 30
0.0
 11
62.0664123296563
 21
2.844561648281477
 31
0.0
  0
LINE
  5
724
330
1F
100
AcDbEntity
  8
2
  6
CONTINUOUS
370
25
 62
7
100
AcDbLine
 10
61.13806548833757
 20
4.197172558312126
 30
0.0
 11
62.13712300777495
 21
3.198115038874754
 31
0.0
  0
LINE
  5
725
330
1F
100
AcDbEntity
  8
2
  6
CONTINUOUS
370
25
 62
7
100
AcDbLine
 10
61.03199947115959
 20
4.72750264420204
 30
0.0
 11
62.2078336858936
 21
3.551668429468037
 31
0.0
  0
LINE
  5
726
330
1F
100
AcDbEntity
  8
2
  6
CONTINUOUS
370
25
 62
7
100
AcDbLine
 10
60.92593345398161
 20
5.257832730091948
 30
0.0
 11
62.27854436401226
 21
3.905221820061307
 31
0.0
  0
LINE
  5
727
330
1F
100
AcDbEntity
  8
2
  6
CONTINUOUS
370
25
 62
7
100
AcDbLine
 10
60.81986743680363
 20
5.788162815981856
 30
0.0
 11
62.34925504213092
 21
4.258775210654576
 31
0.0
  0
LINE
  5
728
330
1F
100
AcDbEntity
  8
2
  6
CONTINUOUS
370
25
 62
7
100
AcDbLine
 10
60.83229432149741
 20
6.200000000000003
 30
0.0
 11
62.41996572024957
 21
4.612328601247853
 31
0.0
  0
LINE
  5
729
330
1F
100
AcDbEntity
  8
2
  6
CONTINUOUS
370
25
 62
7
100
AcDbLine
 10
61.25655839020934
 20
6.200000000000003
 30
0.0
 11
62.49067639836823
 21
4.965881991841123
 31
0.0
  0
LINE
  5
72A
330
1F
100
AcDbEntity
  8
2
  6
CONTINUOUS
370
25
 62
7
100
AcDbLine
 10
61.68082245892127
 20
6.200000000000003
 30
0.0
 11
62.56138707648688
 21
5.319435382434399
 31
0.0
  0
LINE
  5
72B
330
1F
100
AcDbEntity
  8
2
  6
CONTINUOUS
370
25
 62
7
100
AcDbLine
 10
62.1050865276332
 20
6.200000000000003
 30
0.0
 11
62.63209775460554
 21
5.672988773027669
 31
0.0
  0
LINE
  5
72C
330
1F
100
AcDbEntity
  8
2
  6
CONTINUOUS
370
25
 62
7
100
AcDbLine
 10
62.52935059634513
 20
6.200000000000003
 30
0.0
 11
62.70280843272419
 21
6.026542163620945
 31
0.0
  0
TEXT
  5
72D
330
1F
100
AcDbEntity
  8
2
  6
CONTINUOUS
370
25
 62
7
100
AcDbText
 10
60.7375
 20
-16.121875
 30
0.0
 40
3.5
  1
2.4
 50
90.00000000000001
 72
     1
 11
60.7375
 21
-12.621875
 31
0.0
100
AcDbText
  0
CIRCLE
  5
72E
330
1F
100
AcDbEntity
  8
2
  6
CONTINUOUS
370
25
 62
7
100
AcDbCircle
 10
59.20625
 20
-20.339375
 30
0.0
 40
1.53125
  0
LINE
  5
72F
330
1F
100
AcDbEntity
  8
2
  6
CONTINUOUS
370
25
 62
7
100
AcDbLine
 10
60.7375
 20
-21.870625
 30
0.0
 11
57.675
 21
-18.808125
 31
0.0
  0
LINE
  5
730
330
1F
100
AcDbEntity
  8
SK2
  6
CONTINUOUS
370
25
 62
7
100
AcDbLine
 10
0.0
 20
0.0
 30
0.0
 11
0.0
 21
20.00001
 31
0.0
  0
LINE
  5
731
330
1F
100
AcDbEntity
  8
SK2
  6
CONTINUOUS
370
25
 62
7
100
AcDbLine
 10
45.0
 20
20.00001
 30
0.0
 11
45.0
 21
1.199999999999999
 31
0.0
  0
LINE
  5
732
330
1F
100
AcDbEntity
  8
SK2
  6
CONTINUOUS
370
25
 62
7
100
AcDbLine
 10
0.0
 20
19.00001
 30
0.0
 11
45.0
 21
19.00001
 31
0.0
  0
LINE
  5
733
330
1F
100
AcDbEntity
  8
SK2
  6
CONTINUOUS
370
25
 62
7
100
AcDbLine
 10
0.0
 20
19.00001
 30
0.0
 11
5.0
 21
20.00001
 31
0.0
  0
LINE
  5
734
330
1F
100
AcDbEntity
  8
SK2
  6
CONTINUOUS
370
25
 62
7
100
AcDbLine
 10
5.0
 20
20.00001
 30
0.0
 11
5.0
 21
18.00001
 31
0.0
  0
LINE
  5
735
330
1F
100
AcDbEntity
  8
SK2
  6
CONTINUOUS
370
25
 62
7
100
AcDbLine
 10
5.0
 20
18.00001
 30
0.0
 11
0.0
 21
19.00001
 31
0.0
  0
LINE
  5
736
330
1F
100
AcDbEntity
  8
SK2
  6
CONTINUOUS
370
25
 62
7
100
AcDbLine
 10
4.871996112452443
 20
18.02561077750951
 30
0.0
 11
5.0
 21
18.15361466505707
 31
0.0
  0
LINE
  5
737
330
1F
100
AcDbEntity
  8
SK2
  6
CONTINUOUS
370
25
 62
7
100
AcDbLine
 10
4.518442721859177
 20
18.09632145562816
 30
0.0
 11
5.0
 21
18.57787873376899
 31
0.0
  0
LINE
  5
738
330
1F
100
AcDbEntity
  8
SK2
  6
CONTINUOUS
370
25
 62
7
100
AcDbLine
 10
4.164889331265897
 20
18.16703213374682
 30
0.0
 11
5.0
 21
19.00214280248092
 31
0.0
  0
LINE
  5
739
330
1F
100
AcDbEntity
  8
SK2
  6
CONTINUOUS
370
25
 62
7
100
AcDbLine
 10
3.811335940672631
 20
18.23774281186547
 30
0.0
 11
5.0
 21
19.42640687119284
 31
0.0
  0
LINE
  5
73A
330
1F
100
AcDbEntity
  8
SK2
  6
CONTINUOUS
370
25
 62
7
100
AcDbLine
 10
3.457782550079351
 20
18.30845348998413
 30
0.0
 11
5.0
 21
19.85067093990478
 31
0.0
  0
LINE
  5
73B
330
1F
100
AcDbEntity
  8
SK2
  6
CONTINUOUS
370
25
 62
7
100
AcDbLine
 10
3.104229159486085
 20
18.37916416810278
 30
0.0
 11
4.656343739229126
 21
19.93127874784582
 31
0.0
  0
LINE
  5
73C
330
1F
100
AcDbEntity
  8
SK2
  6
CONTINUOUS
370
25
 62
7
100
AcDbLine
 10
2.750675768892805
 20
18.44987484622144
 30
0.0
 11
4.126013653339207
 21
19.82521273066784
 31
0.0
  0
LINE
  5
73D
330
1F
100
AcDbEntity
  8
SK2
  6
CONTINUOUS
370
25
 62
7
100
AcDbLine
 10
2.397122378299539
 20
18.5205855243401
 30
0.0
 11
3.595683567449306
 21
19.71914671348986
 31
0.0
  0
LINE
  5
73E
330
1F
100
AcDbEntity
  8
SK2
  6
CONTINUOUS
370
25
 62
7
100
AcDbLine
 10
2.043568987706266
 20
18.59129620245875
 30
0.0
 11
3.065353481559395
 21
19.61308069631188
 31
0.0
  0
LINE
  5
73F
330
1F
100
AcDbEntity
  8
SK2
  6
CONTINUOUS
370
25
 62
7
100
AcDbLine
 10
1.690015597112989
 20
18.6620068805774
 30
0.0
 11
2.535023395669487
 21
19.5070146791339
 31
0.0
  0
LINE
  5
740
330
1F
100
AcDbEntity
  8
SK2
  6
CONTINUOUS
370
25
 62
7
100
AcDbLine
 10
1.336462206519716
 20
18.73271755869606
 30
0.0
 11
2.004693309779576
 21
19.40094866195592
 31
0.0
  0
LINE
  5
741
330
1F
100
AcDbEntity
  8
SK2
  6
CONTINUOUS
370
25
 62
7
100
AcDbLine
 10
0.9829088159264394
 20
18.80342823681471
 30
0.0
 11
1.474363223889664
 21
19.29488264477793
 31
0.0
  0
LINE
  5
742
330
1F
100
AcDbEntity
  8
SK2
  6
CONTINUOUS
370
25
 62
7
100
AcDbLine
 10
0.6293554253331735
 20
18.87413891493337
 30
0.0
 11
0.9440331379997566
 21
19.18881662759995
 31
0.0
  0
LINE
  5
743
330
1F
100
AcDbEntity
  8
SK2
  6
CONTINUOUS
370
25
 62
7
100
AcDbLine
 10
0.2758020347398933
 20
18.94484959305202
 30
0.0
 11
0.4137030521098453
 21
19.08275061042197
 31
0.0
  0
LINE
  5
744
330
1F
100
AcDbEntity
  8
SK2
  6
CONTINUOUS
370
25
 62
7
100
AcDbLine
 10
0.2921480005577948
 20
19.05843960011156
 30
0.0
 11
0.4382220008366957
 21
18.91236559983266
 31
0.0
  0
LINE
  5
745
330
1F
100
AcDbEntity
  8
SK2
  6
CONTINUOUS
370
25
 62
7
100
AcDbLine
 10
0.6457013911510678
 20
19.12915027823021
 30
0.0
 11
0.9685520867266071
 21
18.80629958265467
 31
0.0
  0
LINE
  5
746
330
1F
100
AcDbEntity
  8
SK2
  6
CONTINUOUS
370
25
 62
7
100
AcDbLine
 10
0.9992547817443409
 20
19.19986095634887
 30
0.0
 11
1.498882172616515
 21
18.70023356547669
 31
0.0
  0
LINE
  5
747
330
1F
100
AcDbEntity
  8
SK2
  6
CONTINUOUS
370
25
 62
7
100
AcDbLine
 10
1.352808172337614
 20
19.27057163446752
 30
0.0
 11
2.029212258506426
 21
18.59416754829871
 31
0.0
  0
LINE
  5
748
330
1F
100
AcDbEntity
  8
SK2
  6
CONTINUOUS
370
25
 62
7
100
AcDbLine
 10
1.706361562930887
 20
19.34128231258618
 30
0.0
 11
2.559542344396334
 21
18.48810153112073
 31
0.0
  0
LINE
  5
749
330
1F
100
AcDbEntity
  8
SK2
  6
CONTINUOUS
370
25
 62
7
100
AcDbLine
 10
2.05991495352416
 20
19.41199299070483
 30
0.0
 11
3.089872430286245
 21
18.38203551394275
 31
0.0
  0
LINE
  5
74A
330
1F
100
AcDbEntity
  8
SK2
  6
CONTINUOUS
370
25
 62
7
100
AcDbLine
 10
2.413468344117433
 20
19.48270366882349
 30
0.0
 11
3.620202516176153
 21
18.27596949676477
 31
0.0
  0
LINE
  5
74B
330
1F
100
AcDbEntity
  8
SK2
  6
CONTINUOUS
370
25
 62
7
100
AcDbLine
 10
2.767021734710706
 20
19.55341434694214
 30
0.0
 11
4.150532602066065
 21
18.16990347958679
 31
0.0
  0
LINE
  5
74C
330
1F
100
AcDbEntity
  8
SK2
  6
CONTINUOUS
370
25
 62
7
100
AcDbLine
 10
3.120575125303979
 20
19.6241250250608
 30
0.0
 11
4.680862687955976
 21
18.0638374624088
 31
0.0
  0
LINE
  5
74D
330
1F
100
AcDbEntity
  8
SK2
  6
CONTINUOUS
370
25
 62
7
100
AcDbLine
 10
3.474128515897252
 20
19.69483570317945
 30
0.0
 11
5.0
 21
18.16896421907671
 31
0.0
  0
LINE
  5
74E
330
1F
100
AcDbEntity
  8
SK2
  6
CONTINUOUS
370
25
 62
7
100
AcDbLine
 10
3.827681906490525
 20
19.7655463812981
 30
0.0
 11
5.0
 21
18.59322828778863
 31
0.0
  0
LINE
  5
74F
330
1F
100
AcDbEntity
  8
SK2
  6
CONTINUOUS
370
25
 62
7
100
AcDbLine
 10
4.181235297083798
 20
19.83625705941676
 30
0.0
 11
5.0
 21
19.01749235650056
 31
0.0
  0
LINE
  5
750
330
1F
100
AcDbEntity
  8
SK2
  6
CONTINUOUS
370
25
 62
7
100
AcDbLine
 10
4.534788687677072
 20
19.90696773753542
 30
0.0
 11
5.0
 21
19.44175642521249
 31
0.0
  0
LINE
  5
751
330
1F
100
AcDbEntity
  8
SK2
  6
CONTINUOUS
370
25
 62
7
100
AcDbLine
 10
4.888342078270348
 20
19.97767841565407
 30
0.0
 11
5.0
 21
19.86602049392442
 31
0.0
  0
LINE
  5
752
330
1F
100
AcDbEntity
  8
SK2
  6
CONTINUOUS
370
25
 62
7
100
AcDbLine
 10
45.0
 20
19.00001
 30
0.0
 11
40.0
 21
18.00001
 31
0.0
  0
LINE
  5
753
330
1F
100
AcDbEntity
  8
SK2
  6
CONTINUOUS
370
25
 62
7
100
AcDbLine
 10
40.0
 20
18.00001
 30
0.0
 11
40.0
 21
20.00001
 31
0.0
  0
LINE
  5
754
330
1F
100
AcDbEntity
  8
SK2
  6
CONTINUOUS
370
25
 62
7
100
AcDbLine
 10
40.0
 20
20.00001
 30
0.0
 11
45.0
 21
19.00001
 31
0.0
  0
LINE
  5
755
330
1F
100
AcDbEntity
  8
SK2
  6
CONTINUOUS
370
25
 62
7
100
AcDbLine
 10
44.60036023230113
 20
18.92008204646022
 30
0.0
 11
44.73357348820076
 21
19.05329530235985
 31
0.0
  0
LINE
  5
756
330
1F
100
AcDbEntity
  8
SK2
  6
CONTINUOUS
370
25
 62
7
100
AcDbLine
 10
44.07003014641122
 20
18.81401602928224
 30
0.0
 11
44.38002009760748
 21
19.12400598047851
 31
0.0
  0
LINE
  5
757
330
1F
100
AcDbEntity
  8
SK2
  6
CONTINUOUS
370
25
 62
7
100
AcDbLine
 10
43.53970006052131
 20
18.70795001210426
 30
0.0
 11
44.02646670701421
 21
19.19471665859716
 31
0.0
  0
LINE
  5
758
330
1F
100
AcDbEntity
  8
SK2
  6
CONTINUOUS
370
25
 62
7
100
AcDbLine
 10
43.0093699746314
 20
18.60188399492628
 30
0.0
 11
43.67291331642094
 21
19.26542733671582
 31
0.0
  0
LINE
  5
759
330
1F
100
AcDbEntity
  8
SK2
  6
CONTINUOUS
370
25
 62
7
100
AcDbLine
 10
42.47903988874149
 20
18.4958179777483
 30
0.0
 11
43.31935992582766
 21
19.33613801483447
 31
0.0
  0
LINE
  5
75A
330
1F
100
AcDbEntity
  8
SK2
  6
CONTINUOUS
370
25
 62
7
100
AcDbLine
 10
41.94870980285158
 20
18.38975196057032
 30
0.0
 11
42.96580653523439
 21
19.40684869295313
 31
0.0
  0
LINE
  5
75B
330
1F
100
AcDbEntity
  8
SK2
  6
CONTINUOUS
370
25
 62
7
100
AcDbLine
 10
41.41837971696167
 20
18.28368594339234
 30
0.0
 11
42.61225314464112
 21
19.47755937107178
 31
0.0
  0
LINE
  5
75C
330
1F
100
AcDbEntity
  8
SK2
  6
CONTINUOUS
370
25
 62
7
100
AcDbLine
 10
40.88804963107177
 20
18.17761992621435
 30
0.0
 11
42.25869975404785
 21
19.54827004919044
 31
0.0
  0
LINE
  5
75D
330
1F
100
AcDbEntity
  8
SK2
  6
CONTINUOUS
370
25
 62
7
100
AcDbLine
 10
40.35771954518185
 20
18.07155390903637
 30
0.0
 11
41.90514636345457
 21
19.61898072730909
 31
0.0
  0
LINE
  5
75E
330
1F
100
AcDbEntity
  8
SK2
  6
CONTINUOUS
370
25
 62
7
100
AcDbLine
 10
40.0
 20
18.13809843256644
 30
0.0
 11
41.5515929728613
 21
19.68969140542774
 31
0.0
  0
LINE
  5
75F
330
1F
100
AcDbEntity
  8
SK2
  6
CONTINUOUS
370
25
 62
7
100
AcDbLine
 10
40.0
 20
18.56236250127837
 30
0.0
 11
41.19803958226802
 21
19.7604020835464
 31
0.0
  0
LINE
  5
760
330
1F
100
AcDbEntity
  8
SK2
  6
CONTINUOUS
370
25
 62
7
100
AcDbLine
 10
40.0
 20
18.9866265699903
 30
0.0
 11
40.84448619167475
 21
19.83111276166505
 31
0.0
  0
LINE
  5
761
330
1F
100
AcDbEntity
  8
SK2
  6
CONTINUOUS
370
25
 62
7
100
AcDbLine
 10
40.0
 20
19.41089063870223
 30
0.0
 11
40.49093280108148
 21
19.9018234397837
 31
0.0
  0
LINE
  5
762
330
1F
100
AcDbEntity
  8
SK2
  6
CONTINUOUS
370
25
 62
7
100
AcDbLine
 10
40.0
 20
19.83515470741415
 30
0.0
 11
40.13737941048821
 21
19.97253411790236
 31
0.0
  0
LINE
  5
763
330
1F
100
AcDbEntity
  8
SK2
  6
CONTINUOUS
370
25
 62
7
100
AcDbLine
 10
40.0
 20
18.12274887854691
 30
0.0
 11
40.1022823987891
 21
18.02046647975782
 31
0.0
  0
LINE
  5
764
330
1F
100
AcDbEntity
  8
SK2
  6
CONTINUOUS
370
25
 62
7
100
AcDbLine
 10
40.0
 20
18.54701294725884
 30
0.0
 11
40.45583578938237
 21
18.09117715787647
 31
0.0
  0
LINE
  5
765
330
1F
100
AcDbEntity
  8
SK2
  6
CONTINUOUS
370
25
 62
7
100
AcDbLine
 10
40.0
 20
18.97127701597077
 30
0.0
 11
40.80938917997564
 21
18.16188783599513
 31
0.0
  0
LINE
  5
766
330
1F
100
AcDbEntity
  8
SK2
  6
CONTINUOUS
370
25
 62
7
100
AcDbLine
 10
40.0
 20
19.3955410846827
 30
0.0
 11
41.16294257056892
 21
18.23259851411378
 31
0.0
  0
LINE
  5
767
330
1F
100
AcDbEntity
  8
SK2
  6
CONTINUOUS
370
25
 62
7
100
AcDbLine
 10
40.0
 20
19.81980515339463
 30
0.0
 11
41.51649596116219
 21
18.30330919223243
 31
0.0
  0
LINE
  5
768
330
1F
100
AcDbEntity
  8
SK2
  6
CONTINUOUS
370
25
 62
7
100
AcDbLine
 10
40.30507402763319
 20
19.93899519447336
 30
0.0
 11
41.87004935175547
 21
18.37401987035109
 31
0.0
  0
LINE
  5
769
330
1F
100
AcDbEntity
  8
SK2
  6
CONTINUOUS
370
25
 62
7
100
AcDbLine
 10
40.8354041135231
 20
19.83292917729538
 30
0.0
 11
42.22360274234874
 21
18.44473054846974
 31
0.0
  0
LINE
  5
76A
330
1F
100
AcDbEntity
  8
SK2
  6
CONTINUOUS
370
25
 62
7
100
AcDbLine
 10
41.36573419941301
 20
19.7268631601174
 30
0.0
 11
42.57715613294201
 21
18.5154412265884
 31
0.0
  0
LINE
  5
76B
330
1F
100
AcDbEntity
  8
SK2
  6
CONTINUOUS
370
25
 62
7
100
AcDbLine
 10
41.89606428530292
 20
19.62079714293942
 30
0.0
 11
42.93070952353528
 21
18.58615190470705
 31
0.0
  0
LINE
  5
76C
330
1F
100
AcDbEntity
  8
SK2
  6
CONTINUOUS
370
25
 62
7
100
AcDbLine
 10
42.42639437119283
 20
19.51473112576144
 30
0.0
 11
43.28426291412856
 21
18.65686258282571
 31
0.0
  0
LINE
  5
76D
330
1F
100
AcDbEntity
  8
SK2
  6
CONTINUOUS
370
25
 62
7
100
AcDbLine
 10
42.95672445708274
 20
19.40866510858346
 30
0.0
 11
43.63781630472183
 21
18.72757326094436
 31
0.0
  0
LINE
  5
76E
330
1F
100
AcDbEntity
  8
SK2
  6
CONTINUOUS
370
25
 62
7
100
AcDbLine
 10
43.48705454297265
 20
19.30259909140547
 30
0.0
 11
43.99136969531511
 21
18.79828393906302
 31
0.0
  0
LINE
  5
76F
330
1F
100
AcDbEntity
  8
SK2
  6
CONTINUOUS
370
25
 62
7
100
AcDbLine
 10
44.01738462886256
 20
19.19653307422749
 30
0.0
 11
44.34492308590838
 21
18.86899461718167
 31
0.0
  0
LINE
  5
770
330
1F
100
AcDbEntity
  8
SK2
  6
CONTINUOUS
370
25
 62
7
100
AcDbLine
 10
44.54771471475247
 20
19.09046705704951
 30
0.0
 11
44.69847647650165
 21
18.93970529530032
 31
0.0
  0
TEXT
  5
771
330
1F
100
AcDbEntity
  8
SK2
  6
CONTINUOUS
370
25
 62
7
100
AcDbText
 10
19.58333333333333
 20
20.00001
 30
0.0
 40
3.5
  1
45
 72
     1
 11
22.5
 21
20.00001
 31
0.0
100
AcDbText
  0
LINE
  5
772
330
1F
100
AcDbEntity
  8
2
  6
CONTINUOUS
370
25
 62
7
100
AcDbLine
 10
28.0
 20
0.0
 30
0.0
 11
28.0
 21
13.00001
 31
0.0
  0
LINE
  5
773
330
1F
100
AcDbEntity
  8
2
  6
CONTINUOUS
370
25
 62
7
100
AcDbLine
 10
45.0
 20
13.00001
 30
0.0
 11
45.0
 21
1.199999999999999
 31
0.0
  0
LINE
  5
774
330
1F
100
AcDbEntity
  8
2
  6
CONTINUOUS
370
25
 62
7
100
AcDbLine
 10
28.0
 20
12.00001
 30
0.0
 11
45.0
 21
12.00001
 31
0.0
  0
LINE
  5
775
330
1F
100
AcDbEntity
  8
2
  6
CONTINUOUS
370
25
 62
7
100
AcDbLine
 10
28.0
 20
12.00001
 30
0.0
 11
33.0
 21
13.00001
 31
0.0
  0
LINE
  5
776
330
1F
100
AcDbEntity
  8
2
  6
CONTINUOUS
370
25
 62
7
100
AcDbLine
 10
33.0
 20
13.00001
 30
0.0
 11
33.0
 21
11.00001
 31
0.0
  0
LINE
  5
777
330
1F
100
AcDbEntity
  8
2
  6
CONTINUOUS
370
25
 62
7
100
AcDbLine
 10
33.0
 20
11.00001
 30
0.0
 11
28.0
 21
12.00001
 31
0.0
  0
LINE
  5
778
330
1F
100
AcDbEntity
  8
2
  6
CONTINUOUS
370
25
 62
7
100
AcDbLine
 10
32.69670747443423
 20
11.06066850511315
 30
0.0
 11
33.0
 21
11.36396103067892
 31
0.0
  0
LINE
  5
779
330
1F
100
AcDbEntity
  8
2
  6
CONTINUOUS
370
25
 62
7
100
AcDbLine
 10
32.34315408384096
 20
11.13137918323181
 30
0.0
 11
33.0
 21
11.78822509939085
 31
0.0
  0
LINE
  5
77A
330
1F
100
AcDbEntity
  8
2
  6
CONTINUOUS
370
25
 62
7
100
AcDbLine
 10
31.98960069324768
 20
11.20208986135046
 30
0.0
 11
33.0
 21
12.21248916810278
 31
0.0
  0
LINE
  5
77B
330
1F
100
AcDbEntity
  8
2
  6
CONTINUOUS
370
25
 62
7
100
AcDbLine
 10
31.63604730265441
 20
11.27280053946912
 30
0.0
 11
33.0
 21
12.63675323681471
 31
0.0
  0
LINE
  5
77C
330
1F
100
AcDbEntity
  8
2
  6
CONTINUOUS
370
25
 62
7
100
AcDbLine
 10
31.28249391206113
 20
11.34351121758777
 30
0.0
 11
32.92374086809171
 21
12.98475817361834
 31
0.0
  0
LINE
  5
77D
330
1F
100
AcDbEntity
  8
2
  6
CONTINUOUS
370
25
 62
7
100
AcDbLine
 10
30.92894052146786
 20
11.41422189570643
 30
0.0
 11
32.3934107822018
 21
12.87869215644036
 31
0.0
  0
LINE
  5
77E
330
1F
100
AcDbEntity
  8
2
  6
CONTINUOUS
370
25
 62
7
100
AcDbLine
 10
30.57538713087459
 20
11.48493257382508
 30
0.0
 11
31.86308069631189
 21
12.77262613926238
 31
0.0
  0
LINE
  5
77F
330
1F
100
AcDbEntity
  8
2
  6
CONTINUOUS
370
25
 62
7
100
AcDbLine
 10
30.22183374028132
 20
11.55564325194374
 30
0.0
 11
31.33275061042198
 21
12.66656012208439
 31
0.0
  0
LINE
  5
780
330
1F
100
AcDbEntity
  8
2
  6
CONTINUOUS
370
25
 62
7
100
AcDbLine
 10
29.86828034968804
 20
11.62635393006239
 30
0.0
 11
30.80242052453207
 21
12.56049410490641
 31
0.0
  0
LINE
  5
781
330
1F
100
AcDbEntity
  8
2
  6
CONTINUOUS
370
25
 62
7
100
AcDbLine
 10
29.51472695909477
 20
11.69706460818105
 30
0.0
 11
30.27209043864215
 21
12.45442808772843
 31
0.0
  0
LINE
  5
782
330
1F
100
AcDbEntity
  8
2
  6
CONTINUOUS
370
25
 62
7
100
AcDbLine
 10
29.1611735685015
 20
11.7677752862997
 30
0.0
 11
29.74176035275224
 21
12.34836207055045
 31
0.0
  0
LINE
  5
783
330
1F
100
AcDbEntity
  8
2
  6
CONTINUOUS
370
25
 62
7
100
AcDbLine
 10
28.80762017790822
 20
11.83848596441836
 30
0.0
 11
29.21143026686233
 21
12.24229605337247
 31
0.0
  0
LINE
  5
784
330
1F
100
AcDbEntity
  8
2
  6
CONTINUOUS
370
25
 62
7
100
AcDbLine
 10
28.45406678731495
 20
11.90919664253701
 30
0.0
 11
28.68110018097242
 21
12.13623003619449
 31
0.0
  0
LINE
  5
785
330
1F
100
AcDbEntity
  8
2
  6
CONTINUOUS
370
25
 62
7
100
AcDbLine
 10
28.10051339672168
 20
11.97990732065566
 30
0.0
 11
28.15077009508251
 21
12.0301640190165
 31
0.0
  0
LINE
  5
786
330
1F
100
AcDbEntity
  8
2
  6
CONTINUOUS
370
25
 62
7
100
AcDbLine
 10
28.2530399938716
 20
12.05061799877432
 30
0.0
 11
28.3795599908074
 21
11.92409800183852
 31
0.0
  0
LINE
  5
787
330
1F
100
AcDbEntity
  8
2
  6
CONTINUOUS
370
25
 62
7
100
AcDbLine
 10
28.60659338446488
 20
12.12132867689298
 30
0.0
 11
28.90989007669732
 21
11.81803198466054
 31
0.0
  0
LINE
  5
788
330
1F
100
AcDbEntity
  8
2
  6
CONTINUOUS
370
25
 62
7
100
AcDbLine
 10
28.96014677505815
 20
12.19203935501163
 30
0.0
 11
29.44022016258722
 21
11.71196596748256
 31
0.0
  0
LINE
  5
789
330
1F
100
AcDbEntity
  8
2
  6
CONTINUOUS
370
25
 62
7
100
AcDbLine
 10
29.31370016565143
 20
12.26275003313028
 30
0.0
 11
29.97055024847714
 21
11.60589995030457
 31
0.0
  0
LINE
  5
78A
330
1F
100
AcDbEntity
  8
2
  6
CONTINUOUS
370
25
 62
7
100
AcDbLine
 10
29.6672535562447
 20
12.33346071124894
 30
0.0
 11
30.50088033436705
 21
11.49983393312659
 31
0.0
  0
LINE
  5
78B
330
1F
100
AcDbEntity
  8
2
  6
CONTINUOUS
370
25
 62
7
100
AcDbLine
 10
30.02080694683797
 20
12.40417138936759
 30
0.0
 11
31.03121042025696
 21
11.39376791594861
 31
0.0
  0
LINE
  5
78C
330
1F
100
AcDbEntity
  8
2
  6
CONTINUOUS
370
25
 62
7
100
AcDbLine
 10
30.37436033743124
 20
12.47488206748625
 30
0.0
 11
31.56154050614687
 21
11.28770189877063
 31
0.0
  0
LINE
  5
78D
330
1F
100
AcDbEntity
  8
2
  6
CONTINUOUS
370
25
 62
7
100
AcDbLine
 10
30.72791372802452
 20
12.5455927456049
 30
0.0
 11
32.09187059203678
 21
11.18163588159264
 31
0.0
  0
LINE
  5
78E
330
1F
100
AcDbEntity
  8
2
  6
CONTINUOUS
370
25
 62
7
100
AcDbLine
 10
31.08146711861779
 20
12.61630342372356
 30
0.0
 11
32.62220067792669
 21
11.07556986441466
 31
0.0
  0
LINE
  5
78F
330
1F
100
AcDbEntity
  8
2
  6
CONTINUOUS
370
25
 62
7
100
AcDbLine
 10
31.43502050921107
 20
12.68701410184221
 30
0.0
 11
33.0
 21
11.12203461105328
 31
0.0
  0
LINE
  5
790
330
1F
100
AcDbEntity
  8
2
  6
CONTINUOUS
370
25
 62
7
100
AcDbLine
 10
31.78857389980434
 20
12.75772477996087
 30
0.0
 11
33.0
 21
11.54629867976521
 31
0.0
  0
LINE
  5
791
330
1F
100
AcDbEntity
  8
2
  6
CONTINUOUS
370
25
 62
7
100
AcDbLine
 10
32.14212729039761
 20
12.82843545807952
 30
0.0
 11
33.0
 21
11.97056274847714
 31
0.0
  0
LINE
  5
792
330
1F
100
AcDbEntity
  8
2
  6
CONTINUOUS
370
25
 62
7
100
AcDbLine
 10
32.49568068099089
 20
12.89914613619818
 30
0.0
 11
33.0
 21
12.39482681718907
 31
0.0
  0
LINE
  5
793
330
1F
100
AcDbEntity
  8
2
  6
CONTINUOUS
370
25
 62
7
100
AcDbLine
 10
32.84923407158416
 20
12.96985681431683
 30
0.0
 11
33.0
 21
12.81909088590099
 31
0.0
  0
LINE
  5
794
330
1F
100
AcDbEntity
  8
2
  6
CONTINUOUS
370
25
 62
7
100
AcDbLine
 10
45.0
 20
12.00001
 30
0.0
 11
40.0
 21
11.00001
 31
0.0
  0
LINE
  5
795
330
1F
100
AcDbEntity
  8
2
  6
CONTINUOUS
370
25
 62
7
100
AcDbLine
 10
40.0
 20
11.00001
 30
0.0
 11
40.0
 21
13.00001
 31
0.0
  0
LINE
  5
796
330
1F
100
AcDbEntity
  8
2
  6
CONTINUOUS
370
25
 62
7
100
AcDbLine
 10
40.0
 20
13.00001
 30
0.0
 11
45.0
 21
12.00001
 31
0.0
  0
LINE
  5
797
330
1F
100
AcDbEntity
  8
2
  6
CONTINUOUS
370
25
 62
7
100
AcDbLine
 10
44.8650788580626
 20
11.97302577161252
 30
0.0
 11
44.91005257204174
 21
12.01799948559165
 31
0.0
  0
LINE
  5
798
330
1F
100
AcDbEntity
  8
2
  6
CONTINUOUS
370
25
 62
7
100
AcDbLine
 10
44.33474877217269
 20
11.86695975443454
 30
0.0
 11
44.55649918144846
 21
12.0887101637103
 31
0.0
  0
LINE
  5
799
330
1F
100
AcDbEntity
  8
2
  6
CONTINUOUS
370
25
 62
7
100
AcDbLine
 10
43.80441868628278
 20
11.76089373725656
 30
0.0
 11
44.20294579085518
 21
12.15942084182896
 31
0.0
  0
LINE
  5
79A
330
1F
100
AcDbEntity
  8
2
  6
CONTINUOUS
370
25
 62
7
100
AcDbLine
 10
43.27408860039287
 20
11.65482772007857
 30
0.0
 11
43.84939240026192
 21
12.23013151994762
 31
0.0
  0
LINE
  5
79B
330
1F
100
AcDbEntity
  8
2
  6
CONTINUOUS
370
25
 62
7
100
AcDbLine
 10
42.74375851450296
 20
11.54876170290059
 30
0.0
 11
43.49583900966864
 21
12.30084219806627
 31
0.0
  0
LINE
  5
79C
330
1F
100
AcDbEntity
  8
2
  6
CONTINUOUS
370
25
 62
7
100
AcDbLine
 10
42.21342842861305
 20
11.44269568572261
 30
0.0
 11
43.14228561907537
 21
12.37155287618493
 31
0.0
  0
LINE
  5
79D
330
1F
100
AcDbEntity
  8
2
  6
CONTINUOUS
370
25
 62
7
100
AcDbLine
 10
41.68309834272314
 20
11.33662966854463
 30
0.0
 11
42.7887322284821
 21
12.44226355430358
 31
0.0
  0
LINE
  5
79E
330
1F
100
AcDbEntity
  8
2
  6
CONTINUOUS
370
25
 62
7
100
AcDbLine
 10
41.15276825683323
 20
11.23056365136664
 30
0.0
 11
42.43517883788883
 21
12.51297423242224
 31
0.0
  0
LINE
  5
79F
330
1F
100
AcDbEntity
  8
2
  6
CONTINUOUS
370
25
 62
7
100
AcDbLine
 10
40.62243817094332
 20
11.12449763418866
 30
0.0
 11
42.08162544729555
 21
12.58368491054089
 31
0.0
  0
LINE
  5
7A0
330
1F
100
AcDbEntity
  8
2
  6
CONTINUOUS
370
25
 62
7
100
AcDbLine
 10
40.09210808505341
 20
11.01843161701068
 30
0.0
 11
41.72807205670227
 21
12.65439558865955
 31
0.0
  0
LINE
  5
7A1
330
1F
100
AcDbEntity
  8
2
  6
CONTINUOUS
370
25
 62
7
100
AcDbLine
 10
40.0
 20
11.3505876006692
 30
0.0
 11
41.374518666109
 21
12.7251062667782
 31
0.0
  0
LINE
  5
7A2
330
1F
100
AcDbEntity
  8
2
  6
CONTINUOUS
370
25
 62
7
100
AcDbLine
 10
40.0
 20
11.77485166938112
 30
0.0
 11
41.02096527551573
 21
12.79581694489685
 31
0.0
  0
LINE
  5
7A3
330
1F
100
AcDbEntity
  8
2
  6
CONTINUOUS
370
25
 62
7
100
AcDbLine
 10
40.0
 20
12.19911573809305
 30
0.0
 11
40.66741188492246
 21
12.86652762301551
 31
0.0
  0
LINE
  5
7A4
330
1F
100
AcDbEntity
  8
2
  6
CONTINUOUS
370
25
 62
7
100
AcDbLine
 10
40.0
 20
12.62337980680498
 30
0.0
 11
40.31385849432918
 21
12.93723830113416
 31
0.0
  0
LINE
  5
7A5
330
1F
100
AcDbEntity
  8
2
  6
CONTINUOUS
370
25
 62
7
100
AcDbLine
 10
40.0
 20
11.33452377915607
 30
0.0
 11
40.27876148263006
 21
11.05576229652601
 31
0.0
  0
LINE
  5
7A6
330
1F
100
AcDbEntity
  8
2
  6
CONTINUOUS
370
25
 62
7
100
AcDbLine
 10
40.0
 20
11.75878784786799
 30
0.0
 11
40.63231487322333
 21
11.12647297464467
 31
0.0
  0
LINE
  5
7A7
330
1F
100
AcDbEntity
  8
2
  6
CONTINUOUS
370
25
 62
7
100
AcDbLine
 10
40.0
 20
12.18305191657992
 30
0.0
 11
40.9858682638166
 21
11.19718365276332
 31
0.0
  0
LINE
  5
7A8
330
1F
100
AcDbEntity
  8
2
  6
CONTINUOUS
370
25
 62
7
100
AcDbLine
 10
40.0
 20
12.60731598529185
 30
0.0
 11
41.33942165440988
 21
11.26789433088197
 31
0.0
  0
LINE
  5
7A9
330
1F
100
AcDbEntity
  8
2
  6
CONTINUOUS
370
25
 62
7
100
AcDbLine
 10
40.03946256750472
 20
12.99211748649906
 30
0.0
 11
41.69297504500315
 21
11.33860500900063
 31
0.0
  0
LINE
  5
7AA
330
1F
100
AcDbEntity
  8
2
  6
CONTINUOUS
370
25
 62
7
100
AcDbLine
 10
40.56979265339464
 20
12.88605146932107
 30
0.0
 11
42.04652843559643
 21
11.40931568711928
 31
0.0
  0
LINE
  5
7AB
330
1F
100
AcDbEntity
  8
2
  6
CONTINUOUS
370
25
 62
7
100
AcDbLine
 10
41.10012273928454
 20
12.77998545214309
 30
0.0
 11
42.40008182618969
 21
11.48002636523794
 31
0.0
  0
LINE
  5
7AC
330
1F
100
AcDbEntity
  8
2
  6
CONTINUOUS
370
25
 62
7
100
AcDbLine
 10
41.63045282517445
 20
12.67391943496511
 30
0.0
 11
42.75363521678297
 21
11.55073704335659
 31
0.0
  0
LINE
  5
7AD
330
1F
100
AcDbEntity
  8
2
  6
CONTINUOUS
370
25
 62
7
100
AcDbLine
 10
42.16078291106436
 20
12.56785341778713
 30
0.0
 11
43.10718860737624
 21
11.62144772147525
 31
0.0
  0
LINE
  5
7AE
330
1F
100
AcDbEntity
  8
2
  6
CONTINUOUS
370
25
 62
7
100
AcDbLine
 10
42.69111299695427
 20
12.46178740060914
 30
0.0
 11
43.46074199796952
 21
11.6921583995939
 31
0.0
  0
LINE
  5
7AF
330
1F
100
AcDbEntity
  8
2
  6
CONTINUOUS
370
25
 62
7
100
AcDbLine
 10
43.22144308284419
 20
12.35572138343116
 30
0.0
 11
43.81429538856279
 21
11.76286907771256
 31
0.0
  0
LINE
  5
7B0
330
1F
100
AcDbEntity
  8
2
  6
CONTINUOUS
370
25
 62
7
100
AcDbLine
 10
43.7517731687341
 20
12.24965536625318
 30
0.0
 11
44.16784877915606
 21
11.83357975583122
 31
0.0
  0
LINE
  5
7B1
330
1F
100
AcDbEntity
  8
2
  6
CONTINUOUS
370
25
 62
7
100
AcDbLine
 10
44.282103254624
 20
12.1435893490752
 30
0.0
 11
44.52140216974934
 21
11.90429043394987
 31
0.0
  0
LINE
  5
7B2
330
1F
100
AcDbEntity
  8
2
  6
CONTINUOUS
370
25
 62
7
100
AcDbLine
 10
44.81243334051392
 20
12.03752333189722
 30
0.0
 11
44.87495556034261
 21
11.97500111206852
 31
0.0
  0
TEXT
  5
7B3
330
1F
100
AcDbEntity
  8
2
  6
CONTINUOUS
370
25
 62
7
100
AcDbText
 10
34.16666666666666
 20
13.00001
 30
0.0
 40
3.5
  1
17
 72
     1
 11
36.5
 21
13.00001
 31
0.0
100
AcDbText
  0
LINE
  5
7B4
330
1F
100
AcDbEntity
  8
2
  6
CONTINUOUS
370
25
 62
7
100
AcDbLine
 10
37.8
 20
-1.2
 30
0.0
 11
37.8
 21
-20.00001
 31
0.0
  0
LINE
  5
7B5
330
1F
100
AcDbEntity
  8
2
  6
CONTINUOUS
370
25
 62
7
100
AcDbLine
 10
45.0
 20
-20.00001
 30
0.0
 11
45.0
 21
-1.199999999999999
 31
0.0
  0
LINE
  5
7B6
330
1F
100
AcDbEntity
  8
2
  6
CONTINUOUS
370
25
 62
7
100
AcDbLine
 10
22.69375
 20
-19.00001
 30
0.0
 11
55.00000000000001
 21
-19.00001
 31
0.0
  0
LINE
  5
7B7
330
1F
100
AcDbEntity
  8
2
  6
CONTINUOUS
370
25
 62
7
100
AcDbLine
 10
37.8
 20
-19.00001
 30
0.0
 11
32.8
 21
-20.00001
 31
0.0
  0
LINE
  5
7B8
330
1F
100
AcDbEntity
  8
2
  6
CONTINUOUS
370
25
 62
7
100
AcDbLine
 10
32.8
 20
-20.00001
 30
0.0
 11
32.8
 21
-18.00001
 31
0.0
  0
LINE
  5
7B9
330
1F
100
AcDbEntity
  8
2
  6
CONTINUOUS
370
25
 62
7
100
AcDbLine
 10
32.8
 20
-18.00001
 30
0.0
 11
37.8
 21
-19.00001
 31
0.0
  0
LINE
  5
7BA
330
1F
100
AcDbEntity
  8
2
  6
CONTINUOUS
370
25
 62
7
100
AcDbLine
 10
37.71661904822759
 20
-19.01668619035448
 30
0.0
 11
37.74441269881839
 21
-18.98889253976368
 31
0.0
  0
LINE
  5
7BB
330
1F
100
AcDbEntity
  8
2
  6
CONTINUOUS
370
25
 62
7
100
AcDbLine
 10
37.18628896233767
 20
-19.12275220753246
 30
0.0
 11
37.39085930822512
 21
-18.91818186164502
 31
0.0
  0
LINE
  5
7BC
330
1F
100
AcDbEntity
  8
2
  6
CONTINUOUS
370
25
 62
7
100
AcDbLine
 10
36.65595887644776
 20
-19.22881822471045
 30
0.0
 11
37.03730591763184
 21
-18.84747118352637
 31
0.0
  0
LINE
  5
7BD
330
1F
100
AcDbEntity
  8
2
  6
CONTINUOUS
370
25
 62
7
100
AcDbLine
 10
36.12562879055785
 20
-19.33488424188843
 30
0.0
 11
36.68375252703857
 21
-18.77676050540771
 31
0.0
  0
LINE
  5
7BE
330
1F
100
AcDbEntity
  8
2
  6
CONTINUOUS
370
25
 62
7
100
AcDbLine
 10
35.59529870466794
 20
-19.44095025906641
 30
0.0
 11
36.33019913644529
 21
-18.70604982728906
 31
0.0
  0
LINE
  5
7BF
330
1F
100
AcDbEntity
  8
2
  6
CONTINUOUS
370
25
 62
7
100
AcDbLine
 10
35.06496861877803
 20
-19.54701627624439
 30
0.0
 11
35.97664574585203
 21
-18.63533914917041
 31
0.0
  0
LINE
  5
7C0
330
1F
100
AcDbEntity
  8
2
  6
CONTINUOUS
370
25
 62
7
100
AcDbLine
 10
34.53463853288812
 20
-19.65308229342238
 30
0.0
 11
35.62309235525875
 21
-18.56462847105175
 31
0.0
  0
LINE
  5
7C1
330
1F
100
AcDbEntity
  8
2
  6
CONTINUOUS
370
25
 62
7
100
AcDbLine
 10
34.00430844699821
 20
-19.75914831060036
 30
0.0
 11
35.26953896466548
 21
-18.4939177929331
 31
0.0
  0
LINE
  5
7C2
330
1F
100
AcDbEntity
  8
2
  6
CONTINUOUS
370
25
 62
7
100
AcDbLine
 10
33.4739783611083
 20
-19.86521432777834
 30
0.0
 11
34.9159855740722
 21
-18.42320711481444
 31
0.0
  0
LINE
  5
7C3
330
1F
100
AcDbEntity
  8
2
  6
CONTINUOUS
370
25
 62
7
100
AcDbLine
 10
32.94364827521839
 20
-19.97128034495632
 30
0.0
 11
34.56243218347893
 21
-18.35249643669578
 31
0.0
  0
LINE
  5
7C4
330
1F
100
AcDbEntity
  8
2
  6
CONTINUOUS
370
25
 62
7
100
AcDbLine
 10
32.8
 20
-19.69066455146278
 30
0.0
 11
34.20887879288566
 21
-18.28178575857713
 31
0.0
  0
LINE
  5
7C5
330
1F
100
AcDbEntity
  8
2
  6
CONTINUOUS
370
25
 62
7
100
AcDbLine
 10
32.8
 20
-19.26640048275086
 30
0.0
 11
33.85532540229238
 21
-18.21107508045847
 31
0.0
  0
LINE
  5
7C6
330
1F
100
AcDbEntity
  8
2
  6
CONTINUOUS
370
25
 62
7
100
AcDbLine
 10
32.8
 20
-18.84213641403893
 30
0.0
 11
33.50177201169911
 21
-18.14036440233982
 31
0.0
  0
LINE
  5
7C7
330
1F
100
AcDbEntity
  8
2
  6
CONTINUOUS
370
25
 62
7
100
AcDbLine
 10
32.8
 20
-18.41787234532701
 30
0.0
 11
33.14821862110583
 21
-18.06965372422117
 31
0.0
  0
LINE
  5
7C8
330
1F
100
AcDbEntity
  8
2
  6
CONTINUOUS
370
25
 62
7
100
AcDbLine
 10
32.8
 20
-19.60681171221151
 30
0.0
 11
33.12766523982374
 21
-19.93447695203525
 31
0.0
  0
LINE
  5
7C9
330
1F
100
AcDbEntity
  8
2
  6
CONTINUOUS
370
25
 62
7
100
AcDbLine
 10
32.8
 20
-19.18254764349958
 30
0.0
 11
33.48121863041701
 21
-19.8637662739166
 31
0.0
  0
LINE
  5
7CA
330
1F
100
AcDbEntity
  8
2
  6
CONTINUOUS
370
25
 62
7
100
AcDbLine
 10
32.8
 20
-18.75828357478765
 30
0.0
 11
33.83477202101029
 21
-19.79305559579794
 31
0.0
  0
LINE
  5
7CB
330
1F
100
AcDbEntity
  8
2
  6
CONTINUOUS
370
25
 62
7
100
AcDbLine
 10
32.8
 20
-18.33401950607573
 30
0.0
 11
34.18832541160356
 21
-19.72234491767929
 31
0.0
  0
LINE
  5
7CC
330
1F
100
AcDbEntity
  8
2
  6
CONTINUOUS
370
25
 62
7
100
AcDbLine
 10
32.91281820329525
 20
-18.02257364065905
 30
0.0
 11
34.54187880219683
 21
-19.65163423956063
 31
0.0
  0
LINE
  5
7CD
330
1F
100
AcDbEntity
  8
2
  6
CONTINUOUS
370
25
 62
7
100
AcDbLine
 10
33.44314828918516
 20
-18.12863965783703
 30
0.0
 11
34.89543219279011
 21
-19.58092356144198
 31
0.0
  0
LINE
  5
7CE
330
1F
100
AcDbEntity
  8
2
  6
CONTINUOUS
370
25
 62
7
100
AcDbLine
 10
33.97347837507507
 20
-18.23470567501501
 30
0.0
 11
35.24898558338338
 21
-19.51021288332332
 31
0.0
  0
LINE
  5
7CF
330
1F
100
AcDbEntity
  8
2
  6
CONTINUOUS
370
25
 62
7
100
AcDbLine
 10
34.50380846096498
 20
-18.34077169219299
 30
0.0
 11
35.60253897397665
 21
-19.43950220520467
 31
0.0
  0
LINE
  5
7D0
330
1F
100
AcDbEntity
  8
2
  6
CONTINUOUS
370
25
 62
7
100
AcDbLine
 10
35.03413854685489
 20
-18.44683770937098
 30
0.0
 11
35.95609236456993
 21
-19.36879152708601
 31
0.0
  0
LINE
  5
7D1
330
1F
100
AcDbEntity
  8
2
  6
CONTINUOUS
370
25
 62
7
100
AcDbLine
 10
35.5644686327448
 20
-18.55290372654896
 30
0.0
 11
36.3096457551632
 21
-19.29808084896736
 31
0.0
  0
LINE
  5
7D2
330
1F
100
AcDbEntity
  8
2
  6
CONTINUOUS
370
25
 62
7
100
AcDbLine
 10
36.09479871863471
 20
-18.65896974372694
 30
0.0
 11
36.66319914575647
 21
-19.2273701708487
 31
0.0
  0
LINE
  5
7D3
330
1F
100
AcDbEntity
  8
2
  6
CONTINUOUS
370
25
 62
7
100
AcDbLine
 10
36.62512880452462
 20
-18.76503576090492
 30
0.0
 11
37.01675253634975
 21
-19.15665949273005
 31
0.0
  0
LINE
  5
7D4
330
1F
100
AcDbEntity
  8
2
  6
CONTINUOUS
370
25
 62
7
100
AcDbLine
 10
37.15545889041453
 20
-18.87110177808291
 30
0.0
 11
37.37030592694302
 21
-19.0859488146114
 31
0.0
  0
LINE
  5
7D5
330
1F
100
AcDbEntity
  8
2
  6
CONTINUOUS
370
25
 62
7
100
AcDbLine
 10
37.68578897630444
 20
-18.97716779526089
 30
0.0
 11
37.7238593175363
 21
-19.01523813649274
 31
0.0
  0
LINE
  5
7D6
330
1F
100
AcDbEntity
  8
2
  6
CONTINUOUS
370
25
 62
7
100
AcDbLine
 10
45.0
 20
-19.00001
 30
0.0
 11
50.0
 21
-18.00001
 31
0.0
  0
LINE
  5
7D7
330
1F
100
AcDbEntity
  8
2
  6
CONTINUOUS
370
25
 62
7
100
AcDbLine
 10
50.0
 20
-18.00001
 30
0.0
 11
50.0
 21
-20.00001
 31
0.0
  0
LINE
  5
7D8
330
1F
100
AcDbEntity
  8
2
  6
CONTINUOUS
370
25
 62
7
100
AcDbLine
 10
50.0
 20
-20.00001
 30
0.0
 11
45.0
 21
-19.00001
 31
0.0
  0
LINE
  5
7D9
330
1F
100
AcDbEntity
  8
2
  6
CONTINUOUS
370
25
 62
7
100
AcDbLine
 10
49.73180448613331
 20
-19.94637089722666
 30
0.0
 11
50.0
 21
-19.67817538335998
 31
0.0
  0
LINE
  5
7DA
330
1F
100
AcDbEntity
  8
2
  6
CONTINUOUS
370
25
 62
7
100
AcDbLine
 10
49.37825109554004
 20
-19.87566021910801
 30
0.0
 11
50.0
 21
-19.25391131464805
 31
0.0
  0
LINE
  5
7DB
330
1F
100
AcDbEntity
  8
2
  6
CONTINUOUS
370
25
 62
7
100
AcDbLine
 10
49.02469770494677
 20
-19.80494954098935
 30
0.0
 11
50.0
 21
-18.82964724593612
 31
0.0
  0
LINE
  5
7DC
330
1F
100
AcDbEntity
  8
2
  6
CONTINUOUS
370
25
 62
7
100
AcDbLine
 10
48.6711443143535
 20
-19.7342388628707
 30
0.0
 11
50.0
 21
-18.40538317722419
 31
0.0
  0
LINE
  5
7DD
330
1F
100
AcDbEntity
  8
2
  6
CONTINUOUS
370
25
 62
7
100
AcDbLine
 10
48.31759092376022
 20
-19.66352818475204
 30
0.0
 11
49.97638638564033
 21
-18.00473272287194
 31
0.0
  0
LINE
  5
7DE
330
1F
100
AcDbEntity
  8
2
  6
CONTINUOUS
370
25
 62
7
100
AcDbLine
 10
47.96403753316695
 20
-19.59281750663339
 30
0.0
 11
49.44605629975042
 21
-18.11079874004992
 31
0.0
  0
LINE
  5
7DF
330
1F
100
AcDbEntity
  8
2
  6
CONTINUOUS
370
25
 62
7
100
AcDbLine
 10
47.61048414257368
 20
-19.52210682851473
 30
0.0
 11
48.91572621386051
 21
-18.2168647572279
 31
0.0
  0
LINE
  5
7E0
330
1F
100
AcDbEntity
  8
2
  6
CONTINUOUS
370
25
 62
7
100
AcDbLine
 10
47.25693075198041
 20
-19.45139615039608
 30
0.0
 11
48.3853961279706
 21
-18.32293077440588
 31
0.0
  0
LINE
  5
7E1
330
1F
100
AcDbEntity
  8
2
  6
CONTINUOUS
370
25
 62
7
100
AcDbLine
 10
46.90337736138713
 20
-19.38068547227742
 30
0.0
 11
47.85506604208069
 21
-18.42899679158386
 31
0.0
  0
LINE
  5
7E2
330
1F
100
AcDbEntity
  8
2
  6
CONTINUOUS
370
25
 62
7
100
AcDbLine
 10
46.54982397079386
 20
-19.30997479415877
 30
0.0
 11
47.32473595619078
 21
-18.53506280876185
 31
0.0
  0
LINE
  5
7E3
330
1F
100
AcDbEntity
  8
2
  6
CONTINUOUS
370
25
 62
7
100
AcDbLine
 10
46.19627058020059
 20
-19.23926411604011
 30
0.0
 11
46.79440587030088
 21
-18.64112882593983
 31
0.0
  0
LINE
  5
7E4
330
1F
100
AcDbEntity
  8
2
  6
CONTINUOUS
370
25
 62
7
100
AcDbLine
 10
45.84271718960731
 20
-19.16855343792146
 30
0.0
 11
46.26407578441096
 21
-18.74719484311781
 31
0.0
  0
LINE
  5
7E5
330
1F
100
AcDbEntity
  8
2
  6
CONTINUOUS
370
25
 62
7
100
AcDbLine
 10
45.48916379901404
 20
-19.09784275980281
 30
0.0
 11
45.73374569852106
 21
-18.85326086029579
 31
0.0
  0
LINE
  5
7E6
330
1F
100
AcDbEntity
  8
2
  6
CONTINUOUS
370
25
 62
7
100
AcDbLine
 10
45.13561040842077
 20
-19.02713208168415
 30
0.0
 11
45.20341561263115
 21
-18.95932687747377
 31
0.0
  0
LINE
  5
7E7
330
1F
100
AcDbEntity
  8
2
  6
CONTINUOUS
370
25
 62
7
100
AcDbLine
 10
45.11505702713863
 20
-18.97699859457227
 30
0.0
 11
45.17258554070795
 21
-19.03452710814159
 31
0.0
  0
LINE
  5
7E8
330
1F
100
AcDbEntity
  8
2
  6
CONTINUOUS
370
25
 62
7
100
AcDbLine
 10
45.46861041773191
 20
-18.90628791645362
 30
0.0
 11
45.70291562659786
 21
-19.14059312531957
 31
0.0
  0
LINE
  5
7E9
330
1F
100
AcDbEntity
  8
2
  6
CONTINUOUS
370
25
 62
7
100
AcDbLine
 10
45.82216380832518
 20
-18.83557723833496
 30
0.0
 11
46.23324571248777
 21
-19.24665914249756
 31
0.0
  0
LINE
  5
7EA
330
1F
100
AcDbEntity
  8
2
  6
CONTINUOUS
370
25
 62
7
100
AcDbLine
 10
46.17571719891845
 20
-18.76486656021631
 30
0.0
 11
46.76357579837768
 21
-19.35272515967554
 31
0.0
  0
LINE
  5
7EB
330
1F
100
AcDbEntity
  8
2
  6
CONTINUOUS
370
25
 62
7
100
AcDbLine
 10
46.52927058951173
 20
-18.69415588209765
 30
0.0
 11
47.29390588426759
 21
-19.45879117685352
 31
0.0
  0
LINE
  5
7EC
330
1F
100
AcDbEntity
  8
2
  6
CONTINUOUS
370
25
 62
7
100
AcDbLine
 10
46.882823980105
 20
-18.623445203979
 30
0.0
 11
47.8242359701575
 21
-19.5648571940315
 31
0.0
  0
LINE
  5
7ED
330
1F
100
AcDbEntity
  8
2
  6
CONTINUOUS
370
25
 62
7
100
AcDbLine
 10
47.23637737069828
 20
-18.55273452586035
 30
0.0
 11
48.35456605604741
 21
-19.67092321120948
 31
0.0
  0
LINE
  5
7EE
330
1F
100
AcDbEntity
  8
2
  6
CONTINUOUS
370
25
 62
7
100
AcDbLine
 10
47.58993076129155
 20
-18.48202384774169
 30
0.0
 11
48.88489614193732
 21
-19.77698922838746
 31
0.0
  0
LINE
  5
7EF
330
1F
100
AcDbEntity
  8
2
  6
CONTINUOUS
370
25
 62
7
100
AcDbLine
 10
47.94348415188482
 20
-18.41131316962304
 30
0.0
 11
49.41522622782723
 21
-19.88305524556544
 31
0.0
  0
LINE
  5
7F0
330
1F
100
AcDbEntity
  8
2
  6
CONTINUOUS
370
25
 62
7
100
AcDbLine
 10
48.29703754247809
 20
-18.34060249150438
 30
0.0
 11
49.94555631371714
 21
-19.98912126274343
 31
0.0
  0
LINE
  5
7F1
330
1F
100
AcDbEntity
  8
2
  6
CONTINUOUS
370
25
 62
7
100
AcDbLine
 10
48.65059093307137
 20
-18.26989181338573
 30
0.0
 11
50.0
 21
-19.61930088031436
 31
0.0
  0
LINE
  5
7F2
330
1F
100
AcDbEntity
  8
2
  6
CONTINUOUS
370
25
 62
7
100
AcDbLine
 10
49.00414432366463
 20
-18.19918113526707
 30
0.0
 11
50.0
 21
-19.19503681160244
 31
0.0
  0
LINE
  5
7F3
330
1F
100
AcDbEntity
  8
2
  6
CONTINUOUS
370
25
 62
7
100
AcDbLine
 10
49.35769771425791
 20
-18.12847045714842
 30
0.0
 11
50.0
 21
-18.77077274289051
 31
0.0
  0
LINE
  5
7F4
330
1F
100
AcDbEntity
  8
2
  6
CONTINUOUS
370
25
 62
7
100
AcDbLine
 10
49.71125110485119
 20
-18.05775977902976
 30
0.0
 11
50.0
 21
-18.34650867417858
 31
0.0
  0
TEXT
  5
7F5
330
1F
100
AcDbEntity
  8
2
  6
CONTINUOUS
370
25
 62
7
100
AcDbText
 10
24.246875
 20
-18.00001
 30
0.0
 40
3.5
  1
7.2
 72
     1
 11
27.746875
 21
-18.00001
 31
0.0
100
AcDbText
  0
LINE
  5
7F6
330
1F
100
AcDbEntity
  8
4
  6
LONGDASH_DASH
370
25
 62
2
100
AcDbLine
 10
28.0
 20
0.0
 30
0.0
 11
45.0
 21
0.0
 31
0.0
  0
LINE
  5
7F7
330
1F
100
AcDbEntity
  8
SK4
  6
LONGDASH_DASH
370
25
 62
2
100
AcDbLine
 10
-5.0
 20
0.0
 30
0.0
 11
50.0
 21
0.0
 31
0.0
  0
LINE
  5
7F8
330
1F
100
AcDbEntity
  8
1
  6
CONTINUOUS
370
50
 62
4
100
AcDbLine
 10
28.0
 20
0.0
 30
0.0
 11
31.0625
 21
0.0
 31
0.0
  0
LINE
  5
7F9
330
1F
100
AcDbEntity
  8
1
  6
CONTINUOUS
370
50
 62
4
100
AcDbLine
 10
28.0
 20
0.0
 30
0.0
 11
28.0
 21
3.0625
 31
0.0
  0
ARC
  5
7FA
330
1F
100
AcDbEntity
  8
1
  6
CONTINUOUS
370
50
 62
4
100
AcDbCircle
 10
28.0
 20
0.0
 30
0.0
 40
3.0625
100
AcDbArc
 50
0.0
 51
90.0
  0
LINE
  5
7FB
330
1F
100
AcDbEntity
  8
1
  6
CONTINUOUS
370
50
 62
4
100
AcDbLine
 10
28.0
 20
0.0
 30
0.0
 11
24.9375
 21
0.0
 31
0.0
  0
ARC
  5
7FC
330
1F
100
AcDbEntity
  8
1
  6
CONTINUOUS
370
50
 62
4
100
AcDbCircle
 10
28.0
 20
0.0
 30
0.0
 40
3.0625
100
AcDbArc
 50
180.0
 51
270.0
  0
LINE
  5
7FD
330
1F
100
AcDbEntity
  8
1
  6
CONTINUOUS
370
50
 62
4
100
AcDbLine
 10
28.0
 20
-3.0625
 30
0.0
 11
28.0
 21
0.0
 31
0.0
  0
ARC
  5
7FE
330
1F
100
AcDbEntity
  8
1
  6
CONTINUOUS
370
50
 62
4
100
AcDbCircle
 10
28.0
 20
0.0
 30
0.0
 40
3.0625
100
AcDbArc
 50
270.0
 51
0.0
  0
ARC
  5
7FF
330
1F
100
AcDbEntity
  8
1
  6
CONTINUOUS
370
50
 62
4
100
AcDbCircle
 10
28.0
 20
0.0
 30
0.0
 40
3.0625
100
AcDbArc
 50
90.0
 51
180.0
  0
LINE
  5
800
330
1F
100
AcDbEntity
  8
INFTOTAL
  6
CONTINUOUS
370
18
 62
9
100
AcDbLine
 10
-26.400011
 20
-36.300011
 30
0.0
 11
83.60001100000001
 21
-36.300011
 31
0.0
  0
LINE
  5
801
330
1F
100
AcDbEntity
  8
INFTOTAL
  6
CONTINUOUS
370
18
 62
9
100
AcDbLine
 10
83.60001100000001
 20
-36.300011
 30
0.0
 11
83.60001100000001
 21
36.300011
 31
0.0
  0
LINE
  5
802
330
1F
100
AcDbEntity
  8
INFTOTAL
  6
CONTINUOUS
370
18
 62
9
100
AcDbLine
 10
83.60001100000001
 20
36.300011
 30
0.0
 11
-26.40001100000001
 21
36.300011
 31
0.0
  0
LINE
  5
803
330
1F
100
AcDbEntity
  8
INFTOTAL
  6
CONTINUOUS
370
18
 62
9
100
AcDbLine
 10
-26.40001100000001
 20
36.300011
 30
0.0
 11
-26.40001100000001
 21
-36.300011
 31
0.0
  0
ARC
  5
804
330
1F
100
AcDbEntity
  8
SK6
  6
CONTINUOUS
370
25
 62
5
100
AcDbCircle
 10
90.7613910083765
 20
-26.34525475338786
 30
0.0
 40
2.76048912849221
100
AcDbArc
 50
338.9379403434233
 51
90.44457437511392
  0
LINE
  5
805
330
1F
100
AcDbEntity
  8
SK6
  6
CONTINUOUS
370
25
 62
5
100
AcDbLine
 10
90.73997179695984
 20
-23.58484872421281
 30
0.0
 11
90.73997179695984
 21
-24.68790735613463
 31
0.0
  0
ARC
  5
806
330
1F
100
AcDbEntity
  8
SK6
  6
CONTINUOUS
370
25
 62
5
100
AcDbCircle
 10
90.75051802936918
 20
-26.36524824566821
 30
0.0
 40
1.677374043771792
100
AcDbArc
 50
243.421470601786
 51
90.36024081226131
  0
ARC
  5
807
330
1F
100
AcDbEntity
  8
SK6
  6
CONTINUOUS
370
25
 62
5
100
AcDbCircle
 10
93.27276889684958
 20
-25.93384099215561
 30
0.0
 40
3.80021703002276
100
AcDbArc
 50
210.5483731288539
 51
236.97801693668
  0
LINE
  5
808
330
1F
100
AcDbEntity
  8
SK6
  6
CONTINUOUS
370
25
 62
5
100
AcDbLine
 10
91.20179968512487
 20
-29.12017681867535
 30
0.0
 11
95.34373996742671
 21
-29.12017681867535
 31
0.0
  0
ARC
  5
809
330
1F
100
AcDbEntity
  8
SK6
  6
CONTINUOUS
370
25
 62
5
100
AcDbCircle
 10
93.27277083877257
 20
-25.9338410937346
 30
0.0
 40
3.800216899582472
100
AcDbArc
 50
303.0219828477959
 51
326.3732153033476
  0
LINE
  5
80A
330
1F
100
AcDbEntity
  8
SK6
  6
CONTINUOUS
370
25
 62
5
100
AcDbLine
 10
96.43706875135723
 20
-28.0383284907709
 30
0.0
 11
93.07977070575461
 21
-28.0383284907709
 31
0.0
  0
LINE
  5
80B
330
1F
100
AcDbEntity
  8
SK6
  6
CONTINUOUS
370
25
 62
5
100
AcDbLine
 10
93.07977070575461
 20
-28.0383284907709
 30
0.0
 11
96.99963009771987
 21
-26.67692729641694
 31
0.0
  0
ARC
  5
80C
330
1F
100
AcDbEntity
  8
SK6
  6
CONTINUOUS
370
25
 62
5
100
AcDbCircle
 10
93.27277156157211
 20
-25.9338416048594
 30
0.0
 40
3.800217216614723
100
AcDbArc
 50
348.7238644184696
 51
53.4691051260885
  0
LINE
  5
80D
330
1F
100
AcDbEntity
  8
SK6
  6
CONTINUOUS
370
25
 62
5
100
AcDbLine
 10
95.53487424538545
 20
-22.88023024429967
 30
0.0
 11
93.33745947882737
 21
-27.33731873507057
 31
0.0
  0
LINE
  5
80E
330
1F
100
AcDbEntity
  8
0
  6
cc_dim_arrow
 62
     4
100
AcDbLine
 10
27.95118560777957
 20
0.0
 30
0.0
 11
28.0
 21
-0.0488143922204269
 31
0.0
  0
LINE
  5
80F
330
1F
100
AcDbEntity
  8
0
  6
cc_dim_arrow
 62
     4
100
AcDbLine
 10
24.93992513152429
 20
-0.0771689363588064
 30
0.0
 11
25.0170940678831
 21
0.0
 31
0.0
  0
LINE
  5
810
330
1F
100
AcDbEntity
  8
0
  6
cc_dim_arrow
 62
     4
100
AcDbLine
 10
28.0
 20
2.982905932116899
 30
0.0
 11
28.07716893635881
 21
3.060074868475706
 31
0.0
  0
LINE
  5
811
330
1F
100
AcDbEntity
  8
0
  6
cc_dim_arrow
 62
     4
100
AcDbLine
 10
28.0
 20
0.384288511256333
 30
0.0
 11
28.38428851125633
 21
0.0
 31
0.0
  0
LINE
  5
812
330
1F
100
AcDbEntity
  8
0
  6
cc_dim_arrow
 62
     4
100
AcDbLine
 10
27.61004945918235
 20
-3.037382353898634
 30
0.0
 11
28.0
 21
-2.647431813080986
 31
0.0
  0
LINE
  5
813
330
1F
100
AcDbEntity
  8
0
  6
cc_dim_arrow
 62
     4
100
AcDbLine
 10
30.64743181308098
 20
0.0
 30
0.0
 11
31.03738235389864
 21
0.3899505408176478
 31
0.0
  0
LINE
  5
814
330
1F
100
AcDbEntity
  8
0
  6
cc_dim_arrow
 62
     4
100
AcDbLine
 10
24.97596630639492
 20
-0.4742306649649457
 30
0.0
 11
25.45019697135986
 21
0.0
 31
0.0
  0
LINE
  5
815
330
1F
100
AcDbEntity
  8
0
  6
cc_dim_arrow
 62
     4
100
AcDbLine
 10
28.0
 20
2.549803028640136
 30
0.0
 11
28.47423066496495
 21
3.024033693605082
 31
0.0
  0
LINE
  5
816
330
1F
100
AcDbEntity
  8
0
  6
cc_dim_arrow
 62
     4
100
AcDbLine
 10
27.51808270430281
 20
0.0
 30
0.0
 11
28.0
 21
-0.4819172956971869
 31
0.0
  0
LINE
  5
817
330
1F
100
AcDbEntity
  8
0
  6
cc_dim_arrow
 62
     4
100
AcDbLine
 10
29.82018752194426
 20
2.462027120602918
 30
0.0
 11
30.46202712060292
 21
1.820187521944262
 31
0.0
  0
LINE
  5
818
330
1F
100
AcDbEntity
  8
0
  6
cc_dim_arrow
 62
     4
100
AcDbLine
 10
27.24627896481093
 20
-2.968049944793296
 30
0.0
 11
28.0
 21
-2.214328909604226
 31
0.0
  0
LINE
  5
819
330
1F
100
AcDbEntity
  8
0
  6
cc_dim_arrow
 62
     4
100
AcDbLine
 10
30.21432890960423
 20
0.0
 30
0.0
 11
30.9680499447933
 21
0.75372103518907
 31
0.0
  0
LINE
  5
81A
330
1F
100
AcDbEntity
  8
0
  6
cc_dim_arrow
 62
     4
100
AcDbLine
 10
28.0
 20
0.8173914147330921
 30
0.0
 11
28.81739141473309
 21
0.0
 31
0.0
  0
LINE
  5
81B
330
1F
100
AcDbEntity
  8
0
  6
cc_dim_arrow
 62
     4
100
AcDbLine
 10
25.05351879196703
 20
-0.8297810828695971
 30
0.0
 11
25.88329987483662
 21
0.0
 31
0.0
  0
LINE
  5
81C
330
1F
100
AcDbEntity
  8
0
  6
cc_dim_arrow
 62
     4
100
AcDbLine
 10
28.0
 20
2.116700125163375
 30
0.0
 11
28.8297810828696
 21
2.946481208032972
 31
0.0
  0
LINE
  5
81D
330
1F
100
AcDbEntity
  8
0
  6
cc_dim_arrow
 62
     4
100
AcDbLine
 10
27.08497980082605
 20
0.0
 30
0.0
 11
28.0
 21
-0.915020199173946
 31
0.0
  0
LINE
  5
81E
330
1F
100
AcDbEntity
  8
0
  6
cc_dim_arrow
 62
     4
100
AcDbLine
 10
26.9175935311948
 20
-2.863632474932658
 30
0.0
 11
28.0
 21
-1.781226006127464
 31
0.0
  0
LINE
  5
81F
330
1F
100
AcDbEntity
  8
0
  6
cc_dim_arrow
 62
     4
100
AcDbLine
 10
29.78122600612746
 20
0.0
 30
0.0
 11
30.86363247493266
 21
1.082406468805194
 31
0.0
  0
LINE
  5
820
330
1F
100
AcDbEntity
  8
0
  6
cc_dim_arrow
 62
     4
100
AcDbLine
 10
25.16357229520479
 20
-1.152830483108593
 30
0.0
 11
26.31640277831339
 21
0.0
 31
0.0
  0
LINE
  5
821
330
1F
100
AcDbEntity
  8
0
  6
cc_dim_arrow
 62
     4
100
AcDbLine
 10
28.0
 20
1.683597221686615
 30
0.0
 11
29.15283048310859
 21
2.836427704795208
 31
0.0
  0
LINE
  5
822
330
1F
100
AcDbEntity
  8
0
  6
cc_dim_arrow
 62
     4
100
AcDbLine
 10
28.0
 20
1.250494318209852
 30
0.0
 11
29.25049431820985
 21
0.0
 31
0.0
  0
LINE
  5
823
330
1F
100
AcDbEntity
  8
0
  6
cc_dim_arrow
 62
     4
100
AcDbLine
 10
26.65187689734929
 20
0.0
 30
0.0
 11
28.0
 21
-1.348123102650706
 31
0.0
  0
LINE
  5
824
330
1F
100
AcDbEntity
  8
0
  6
cc_dim_arrow
 62
     4
100
AcDbLine
 10
26.61724425544239
 20
-2.730878847208312
 30
0.0
 11
28.0
 21
-1.348123102650704
 31
0.0
  0
LINE
  5
825
330
1F
100
AcDbEntity
  8
0
  6
cc_dim_arrow
 62
     4
100
AcDbLine
 10
29.3481231026507
 20
0.0
 30
0.0
 11
30.73087884720831
 21
1.382755744557608
 31
0.0
  0
LINE
  5
826
330
1F
100
AcDbEntity
  8
0
  6
cc_dim_arrow
 62
     4
100
AcDbLine
 10
25.30207478752006
 20
-1.447430894270086
 30
0.0
 11
26.74950568179014
 21
0.0
 31
0.0
  0
LINE
  5
827
330
1F
100
AcDbEntity
  8
0
  6
cc_dim_arrow
 62
     4
100
AcDbLine
 10
28.0
 20
1.250494318209856
 30
0.0
 11
29.44743089427009
 21
2.697925212479942
 31
0.0
  0
LINE
  5
828
330
1F
100
AcDbEntity
  8
0
  6
cc_dim_arrow
 62
     4
100
AcDbLine
 10
26.34130924158598
 20
-2.573710957587966
 30
0.0
 11
28.0
 21
-0.9150201991739442
 31
0.0
  0
LINE
  5
829
330
1F
100
AcDbEntity
  8
0
  6
cc_dim_arrow
 62
     4
100
AcDbLine
 10
28.91502019917395
 20
0.0
 30
0.0
 11
30.57371095758797
 21
1.658690758414021
 31
0.0
  0
LINE
  5
82A
330
1F
100
AcDbEntity
  8
0
  6
cc_dim_arrow
 62
     4
100
AcDbLine
 10
28.0
 20
1.683597221686613
 30
0.0
 11
29.68359722168661
 21
0.0
 31
0.0
  0
LINE
  5
82B
330
1F
100
AcDbEntity
  8
0
  6
cc_dim_arrow
 62
     4
100
AcDbLine
 10
25.46579159130131
 20
-1.71681699396559
 30
0.0
 11
27.18260858526691
 21
0.0
 31
0.0
  0
LINE
  5
82C
330
1F
100
AcDbEntity
  8
0
  6
cc_dim_arrow
 62
     4
100
AcDbLine
 10
28.0
 20
0.8173914147330956
 30
0.0
 11
29.71681699396559
 21
2.534208408698686
 31
0.0
  0
LINE
  5
82D
330
1F
100
AcDbEntity
  8
0
  6
cc_dim_arrow
 62
     4
100
AcDbLine
 10
25.13676220163594
 20
-1.08350272514721
 30
0.0
 11
26.91649727485279
 21
-2.863237798364062
 31
0.0
  0
LINE
  5
82E
330
1F
100
AcDbEntity
  8
0
  6
cc_dim_arrow
 62
     4
100
AcDbLine
 10
26.21877399387253
 20
0.0
 30
0.0
 11
28.0
 21
-1.781226006127466
 31
0.0
  0
LINE
  5
82F
330
1F
100
AcDbEntity
  8
0
  6
cc_dim_arrow
 62
     4
100
AcDbLine
 10
26.08974988400861
 20
-2.392167411688578
 30
0.0
 11
28.0
 21
-0.4819172956971842
 31
0.0
  0
LINE
  5
830
330
1F
100
AcDbEntity
  8
0
  6
cc_dim_arrow
 62
     4
100
AcDbLine
 10
28.48191729569718
 20
0.0
 30
0.0
 11
30.39216741168858
 21
1.910250115991393
 31
0.0
  0
LINE
  5
831
330
1F
100
AcDbEntity
  8
0
  6
cc_dim_arrow
 62
     4
100
AcDbLine
 10
25.65121898530775
 20
-1.964492503435912
 30
0.0
 11
27.61571148874366
 21
0.0
 31
0.0
  0
LINE
  5
832
330
1F
100
AcDbEntity
  8
0
  6
cc_dim_arrow
 62
     4
100
AcDbLine
 10
28.0
 20
0.3842885112563357
 30
0.0
 11
29.96449250343591
 21
2.348781014692249
 31
0.0
  0
LINE
  5
833
330
1F
100
AcDbEntity
  8
0
  6
cc_dim_arrow
 62
     4
100
AcDbLine
 10
28.93246213409626
 20
2.916649604974163
 30
0.0
 11
30.91664960497416
 21
0.9324621340962582
 31
0.0
  0
LINE
  5
834
330
1F
100
AcDbEntity
  8
0
  6
cc_dim_arrow
 62
     4
100
AcDbLine
 10
28.0
 20
2.116700125163374
 30
0.0
 11
30.11670012516338
 21
0.0
 31
0.0
  0
LINE
  5
835
330
1F
100
AcDbEntity
  8
0
  6
cc_dim_arrow
 62
     4
100
AcDbLine
 10
25.85996122941787
 20
-2.188853162802553
 30
0.0
 11
28.0
 21
-0.0488143922204243
 31
0.0
  0
LINE
  5
836
330
1F
100
AcDbEntity
  8
0
  6
cc_dim_arrow
 62
     4
100
AcDbLine
 10
28.04881439222043
 20
0.0
 30
0.0
 11
30.18885316280255
 21
2.140038770582128
 31
0.0
  0
LINE
  5
837
330
1F
100
AcDbEntity
  8
0
  6
cc_dim_arrow
 62
     4
100
AcDbLine
 10
25.78567109039577
 20
0.0
 30
0.0
 11
28.0
 21
-2.214328909604225
 31
0.0
  0
LINE
  5
838
330
1F
100
AcDbEntity
  8
0
  6
cc_dim_arrow
 62
     4
100
AcDbLine
 10
24.97885941523187
 20
-0.4924970352663824
 30
0.0
 11
27.50750296473362
 21
-3.021140584768129
 31
0.0
  0
LINE
  5
839
330
1F
100
AcDbEntity
  8
0
  6
cc_dim_arrow
 62
     4
100
AcDbLine
 10
28.0
 20
2.549803028640134
 30
0.0
 11
30.54980302864013
 21
0.0
 31
0.0
  0
LINE
  5
83A
330
1F
100
AcDbEntity
  8
0
  6
cc_dim_arrow
 62
     4
100
AcDbLine
 10
25.35256818691901
 20
0.0
 30
0.0
 11
28.0
 21
-2.647431813080986
 31
0.0
  0
LINE
  5
83B
330
1F
100
AcDbEntity
  8
0
  6
cc_dim_arrow
 62
     4
100
AcDbLine
 10
28.37701286789482
 20
3.038995967698841
 30
0.0
 11
31.03899596769884
 21
0.3770128678948184
 31
0.0
  0
LINE
  5
83C
330
1F
100
AcDbEntity
  8
0
  6
cc_dim_arrow
 62
     4
100
AcDbLine
 10
28.0
 20
2.982905932116894
 30
0.0
 11
30.9829059321169
 21
0.0
 31
0.0
  0
LINE
  5
83D
330
1F
100
AcDbEntity
  8
0
  6
cc_dim_arrow
 62
     4
100
AcDbLine
 10
24.93808515297358
 20
-0.018619869531336
 30
0.0
 11
27.98138013046867
 21
-3.061914847026416
 31
0.0
  0
ENDSEC
  0
SECTION
  2
OBJECTS
  0
DICTIONARY
  5
C
330
0
100
AcDbDictionary
281
     1
  3
ACAD_GROUP
350
D
  3
ACAD_LAYOUT
350
1A
  3
ACAD_MATERIAL
350
3B
  3
ACAD_MLEADERSTYLE
350
840
  3
ACAD_MLINESTYLE
350
17
  3
ACAD_PLOTSETTINGS
350
19
  3
ACAD_PLOTSTYLENAME
350
E
  3
ACAD_SCALELIST
350
299
  3
ACAD_VISUALSTYLE
350
2A
  3
AcDbVariableDictionary
350
83E
  0
DICTIONARY
  5
D
102
{ACAD_REACTORS
330
C
102
}
330
C
100
AcDbDictionary
281
     1
  0
DICTIONARY
  5
1A
102
{ACAD_REACTORS
330
C
102
}
330
C
100
AcDbDictionary
281
     1
  3
Layout1
350
1E
  3
Layout2
350
26
  3
Model
350
22
  0
DICTIONARY
  5
3B
102
{ACAD_REACTORS
330
C
102
}
330
C
100
AcDbDictionary
281
     1
  3
ByBlock
350
3D
  3
ByLayer
350
3C
  3
Global
350
3E
  0
DICTIONARY
  5
840
102
{ACAD_REACTORS
330
C
102
}
330
C
100
AcDbDictionary
281
     1
  0
DICTIONARY
  5
17
102
{ACAD_REACTORS
330
C
102
}
330
C
100
AcDbDictionary
281
     1
  3
Standard
350
18
  0
DICTIONARY
  5
19
102
{ACAD_REACTORS
330
C
102
}
330
C
100
AcDbDictionary
281
     1
  0
ACDBDICTIONARYWDFLT
  5
E
102
{ACAD_REACTORS
330
C
102
}
330
C
100
AcDbDictionary
281
     1
  3
Normal
350
F
100
AcDbDictionaryWithDefault
340
F
  0
DICTIONARY
  5
299
102
{ACAD_REACTORS
330
C
102
}
330
C
100
AcDbDictionary
281
     1
  3
A0
350
29A
  3
A1
350
29B
  3
A2
350
29C
  3
A3
350
29D
  3
A4
350
29E
  3
A5
350
29F
  3
A6
350
2A0
  3
A7
350
2A1
  3
A8
350
2A2
  3
A9
350
2A3
  3
B0
350
2A4
  3
B1
350
2A5
  3
B2
350
2A6
  3
B3
350
2A7
  3
B4
350
2A8
  3
B5
350
2A9
  3
B6
350
2AA
  3
B7
350
2AB
  3
B8
350
2AC
  3
B9
350
2AD
  3
C0
350
2AE
  3
C1
350
2AF
  3
C2
350
2B0
  3
C3
350
2B1
  3
C4
350
2B2
  3
C5
350
2B3
  3
C6
350
2B4
  3
C7
350
2B5
  3
C8
350
2B6
  3
C9
350
2B7
  3
D0
350
2B8
  3
D1
350
2B9
  3
D2
350
2BA
  0
DICTIONARY
  5
2A
102
{ACAD_REACTORS
330
C
102
}
330
C
100
AcDbDictionary
281
     1
  3
2dWireframe
350
2F
  3
3D Hidden
350
31
  3
3dWireframe
350
30
  3
Basic
350
32
  3
Brighten
350
36
  3
ColorChange
350
3A
  3
Conceptual
350
34
  3
Dim
350
35
  3
Facepattern
350
39
  3
Flat
350
2B
  3
FlatWithEdges
350
2C
  3
Gouraud
350
2D
  3
GouraudWithEdges
350
2E
  3
Linepattern
350
38
  3
Realistic
350
33
  3
Thicken
350
37
  0
DICTIONARY
  5
83E
102
{ACAD_REACTORS
330
C
102
}
330
C
100
AcDbDictionary
281
     1
  3
CANNOSCALE
350
843
  3
DIMASSOC
350
844
  3
HIDETEXT
350
845
  3
PSOLHEIGHT
350
842
  3
PSOLWIDTH
350
841
  0
LAYOUT
  5
1E
102
{ACAD_REACTORS
330
1A
102
}
330
1A
100
AcDbPlotSettings
  1

  2
none_device
  4

  6

 40
0.0
 41
0.0
 42
0.0
 43
0.0
 44
0.0
 45
0.0
 46
0.0
 47
0.0
 48
0.0
 49
0.0
140
0.0
141
0.0
142
1.0
143
1.0
 70
   688
 72
     0
 73
     0
 74
     5
  7

 75
    16
147
1.0
148
0.0
149
0.0
100
AcDbLayout
  1
Layout1
 70
     1
 71
     1
 10
0.0
 20
0.0
 11
420.0
 21
297.0
 12
0.0
 22
0.0
 32
0.0
 14
1.000000000000000E+20
 24
1.000000000000000E+20
 34
1.000000000000000E+20
 15
-1.000000000000000E+20
 25
-1.000000000000000E+20
 35
-1.000000000000000E+20
146
0.0
 13
0.0
 23
0.0
 33
0.0
 16
1.0
 26
0.0
 36
0.0
 17
0.0
 27
1.0
 37
0.0
 76
     0
330
1B
  0
LAYOUT
  5
26
102
{ACAD_REACTORS
330
1A
102
}
330
1A
100
AcDbPlotSettings
  1

  2
none_device
  4

  6

 40
0.0
 41
0.0
 42
0.0
 43
0.0
 44
0.0
 45
0.0
 46
0.0
 47
0.0
 48
0.0
 49
0.0
140
0.0
141
0.0
142
1.0
143
1.0
 70
   688
 72
     0
 73
     0
 74
     5
  7

 75
    16
147
1.0
148
0.0
149
0.0
100
AcDbLayout
  1
Layout2
 70
     1
 71
     2
 10
0.0
 20
0.0
 11
0.0
 21
0.0
 12
0.0
 22
0.0
 32
0.0
 14
0.0
 24
0.0
 34
0.0
 15
0.0
 25
0.0
 35
0.0
146
0.0
 13
0.0
 23
0.0
 33
0.0
 16
1.0
 26
0.0
 36
0.0
 17
0.0
 27
1.0
 37
0.0
 76
     0
330
23
  0
LAYOUT
  5
22
102
{ACAD_REACTORS
330
1A
102
}
330
1A
100
AcDbPlotSettings
  1

  2
none_device
  4

  6

 40
0.0
 41
0.0
 42
0.0
 43
0.0
 44
0.0
 45
0.0
 46
0.0
 47
0.0
 48
0.0
 49
0.0
140
0.0
141
0.0
142
1.0
143
1.0
 70
  1712
 72
     0
 73
     0
 74
     0
  7

 75
     0
147
1.0
148
0.0
149
0.0
100
AcDbLayout
  1
Model
 70
     1
 71
     0
 10
0.0
 20
0.0
 11
420.0
 21
297.0
 12
0.0
 22
0.0
 32
0.0
 14
0.0
 24
0.0
 34
0.0
 15
25.0
 25
35.0
 35
0.0
146
0.0
 13
0.0
 23
0.0
 33
0.0
 16
1.0
 26
0.0
 36
0.0
 17
0.0
 27
1.0
 37
0.0
 76
     0
330
1F
331
29
  0
MATERIAL
  5
3D
102
{ACAD_REACTORS
330
3B
102
}
102
{ACAD_XDICTIONARY
360
868
102
}
330
3B
100
AcDbMaterial
  1
ByBlock
  0
MATERIAL
  5
3C
102
{ACAD_REACTORS
330
3B
102
}
102
{ACAD_XDICTIONARY
360
866
102
}
330
3B
100
AcDbMaterial
  1
ByLayer
  0
MATERIAL
  5
3E
102
{ACAD_REACTORS
330
3B
102
}
102
{ACAD_XDICTIONARY
360
86A
102
}
330
3B
100
AcDbMaterial
  1
Global
  0
MLINESTYLE
  5
18
102
{ACAD_REACTORS
330
17
102
}
330
17
100
AcDbMlineStyle
  2
Standard
 70
     0
  3

 62
   256
 51
90.0
 52
90.0
 71
     2
 49
0.5
 62
   256
  6
BYLAYER
 49
-0.5
 62
   256
  6
BYLAYER
  0
ACDBPLACEHOLDER
  5
F
102
{ACAD_REACTORS
330
E
102
}
330
E
  0
SCALE
  5
29A
102
{ACAD_REACTORS
330
299
102
}
330
299
100
AcDbScale
 70
     0
300
1:1
140
1.0
141
1.0
290
     1
  0
SCALE
  5
29B
102
{ACAD_REACTORS
330
299
102
}
330
299
100
AcDbScale
 70
     0
300
1:2
140
1.0
141
2.0
290
     0
  0
SCALE
  5
29C
102
{ACAD_REACTORS
330
299
102
}
330
299
100
AcDbScale
 70
     0
300
1:4
140
1.0
141
4.0
290
     0
  0
SCALE
  5
29D
102
{ACAD_REACTORS
330
299
102
}
330
299
100
AcDbScale
 70
     0
300
1:5
140
1.0
141
5.0
290
     0
  0
SCALE
  5
29E
102
{ACAD_REACTORS
330
299
102
}
330
299
100
AcDbScale
 70
     0
300
1:8
140
1.0
141
8.0
290
     0
  0
SCALE
  5
29F
102
{ACAD_REACTORS
330
299
102
}
330
299
100
AcDbScale
 70
     0
300
1:10
140
1.0
141
10.0
290
     0
  0
SCALE
  5
2A0
102
{ACAD_REACTORS
330
299
102
}
330
299
100
AcDbScale
 70
     0
300
1:16
140
1.0
141
16.0
290
     0
  0
SCALE
  5
2A1
102
{ACAD_REACTORS
330
299
102
}
330
299
100
AcDbScale
 70
     0
300
1:20
140
1.0
141
20.0
290
     0
  0
SCALE
  5
2A2
102
{ACAD_REACTORS
330
299
102
}
330
299
100
AcDbScale
 70
     0
300
1:30
140
1.0
141
30.0
290
     0
  0
SCALE
  5
2A3
102
{ACAD_REACTORS
330
299
102
}
330
299
100
AcDbScale
 70
     0
300
1:40
140
1.0
141
40.0
290
     0
  0
SCALE
  5
2A4
102
{ACAD_REACTORS
330
299
102
}
330
299
100
AcDbScale
 70
     0
300
1:50
140
1.0
141
50.0
290
     0
  0
SCALE
  5
2A5
102
{ACAD_REACTORS
330
299
102
}
330
299
100
AcDbScale
 70
     0
300
1:100
140
1.0
141
100.0
290
     0
  0
SCALE
  5
2A6
102
{ACAD_REACTORS
330
299
102
}
330
299
100
AcDbScale
 70
     0
300
2:1
140
2.0
141
1.0
290
     0
  0
SCALE
  5
2A7
102
{ACAD_REACTORS
330
299
102
}
330
299
100
AcDbScale
 70
     0
300
4:1
140
4.0
141
1.0
290
     0
  0
SCALE
  5
2A8
102
{ACAD_REACTORS
330
299
102
}
330
299
100
AcDbScale
 70
     0
300
8:1
140
8.0
141
1.0
290
     0
  0
SCALE
  5
2A9
102
{ACAD_REACTORS
330
299
102
}
330
299
100
AcDbScale
 70
     0
300
10:1
140
10.0
141
1.0
290
     0
  0
SCALE
  5
2AA
102
{ACAD_REACTORS
330
299
102
}
330
299
100
AcDbScale
 70
     0
300
100:1
140
100.0
141
1.0
290
     0
  0
SCALE
  5
2AB
102
{ACAD_REACTORS
330
299
102
}
330
299
100
AcDbScale
 70
     0
300
1/128" = 1'-0"
140
0.0078125
141
12.0
290
     0
  0
SCALE
  5
2AC
102
{ACAD_REACTORS
330
299
102
}
330
299
100
AcDbScale
 70
     0
300
1/64" = 1'-0"
140
0.015625
141
12.0
290
     0
  0
SCALE
  5
2AD
102
{ACAD_REACTORS
330
299
102
}
330
299
100
AcDbScale
 70
     0
300
1/32" = 1'-0"
140
0.03125
141
12.0
290
     0
  0
SCALE
  5
2AE
102
{ACAD_REACTORS
330
299
102
}
330
299
100
AcDbScale
 70
     0
300
1/16" = 1'-0"
140
0.0625
141
12.0
290
     0
  0
SCALE
  5
2AF
102
{ACAD_REACTORS
330
299
102
}
330
299
100
AcDbScale
 70
     0
300
3/32" = 1'-0"
140
0.09375
141
12.0
290
     0
  0
SCALE
  5
2B0
102
{ACAD_REACTORS
330
299
102
}
330
299
100
AcDbScale
 70
     0
300
1/8" = 1'-0"
140
0.125
141
12.0
290
     0
  0
SCALE
  5
2B1
102
{ACAD_REACTORS
330
299
102
}
330
299
100
AcDbScale
 70
     0
300
3/16" = 1'-0"
140
0.1875
141
12.0
290
     0
  0
SCALE
  5
2B2
102
{ACAD_REACTORS
330
299
102
}
330
299
100
AcDbScale
 70
     0
300
1/4" = 1'-0"
140
0.25
141
12.0
290
     0
  0
SCALE
  5
2B3
102
{ACAD_REACTORS
330
299
102
}
330
299
100
AcDbScale
 70
     0
300
3/8" = 1'-0"
140
0.375
141
12.0
290
     0
  0
SCALE
  5
2B4
102
{ACAD_REACTORS
330
299
102
}
330
299
100
AcDbScale
 70
     0
300
1/2" = 1'-0"
140
0.5
141
12.0
290
     0
  0
SCALE
  5
2B5
102
{ACAD_REACTORS
330
299
102
}
330
299
100
AcDbScale
 70
     0
300
3/4" = 1'-0"
140
0.75
141
12.0
290
     0
  0
SCALE
  5
2B6
102
{ACAD_REACTORS
330
299
102
}
330
299
100
AcDbScale
 70
     0
300
1" = 1'-0"
140
1.0
141
12.0
290
     0
  0
SCALE
  5
2B7
102
{ACAD_REACTORS
330
299
102
}
330
299
100
AcDbScale
 70
     0
300
1-1/2" = 1'-0"
140
1.5
141
12.0
290
     0
  0
SCALE
  5
2B8
102
{ACAD_REACTORS
330
299
102
}
330
299
100
AcDbScale
 70
     0
300
3" = 1'-0"
140
3.0
141
12.0
290
     0
  0
SCALE
  5
2B9
102
{ACAD_REACTORS
330
299
102
}
330
299
100
AcDbScale
 70
     0
300
6" = 1'-0"
140
6.0
141
12.0
290
     0
  0
SCALE
  5
2BA
102
{ACAD_REACTORS
330
299
102
}
330
299
100
AcDbScale
 70
     0
300
1'-0" = 1'-0"
140
12.0
141
12.0
290
     0
  0
VISUALSTYLE
  5
2F
102
{ACAD_REACTORS
330
2A
102
}
102
{ACAD_XDICTIONARY
360
84E
102
}
330
2A
100
AcDbVisualStyle
  2
2dWireframe
 70
     4
 71
     0
 72
     2
 73
     0
 90
        0
 40
-0.6
 41
-30.0
 62
     5
 63
     7
 74
     1
 91
        4
 64
     7
 65
   257
 75
     1
175
     1
 42
1.0
 92
        0
 66
   257
 43
1.0
 76
     1
 77
     6
 78
     2
 67
     7
 79
     5
170
     0
171
     0
290
     0
174
     0
 93
        1
 44
0.0
173
     0
291
     0
 45
0.0
1001
ACAD
1000
AcDbSavedByObjectVersion
1070
     0
  0
VISUALSTYLE
  5
31
102
{ACAD_REACTORS
330
2A
102
}
102
{ACAD_XDICTIONARY
360
852
102
}
330
2A
100
AcDbVisualStyle
  2
3D Hidden
 70
     6
 71
     1
 72
     2
 73
     2
 90
        0
 40
-0.6
 41
-30.0
 62
     5
 63
     7
 74
     2
 91
        2
 64
     7
 65
   257
 75
     2
175
     1
 42
40.0
 92
        0
 66
   257
 43
1.0
 76
     1
 77
     6
 78
     2
 67
     7
 79
     3
170
     0
171
     0
290
     0
174
     0
 93
        1
 44
0.0
173
     0
291
     0
 45
0.0
1001
ACAD
1000
AcDbSavedByObjectVersion
1070
     0
  0
VISUALSTYLE
  5
30
102
{ACAD_REACTORS
330
2A
102
}
102
{ACAD_XDICTIONARY
360
850
102
}
330
2A
100
AcDbVisualStyle
  2
3dWireframe
 70
     5
 71
     0
 72
     2
 73
     0
 90
        0
 40
-0.6
 41
-30.0
 62
     5
 63
     7
 74
     1
 91
        4
 64
     7
 65
   257
 75
     1
175
     1
 42
1.0
 92
        0
 66
   257
 43
1.0
 76
     1
 77
     6
 78
     2
 67
     7
 79
     5
170
     0
171
     0
290
     0
174
     0
 93
        1
 44
0.0
173
     0
291
     0
 45
0.0
1001
ACAD
1000
AcDbSavedByObjectVersion
1070
     0
  0
VISUALSTYLE
  5
32
102
{ACAD_REACTORS
330
2A
102
}
102
{ACAD_XDICTIONARY
360
854
102
}
330
2A
100
AcDbVisualStyle
  2
Basic
 70
     7
 71
     1
 72
     0
 73
     1
 90
        0
 40
-0.6
 41
-30.0
 62
     5
 63
     7
 74
     0
 91
        4
 64
     7
 65
   257
 75
     1
175
     1
 42
1.0
 92
        8
 66
     7
 43
1.0
 76
     1
 77
     6
 78
     2
 67
     7
 79
     5
170
     0
171
     0
290
     0
174
     0
 93
        1
 44
0.0
173
     0
291
     1
 45
0.0
1001
ACAD
1000
AcDbSavedByObjectVersion
1070
     0
  0
VISUALSTYLE
  5
36
102
{ACAD_REACTORS
330
2A
102
}
102
{ACAD_XDICTIONARY
360
85C
102
}
330
2A
100
AcDbVisualStyle
  2
Brighten
 70
    12
 71
     2
 72
     2
 73
     0
 90
        0
 40
-0.6
 41
-30.0
 62
     5
 63
     7
 74
     1
 91
        4
 64
     7
 65
   257
 75
     1
175
     1
 42
1.0
 92
        8
 66
     7
 43
1.0
 76
     1
 77
     6
 78
     2
 67
     7
 79
     5
170
     0
171
     0
290
     0
174
     0
 93
        1
 44
50.0
173
     0
291
     1
 45
0.0
1001
ACAD
1000
AcDbSavedByObjectVersion
1070
     0
  0
VISUALSTYLE
  5
3A
102
{ACAD_REACTORS
330
2A
102
}
102
{ACAD_XDICTIONARY
360
864
102
}
330
2A
100
AcDbVisualStyle
  2
ColorChange
 70
    16
 71
     2
 72
     2
 73
     3
 90
        0
 40
-0.6
 41
-30.0
 62
     5
 63
     8
 74
     1
 91
        4
 64
     7
 65
   257
 75
     1
175
     1
 42
1.0
 92
        8
 66
     8
 43
1.0
 76
     1
 77
     6
 78
     2
 67
     7
 79
     5
170
     0
171
     0
290
     0
174
     0
 93
        1
 44
0.0
173
     0
291
     1
 45
0.0
1001
ACAD
1000
AcDbSavedByObjectVersion
1070
     0
  0
VISUALSTYLE
  5
34
102
{ACAD_REACTORS
330
2A
102
}
102
{ACAD_XDICTIONARY
360
858
102
}
330
2A
100
AcDbVisualStyle
  2
Conceptual
 70
     9
 71
     3
 72
     2
 73
     0
 90
        0
 40
-0.6
 41
-30.0
 62
     5
 63
     7
 74
     2
 91
        2
 64
     7
 65
   257
 75
     1
175
     1
 42
40.0
 92
        8
 66
     7
 43
1.0
 76
     1
 77
     6
 78
     2
 67
     7
 79
     3
170
     0
171
     0
290
     0
174
     0
 93
        1
 44
0.0
173
     0
291
     0
 45
0.0
1001
ACAD
1000
AcDbSavedByObjectVersion
1070
     0
  0
VISUALSTYLE
  5
35
102
{ACAD_REACTORS
330
2A
102
}
102
{ACAD_XDICTIONARY
360
85A
102
}
330
2A
100
AcDbVisualStyle
  2
Dim
 70
    11
 71
     2
 72
     2
 73
     0
 90
        0
 40
-0.6
 41
-30.0
 62
     5
 63
     7
 74
     1
 91
        4
 64
     7
 65
   257
 75
     1
175
     1
 42
1.0
 92
        8
 66
     7
 43
1.0
 76
     1
 77
     6
 78
     2
 67
     7
 79
     5
170
     0
171
     0
290
     0
174
     0
 93
        1
 44
-50.0
173
     0
291
     1
 45
0.0
1001
ACAD
1000
AcDbSavedByObjectVersion
1070
     0
  0
VISUALSTYLE
  5
39
102
{ACAD_REACTORS
330
2A
102
}
102
{ACAD_XDICTIONARY
360
862
102
}
330
2A
100
AcDbVisualStyle
  2
Facepattern
 70
    15
 71
     2
 72
     2
 73
     0
 90
        0
 40
-0.6
 41
-30.0
 62
     5
 63
     7
 74
     1
 91
        4
 64
     7
 65
   257
 75
     1
175
     1
 42
1.0
 92
        8
 66
     7
 43
1.0
 76
     1
 77
     6
 78
     2
 67
     7
 79
     5
170
     0
171
     0
290
     0
174
     0
 93
        1
 44
0.0
173
     0
291
     1
 45
0.0
1001
ACAD
1000
AcDbSavedByObjectVersion
1070
     0
  0
VISUALSTYLE
  5
2B
102
{ACAD_REACTORS
330
2A
102
}
102
{ACAD_XDICTIONARY
360
846
102
}
330
2A
100
AcDbVisualStyle
  2
Flat
 70
     0
 71
     2
 72
     1
 73
     1
 90
        2
 40
-0.6
 41
30.0
 62
     5
 63
     7
 74
     0
 91
        4
 64
     7
 65
   257
 75
     1
175
     1
 42
1.0
 92
        8
 66
     7
 43
1.0
 76
     1
 77
     6
 78
     2
 67
     7
 79
     5
170
     0
171
     0
290
     0
174
     0
 93
       13
 44
0.0
173
     0
291
     1
 45
0.0
1001
ACAD
1000
AcDbSavedByObjectVersion
1070
     0
  0
VISUALSTYLE
  5
2C
102
{ACAD_REACTORS
330
2A
102
}
102
{ACAD_XDICTIONARY
360
848
102
}
330
2A
100
AcDbVisualStyle
  2
FlatWithEdges
 70
     1
 71
     2
 72
     1
 73
     1
 90
        2
 40
-0.6
 41
30.0
 62
     5
 63
     7
 74
     1
 91
        4
 64
     7
 65
   257
 75
     1
175
     1
 42
1.0
 92
        0
 66
   257
 43
1.0
 76
     1
 77
     6
 78
     2
 67
     7
 79
     5
170
     0
171
     0
290
     0
174
     0
 93
       13
 44
0.0
173
     0
291
     1
 45
0.0
1001
ACAD
1000
AcDbSavedByObjectVersion
1070
     0
  0
VISUALSTYLE
  5
2D
102
{ACAD_REACTORS
330
2A
102
}
102
{ACAD_XDICTIONARY
360
84A
102
}
330
2A
100
AcDbVisualStyle
  2
Gouraud
 70
     2
 71
     2
 72
     2
 73
     1
 90
        2
 40
-0.6
 41
30.0
 62
     5
 63
     7
 74
     0
 91
        4
 64
     7
 65
   257
 75
     1
175
     1
 42
1.0
 92
        0
 66
     7
 43
1.0
 76
     1
 77
     6
 78
     2
 67
     7
 79
     5
170
     0
171
     0
290
     0
174
     0
 93
       13
 44
0.0
173
     0
291
     1
 45
0.0
1001
ACAD
1000
AcDbSavedByObjectVersion
1070
     0
  0
VISUALSTYLE
  5
2E
102
{ACAD_REACTORS
330
2A
102
}
102
{ACAD_XDICTIONARY
360
84C
102
}
330
2A
100
AcDbVisualStyle
  2
GouraudWithEdges
 70
     3
 71
     2
 72
     2
 73
     1
 90
        2
 40
-0.6
 41
30.0
 62
     5
 63
     7
 74
     1
 91
        4
 64
     7
 65
   257
 75
     1
175
     1
 42
1.0
 92
        0
 66
   257
 43
1.0
 76
     1
 77
     6
 78
     2
 67
     7
 79
     5
170
     0
171
     0
290
     0
174
     0
 93
       13
 44
0.0
173
     0
291
     1
 45
0.0
1001
ACAD
1000
AcDbSavedByObjectVersion
1070
     0
  0
VISUALSTYLE
  5
38
102
{ACAD_REACTORS
330
2A
102
}
102
{ACAD_XDICTIONARY
360
860
102
}
330
2A
100
AcDbVisualStyle
  2
Linepattern
 70
    14
 71
     2
 72
     2
 73
     0
 90
        0
 40
-0.6
 41
-30.0
 62
     5
 63
     7
 74
     1
 91
        4
 64
     7
 65
   257
 75
     7
175
     7
 42
1.0
 92
        8
 66
     7
 43
1.0
 76
     1
 77
     6
 78
     2
 67
     7
 79
     5
170
     0
171
     0
290
     0
174
     0
 93
        1
 44
0.0
173
     0
291
     1
 45
0.0
1001
ACAD
1000
AcDbSavedByObjectVersion
1070
     0
  0
VISUALSTYLE
  5
33
102
{ACAD_REACTORS
330
2A
102
}
102
{ACAD_XDICTIONARY
360
856
102
}
330
2A
100
AcDbVisualStyle
  2
Realistic
 70
     8
 71
     2
 72
     2
 73
     0
 90
        0
 40
-0.6
 41
-30.0
 62
     5
 63
     7
 74
     1
 91
        0
 64
     7
 65
   257
 75
     1
175
     1
 42
1.0
 92
        8
 66
     8
 43
1.0
 76
     1
 77
     6
 78
     2
 67
     7
 79
     5
170
     0
171
     0
290
     0
174
     0
 93
       13
 44
0.0
173
     0
291
     0
 45
0.0
1001
ACAD
1000
AcDbSavedByObjectVersion
1070
     0
  0
VISUALSTYLE
  5
37
102
{ACAD_REACTORS
330
2A
102
}
102
{ACAD_XDICTIONARY
360
85E
102
}
330
2A
100
AcDbVisualStyle
  2
Thicken
 70
    13
 71
     2
 72
     2
 73
     0
 90
        0
 40
-0.6
 41
-30.0
 62
     5
 63
     7
 74
     1
 91
        4
 64
     7
 65
   257
 75
     1
175
     1
 42
1.0
 92
       12
 66
     7
 43
1.0
 76
     1
 77
     6
 78
     2
 67
     7
 79
     5
170
     0
171
     0
290
     0
174
     0
 93
        1
 44
0.0
173
     0
291
     1
 45
0.0
1001
ACAD
1000
AcDbSavedByObjectVersion
1070
     0
  0
DICTIONARYVAR
  5
843
102
{ACAD_REACTORS
330
83E
102
}
330
83E
100
DictionaryVariables
280
     0
  1
1:1
  0
DICTIONARYVAR
  5
844
102
{ACAD_REACTORS
330
83E
102
}
330
83E
100
DictionaryVariables
280
     0
  1
2
  0
DICTIONARYVAR
  5
845
102
{ACAD_REACTORS
330
83E
102
}
330
83E
100
DictionaryVariables
280
     0
  1
1
  0
DICTIONARYVAR
  5
842
102
{ACAD_REACTORS
330
83E
102
}
330
83E
100
DictionaryVariables
280
     0
  1
80.000000
  0
DICTIONARYVAR
  5
841
102
{ACAD_REACTORS
330
83E
102
}
330
83E
100
DictionaryVariables
280
     0
  1
5.000000
  0
DICTIONARY
  5
868
330
3D
100
AcDbDictionary
280
     1
281
     1
  3
ACAD_XREC_ROUNDTRIP
360
869
  0
DICTIONARY
  5
866
330
3C
100
AcDbDictionary
280
     1
281
     1
  3
ACAD_XREC_ROUNDTRIP
360
867
  0
DICTIONARY
  5
86A
330
3E
100
AcDbDictionary
280
     1
281
     1
  3
ACAD_XREC_ROUNDTRIP
360
86B
  0
DICTIONARY
  5
84E
330
2F
100
AcDbDictionary
280
     1
281
     1
  3
ACAD_XREC_ROUNDTRIP
360
84F
  0
DICTIONARY
  5
852
330
31
100
AcDbDictionary
280
     1
281
     1
  3
ACAD_XREC_ROUNDTRIP
360
853
  0
DICTIONARY
  5
850
330
30
100
AcDbDictionary
280
     1
281
     1
  3
ACAD_XREC_ROUNDTRIP
360
851
  0
DICTIONARY
  5
854
330
32
100
AcDbDictionary
280
     1
281
     1
  3
ACAD_XREC_ROUNDTRIP
360
855
  0
DICTIONARY
  5
85C
330
36
100
AcDbDictionary
280
     1
281
     1
  3
ACAD_XREC_ROUNDTRIP
360
85D
  0
DICTIONARY
  5
864
330
3A
100
AcDbDictionary
280
     1
281
     1
  3
ACAD_XREC_ROUNDTRIP
360
865
  0
DICTIONARY
  5
858
330
34
100
AcDbDictionary
280
     1
281
     1
  3
ACAD_XREC_ROUNDTRIP
360
859
  0
DICTIONARY
  5
85A
330
35
100
AcDbDictionary
280
     1
281
     1
  3
ACAD_XREC_ROUNDTRIP
360
85B
  0
DICTIONARY
  5
862
330
39
100
AcDbDictionary
280
     1
281
     1
  3
ACAD_XREC_ROUNDTRIP
360
863
  0
DICTIONARY
  5
846
330
2B
100
AcDbDictionary
280
     1
281
     1
  3
ACAD_XREC_ROUNDTRIP
360
847
  0
DICTIONARY
  5
848
330
2C
100
AcDbDictionary
280
     1
281
     1
  3
ACAD_XREC_ROUNDTRIP
360
849
  0
DICTIONARY
  5
84A
330
2D
100
AcDbDictionary
280
     1
281
     1
  3
ACAD_XREC_ROUNDTRIP
360
84B
  0
DICTIONARY
  5
84C
330
2E
100
AcDbDictionary
280
     1
281
     1
  3
ACAD_XREC_ROUNDTRIP
360
84D
  0
DICTIONARY
  5
860
330
38
100
AcDbDictionary
280
     1
281
     1
  3
ACAD_XREC_ROUNDTRIP
360
861
  0
DICTIONARY
  5
856
330
33
100
AcDbDictionary
280
     1
281
     1
  3
ACAD_XREC_ROUNDTRIP
360
857
  0
DICTIONARY
  5
85E
330
37
100
AcDbDictionary
280
     1
281
     1
  3
ACAD_XREC_ROUNDTRIP
360
85F
  0
XRECORD
  5
869
102
{ACAD_REACTORS
330
868
102
}
330
868
100
AcDbXrecord
280
     1
102
MATERIAL
148
0.0
149
0.0
149
0.0
 93
        0
 94
      127
282
     0
 72
     1
 77
     1
171
     1
175
     1
179
     1
273
     0
  0
XRECORD
  5
867
102
{ACAD_REACTORS
330
866
102
}
330
866
100
AcDbXrecord
280
     1
102
MATERIAL
148
0.0
149
0.0
149
0.0
 93
        0
 94
      127
282
     0
 72
     1
 77
     1
171
     1
175
     1
179
     1
273
     0
  0
XRECORD
  5
86B
102
{ACAD_REACTORS
330
86A
102
}
330
86A
100
AcDbXrecord
280
     1
102
MATERIAL
148
0.0
149
0.0
149
0.0
 93
        0
 94
      127
282
     0
 72
     1
 77
     1
171
     1
175
     1
179
     1
273
     0
  0
XRECORD
  5
84F
102
{ACAD_REACTORS
330
84E
102
}
330
84E
100
AcDbXrecord
280
     1
102
RTVSPropertyOp0
 70
     1
102
RTVSPropertyOp1
 70
     1
102
RTVSPropertyOp2
 70
     1
102
RTVSPropertyOp3
 70
     1
102
RTVSPropertyOp4
 70
     1
102
RTVSPropertyOp5
 70
     1
102
RTVSPropertyOp6
 70
     1
102
RTVSPropertyOp7
 70
     1
102
RTVSPropertyOp8
 70
     1
102
RTVSPropertyOp9
 70
     1
102
RTVSPropertyOp10
 70
     1
102
RTVSPropertyOp11
 70
     1
102
RTVSPropertyOp12
 70
     1
102
RTVSPropertyOp13
 70
     1
102
RTVSPropertyOp14
 70
     1
102
RTVSPropertyOp15
 70
     1
102
RTVSPropertyOp16
 70
     1
102
RTVSPropertyOp17
 70
     1
102
RTVSPropertyOp18
 70
     1
102
RTVSPropertyOp19
 70
     1
102
RTVSPropertyOp20
 70
     1
102
RTVSPropertyOp21
 70
     1
102
RTVSPropertyOp22
 70
     1
102
RTVSPropertyOp23
 70
     1
102
RTVSPropertyOp24
 70
     1
102
RTVSPropertyOp25
 70
     1
102
RTVSPropertyOp26
 70
     1
102
RTVSPropertyOp27
 70
     1
  0
XRECORD
  5
853
102
{ACAD_REACTORS
330
852
102
}
330
852
100
AcDbXrecord
280
     1
102
RTVSPropertyOp0
 70
     1
102
RTVSPropertyOp1
 70
     1
102
RTVSPropertyOp2
 70
     1
102
RTVSPropertyOp3
 70
     1
102
RTVSPropertyOp4
 70
     1
102
RTVSPropertyOp5
 70
     1
102
RTVSPropertyOp6
 70
     1
102
RTVSPropertyOp7
 70
     1
102
RTVSPropertyOp8
 70
     1
102
RTVSPropertyOp9
 70
     1
102
RTVSPropertyOp10
 70
     1
102
RTVSPropertyOp11
 70
     1
102
RTVSPropertyOp12
 70
     1
102
RTVSPropertyOp13
 70
     1
102
RTVSPropertyOp14
 70
     1
102
RTVSPropertyOp15
 70
     1
102
RTVSPropertyOp16
 70
     1
102
RTVSPropertyOp17
 70
     1
102
RTVSPropertyOp18
 70
     1
102
RTVSPropertyOp19
 70
     1
102
RTVSPropertyOp20
 70
     1
102
RTVSPropertyOp21
 70
     1
102
RTVSPropertyOp22
 70
     1
102
RTVSPropertyOp23
 70
     1
102
RTVSPropertyOp24
 70
     1
102
RTVSPropertyOp25
 70
     1
102
RTVSPropertyOp26
 70
     1
102
RTVSPropertyOp27
 70
     1
  0
XRECORD
  5
851
102
{ACAD_REACTORS
330
850
102
}
330
850
100
AcDbXrecord
280
     1
102
RTVSPropertyOp0
 70
     1
102
RTVSPropertyOp1
 70
     1
102
RTVSPropertyOp2
 70
     1
102
RTVSPropertyOp3
 70
     1
102
RTVSPropertyOp4
 70
     1
102
RTVSPropertyOp5
 70
     1
102
RTVSPropertyOp6
 70
     1
102
RTVSPropertyOp7
 70
     1
102
RTVSPropertyOp8
 70
     1
102
RTVSPropertyOp9
 70
     1
102
RTVSPropertyOp10
 70
     1
102
RTVSPropertyOp11
 70
     1
102
RTVSPropertyOp12
 70
     1
102
RTVSPropertyOp13
 70
     1
102
RTVSPropertyOp14
 70
     1
102
RTVSPropertyOp15
 70
     1
102
RTVSPropertyOp16
 70
     1
102
RTVSPropertyOp17
 70
     1
102
RTVSPropertyOp18
 70
     1
102
RTVSPropertyOp19
 70
     1
102
RTVSPropertyOp20
 70
     1
102
RTVSPropertyOp21
 70
     1
102
RTVSPropertyOp22
 70
     1
102
RTVSPropertyOp23
 70
     1
102
RTVSPropertyOp24
 70
     1
102
RTVSPropertyOp25
 70
     1
102
RTVSPropertyOp26
 70
     1
102
RTVSPropertyOp27
 70
     1
  0
XRECORD
  5
855
102
{ACAD_REACTORS
330
854
102
}
330
854
100
AcDbXrecord
280
     1
102
RTVSPropertyOp0
 70
     1
102
RTVSPropertyOp1
 70
     1
102
RTVSPropertyOp2
 70
     1
102
RTVSPropertyOp3
 70
     1
102
RTVSPropertyOp4
 70
     1
102
RTVSPropertyOp5
 70
     1
102
RTVSPropertyOp6
 70
     1
102
RTVSPropertyOp7
 70
     1
102
RTVSPropertyOp8
 70
     1
102
RTVSPropertyOp9
 70
     1
102
RTVSPropertyOp10
 70
     1
102
RTVSPropertyOp11
 70
     1
102
RTVSPropertyOp12
 70
     1
102
RTVSPropertyOp13
 70
     1
102
RTVSPropertyOp14
 70
     1
102
RTVSPropertyOp15
 70
     1
102
RTVSPropertyOp16
 70
     1
102
RTVSPropertyOp17
 70
     1
102
RTVSPropertyOp18
 70
     1
102
RTVSPropertyOp19
 70
     1
102
RTVSPropertyOp20
 70
     1
102
RTVSPropertyOp21
 70
     1
102
RTVSPropertyOp22
 70
     1
102
RTVSPropertyOp23
 70
     1
102
RTVSPropertyOp24
 70
     1
102
RTVSPropertyOp25
 70
     1
102
RTVSPropertyOp26
 70
     1
102
RTVSPropertyOp27
 70
     1
  0
XRECORD
  5
85D
102
{ACAD_REACTORS
330
85C
102
}
330
85C
100
AcDbXrecord
280
     1
102
RTVSPropertyOp0
 70
     1
102
RTVSPropertyOp1
 70
     1
102
RTVSPropertyOp2
 70
     1
102
RTVSPropertyOp3
 70
     1
102
RTVSPropertyOp4
 70
     1
102
RTVSPropertyOp5
 70
     1
102
RTVSPropertyOp6
 70
     1
102
RTVSPropertyOp7
 70
     1
102
RTVSPropertyOp8
 70
     1
102
RTVSPropertyOp9
 70
     1
102
RTVSPropertyOp10
 70
     1
102
RTVSPropertyOp11
 70
     1
102
RTVSPropertyOp12
 70
     1
102
RTVSPropertyOp13
 70
     1
102
RTVSPropertyOp14
 70
     1
102
RTVSPropertyOp15
 70
     1
102
RTVSPropertyOp16
 70
     1
102
RTVSPropertyOp17
 70
     1
102
RTVSPropertyOp18
 70
     1
102
RTVSPropertyOp19
 70
     1
102
RTVSPropertyOp20
 70
     1
102
RTVSPropertyOp21
 70
     1
102
RTVSPropertyOp22
 70
     1
102
RTVSPropertyOp23
 70
     1
102
RTVSPropertyOp24
 70
     1
102
RTVSPropertyOp25
 70
     1
102
RTVSPropertyOp26
 70
     1
102
RTVSPropertyOp27
 70
     1
  0
XRECORD
  5
865
102
{ACAD_REACTORS
330
864
102
}
330
864
100
AcDbXrecord
280
     1
102
RTVSPropertyOp0
 70
     1
102
RTVSPropertyOp1
 70
     1
102
RTVSPropertyOp2
 70
     1
102
RTVSPropertyOp3
 70
     1
102
RTVSPropertyOp4
 70
     1
102
RTVSPropertyOp5
 70
     1
102
RTVSPropertyOp6
 70
     1
102
RTVSPropertyOp7
 70
     1
102
RTVSPropertyOp8
 70
     1
102
RTVSPropertyOp9
 70
     1
102
RTVSPropertyOp10
 70
     1
102
RTVSPropertyOp11
 70
     1
102
RTVSPropertyOp12
 70
     1
102
RTVSPropertyOp13
 70
     1
102
RTVSPropertyOp14
 70
     1
102
RTVSPropertyOp15
 70
     1
102
RTVSPropertyOp16
 70
     1
102
RTVSPropertyOp17
 70
     1
102
RTVSPropertyOp18
 70
     1
102
RTVSPropertyOp19
 70
     1
102
RTVSPropertyOp20
 70
     1
102
RTVSPropertyOp21
 70
     1
102
RTVSPropertyOp22
 70
     1
102
RTVSPropertyOp23
 70
     1
102
RTVSPropertyOp24
 70
     1
102
RTVSPropertyOp25
 70
     1
102
RTVSPropertyOp26
 70
     1
102
RTVSPropertyOp27
 70
     1
  0
XRECORD
  5
859
102
{ACAD_REACTORS
330
858
102
}
330
858
100
AcDbXrecord
280
     1
102
RTVSPropertyOp0
 70
     1
102
RTVSPropertyOp1
 70
     1
102
RTVSPropertyOp2
 70
     1
102
RTVSPropertyOp3
 70
     1
102
RTVSPropertyOp4
 70
     1
102
RTVSPropertyOp5
 70
     1
102
RTVSPropertyOp6
 70
     1
102
RTVSPropertyOp7
 70
     1
102
RTVSPropertyOp8
 70
     1
102
RTVSPropertyOp9
 70
     1
102
RTVSPropertyOp10
 70
     1
102
RTVSPropertyOp11
 70
     1
102
RTVSPropertyOp12
 70
     1
102
RTVSPropertyOp13
 70
     1
102
RTVSPropertyOp14
 70
     1
102
RTVSPropertyOp15
 70
     1
102
RTVSPropertyOp16
 70
     1
102
RTVSPropertyOp17
 70
     1
102
RTVSPropertyOp18
 70
     1
102
RTVSPropertyOp19
 70
     1
102
RTVSPropertyOp20
 70
     1
102
RTVSPropertyOp21
 70
     1
102
RTVSPropertyOp22
 70
     1
102
RTVSPropertyOp23
 70
     1
102
RTVSPropertyOp24
 70
     1
102
RTVSPropertyOp25
 70
     1
102
RTVSPropertyOp26
 70
     1
102
RTVSPropertyOp27
 70
     1
  0
XRECORD
  5
85B
102
{ACAD_REACTORS
330
85A
102
}
330
85A
100
AcDbXrecord
280
     1
102
RTVSPropertyOp0
 70
     1
102
RTVSPropertyOp1
 70
     1
102
RTVSPropertyOp2
 70
     1
102
RTVSPropertyOp3
 70
     1
102
RTVSPropertyOp4
 70
     1
102
RTVSPropertyOp5
 70
     1
102
RTVSPropertyOp6
 70
     1
102
RTVSPropertyOp7
 70
     1
102
RTVSPropertyOp8
 70
     1
102
RTVSPropertyOp9
 70
     1
102
RTVSPropertyOp10
 70
     1
102
RTVSPropertyOp11
 70
     1
102
RTVSPropertyOp12
 70
     1
102
RTVSPropertyOp13
 70
     1
102
RTVSPropertyOp14
 70
     1
102
RTVSPropertyOp15
 70
     1
102
RTVSPropertyOp16
 70
     1
102
RTVSPropertyOp17
 70
     1
102
RTVSPropertyOp18
 70
     1
102
RTVSPropertyOp19
 70
     1
102
RTVSPropertyOp20
 70
     1
102
RTVSPropertyOp21
 70
     1
102
RTVSPropertyOp22
 70
     1
102
RTVSPropertyOp23
 70
     1
102
RTVSPropertyOp24
 70
     1
102
RTVSPropertyOp25
 70
     1
102
RTVSPropertyOp26
 70
     1
102
RTVSPropertyOp27
 70
     1
  0
XRECORD
  5
863
102
{ACAD_REACTORS
330
862
102
}
330
862
100
AcDbXrecord
280
     1
102
RTVSPropertyOp0
 70
     1
102
RTVSPropertyOp1
 70
     1
102
RTVSPropertyOp2
 70
     1
102
RTVSPropertyOp3
 70
     1
102
RTVSPropertyOp4
 70
     1
102
RTVSPropertyOp5
 70
     1
102
RTVSPropertyOp6
 70
     1
102
RTVSPropertyOp7
 70
     1
102
RTVSPropertyOp8
 70
     1
102
RTVSPropertyOp9
 70
     1
102
RTVSPropertyOp10
 70
     1
102
RTVSPropertyOp11
 70
     1
102
RTVSPropertyOp12
 70
     1
102
RTVSPropertyOp13
 70
     1
102
RTVSPropertyOp14
 70
     1
102
RTVSPropertyOp15
 70
     1
102
RTVSPropertyOp16
 70
     1
102
RTVSPropertyOp17
 70
     1
102
RTVSPropertyOp18
 70
     1
102
RTVSPropertyOp19
 70
     1
102
RTVSPropertyOp20
 70
     1
102
RTVSPropertyOp21
 70
     1
102
RTVSPropertyOp22
 70
     1
102
RTVSPropertyOp23
 70
     1
102
RTVSPropertyOp24
 70
     1
102
RTVSPropertyOp25
 70
     1
102
RTVSPropertyOp26
 70
     1
102
RTVSPropertyOp27
 70
     1
  0
XRECORD
  5
847
102
{ACAD_REACTORS
330
846
102
}
330
846
100
AcDbXrecord
280
     1
102
RTVSPropertyOp0
 70
     1
102
RTVSPropertyOp1
 70
     1
102
RTVSPropertyOp2
 70
     1
102
RTVSPropertyOp3
 70
     1
102
RTVSPropertyOp4
 70
     1
102
RTVSPropertyOp5
 70
     1
102
RTVSPropertyOp6
 70
     1
102
RTVSPropertyOp7
 70
     1
102
RTVSPropertyOp8
 70
     1
102
RTVSPropertyOp9
 70
     1
102
RTVSPropertyOp10
 70
     1
102
RTVSPropertyOp11
 70
     1
102
RTVSPropertyOp12
 70
     1
102
RTVSPropertyOp13
 70
     1
102
RTVSPropertyOp14
 70
     1
102
RTVSPropertyOp15
 70
     1
102
RTVSPropertyOp16
 70
     1
102
RTVSPropertyOp17
 70
     1
102
RTVSPropertyOp18
 70
     1
102
RTVSPropertyOp19
 70
     1
102
RTVSPropertyOp20
 70
     1
102
RTVSPropertyOp21
 70
     1
102
RTVSPropertyOp22
 70
     1
102
RTVSPropertyOp23
 70
     1
102
RTVSPropertyOp24
 70
     1
102
RTVSPropertyOp25
 70
     1
102
RTVSPropertyOp26
 70
     1
102
RTVSPropertyOp27
 70
     1
  0
XRECORD
  5
849
102
{ACAD_REACTORS
330
848
102
}
330
848
100
AcDbXrecord
280
     1
102
RTVSPropertyOp0
 70
     1
102
RTVSPropertyOp1
 70
     1
102
RTVSPropertyOp2
 70
     1
102
RTVSPropertyOp3
 70
     1
102
RTVSPropertyOp4
 70
     1
102
RTVSPropertyOp5
 70
     1
102
RTVSPropertyOp6
 70
     1
102
RTVSPropertyOp7
 70
     1
102
RTVSPropertyOp8
 70
     1
102
RTVSPropertyOp9
 70
     1
102
RTVSPropertyOp10
 70
     1
102
RTVSPropertyOp11
 70
     1
102
RTVSPropertyOp12
 70
     1
102
RTVSPropertyOp13
 70
     1
102
RTVSPropertyOp14
 70
     1
102
RTVSPropertyOp15
 70
     1
102
RTVSPropertyOp16
 70
     1
102
RTVSPropertyOp17
 70
     1
102
RTVSPropertyOp18
 70
     1
102
RTVSPropertyOp19
 70
     1
102
RTVSPropertyOp20
 70
     1
102
RTVSPropertyOp21
 70
     1
102
RTVSPropertyOp22
 70
     1
102
RTVSPropertyOp23
 70
     1
102
RTVSPropertyOp24
 70
     1
102
RTVSPropertyOp25
 70
     1
102
RTVSPropertyOp26
 70
     1
102
RTVSPropertyOp27
 70
     1
  0
XRECORD
  5
84B
102
{ACAD_REACTORS
330
84A
102
}
330
84A
100
AcDbXrecord
280
     1
102
RTVSPropertyOp0
 70
     1
102
RTVSPropertyOp1
 70
     1
102
RTVSPropertyOp2
 70
     1
102
RTVSPropertyOp3
 70
     1
102
RTVSPropertyOp4
 70
     1
102
RTVSPropertyOp5
 70
     1
102
RTVSPropertyOp6
 70
     1
102
RTVSPropertyOp7
 70
     1
102
RTVSPropertyOp8
 70
     1
102
RTVSPropertyOp9
 70
     1
102
RTVSPropertyOp10
 70
     1
102
RTVSPropertyOp11
 70
     1
102
RTVSPropertyOp12
 70
     1
102
RTVSPropertyOp13
 70
     1
102
RTVSPropertyOp14
 70
     1
102
RTVSPropertyOp15
 70
     1
102
RTVSPropertyOp16
 70
     1
102
RTVSPropertyOp17
 70
     1
102
RTVSPropertyOp18
 70
     1
102
RTVSPropertyOp19
 70
     1
102
RTVSPropertyOp20
 70
     1
102
RTVSPropertyOp21
 70
     1
102
RTVSPropertyOp22
 70
     1
102
RTVSPropertyOp23
 70
     1
102
RTVSPropertyOp24
 70
     1
102
RTVSPropertyOp25
 70
     1
102
RTVSPropertyOp26
 70
     1
102
RTVSPropertyOp27
 70
     1
  0
XRECORD
  5
84D
102
{ACAD_REACTORS
330
84C
102
}
330
84C
100
AcDbXrecord
280
     1
102
RTVSPropertyOp0
 70
     1
102
RTVSPropertyOp1
 70
     1
102
RTVSPropertyOp2
 70
     1
102
RTVSPropertyOp3
 70
     1
102
RTVSPropertyOp4
 70
     1
102
RTVSPropertyOp5
 70
     1
102
RTVSPropertyOp6
 70
     1
102
RTVSPropertyOp7
 70
     1
102
RTVSPropertyOp8
 70
     1
102
RTVSPropertyOp9
 70
     1
102
RTVSPropertyOp10
 70
     1
102
RTVSPropertyOp11
 70
     1
102
RTVSPropertyOp12
 70
     1
102
RTVSPropertyOp13
 70
     1
102
RTVSPropertyOp14
 70
     1
102
RTVSPropertyOp15
 70
     1
102
RTVSPropertyOp16
 70
     1
102
RTVSPropertyOp17
 70
     1
102
RTVSPropertyOp18
 70
     1
102
RTVSPropertyOp19
 70
     1
102
RTVSPropertyOp20
 70
     1
102
RTVSPropertyOp21
 70
     1
102
RTVSPropertyOp22
 70
     1
102
RTVSPropertyOp23
 70
     1
102
RTVSPropertyOp24
 70
     1
102
RTVSPropertyOp25
 70
     1
102
RTVSPropertyOp26
 70
     1
102
RTVSPropertyOp27
 70
     1
  0
XRECORD
  5
861
102
{ACAD_REACTORS
330
860
102
}
330
860
100
AcDbXrecord
280
     1
102
RTVSPropertyOp0
 70
     1
102
RTVSPropertyOp1
 70
     1
102
RTVSPropertyOp2
 70
     1
102
RTVSPropertyOp3
 70
     1
102
RTVSPropertyOp4
 70
     1
102
RTVSPropertyOp5
 70
     1
102
RTVSPropertyOp6
 70
     1
102
RTVSPropertyOp7
 70
     1
102
RTVSPropertyOp8
 70
     1
102
RTVSPropertyOp9
 70
     1
102
RTVSPropertyOp10
 70
     1
102
RTVSPropertyOp11
 70
     1
102
RTVSPropertyOp12
 70
     1
102
RTVSPropertyOp13
 70
     1
102
RTVSPropertyOp14
 70
     1
102
RTVSPropertyOp15
 70
     1
102
RTVSPropertyOp16
 70
     1
102
RTVSPropertyOp17
 70
     1
102
RTVSPropertyOp18
 70
     1
102
RTVSPropertyOp19
 70
     1
102
RTVSPropertyOp20
 70
     1
102
RTVSPropertyOp21
 70
     1
102
RTVSPropertyOp22
 70
     1
102
RTVSPropertyOp23
 70
     1
102
RTVSPropertyOp24
 70
     1
102
RTVSPropertyOp25
 70
     1
102
RTVSPropertyOp26
 70
     1
102
RTVSPropertyOp27
 70
     1
  0
XRECORD
  5
857
102
{ACAD_REACTORS
330
856
102
}
330
856
100
AcDbXrecord
280
     1
102
RTVSPropertyOp0
 70
     1
102
RTVSPropertyOp1
 70
     1
102
RTVSPropertyOp2
 70
     1
102
RTVSPropertyOp3
 70
     1
102
RTVSPropertyOp4
 70
     1
102
RTVSPropertyOp5
 70
     1
102
RTVSPropertyOp6
 70
     1
102
RTVSPropertyOp7
 70
     1
102
RTVSPropertyOp8
 70
     1
102
RTVSPropertyOp9
 70
     1
102
RTVSPropertyOp10
 70
     1
102
RTVSPropertyOp11
 70
     1
102
RTVSPropertyOp12
 70
     1
102
RTVSPropertyOp13
 70
     1
102
RTVSPropertyOp14
 70
     1
102
RTVSPropertyOp15
 70
     1
102
RTVSPropertyOp16
 70
     1
102
RTVSPropertyOp17
 70
     1
102
RTVSPropertyOp18
 70
     1
102
RTVSPropertyOp19
 70
     1
102
RTVSPropertyOp20
 70
     1
102
RTVSPropertyOp21
 70
     1
102
RTVSPropertyOp22
 70
     1
102
RTVSPropertyOp23
 70
     1
102
RTVSPropertyOp24
 70
     1
102
RTVSPropertyOp25
 70
     1
102
RTVSPropertyOp26
 70
     1
102
RTVSPropertyOp27
 70
     1
  0
XRECORD
  5
85F
102
{ACAD_REACTORS
330
85E
102
}
330
85E
100
AcDbXrecord
280
     1
102
RTVSPropertyOp0
 70
     1
102
RTVSPropertyOp1
 70
     1
102
RTVSPropertyOp2
 70
     1
102
RTVSPropertyOp3
 70
     1
102
RTVSPropertyOp4
 70
     1
102
RTVSPropertyOp5
 70
     1
102
RTVSPropertyOp6
 70
     1
102
RTVSPropertyOp7
 70
     1
102
RTVSPropertyOp8
 70
     1
102
RTVSPropertyOp9
 70
     1
102
RTVSPropertyOp10
 70
     1
102
RTVSPropertyOp11
 70
     1
102
RTVSPropertyOp12
 70
     1
102
RTVSPropertyOp13
 70
     1
102
RTVSPropertyOp14
 70
     1
102
RTVSPropertyOp15
 70
     1
102
RTVSPropertyOp16
 70
     1
102
RTVSPropertyOp17
 70
     1
102
RTVSPropertyOp18
 70
     1
102
RTVSPropertyOp19
 70
     1
102
RTVSPropertyOp20
 70
     1
102
RTVSPropertyOp21
 70
     1
102
RTVSPropertyOp22
 70
     1
102
RTVSPropertyOp23
 70
     1
102
RTVSPropertyOp24
 70
     1
102
RTVSPropertyOp25
 70
     1
102
RTVSPropertyOp26
 70
     1
102
RTVSPropertyOp27
 70
     1
  0
ENDSEC
  0
EOF
