ISO-10303-21;
HEADER;
FILE_DESCRIPTION(('no description'),'unknown implementation level');
FILE_NAME('8521708.stp','  ',('CIM GmbH Aachen'),('CADClick - KiM GmbH - www.kimweb.de'),'unknown preprocess','ACIS','unknown authorization');
FILE_SCHEMA(('automotive_design'));
ENDSEC;
DATA;
#1=MECHANICAL_DESIGN_GEOMETRIC_PRESENTATION_REPRESENTATION(' ',(#14,#15,#16,#17,#18,#19,#20,#21,#22,#23,#24,#25,#26,#27,#28,#29,#30,#31,#32,#33,#34,#35,#36,#37,#38,#39,#40,#41,#42,#43,#44,#45,#46,#47,#48,#49,#50,#51,#52,#53,#54,#55,#56,#57),#10);
#2=PRODUCT_DEFINITION_CONTEXT('',#58,'design');
#3=APPLICATION_PROTOCOL_DEFINITION('INTERNATIONAL STANDARD','automotive_design',1994,#58);
#4=PRODUCT_CATEGORY_RELATIONSHIP('NONE','NONE',#59,#60);
#5=SHAPE_DEFINITION_REPRESENTATION(#61,#62);
#6=PRODUCT_DEFINITION_CONTEXT('',#63,'design');
#7=APPLICATION_PROTOCOL_DEFINITION('INTERNATIONAL STANDARD','automotive_design',1994,#63);
#8=PRODUCT_CATEGORY_RELATIONSHIP('NONE','NONE',#64,#65);
#9=SHAPE_DEFINITION_REPRESENTATION(#66,#67);
#10= (GEOMETRIC_REPRESENTATION_CONTEXT(3)GLOBAL_UNCERTAINTY_ASSIGNED_CONTEXT((#70))GLOBAL_UNIT_ASSIGNED_CONTEXT((#72,#73,#74))REPRESENTATION_CONTEXT('NONE','WORKSPACE'));
#14=STYLED_ITEM('',(#76),#77);
#15=STYLED_ITEM('',(#78),#79);
#16=STYLED_ITEM('',(#80),#81);
#17=STYLED_ITEM('',(#82),#83);
#18=STYLED_ITEM('',(#84),#85);
#19=STYLED_ITEM('',(#86),#87);
#20=STYLED_ITEM('',(#88),#89);
#21=STYLED_ITEM('',(#90),#91);
#22=STYLED_ITEM('',(#92),#93);
#23=STYLED_ITEM('',(#94),#95);
#24=STYLED_ITEM('',(#96),#97);
#25=STYLED_ITEM('',(#98),#99);
#26=STYLED_ITEM('',(#100),#101);
#27=STYLED_ITEM('',(#102),#103);
#28=STYLED_ITEM('',(#104),#105);
#29=STYLED_ITEM('',(#106),#107);
#30=STYLED_ITEM('',(#108),#109);
#31=STYLED_ITEM('',(#110),#111);
#32=STYLED_ITEM('',(#112),#113);
#33=STYLED_ITEM('',(#114),#115);
#34=STYLED_ITEM('',(#116),#117);
#35=STYLED_ITEM('',(#118),#119);
#36=STYLED_ITEM('',(#120),#121);
#37=STYLED_ITEM('',(#122),#123);
#38=STYLED_ITEM('',(#124),#125);
#39=STYLED_ITEM('',(#126),#127);
#40=STYLED_ITEM('',(#128),#129);
#41=STYLED_ITEM('',(#130),#131);
#42=STYLED_ITEM('',(#132),#133);
#43=STYLED_ITEM('',(#134),#135);
#44=STYLED_ITEM('',(#136),#137);
#45=STYLED_ITEM('',(#138),#139);
#46=STYLED_ITEM('',(#140),#141);
#47=STYLED_ITEM('',(#142),#143);
#48=STYLED_ITEM('',(#144),#145);
#49=STYLED_ITEM('',(#146),#147);
#50=STYLED_ITEM('',(#148),#149);
#51=STYLED_ITEM('',(#150),#151);
#52=STYLED_ITEM('',(#152),#153);
#53=STYLED_ITEM('',(#154),#155);
#54=STYLED_ITEM('',(#156),#157);
#55=STYLED_ITEM('',(#158),#159);
#56=STYLED_ITEM('',(#160),#161);
#57=STYLED_ITEM('',(#162),#163);
#58=APPLICATION_CONTEXT(' ');
#59=PRODUCT_CATEGORY('part','NONE');
#60=PRODUCT_RELATED_PRODUCT_CATEGORY('detail',' ',(#164));
#61=PRODUCT_DEFINITION_SHAPE('NONE','NONE',#165);
#62=ADVANCED_BREP_SHAPE_REPRESENTATION('1',(#97,#166),#10);
#63=APPLICATION_CONTEXT(' ');
#64=PRODUCT_CATEGORY('part','NONE');
#65=PRODUCT_RELATED_PRODUCT_CATEGORY('detail',' ',(#167));
#66=PRODUCT_DEFINITION_SHAPE('NONE','NONE',#168);
#67=ADVANCED_BREP_SHAPE_REPRESENTATION('2',(#125,#169),#10);
#70=UNCERTAINTY_MEASURE_WITH_UNIT(LENGTH_MEASURE(1.0E-006),#72,'','');
#72= (CONVERSION_BASED_UNIT('MILLIMETRE',#172)LENGTH_UNIT()NAMED_UNIT(#175));
#73= (NAMED_UNIT(#177)PLANE_ANGLE_UNIT()SI_UNIT($,.RADIAN.));
#74= (NAMED_UNIT(#177)SOLID_ANGLE_UNIT()SI_UNIT($,.STERADIAN.));
#76=PRESENTATION_STYLE_ASSIGNMENT((#183));
#77=ADVANCED_FACE('',(#184),#185,.T.);
#78=PRESENTATION_STYLE_ASSIGNMENT((#186));
#79=VERTEX_POINT('',#187);
#80=PRESENTATION_STYLE_ASSIGNMENT((#188));
#81=EDGE_CURVE('',#85,#133,#189,.T.);
#82=PRESENTATION_STYLE_ASSIGNMENT((#190));
#83=EDGE_CURVE('',#103,#85,#191,.T.);
#84=PRESENTATION_STYLE_ASSIGNMENT((#192));
#85=VERTEX_POINT('',#193);
#86=PRESENTATION_STYLE_ASSIGNMENT((#194));
#87=EDGE_CURVE('',#143,#103,#195,.T.);
#88=PRESENTATION_STYLE_ASSIGNMENT((#196));
#89=EDGE_CURVE('',#153,#93,#197,.T.);
#90=PRESENTATION_STYLE_ASSIGNMENT((#198));
#91=ADVANCED_FACE('',(#199),#200,.T.);
#92=PRESENTATION_STYLE_ASSIGNMENT((#201));
#93=VERTEX_POINT('',#202);
#94=PRESENTATION_STYLE_ASSIGNMENT((#203));
#95=EDGE_CURVE('',#127,#153,#204,.T.);
#96=PRESENTATION_STYLE_ASSIGNMENT((#205));
#97=MANIFOLD_SOLID_BREP('1',#206);
#98=PRESENTATION_STYLE_ASSIGNMENT((#207));
#99=EDGE_CURVE('',#133,#143,#208,.T.);
#100=PRESENTATION_STYLE_ASSIGNMENT((#209));
#101=EDGE_CURVE('',#115,#153,#210,.T.);
#102=PRESENTATION_STYLE_ASSIGNMENT((#211));
#103=VERTEX_POINT('',#212);
#104=PRESENTATION_STYLE_ASSIGNMENT((#213));
#105=ADVANCED_FACE('',(#214),#215,.T.);
#106=PRESENTATION_STYLE_ASSIGNMENT((#216));
#107=EDGE_CURVE('',#79,#123,#217,.T.);
#108=PRESENTATION_STYLE_ASSIGNMENT((#218));
#109=EDGE_CURVE('',#123,#79,#219,.T.);
#110=PRESENTATION_STYLE_ASSIGNMENT((#220));
#111=EDGE_CURVE('',#145,#93,#221,.T.);
#112=PRESENTATION_STYLE_ASSIGNMENT((#222));
#113=EDGE_CURVE('',#145,#161,#223,.T.);
#114=PRESENTATION_STYLE_ASSIGNMENT((#224));
#115=VERTEX_POINT('',#225);
#116=PRESENTATION_STYLE_ASSIGNMENT((#226));
#117=ADVANCED_FACE('',(#227),#228,.T.);
#118=PRESENTATION_STYLE_ASSIGNMENT((#229));
#119=ADVANCED_FACE('',(#230),#231,.T.);
#120=PRESENTATION_STYLE_ASSIGNMENT((#232));
#121=EDGE_CURVE('',#79,#143,#233,.T.);
#122=PRESENTATION_STYLE_ASSIGNMENT((#234));
#123=VERTEX_POINT('',#235);
#124=PRESENTATION_STYLE_ASSIGNMENT((#236));
#125=MANIFOLD_SOLID_BREP('2',#237);
#126=PRESENTATION_STYLE_ASSIGNMENT((#238));
#127=VERTEX_POINT('',#239);
#128=PRESENTATION_STYLE_ASSIGNMENT((#240));
#129=ADVANCED_FACE('',(#241),#242,.T.);
#130=PRESENTATION_STYLE_ASSIGNMENT((#243));
#131=EDGE_CURVE('',#85,#103,#244,.T.);
#132=PRESENTATION_STYLE_ASSIGNMENT((#245));
#133=VERTEX_POINT('',#246);
#134=PRESENTATION_STYLE_ASSIGNMENT((#247));
#135=ADVANCED_FACE('',(#248),#249,.T.);
#136=PRESENTATION_STYLE_ASSIGNMENT((#250));
#137=EDGE_CURVE('',#127,#161,#251,.T.);
#138=PRESENTATION_STYLE_ASSIGNMENT((#252));
#139=ADVANCED_FACE('',(#253),#254,.T.);
#140=PRESENTATION_STYLE_ASSIGNMENT((#255));
#141=EDGE_CURVE('',#133,#123,#256,.T.);
#142=PRESENTATION_STYLE_ASSIGNMENT((#257));
#143=VERTEX_POINT('',#258);
#144=PRESENTATION_STYLE_ASSIGNMENT((#259));
#145=VERTEX_POINT('',#260);
#146=PRESENTATION_STYLE_ASSIGNMENT((#261));
#147=ADVANCED_FACE('',(#262),#263,.T.);
#148=PRESENTATION_STYLE_ASSIGNMENT((#264));
#149=EDGE_CURVE('',#115,#127,#265,.T.);
#150=PRESENTATION_STYLE_ASSIGNMENT((#266));
#151=EDGE_CURVE('',#93,#115,#267,.T.);
#152=PRESENTATION_STYLE_ASSIGNMENT((#268));
#153=VERTEX_POINT('',#269);
#154=PRESENTATION_STYLE_ASSIGNMENT((#270));
#155=ADVANCED_FACE('',(#271),#272,.T.);
#156=PRESENTATION_STYLE_ASSIGNMENT((#273));
#157=EDGE_CURVE('',#143,#133,#274,.T.);
#158=PRESENTATION_STYLE_ASSIGNMENT((#275));
#159=ADVANCED_FACE('',(#276),#277,.T.);
#160=PRESENTATION_STYLE_ASSIGNMENT((#278));
#161=VERTEX_POINT('',#279);
#162=PRESENTATION_STYLE_ASSIGNMENT((#280));
#163=EDGE_CURVE('',#161,#145,#281,.T.);
#164=PRODUCT('1','1','PART-1-DESC',(#282));
#165=PRODUCT_DEFINITION('NONE','NONE',#283,#2);
#166=AXIS2_PLACEMENT_3D('',#284,#285,#286);
#167=PRODUCT('2','2','PART-2-DESC',(#287));
#168=PRODUCT_DEFINITION('NONE','NONE',#288,#6);
#169=AXIS2_PLACEMENT_3D('',#289,#290,#291);
#172=LENGTH_MEASURE_WITH_UNIT(LENGTH_MEASURE(1.0),#292);
#175=DIMENSIONAL_EXPONENTS(1.0,0.0,0.0,0.0,0.0,0.0,0.0);
#177=DIMENSIONAL_EXPONENTS(0.0,0.0,0.0,0.0,0.0,0.0,0.0);
#183=SURFACE_STYLE_USAGE(.BOTH.,#293);
#184=FACE_OUTER_BOUND('',#294,.T.);
#185=PLANE('',#295);
#186=POINT_STYLE(' ',#296,POSITIVE_LENGTH_MEASURE(1.0E-006),#297);
#187=CARTESIAN_POINT('',(4.89842541528951E-016,-4.0,-36.0));
#188=CURVE_STYLE('',#298,POSITIVE_LENGTH_MEASURE(1.0E-006),#299);
#189=LINE('',#300,#301);
#190=CURVE_STYLE('',#302,POSITIVE_LENGTH_MEASURE(1.0E-006),#303);
#191=CIRCLE('',#304,3.6);
#192=POINT_STYLE(' ',#305,POSITIVE_LENGTH_MEASURE(1.0E-006),#306);
#193=CARTESIAN_POINT('',(0.0,3.6,0.0));
#194=CURVE_STYLE('',#307,POSITIVE_LENGTH_MEASURE(1.0E-006),#308);
#195=LINE('',#309,#310);
#196=CURVE_STYLE('',#311,POSITIVE_LENGTH_MEASURE(1.0E-006),#312);
#197=CIRCLE('',#313,4.0);
#198=SURFACE_STYLE_USAGE(.BOTH.,#314);
#199=FACE_OUTER_BOUND('',#315,.T.);
#200=CONICAL_SURFACE('',#316,3.8,0.78539816339745);
#201=POINT_STYLE(' ',#317,POSITIVE_LENGTH_MEASURE(1.0E-006),#318);
#202=CARTESIAN_POINT('',(2.0,3.46410161513775,-46.0));
#203=CURVE_STYLE('',#319,POSITIVE_LENGTH_MEASURE(1.0E-006),#320);
#204=CIRCLE('',#321,4.0);
#205=SURFACE_STYLE_USAGE(.BOTH.,#322);
#206=CLOSED_SHELL('',(#119,#91,#139,#129,#155,#105));
#207=CURVE_STYLE('',#323,POSITIVE_LENGTH_MEASURE(1.0E-006),#324);
#208=CIRCLE('',#325,4.0);
#209=CURVE_STYLE('',#326,POSITIVE_LENGTH_MEASURE(1.0E-006),#327);
#210=CIRCLE('',#328,4.00000000000001);
#211=POINT_STYLE(' ',#329,POSITIVE_LENGTH_MEASURE(1.0E-006),#330);
#212=CARTESIAN_POINT('',(4.40858287376056E-016,-3.6,0.0));
#213=SURFACE_STYLE_USAGE(.BOTH.,#331);
#214=FACE_OUTER_BOUND('',#332,.T.);
#215=CYLINDRICAL_SURFACE('',#333,4.0);
#216=CURVE_STYLE('',#334,POSITIVE_LENGTH_MEASURE(1.0E-006),#335);
#217=CIRCLE('',#336,4.0);
#218=CURVE_STYLE('',#337,POSITIVE_LENGTH_MEASURE(1.0E-006),#338);
#219=CIRCLE('',#339,4.0);
#220=CURVE_STYLE('',#340,POSITIVE_LENGTH_MEASURE(1.0E-006),#341);
#221=LINE('',#342,#343);
#222=CURVE_STYLE('',#344,POSITIVE_LENGTH_MEASURE(1.0E-006),#345);
#223=CIRCLE('',#346,4.0);
#224=POINT_STYLE(' ',#347,POSITIVE_LENGTH_MEASURE(1.0E-006),#348);
#225=CARTESIAN_POINT('',(0.0,-4.0,-46.0));
#226=SURFACE_STYLE_USAGE(.BOTH.,#349);
#227=FACE_OUTER_BOUND('',#350,.T.);
#228=SPHERICAL_SURFACE('',#351,4.00000000000001);
#229=SURFACE_STYLE_USAGE(.BOTH.,#352);
#230=FACE_OUTER_BOUND('',#353,.T.);
#231=CYLINDRICAL_SURFACE('',#354,4.0);
#232=CURVE_STYLE('',#355,POSITIVE_LENGTH_MEASURE(1.0E-006),#356);
#233=LINE('',#357,#358);
#234=POINT_STYLE(' ',#359,POSITIVE_LENGTH_MEASURE(1.0E-006),#360);
#235=CARTESIAN_POINT('',(0.0,4.0,-36.0));
#236=SURFACE_STYLE_USAGE(.BOTH.,#361);
#237=CLOSED_SHELL('',(#159,#135,#117,#77,#147));
#238=POINT_STYLE(' ',#362,POSITIVE_LENGTH_MEASURE(1.0E-006),#363);
#239=CARTESIAN_POINT('',(-2.0,-3.46410161513776,-46.0));
#240=SURFACE_STYLE_USAGE(.BOTH.,#364);
#241=FACE_OUTER_BOUND('',#365,.T.);
#242=PLANE('',#366);
#243=CURVE_STYLE('',#367,POSITIVE_LENGTH_MEASURE(1.0E-006),#368);
#244=CIRCLE('',#369,3.6);
#245=POINT_STYLE(' ',#370,POSITIVE_LENGTH_MEASURE(1.0E-006),#371);
#246=CARTESIAN_POINT('',(0.0,4.0,-0.399999999999999));
#247=SURFACE_STYLE_USAGE(.BOTH.,#372);
#248=FACE_OUTER_BOUND('',#373,.T.);
#249=SPHERICAL_SURFACE('',#374,4.00000000000001);
#250=CURVE_STYLE('',#375,POSITIVE_LENGTH_MEASURE(1.0E-006),#376);
#251=LINE('',#377,#378);
#252=SURFACE_STYLE_USAGE(.BOTH.,#379);
#253=FACE_OUTER_BOUND('',#380,.T.);
#254=PLANE('',#381);
#255=CURVE_STYLE('',#382,POSITIVE_LENGTH_MEASURE(1.0E-006),#383);
#256=LINE('',#384,#385);
#257=POINT_STYLE(' ',#386,POSITIVE_LENGTH_MEASURE(1.0E-006),#387);
#258=CARTESIAN_POINT('',(4.89842541528951E-016,-4.0,-0.399999999999999));
#259=POINT_STYLE(' ',#388,POSITIVE_LENGTH_MEASURE(1.0E-006),#389);
#260=CARTESIAN_POINT('',(2.0,3.46410161513775,-36.0));
#261=SURFACE_STYLE_USAGE(.BOTH.,#390);
#262=FACE_OUTER_BOUND('',#391,.T.);
#263=CYLINDRICAL_SURFACE('',#392,4.0);
#264=CURVE_STYLE('',#393,POSITIVE_LENGTH_MEASURE(1.0E-006),#394);
#265=CIRCLE('',#395,4.0);
#266=CURVE_STYLE('',#396,POSITIVE_LENGTH_MEASURE(1.0E-006),#397);
#267=CIRCLE('',#398,4.0);
#268=POINT_STYLE(' ',#399,POSITIVE_LENGTH_MEASURE(1.0E-006),#400);
#269=CARTESIAN_POINT('',(0.0,4.0,-46.0));
#270=SURFACE_STYLE_USAGE(.BOTH.,#401);
#271=FACE_OUTER_BOUND('',#402,.T.);
#272=CONICAL_SURFACE('',#403,3.8,0.78539816339745);
#273=CURVE_STYLE('',#404,POSITIVE_LENGTH_MEASURE(1.0E-006),#405);
#274=CIRCLE('',#406,4.0);
#275=SURFACE_STYLE_USAGE(.BOTH.,#407);
#276=FACE_OUTER_BOUND('',#408,.T.);
#277=CYLINDRICAL_SURFACE('',#409,4.0);
#278=POINT_STYLE(' ',#410,POSITIVE_LENGTH_MEASURE(1.0E-006),#411);
#279=CARTESIAN_POINT('',(-2.0,-3.46410161513776,-36.0));
#280=CURVE_STYLE('',#412,POSITIVE_LENGTH_MEASURE(1.0E-006),#413);
#281=CIRCLE('',#414,4.0);
#282=PRODUCT_CONTEXT('',#58,'mechanical');
#283=PRODUCT_DEFINITION_FORMATION_WITH_SPECIFIED_SOURCE(' ','NONE',#164,.NOT_KNOWN.);
#284=CARTESIAN_POINT('',(0.0,0.0,0.0));
#285=DIRECTION('',(0.0,0.0,1.0));
#286=DIRECTION('',(1.0,0.0,0.0));
#287=PRODUCT_CONTEXT('',#63,'mechanical');
#288=PRODUCT_DEFINITION_FORMATION_WITH_SPECIFIED_SOURCE(' ','NONE',#167,.NOT_KNOWN.);
#289=CARTESIAN_POINT('',(0.0,0.0,0.0));
#290=DIRECTION('',(0.0,0.0,1.0));
#291=DIRECTION('',(1.0,0.0,0.0));
#292= (NAMED_UNIT(#175)LENGTH_UNIT()SI_UNIT(.MILLI.,.METRE.));
#293=SURFACE_SIDE_STYLE('',(#416));
#294=EDGE_LOOP('',(#417,#418));
#295=AXIS2_PLACEMENT_3D('',#419,#420,#421);
#296=PRE_DEFINED_MARKER('');
#297=COLOUR_RGB('',0.498039215803146,0.498039215803146,0.498039215803146);
#298=DRAUGHTING_PRE_DEFINED_CURVE_FONT('continuous');
#299=COLOUR_RGB('',0.498039215803146,0.498039215803146,0.498039215803146);
#300=CARTESIAN_POINT('',(-4.65350414452503E-016,3.8,-0.199999999999996));
#301=VECTOR('',#422,1.0);
#302=DRAUGHTING_PRE_DEFINED_CURVE_FONT('continuous');
#303=COLOUR_RGB('',0.498039215803146,0.498039215803146,0.498039215803146);
#304=AXIS2_PLACEMENT_3D('',#423,#424,#425);
#305=PRE_DEFINED_MARKER('');
#306=COLOUR_RGB('',0.498039215803146,0.498039215803146,0.498039215803146);
#307=DRAUGHTING_PRE_DEFINED_CURVE_FONT('continuous');
#308=COLOUR_RGB('',0.498039215803146,0.498039215803146,0.498039215803146);
#309=CARTESIAN_POINT('',(4.65350414452503E-016,-3.8,-0.199999999999996));
#310=VECTOR('',#426,1.0);
#311=DRAUGHTING_PRE_DEFINED_CURVE_FONT('continuous');
#312=COLOUR_RGB('',0.800000011920929,0.800000011920929,0.800000011920929);
#313=AXIS2_PLACEMENT_3D('',#427,#428,#429);
#314=SURFACE_SIDE_STYLE('',(#430));
#315=EDGE_LOOP('',(#431,#432,#433,#434));
#316=AXIS2_PLACEMENT_3D('',#435,#436,#437);
#317=PRE_DEFINED_MARKER('');
#318=COLOUR_RGB('',0.800000011920929,0.800000011920929,0.800000011920929);
#319=DRAUGHTING_PRE_DEFINED_CURVE_FONT('continuous');
#320=COLOUR_RGB('',0.800000011920929,0.800000011920929,0.800000011920929);
#321=AXIS2_PLACEMENT_3D('',#438,#439,#440);
#322=SURFACE_SIDE_STYLE('',(#441));
#323=DRAUGHTING_PRE_DEFINED_CURVE_FONT('continuous');
#324=COLOUR_RGB('',0.498039215803146,0.498039215803146,0.498039215803146);
#325=AXIS2_PLACEMENT_3D('',#442,#443,#444);
#326=DRAUGHTING_PRE_DEFINED_CURVE_FONT('continuous');
#327=COLOUR_RGB('',0.800000011920929,0.800000011920929,0.800000011920929);
#328=AXIS2_PLACEMENT_3D('',#445,#446,#447);
#329=PRE_DEFINED_MARKER('');
#330=COLOUR_RGB('',0.498039215803146,0.498039215803146,0.498039215803146);
#331=SURFACE_SIDE_STYLE('',(#448));
#332=EDGE_LOOP('',(#449,#450,#451,#452));
#333=AXIS2_PLACEMENT_3D('',#453,#454,#455);
#334=DRAUGHTING_PRE_DEFINED_CURVE_FONT('continuous');
#335=COLOUR_RGB('',0.498039215803146,0.498039215803146,0.498039215803146);
#336=AXIS2_PLACEMENT_3D('',#456,#457,#458);
#337=DRAUGHTING_PRE_DEFINED_CURVE_FONT('continuous');
#338=COLOUR_RGB('',0.498039215803146,0.498039215803146,0.498039215803146);
#339=AXIS2_PLACEMENT_3D('',#459,#460,#461);
#340=DRAUGHTING_PRE_DEFINED_CURVE_FONT('continuous');
#341=COLOUR_RGB('',0.800000011920929,0.800000011920929,0.800000011920929);
#342=CARTESIAN_POINT('',(2.0,3.46410161513776,-41.0));
#343=VECTOR('',#462,1.0);
#344=DRAUGHTING_PRE_DEFINED_CURVE_FONT('continuous');
#345=COLOUR_RGB('',0.800000011920929,0.800000011920929,0.800000011920929);
#346=AXIS2_PLACEMENT_3D('',#463,#464,#465);
#347=PRE_DEFINED_MARKER('');
#348=COLOUR_RGB('',0.800000011920929,0.800000011920929,0.800000011920929);
#349=SURFACE_SIDE_STYLE('',(#466));
#350=EDGE_LOOP('',(#467,#468,#469));
#351=AXIS2_PLACEMENT_3D('',#470,#471,#472);
#352=SURFACE_SIDE_STYLE('',(#473));
#353=EDGE_LOOP('',(#474,#475,#476,#477));
#354=AXIS2_PLACEMENT_3D('',#478,#479,#480);
#355=DRAUGHTING_PRE_DEFINED_CURVE_FONT('continuous');
#356=COLOUR_RGB('',0.498039215803146,0.498039215803146,0.498039215803146);
#357=CARTESIAN_POINT('',(4.89842541528951E-016,-4.0,-18.2));
#358=VECTOR('',#481,1.0);
#359=PRE_DEFINED_MARKER('');
#360=COLOUR_RGB('',0.498039215803146,0.498039215803146,0.498039215803146);
#361=SURFACE_SIDE_STYLE('',(#482));
#362=PRE_DEFINED_MARKER('');
#363=COLOUR_RGB('',0.800000011920929,0.800000011920929,0.800000011920929);
#364=SURFACE_SIDE_STYLE('',(#483));
#365=EDGE_LOOP('',(#484,#485));
#366=AXIS2_PLACEMENT_3D('',#486,#487,#488);
#367=DRAUGHTING_PRE_DEFINED_CURVE_FONT('continuous');
#368=COLOUR_RGB('',0.498039215803146,0.498039215803146,0.498039215803146);
#369=AXIS2_PLACEMENT_3D('',#489,#490,#491);
#370=PRE_DEFINED_MARKER('');
#371=COLOUR_RGB('',0.498039215803146,0.498039215803146,0.498039215803146);
#372=SURFACE_SIDE_STYLE('',(#492));
#373=EDGE_LOOP('',(#493,#494,#495));
#374=AXIS2_PLACEMENT_3D('',#496,#497,#498);
#375=DRAUGHTING_PRE_DEFINED_CURVE_FONT('continuous');
#376=COLOUR_RGB('',0.800000011920929,0.800000011920929,0.800000011920929);
#377=CARTESIAN_POINT('',(-2.0,-3.46410161513776,-41.0));
#378=VECTOR('',#499,1.0);
#379=SURFACE_SIDE_STYLE('',(#500));
#380=EDGE_LOOP('',(#501,#502));
#381=AXIS2_PLACEMENT_3D('',#503,#504,#505);
#382=DRAUGHTING_PRE_DEFINED_CURVE_FONT('continuous');
#383=COLOUR_RGB('',0.498039215803146,0.498039215803146,0.498039215803146);
#384=CARTESIAN_POINT('',(-4.89842541528951E-016,4.0,-18.2));
#385=VECTOR('',#506,1.0);
#386=PRE_DEFINED_MARKER('');
#387=COLOUR_RGB('',0.498039215803146,0.498039215803146,0.498039215803146);
#388=PRE_DEFINED_MARKER('');
#389=COLOUR_RGB('',0.800000011920929,0.800000011920929,0.800000011920929);
#390=SURFACE_SIDE_STYLE('',(#507));
#391=EDGE_LOOP('',(#508,#509,#510,#511,#512));
#392=AXIS2_PLACEMENT_3D('',#513,#514,#515);
#393=DRAUGHTING_PRE_DEFINED_CURVE_FONT('continuous');
#394=COLOUR_RGB('',0.800000011920929,0.800000011920929,0.800000011920929);
#395=AXIS2_PLACEMENT_3D('',#516,#517,#518);
#396=DRAUGHTING_PRE_DEFINED_CURVE_FONT('continuous');
#397=COLOUR_RGB('',0.800000011920929,0.800000011920929,0.800000011920929);
#398=AXIS2_PLACEMENT_3D('',#519,#520,#521);
#399=PRE_DEFINED_MARKER('');
#400=COLOUR_RGB('',0.800000011920929,0.800000011920929,0.800000011920929);
#401=SURFACE_SIDE_STYLE('',(#522));
#402=EDGE_LOOP('',(#523,#524,#525,#526));
#403=AXIS2_PLACEMENT_3D('',#527,#528,#529);
#404=DRAUGHTING_PRE_DEFINED_CURVE_FONT('continuous');
#405=COLOUR_RGB('',0.498039215803146,0.498039215803146,0.498039215803146);
#406=AXIS2_PLACEMENT_3D('',#530,#531,#532);
#407=SURFACE_SIDE_STYLE('',(#533));
#408=EDGE_LOOP('',(#534,#535,#536,#537,#538));
#409=AXIS2_PLACEMENT_3D('',#539,#540,#541);
#410=PRE_DEFINED_MARKER('');
#411=COLOUR_RGB('',0.800000011920929,0.800000011920929,0.800000011920929);
#412=DRAUGHTING_PRE_DEFINED_CURVE_FONT('continuous');
#413=COLOUR_RGB('',0.800000011920929,0.800000011920929,0.800000011920929);
#414=AXIS2_PLACEMENT_3D('',#542,#543,#544);
#416=SURFACE_STYLE_FILL_AREA(#545);
#417=ORIENTED_EDGE('',*,*,#113,.F.);
#418=ORIENTED_EDGE('',*,*,#163,.F.);
#419=CARTESIAN_POINT('',(1.0,1.73205080756888,-36.0));
#420=DIRECTION('',(0.0,0.0,1.0));
#421=DIRECTION('',(-0.5,-0.866025403784439,0.0));
#422=DIRECTION('',(-8.65927457071937E-017,0.707106781186549,-0.707106781186546));
#423=CARTESIAN_POINT('',(0.0,0.0,0.0));
#424=DIRECTION('',(0.0,0.0,-1.0));
#425=DIRECTION('',(0.0,1.0,0.0));
#426=DIRECTION('',(-8.65927457071937E-017,0.707106781186549,0.707106781186546));
#427=CARTESIAN_POINT('',(0.0,0.0,-46.0));
#428=DIRECTION('',(0.0,0.0,-1.0));
#429=DIRECTION('',(0.5,0.866025403784439,0.0));
#430=SURFACE_STYLE_FILL_AREA(#546);
#431=ORIENTED_EDGE('',*,*,#81,.F.);
#432=ORIENTED_EDGE('',*,*,#131,.T.);
#433=ORIENTED_EDGE('',*,*,#87,.F.);
#434=ORIENTED_EDGE('',*,*,#99,.F.);
#435=CARTESIAN_POINT('',(0.0,0.0,-0.199999999999996));
#436=DIRECTION('',(0.0,-0.0,-1.0));
#437=DIRECTION('',(0.0,1.0,0.0));
#438=CARTESIAN_POINT('',(0.0,0.0,-46.0));
#439=DIRECTION('',(0.0,0.0,-1.0));
#440=DIRECTION('',(0.5,0.866025403784439,0.0));
#441=SURFACE_STYLE_FILL_AREA(#547);
#442=CARTESIAN_POINT('',(0.0,0.0,-0.399999999999999));
#443=DIRECTION('',(0.0,0.0,-1.0));
#444=DIRECTION('',(0.0,1.0,0.0));
#445=CARTESIAN_POINT('',(0.0,0.0,-46.0));
#446=DIRECTION('',(1.0,0.0,1.22460635382238E-016));
#447=DIRECTION('',(-1.22460635382238E-016,0.0,1.0));
#448=SURFACE_STYLE_FILL_AREA(#548);
#449=ORIENTED_EDGE('',*,*,#141,.T.);
#450=ORIENTED_EDGE('',*,*,#107,.F.);
#451=ORIENTED_EDGE('',*,*,#121,.T.);
#452=ORIENTED_EDGE('',*,*,#157,.T.);
#453=CARTESIAN_POINT('',(0.0,0.0,-18.2));
#454=DIRECTION('',(-0.0,-0.0,1.0));
#455=DIRECTION('',(0.0,1.0,0.0));
#456=CARTESIAN_POINT('',(0.0,0.0,-36.0));
#457=DIRECTION('',(0.0,0.0,-1.0));
#458=DIRECTION('',(0.0,1.0,0.0));
#459=CARTESIAN_POINT('',(0.0,0.0,-36.0));
#460=DIRECTION('',(0.0,0.0,-1.0));
#461=DIRECTION('',(0.0,1.0,0.0));
#462=DIRECTION('',(0.0,0.0,-1.0));
#463=CARTESIAN_POINT('',(0.0,0.0,-36.0));
#464=DIRECTION('',(0.0,0.0,-1.0));
#465=DIRECTION('',(0.5,0.866025403784439,0.0));
#466=SURFACE_STYLE_FILL_AREA(#549);
#467=ORIENTED_EDGE('',*,*,#101,.T.);
#468=ORIENTED_EDGE('',*,*,#89,.T.);
#469=ORIENTED_EDGE('',*,*,#151,.T.);
#470=CARTESIAN_POINT('',(0.0,0.0,-46.0));
#471=DIRECTION('',(0.0,1.0,0.0));
#472=DIRECTION('',(0.0,0.0,-1.0));
#473=SURFACE_STYLE_FILL_AREA(#550);
#474=ORIENTED_EDGE('',*,*,#141,.F.);
#475=ORIENTED_EDGE('',*,*,#99,.T.);
#476=ORIENTED_EDGE('',*,*,#121,.F.);
#477=ORIENTED_EDGE('',*,*,#109,.F.);
#478=CARTESIAN_POINT('',(0.0,0.0,-18.2));
#479=DIRECTION('',(-0.0,-0.0,1.0));
#480=DIRECTION('',(0.0,1.0,0.0));
#481=DIRECTION('',(-0.0,-0.0,1.0));
#482=SURFACE_STYLE_FILL_AREA(#551);
#483=SURFACE_STYLE_FILL_AREA(#552);
#484=ORIENTED_EDGE('',*,*,#131,.F.);
#485=ORIENTED_EDGE('',*,*,#83,.F.);
#486=CARTESIAN_POINT('',(0.0,1.8,0.0));
#487=DIRECTION('',(-0.0,0.0,1.0));
#488=DIRECTION('',(0.0,-1.0,0.0));
#489=CARTESIAN_POINT('',(0.0,0.0,0.0));
#490=DIRECTION('',(0.0,0.0,-1.0));
#491=DIRECTION('',(0.0,1.0,0.0));
#492=SURFACE_STYLE_FILL_AREA(#553);
#493=ORIENTED_EDGE('',*,*,#101,.F.);
#494=ORIENTED_EDGE('',*,*,#149,.T.);
#495=ORIENTED_EDGE('',*,*,#95,.T.);
#496=CARTESIAN_POINT('',(0.0,0.0,-46.0));
#497=DIRECTION('',(0.0,1.0,0.0));
#498=DIRECTION('',(0.0,0.0,-1.0));
#499=DIRECTION('',(-0.0,-0.0,1.0));
#500=SURFACE_STYLE_FILL_AREA(#554);
#501=ORIENTED_EDGE('',*,*,#109,.T.);
#502=ORIENTED_EDGE('',*,*,#107,.T.);
#503=CARTESIAN_POINT('',(0.0,2.0,-36.0));
#504=DIRECTION('',(0.0,0.0,-1.0));
#505=DIRECTION('',(0.0,1.0,0.0));
#506=DIRECTION('',(0.0,0.0,-1.0));
#507=SURFACE_STYLE_FILL_AREA(#555);
#508=ORIENTED_EDGE('',*,*,#111,.T.);
#509=ORIENTED_EDGE('',*,*,#89,.F.);
#510=ORIENTED_EDGE('',*,*,#95,.F.);
#511=ORIENTED_EDGE('',*,*,#137,.T.);
#512=ORIENTED_EDGE('',*,*,#163,.T.);
#513=CARTESIAN_POINT('',(0.0,0.0,-41.0));
#514=DIRECTION('',(-0.0,-0.0,1.0));
#515=DIRECTION('',(0.5,0.866025403784439,0.0));
#516=CARTESIAN_POINT('',(0.0,0.0,-46.0));
#517=DIRECTION('',(0.0,0.0,-1.0));
#518=DIRECTION('',(0.5,0.866025403784439,0.0));
#519=CARTESIAN_POINT('',(0.0,0.0,-46.0));
#520=DIRECTION('',(0.0,0.0,-1.0));
#521=DIRECTION('',(0.5,0.866025403784439,0.0));
#522=SURFACE_STYLE_FILL_AREA(#556);
#523=ORIENTED_EDGE('',*,*,#81,.T.);
#524=ORIENTED_EDGE('',*,*,#157,.F.);
#525=ORIENTED_EDGE('',*,*,#87,.T.);
#526=ORIENTED_EDGE('',*,*,#83,.T.);
#527=CARTESIAN_POINT('',(0.0,0.0,-0.199999999999996));
#528=DIRECTION('',(0.0,-0.0,-1.0));
#529=DIRECTION('',(0.0,1.0,0.0));
#530=CARTESIAN_POINT('',(0.0,0.0,-0.399999999999999));
#531=DIRECTION('',(0.0,0.0,-1.0));
#532=DIRECTION('',(0.0,1.0,0.0));
#533=SURFACE_STYLE_FILL_AREA(#557);
#534=ORIENTED_EDGE('',*,*,#111,.F.);
#535=ORIENTED_EDGE('',*,*,#113,.T.);
#536=ORIENTED_EDGE('',*,*,#137,.F.);
#537=ORIENTED_EDGE('',*,*,#149,.F.);
#538=ORIENTED_EDGE('',*,*,#151,.F.);
#539=CARTESIAN_POINT('',(0.0,0.0,-41.0));
#540=DIRECTION('',(-0.0,-0.0,1.0));
#541=DIRECTION('',(0.5,0.866025403784439,0.0));
#542=CARTESIAN_POINT('',(0.0,0.0,-36.0));
#543=DIRECTION('',(0.0,0.0,-1.0));
#544=DIRECTION('',(0.5,0.866025403784439,0.0));
#545=FILL_AREA_STYLE('',(#558));
#546=FILL_AREA_STYLE('',(#559));
#547=FILL_AREA_STYLE('',(#560));
#548=FILL_AREA_STYLE('',(#561));
#549=FILL_AREA_STYLE('',(#562));
#550=FILL_AREA_STYLE('',(#563));
#551=FILL_AREA_STYLE('',(#564));
#552=FILL_AREA_STYLE('',(#565));
#553=FILL_AREA_STYLE('',(#566));
#554=FILL_AREA_STYLE('',(#567));
#555=FILL_AREA_STYLE('',(#568));
#556=FILL_AREA_STYLE('',(#569));
#557=FILL_AREA_STYLE('',(#570));
#558=FILL_AREA_STYLE_COLOUR('',#571);
#559=FILL_AREA_STYLE_COLOUR('',#572);
#560=FILL_AREA_STYLE_COLOUR('',#573);
#561=FILL_AREA_STYLE_COLOUR('',#574);
#562=FILL_AREA_STYLE_COLOUR('',#575);
#563=FILL_AREA_STYLE_COLOUR('',#576);
#564=FILL_AREA_STYLE_COLOUR('',#577);
#565=FILL_AREA_STYLE_COLOUR('',#578);
#566=FILL_AREA_STYLE_COLOUR('',#579);
#567=FILL_AREA_STYLE_COLOUR('',#580);
#568=FILL_AREA_STYLE_COLOUR('',#581);
#569=FILL_AREA_STYLE_COLOUR('',#582);
#570=FILL_AREA_STYLE_COLOUR('',#583);
#571=COLOUR_RGB('',0.800000011920929,0.800000011920929,0.800000011920929);
#572=COLOUR_RGB('',0.498039215803146,0.498039215803146,0.498039215803146);
#573=COLOUR_RGB('',0.498039215803146,0.498039215803146,0.498039215803146);
#574=COLOUR_RGB('',0.498039215803146,0.498039215803146,0.498039215803146);
#575=COLOUR_RGB('',0.800000011920929,0.800000011920929,0.800000011920929);
#576=COLOUR_RGB('',0.498039215803146,0.498039215803146,0.498039215803146);
#577=COLOUR_RGB('',0.800000011920929,0.800000011920929,0.800000011920929);
#578=COLOUR_RGB('',0.498039215803146,0.498039215803146,0.498039215803146);
#579=COLOUR_RGB('',0.800000011920929,0.800000011920929,0.800000011920929);
#580=COLOUR_RGB('',0.498039215803146,0.498039215803146,0.498039215803146);
#581=COLOUR_RGB('',0.800000011920929,0.800000011920929,0.800000011920929);
#582=COLOUR_RGB('',0.498039215803146,0.498039215803146,0.498039215803146);
#583=COLOUR_RGB('',0.800000011920929,0.800000011920929,0.800000011920929);
#584=AXIS2_PLACEMENT_3D('PCS',#585,#586,#587);
#585=CARTESIAN_POINT('',(0.0,0.0,0.0));
#586=DIRECTION('',(0.0,0.0,1.0));
#587=DIRECTION('',(1.0,0.0,0.0));
#588=AXIS2_PLACEMENT_3D('MCS',#589,#590,#591);
#589=CARTESIAN_POINT('',(0.0,0.0,-36.0));
#590=DIRECTION('',(0.0,0.0,1.0));
#591=DIRECTION('',(1.0,0.0,0.0));
#592=AXIS2_PLACEMENT_3D('CIP',#593,#594,#595);
#593=CARTESIAN_POINT('',(0.0,0.0,-50.0));
#594=DIRECTION('',(0.0,0.0,1.0));
#595=DIRECTION('',(1.0,0.0,0.0));
#596=CONSTRUCTIVE_GEOMETRY_REPRESENTATION_RELATIONSHIP('coordinate systems',$,#62,#597);
#597=CONSTRUCTIVE_GEOMETRY_REPRESENTATION('coordinate systems',(#584,#588,#592),#10);
ENDSEC;
END-ISO-10303-21;
