ISO-10303-21;
HEADER;
FILE_DESCRIPTION(('no description'),'unknown implementation level');
FILE_NAME('8525230.stp','  ',('CIM GmbH Aachen'),('CADClick - KiM GmbH - www.kimweb.de'),'unknown preprocess','ACIS','unknown authorization');
FILE_SCHEMA(('automotive_design'));
ENDSEC;
DATA;
#1=MECHANICAL_DESIGN_GEOMETRIC_PRESENTATION_REPRESENTATION(' ',(#10,#11,#12,#13,#14,#15,#16,#17,#18,#19,#20,#21,#22,#23,#24,#25,#26,#27,#28,#29,#30,#31,#32,#33,#34,#35,#36),#6);
#2=PRODUCT_DEFINITION_CONTEXT('',#37,'design');
#3=APPLICATION_PROTOCOL_DEFINITION('INTERNATIONAL STANDARD','automotive_design',1994,#37);
#4=PRODUCT_CATEGORY_RELATIONSHIP('NONE','NONE',#38,#39);
#5=SHAPE_DEFINITION_REPRESENTATION(#40,#41);
#6= (GEOMETRIC_REPRESENTATION_CONTEXT(3)GLOBAL_UNCERTAINTY_ASSIGNED_CONTEXT((#44))GLOBAL_UNIT_ASSIGNED_CONTEXT((#46,#47,#48))REPRESENTATION_CONTEXT('NONE','WORKSPACE'));
#10=STYLED_ITEM('',(#50),#51);
#11=STYLED_ITEM('',(#52),#53);
#12=STYLED_ITEM('',(#54),#55);
#13=STYLED_ITEM('',(#56),#57);
#14=STYLED_ITEM('',(#58),#59);
#15=STYLED_ITEM('',(#60),#61);
#16=STYLED_ITEM('',(#62),#63);
#17=STYLED_ITEM('',(#64),#65);
#18=STYLED_ITEM('',(#66),#67);
#19=STYLED_ITEM('',(#68),#69);
#20=STYLED_ITEM('',(#70),#71);
#21=STYLED_ITEM('',(#72),#73);
#22=STYLED_ITEM('',(#74),#75);
#23=STYLED_ITEM('',(#76),#77);
#24=STYLED_ITEM('',(#78),#79);
#25=STYLED_ITEM('',(#80),#81);
#26=STYLED_ITEM('',(#82),#83);
#27=STYLED_ITEM('',(#84),#85);
#28=STYLED_ITEM('',(#86),#87);
#29=STYLED_ITEM('',(#88),#89);
#30=STYLED_ITEM('',(#90),#91);
#31=STYLED_ITEM('',(#92),#93);
#32=STYLED_ITEM('',(#94),#95);
#33=STYLED_ITEM('',(#96),#97);
#34=STYLED_ITEM('',(#98),#99);
#35=STYLED_ITEM('',(#100),#101);
#36=STYLED_ITEM('',(#102),#103);
#37=APPLICATION_CONTEXT(' ');
#38=PRODUCT_CATEGORY('part','NONE');
#39=PRODUCT_RELATED_PRODUCT_CATEGORY('detail',' ',(#104));
#40=PRODUCT_DEFINITION_SHAPE('NONE','NONE',#105);
#41=ADVANCED_BREP_SHAPE_REPRESENTATION('1',(#89,#106),#6);
#44=UNCERTAINTY_MEASURE_WITH_UNIT(LENGTH_MEASURE(1.0E-006),#46,'','');
#46= (CONVERSION_BASED_UNIT('MILLIMETRE',#109)LENGTH_UNIT()NAMED_UNIT(#112));
#47= (NAMED_UNIT(#114)PLANE_ANGLE_UNIT()SI_UNIT($,.RADIAN.));
#48= (NAMED_UNIT(#114)SOLID_ANGLE_UNIT()SI_UNIT($,.STERADIAN.));
#50=PRESENTATION_STYLE_ASSIGNMENT((#120));
#51=VERTEX_POINT('',#121);
#52=PRESENTATION_STYLE_ASSIGNMENT((#122));
#53=EDGE_CURVE('',#101,#51,#123,.T.);
#54=PRESENTATION_STYLE_ASSIGNMENT((#124));
#55=ADVANCED_FACE('',(#125),#126,.T.);
#56=PRESENTATION_STYLE_ASSIGNMENT((#127));
#57=ADVANCED_FACE('',(#128),#129,.T.);
#58=PRESENTATION_STYLE_ASSIGNMENT((#130));
#59=EDGE_CURVE('',#71,#101,#131,.T.);
#60=PRESENTATION_STYLE_ASSIGNMENT((#132));
#61=ADVANCED_FACE('',(#133),#134,.T.);
#62=PRESENTATION_STYLE_ASSIGNMENT((#135));
#63=EDGE_CURVE('',#69,#79,#136,.T.);
#64=PRESENTATION_STYLE_ASSIGNMENT((#137));
#65=EDGE_CURVE('',#51,#95,#138,.T.);
#66=PRESENTATION_STYLE_ASSIGNMENT((#139));
#67=EDGE_CURVE('',#71,#77,#140,.T.);
#68=PRESENTATION_STYLE_ASSIGNMENT((#141));
#69=VERTEX_POINT('',#142);
#70=PRESENTATION_STYLE_ASSIGNMENT((#143));
#71=VERTEX_POINT('',#144);
#72=PRESENTATION_STYLE_ASSIGNMENT((#145));
#73=EDGE_CURVE('',#103,#77,#146,.T.);
#74=PRESENTATION_STYLE_ASSIGNMENT((#147));
#75=EDGE_CURVE('',#95,#71,#148,.T.);
#76=PRESENTATION_STYLE_ASSIGNMENT((#149));
#77=VERTEX_POINT('',#150);
#78=PRESENTATION_STYLE_ASSIGNMENT((#151));
#79=VERTEX_POINT('',#152);
#80=PRESENTATION_STYLE_ASSIGNMENT((#153));
#81=EDGE_CURVE('',#103,#51,#154,.T.);
#82=PRESENTATION_STYLE_ASSIGNMENT((#155));
#83=ADVANCED_FACE('',(#156),#157,.T.);
#84=PRESENTATION_STYLE_ASSIGNMENT((#158));
#85=EDGE_CURVE('',#101,#79,#159,.T.);
#86=PRESENTATION_STYLE_ASSIGNMENT((#160));
#87=EDGE_CURVE('',#69,#95,#161,.T.);
#88=PRESENTATION_STYLE_ASSIGNMENT((#162));
#89=MANIFOLD_SOLID_BREP('1',#163);
#90=PRESENTATION_STYLE_ASSIGNMENT((#164));
#91=ADVANCED_FACE('',(#165),#166,.T.);
#92=PRESENTATION_STYLE_ASSIGNMENT((#167));
#93=EDGE_CURVE('',#79,#69,#168,.T.);
#94=PRESENTATION_STYLE_ASSIGNMENT((#169));
#95=VERTEX_POINT('',#170);
#96=PRESENTATION_STYLE_ASSIGNMENT((#171));
#97=EDGE_CURVE('',#77,#103,#172,.T.);
#98=PRESENTATION_STYLE_ASSIGNMENT((#173));
#99=ADVANCED_FACE('',(#174),#175,.T.);
#100=PRESENTATION_STYLE_ASSIGNMENT((#176));
#101=VERTEX_POINT('',#177);
#102=PRESENTATION_STYLE_ASSIGNMENT((#178));
#103=VERTEX_POINT('',#179);
#104=PRODUCT('1','1','PART-1-DESC',(#180));
#105=PRODUCT_DEFINITION('NONE','NONE',#181,#2);
#106=AXIS2_PLACEMENT_3D('',#182,#183,#184);
#109=LENGTH_MEASURE_WITH_UNIT(LENGTH_MEASURE(1.0),#185);
#112=DIMENSIONAL_EXPONENTS(1.0,0.0,0.0,0.0,0.0,0.0,0.0);
#114=DIMENSIONAL_EXPONENTS(0.0,0.0,0.0,0.0,0.0,0.0,0.0);
#120=POINT_STYLE(' ',#186,POSITIVE_LENGTH_MEASURE(1.0E-006),#187);
#121=CARTESIAN_POINT('',(0.0,3.0,-0.399999999999999));
#122=CURVE_STYLE('',#188,POSITIVE_LENGTH_MEASURE(1.0E-006),#189);
#123=CIRCLE('',#190,3.0);
#124=SURFACE_STYLE_USAGE(.BOTH.,#191);
#125=FACE_OUTER_BOUND('',#192,.T.);
#126=PLANE('',#193);
#127=SURFACE_STYLE_USAGE(.BOTH.,#194);
#128=FACE_OUTER_BOUND('',#195,.T.);
#129=CONICAL_SURFACE('',#196,2.8,0.78539816339745);
#130=CURVE_STYLE('',#197,POSITIVE_LENGTH_MEASURE(1.0E-006),#198);
#131=CIRCLE('',#199,3.0);
#132=SURFACE_STYLE_USAGE(.BOTH.,#200);
#133=FACE_OUTER_BOUND('',#201,.T.);
#134=CYLINDRICAL_SURFACE('',#202,3.0);
#135=CURVE_STYLE('',#203,POSITIVE_LENGTH_MEASURE(1.0E-006),#204);
#136=CIRCLE('',#205,3.0);
#137=CURVE_STYLE('',#206,POSITIVE_LENGTH_MEASURE(1.0E-006),#207);
#138=CIRCLE('',#208,3.0);
#139=CURVE_STYLE('',#209,POSITIVE_LENGTH_MEASURE(1.0E-006),#210);
#140=LINE('',#211,#212);
#141=POINT_STYLE(' ',#213,POSITIVE_LENGTH_MEASURE(1.0E-006),#214);
#142=CARTESIAN_POINT('',(3.0,3.67381906146713E-016,-48.2));
#143=POINT_STYLE(' ',#215,POSITIVE_LENGTH_MEASURE(1.0E-006),#216);
#144=CARTESIAN_POINT('',(3.67381906146713E-016,-3.0,-0.399999999999999));
#145=CURVE_STYLE('',#217,POSITIVE_LENGTH_MEASURE(1.0E-006),#218);
#146=CIRCLE('',#219,2.6);
#147=CURVE_STYLE('',#220,POSITIVE_LENGTH_MEASURE(1.0E-006),#221);
#148=CIRCLE('',#222,3.0);
#149=POINT_STYLE(' ',#223,POSITIVE_LENGTH_MEASURE(1.0E-006),#224);
#150=CARTESIAN_POINT('',(3.18397651993818E-016,-2.6,0.0));
#151=POINT_STYLE(' ',#225,POSITIVE_LENGTH_MEASURE(1.0E-006),#226);
#152=CARTESIAN_POINT('',(-3.0,0.0,-48.2));
#153=CURVE_STYLE('',#227,POSITIVE_LENGTH_MEASURE(1.0E-006),#228);
#154=LINE('',#229,#230);
#155=SURFACE_STYLE_USAGE(.BOTH.,#231);
#156=FACE_OUTER_BOUND('',#232,.T.);
#157=CYLINDRICAL_SURFACE('',#233,3.0);
#158=CURVE_STYLE('',#234,POSITIVE_LENGTH_MEASURE(1.0E-006),#235);
#159=LINE('',#236,#237);
#160=CURVE_STYLE('',#238,POSITIVE_LENGTH_MEASURE(1.0E-006),#239);
#161=LINE('',#240,#241);
#162=SURFACE_STYLE_USAGE(.BOTH.,#242);
#163=CLOSED_SHELL('',(#83,#91,#55,#57,#61,#99));
#164=SURFACE_STYLE_USAGE(.BOTH.,#243);
#165=FACE_OUTER_BOUND('',#244,.T.);
#166=CONICAL_SURFACE('',#245,2.8,0.78539816339745);
#167=CURVE_STYLE('',#246,POSITIVE_LENGTH_MEASURE(1.0E-006),#247);
#168=CIRCLE('',#248,3.0);
#169=POINT_STYLE(' ',#249,POSITIVE_LENGTH_MEASURE(1.0E-006),#250);
#170=CARTESIAN_POINT('',(3.0,3.67381906146713E-016,-0.399999999999999));
#171=CURVE_STYLE('',#251,POSITIVE_LENGTH_MEASURE(1.0E-006),#252);
#172=CIRCLE('',#253,2.6);
#173=SURFACE_STYLE_USAGE(.BOTH.,#254);
#174=FACE_OUTER_BOUND('',#255,.T.);
#175=PLANE('',#256);
#176=POINT_STYLE(' ',#257,POSITIVE_LENGTH_MEASURE(1.0E-006),#258);
#177=CARTESIAN_POINT('',(-3.0,-3.67381906146713E-016,-0.399999999999999));
#178=POINT_STYLE(' ',#259,POSITIVE_LENGTH_MEASURE(1.0E-006),#260);
#179=CARTESIAN_POINT('',(0.0,2.6,0.0));
#180=PRODUCT_CONTEXT('',#37,'mechanical');
#181=PRODUCT_DEFINITION_FORMATION_WITH_SPECIFIED_SOURCE(' ','NONE',#104,.NOT_KNOWN.);
#182=CARTESIAN_POINT('',(0.0,0.0,0.0));
#183=DIRECTION('',(0.0,0.0,1.0));
#184=DIRECTION('',(1.0,0.0,0.0));
#185= (NAMED_UNIT(#112)LENGTH_UNIT()SI_UNIT(.MILLI.,.METRE.));
#186=PRE_DEFINED_MARKER('');
#187=COLOUR_RGB('',0.498039215803146,0.498039215803146,0.498039215803146);
#188=DRAUGHTING_PRE_DEFINED_CURVE_FONT('continuous');
#189=COLOUR_RGB('',0.498039215803146,0.498039215803146,0.498039215803146);
#190=AXIS2_PLACEMENT_3D('',#262,#263,#264);
#191=SURFACE_SIDE_STYLE('',(#265));
#192=EDGE_LOOP('',(#266,#267));
#193=AXIS2_PLACEMENT_3D('',#268,#269,#270);
#194=SURFACE_SIDE_STYLE('',(#271));
#195=EDGE_LOOP('',(#272,#273,#274,#275,#276));
#196=AXIS2_PLACEMENT_3D('',#277,#278,#279);
#197=DRAUGHTING_PRE_DEFINED_CURVE_FONT('continuous');
#198=COLOUR_RGB('',0.498039215803146,0.498039215803146,0.498039215803146);
#199=AXIS2_PLACEMENT_3D('',#280,#281,#282);
#200=SURFACE_SIDE_STYLE('',(#283));
#201=EDGE_LOOP('',(#284,#285,#286,#287,#288));
#202=AXIS2_PLACEMENT_3D('',#289,#290,#291);
#203=DRAUGHTING_PRE_DEFINED_CURVE_FONT('continuous');
#204=COLOUR_RGB('',0.498039215803146,0.498039215803146,0.498039215803146);
#205=AXIS2_PLACEMENT_3D('',#292,#293,#294);
#206=DRAUGHTING_PRE_DEFINED_CURVE_FONT('continuous');
#207=COLOUR_RGB('',0.498039215803146,0.498039215803146,0.498039215803146);
#208=AXIS2_PLACEMENT_3D('',#295,#296,#297);
#209=DRAUGHTING_PRE_DEFINED_CURVE_FONT('continuous');
#210=COLOUR_RGB('',0.498039215803146,0.498039215803146,0.498039215803146);
#211=CARTESIAN_POINT('',(3.42889779070266E-016,-2.8,-0.199999999999996));
#212=VECTOR('',#298,1.0);
#213=PRE_DEFINED_MARKER('');
#214=COLOUR_RGB('',0.498039215803146,0.498039215803146,0.498039215803146);
#215=PRE_DEFINED_MARKER('');
#216=COLOUR_RGB('',0.498039215803146,0.498039215803146,0.498039215803146);
#217=DRAUGHTING_PRE_DEFINED_CURVE_FONT('continuous');
#218=COLOUR_RGB('',0.498039215803146,0.498039215803146,0.498039215803146);
#219=AXIS2_PLACEMENT_3D('',#299,#300,#301);
#220=DRAUGHTING_PRE_DEFINED_CURVE_FONT('continuous');
#221=COLOUR_RGB('',0.498039215803146,0.498039215803146,0.498039215803146);
#222=AXIS2_PLACEMENT_3D('',#302,#303,#304);
#223=PRE_DEFINED_MARKER('');
#224=COLOUR_RGB('',0.498039215803146,0.498039215803146,0.498039215803146);
#225=PRE_DEFINED_MARKER('');
#226=COLOUR_RGB('',0.498039215803146,0.498039215803146,0.498039215803146);
#227=DRAUGHTING_PRE_DEFINED_CURVE_FONT('continuous');
#228=COLOUR_RGB('',0.498039215803146,0.498039215803146,0.498039215803146);
#229=CARTESIAN_POINT('',(-3.42889779070266E-016,2.8,-0.199999999999996));
#230=VECTOR('',#305,1.0);
#231=SURFACE_SIDE_STYLE('',(#306));
#232=EDGE_LOOP('',(#307,#308,#309,#310,#311));
#233=AXIS2_PLACEMENT_3D('',#312,#313,#314);
#234=DRAUGHTING_PRE_DEFINED_CURVE_FONT('continuous');
#235=COLOUR_RGB('',0.498039215803146,0.498039215803146,0.498039215803146);
#236=CARTESIAN_POINT('',(-3.0,-3.67381906146713E-016,-42.1));
#237=VECTOR('',#315,1.0);
#238=DRAUGHTING_PRE_DEFINED_CURVE_FONT('continuous');
#239=COLOUR_RGB('',0.498039215803146,0.498039215803146,0.498039215803146);
#240=CARTESIAN_POINT('',(3.0,3.67381906146713E-016,-42.1));
#241=VECTOR('',#316,1.0);
#242=SURFACE_SIDE_STYLE('',(#317));
#243=SURFACE_SIDE_STYLE('',(#318));
#244=EDGE_LOOP('',(#319,#320,#321,#322,#323));
#245=AXIS2_PLACEMENT_3D('',#324,#325,#326);
#246=DRAUGHTING_PRE_DEFINED_CURVE_FONT('continuous');
#247=COLOUR_RGB('',0.498039215803146,0.498039215803146,0.498039215803146);
#248=AXIS2_PLACEMENT_3D('',#327,#328,#329);
#249=PRE_DEFINED_MARKER('');
#250=COLOUR_RGB('',0.498039215803146,0.498039215803146,0.498039215803146);
#251=DRAUGHTING_PRE_DEFINED_CURVE_FONT('continuous');
#252=COLOUR_RGB('',0.498039215803146,0.498039215803146,0.498039215803146);
#253=AXIS2_PLACEMENT_3D('',#330,#331,#332);
#254=SURFACE_SIDE_STYLE('',(#333));
#255=EDGE_LOOP('',(#334,#335));
#256=AXIS2_PLACEMENT_3D('',#336,#337,#338);
#257=PRE_DEFINED_MARKER('');
#258=COLOUR_RGB('',0.498039215803146,0.498039215803146,0.498039215803146);
#259=PRE_DEFINED_MARKER('');
#260=COLOUR_RGB('',0.498039215803146,0.498039215803146,0.498039215803146);
#262=CARTESIAN_POINT('',(0.0,0.0,-0.399999999999999));
#263=DIRECTION('',(0.0,0.0,-1.0));
#264=DIRECTION('',(0.0,1.0,0.0));
#265=SURFACE_STYLE_FILL_AREA(#339);
#266=ORIENTED_EDGE('',*,*,#73,.F.);
#267=ORIENTED_EDGE('',*,*,#97,.F.);
#268=CARTESIAN_POINT('',(0.0,1.3,0.0));
#269=DIRECTION('',(-0.0,0.0,1.0));
#270=DIRECTION('',(0.0,-1.0,0.0));
#271=SURFACE_STYLE_FILL_AREA(#340);
#272=ORIENTED_EDGE('',*,*,#81,.T.);
#273=ORIENTED_EDGE('',*,*,#53,.F.);
#274=ORIENTED_EDGE('',*,*,#59,.F.);
#275=ORIENTED_EDGE('',*,*,#67,.T.);
#276=ORIENTED_EDGE('',*,*,#97,.T.);
#277=CARTESIAN_POINT('',(0.0,0.0,-0.199999999999996));
#278=DIRECTION('',(0.0,-0.0,-1.0));
#279=DIRECTION('',(0.0,1.0,0.0));
#280=CARTESIAN_POINT('',(0.0,0.0,-0.399999999999999));
#281=DIRECTION('',(0.0,0.0,-1.0));
#282=DIRECTION('',(0.0,1.0,0.0));
#283=SURFACE_STYLE_FILL_AREA(#341);
#284=ORIENTED_EDGE('',*,*,#85,.T.);
#285=ORIENTED_EDGE('',*,*,#63,.F.);
#286=ORIENTED_EDGE('',*,*,#87,.T.);
#287=ORIENTED_EDGE('',*,*,#75,.T.);
#288=ORIENTED_EDGE('',*,*,#59,.T.);
#289=CARTESIAN_POINT('',(0.0,0.0,-42.1));
#290=DIRECTION('',(-0.0,-0.0,1.0));
#291=DIRECTION('',(-1.0,0.0,0.0));
#292=CARTESIAN_POINT('',(0.0,0.0,-48.2));
#293=DIRECTION('',(0.0,0.0,-1.0));
#294=DIRECTION('',(-1.0,0.0,0.0));
#295=CARTESIAN_POINT('',(0.0,0.0,-0.399999999999999));
#296=DIRECTION('',(0.0,0.0,-1.0));
#297=DIRECTION('',(0.0,1.0,0.0));
#298=DIRECTION('',(-8.65927457071937E-017,0.707106781186549,0.707106781186546));
#299=CARTESIAN_POINT('',(0.0,0.0,0.0));
#300=DIRECTION('',(0.0,0.0,-1.0));
#301=DIRECTION('',(0.0,1.0,0.0));
#302=CARTESIAN_POINT('',(0.0,0.0,-0.399999999999999));
#303=DIRECTION('',(0.0,0.0,-1.0));
#304=DIRECTION('',(0.0,1.0,0.0));
#305=DIRECTION('',(-8.65927457071937E-017,0.707106781186549,-0.707106781186546));
#306=SURFACE_STYLE_FILL_AREA(#342);
#307=ORIENTED_EDGE('',*,*,#85,.F.);
#308=ORIENTED_EDGE('',*,*,#53,.T.);
#309=ORIENTED_EDGE('',*,*,#65,.T.);
#310=ORIENTED_EDGE('',*,*,#87,.F.);
#311=ORIENTED_EDGE('',*,*,#93,.F.);
#312=CARTESIAN_POINT('',(0.0,0.0,-42.1));
#313=DIRECTION('',(-0.0,-0.0,1.0));
#314=DIRECTION('',(-1.0,0.0,0.0));
#315=DIRECTION('',(0.0,0.0,-1.0));
#316=DIRECTION('',(-0.0,-0.0,1.0));
#317=SURFACE_STYLE_FILL_AREA(#343);
#318=SURFACE_STYLE_FILL_AREA(#344);
#319=ORIENTED_EDGE('',*,*,#81,.F.);
#320=ORIENTED_EDGE('',*,*,#73,.T.);
#321=ORIENTED_EDGE('',*,*,#67,.F.);
#322=ORIENTED_EDGE('',*,*,#75,.F.);
#323=ORIENTED_EDGE('',*,*,#65,.F.);
#324=CARTESIAN_POINT('',(0.0,0.0,-0.199999999999996));
#325=DIRECTION('',(0.0,-0.0,-1.0));
#326=DIRECTION('',(0.0,1.0,0.0));
#327=CARTESIAN_POINT('',(0.0,0.0,-48.2));
#328=DIRECTION('',(0.0,0.0,-1.0));
#329=DIRECTION('',(-1.0,0.0,0.0));
#330=CARTESIAN_POINT('',(0.0,0.0,0.0));
#331=DIRECTION('',(0.0,0.0,-1.0));
#332=DIRECTION('',(0.0,1.0,0.0));
#333=SURFACE_STYLE_FILL_AREA(#345);
#334=ORIENTED_EDGE('',*,*,#93,.T.);
#335=ORIENTED_EDGE('',*,*,#63,.T.);
#336=CARTESIAN_POINT('',(-1.5,0.0,-48.2));
#337=DIRECTION('',(0.0,0.0,-1.0));
#338=DIRECTION('',(-1.0,0.0,0.0));
#339=FILL_AREA_STYLE('',(#346));
#340=FILL_AREA_STYLE('',(#347));
#341=FILL_AREA_STYLE('',(#348));
#342=FILL_AREA_STYLE('',(#349));
#343=FILL_AREA_STYLE('',(#350));
#344=FILL_AREA_STYLE('',(#351));
#345=FILL_AREA_STYLE('',(#352));
#346=FILL_AREA_STYLE_COLOUR('',#353);
#347=FILL_AREA_STYLE_COLOUR('',#354);
#348=FILL_AREA_STYLE_COLOUR('',#355);
#349=FILL_AREA_STYLE_COLOUR('',#356);
#350=FILL_AREA_STYLE_COLOUR('',#357);
#351=FILL_AREA_STYLE_COLOUR('',#358);
#352=FILL_AREA_STYLE_COLOUR('',#359);
#353=COLOUR_RGB('',0.498039215803146,0.498039215803146,0.498039215803146);
#354=COLOUR_RGB('',0.498039215803146,0.498039215803146,0.498039215803146);
#355=COLOUR_RGB('',0.498039215803146,0.498039215803146,0.498039215803146);
#356=COLOUR_RGB('',0.498039215803146,0.498039215803146,0.498039215803146);
#357=COLOUR_RGB('',0.498039215803146,0.498039215803146,0.498039215803146);
#358=COLOUR_RGB('',0.498039215803146,0.498039215803146,0.498039215803146);
#359=COLOUR_RGB('',0.498039215803146,0.498039215803146,0.498039215803146);
#360=AXIS2_PLACEMENT_3D('PCS',#361,#362,#363);
#361=CARTESIAN_POINT('',(0.0,0.0,0.0));
#362=DIRECTION('',(0.0,0.0,1.0));
#363=DIRECTION('',(1.0,0.0,0.0));
#364=AXIS2_PLACEMENT_3D('MCS',#365,#366,#367);
#365=CARTESIAN_POINT('',(0.0,0.0,-36.0));
#366=DIRECTION('',(0.0,0.0,1.0));
#367=DIRECTION('',(1.0,0.0,0.0));
#368=AXIS2_PLACEMENT_3D('CIP',#369,#370,#371);
#369=CARTESIAN_POINT('',(0.0,0.0,-50.0));
#370=DIRECTION('',(0.0,0.0,1.0));
#371=DIRECTION('',(1.0,0.0,0.0));
#372=CONSTRUCTIVE_GEOMETRY_REPRESENTATION_RELATIONSHIP('coordinate systems',$,#41,#373);
#373=CONSTRUCTIVE_GEOMETRY_REPRESENTATION('coordinate systems',(#360,#364,#368),#6);
ENDSEC;
END-ISO-10303-21;
