ISO-10303-21;
HEADER;
FILE_DESCRIPTION(('no description'),'unknown implementation level');
FILE_NAME('EP01190300.stp','  ',('CIM GmbH Aachen'),('CADClick - KiM GmbH - www.kimweb.de'),'unknown preprocess','ACIS','unknown authorization');
FILE_SCHEMA(('automotive_design'));
ENDSEC;
DATA;
#1=MECHANICAL_DESIGN_GEOMETRIC_PRESENTATION_REPRESENTATION(' ',(#14,#15,#16,#17,#18,#19,#20,#21,#22,#23,#24,#25,#26,#27,#28,#29,#30,#31,#32,#33,#34,#35,#36,#37,#38,#39,#40,#41,#42,#43,#44,#45,#46,#47,#48,#49,#50,#51,#52,#53,#54,#55,#56,#57),#10);
#2=PRODUCT_DEFINITION_CONTEXT('',#58,'design');
#3=APPLICATION_PROTOCOL_DEFINITION('INTERNATIONAL STANDARD','automotive_design',1994,#58);
#4=PRODUCT_CATEGORY_RELATIONSHIP('NONE','NONE',#59,#60);
#5=SHAPE_DEFINITION_REPRESENTATION(#61,#62);
#6=PRODUCT_DEFINITION_CONTEXT('',#63,'design');
#7=APPLICATION_PROTOCOL_DEFINITION('INTERNATIONAL STANDARD','automotive_design',1994,#63);
#8=PRODUCT_CATEGORY_RELATIONSHIP('NONE','NONE',#64,#65);
#9=SHAPE_DEFINITION_REPRESENTATION(#66,#67);
#10= (GEOMETRIC_REPRESENTATION_CONTEXT(3)GLOBAL_UNCERTAINTY_ASSIGNED_CONTEXT((#70))GLOBAL_UNIT_ASSIGNED_CONTEXT((#72,#73,#74))REPRESENTATION_CONTEXT('NONE','WORKSPACE'));
#14=STYLED_ITEM('',(#76),#77);
#15=STYLED_ITEM('',(#78),#79);
#16=STYLED_ITEM('',(#80),#81);
#17=STYLED_ITEM('',(#82),#83);
#18=STYLED_ITEM('',(#84),#85);
#19=STYLED_ITEM('',(#86),#87);
#20=STYLED_ITEM('',(#88),#89);
#21=STYLED_ITEM('',(#90),#91);
#22=STYLED_ITEM('',(#92),#93);
#23=STYLED_ITEM('',(#94),#95);
#24=STYLED_ITEM('',(#96),#97);
#25=STYLED_ITEM('',(#98),#99);
#26=STYLED_ITEM('',(#100),#101);
#27=STYLED_ITEM('',(#102),#103);
#28=STYLED_ITEM('',(#104),#105);
#29=STYLED_ITEM('',(#106),#107);
#30=STYLED_ITEM('',(#108),#109);
#31=STYLED_ITEM('',(#110),#111);
#32=STYLED_ITEM('',(#112),#113);
#33=STYLED_ITEM('',(#114),#115);
#34=STYLED_ITEM('',(#116),#117);
#35=STYLED_ITEM('',(#118),#119);
#36=STYLED_ITEM('',(#120),#121);
#37=STYLED_ITEM('',(#122),#123);
#38=STYLED_ITEM('',(#124),#125);
#39=STYLED_ITEM('',(#126),#127);
#40=STYLED_ITEM('',(#128),#129);
#41=STYLED_ITEM('',(#130),#131);
#42=STYLED_ITEM('',(#132),#133);
#43=STYLED_ITEM('',(#134),#135);
#44=STYLED_ITEM('',(#136),#137);
#45=STYLED_ITEM('',(#138),#139);
#46=STYLED_ITEM('',(#140),#141);
#47=STYLED_ITEM('',(#142),#143);
#48=STYLED_ITEM('',(#144),#145);
#49=STYLED_ITEM('',(#146),#147);
#50=STYLED_ITEM('',(#148),#149);
#51=STYLED_ITEM('',(#150),#151);
#52=STYLED_ITEM('',(#152),#153);
#53=STYLED_ITEM('',(#154),#155);
#54=STYLED_ITEM('',(#156),#157);
#55=STYLED_ITEM('',(#158),#159);
#56=STYLED_ITEM('',(#160),#161);
#57=STYLED_ITEM('',(#162),#163);
#58=APPLICATION_CONTEXT(' ');
#59=PRODUCT_CATEGORY('part','NONE');
#60=PRODUCT_RELATED_PRODUCT_CATEGORY('detail',' ',(#164));
#61=PRODUCT_DEFINITION_SHAPE('NONE','NONE',#165);
#62=ADVANCED_BREP_SHAPE_REPRESENTATION('1',(#81,#166),#10);
#63=APPLICATION_CONTEXT(' ');
#64=PRODUCT_CATEGORY('part','NONE');
#65=PRODUCT_RELATED_PRODUCT_CATEGORY('detail',' ',(#167));
#66=PRODUCT_DEFINITION_SHAPE('NONE','NONE',#168);
#67=ADVANCED_BREP_SHAPE_REPRESENTATION('2',(#121,#169),#10);
#70=UNCERTAINTY_MEASURE_WITH_UNIT(LENGTH_MEASURE(1.0E-006),#72,'','');
#72= (CONVERSION_BASED_UNIT('MILLIMETRE',#172)LENGTH_UNIT()NAMED_UNIT(#175));
#73= (NAMED_UNIT(#177)PLANE_ANGLE_UNIT()SI_UNIT($,.RADIAN.));
#74= (NAMED_UNIT(#177)SOLID_ANGLE_UNIT()SI_UNIT($,.STERADIAN.));
#76=PRESENTATION_STYLE_ASSIGNMENT((#183));
#77=EDGE_CURVE('',#91,#145,#184,.T.);
#78=PRESENTATION_STYLE_ASSIGNMENT((#185));
#79=ADVANCED_FACE('',(#186),#187,.T.);
#80=PRESENTATION_STYLE_ASSIGNMENT((#188));
#81=MANIFOLD_SOLID_BREP('1',#189);
#82=PRESENTATION_STYLE_ASSIGNMENT((#190));
#83=EDGE_CURVE('',#115,#155,#191,.T.);
#84=PRESENTATION_STYLE_ASSIGNMENT((#192));
#85=ADVANCED_FACE('',(#193),#194,.T.);
#86=PRESENTATION_STYLE_ASSIGNMENT((#195));
#87=EDGE_CURVE('',#115,#141,#196,.T.);
#88=PRESENTATION_STYLE_ASSIGNMENT((#197));
#89=ADVANCED_FACE('',(#198),#199,.T.);
#90=PRESENTATION_STYLE_ASSIGNMENT((#200));
#91=VERTEX_POINT('',#201);
#92=PRESENTATION_STYLE_ASSIGNMENT((#202));
#93=EDGE_CURVE('',#117,#145,#203,.T.);
#94=PRESENTATION_STYLE_ASSIGNMENT((#204));
#95=VERTEX_POINT('',#205);
#96=PRESENTATION_STYLE_ASSIGNMENT((#206));
#97=EDGE_CURVE('',#145,#101,#207,.T.);
#98=PRESENTATION_STYLE_ASSIGNMENT((#208));
#99=EDGE_CURVE('',#141,#115,#209,.T.);
#100=PRESENTATION_STYLE_ASSIGNMENT((#210));
#101=VERTEX_POINT('',#211);
#102=PRESENTATION_STYLE_ASSIGNMENT((#212));
#103=ADVANCED_FACE('',(#213),#214,.T.);
#104=PRESENTATION_STYLE_ASSIGNMENT((#215));
#105=VERTEX_POINT('',#216);
#106=PRESENTATION_STYLE_ASSIGNMENT((#217));
#107=EDGE_CURVE('',#125,#141,#218,.T.);
#108=PRESENTATION_STYLE_ASSIGNMENT((#219));
#109=EDGE_CURVE('',#159,#95,#220,.T.);
#110=PRESENTATION_STYLE_ASSIGNMENT((#221));
#111=EDGE_CURVE('',#95,#101,#222,.T.);
#112=PRESENTATION_STYLE_ASSIGNMENT((#223));
#113=ADVANCED_FACE('',(#224),#225,.T.);
#114=PRESENTATION_STYLE_ASSIGNMENT((#226));
#115=VERTEX_POINT('',#227);
#116=PRESENTATION_STYLE_ASSIGNMENT((#228));
#117=VERTEX_POINT('',#229);
#118=PRESENTATION_STYLE_ASSIGNMENT((#230));
#119=EDGE_CURVE('',#125,#155,#231,.T.);
#120=PRESENTATION_STYLE_ASSIGNMENT((#232));
#121=MANIFOLD_SOLID_BREP('2',#233);
#122=PRESENTATION_STYLE_ASSIGNMENT((#234));
#123=ADVANCED_FACE('',(#235),#236,.T.);
#124=PRESENTATION_STYLE_ASSIGNMENT((#237));
#125=VERTEX_POINT('',#238);
#126=PRESENTATION_STYLE_ASSIGNMENT((#239));
#127=EDGE_CURVE('',#155,#125,#240,.T.);
#128=PRESENTATION_STYLE_ASSIGNMENT((#241));
#129=ADVANCED_FACE('',(#242),#243,.T.);
#130=PRESENTATION_STYLE_ASSIGNMENT((#244));
#131=ADVANCED_FACE('',(#245),#246,.T.);
#132=PRESENTATION_STYLE_ASSIGNMENT((#247));
#133=ADVANCED_FACE('',(#248),#249,.T.);
#134=PRESENTATION_STYLE_ASSIGNMENT((#250));
#135=EDGE_CURVE('',#91,#159,#251,.T.);
#136=PRESENTATION_STYLE_ASSIGNMENT((#252));
#137=EDGE_CURVE('',#149,#115,#253,.T.);
#138=PRESENTATION_STYLE_ASSIGNMENT((#254));
#139=ADVANCED_FACE('',(#255),#256,.T.);
#140=PRESENTATION_STYLE_ASSIGNMENT((#257));
#141=VERTEX_POINT('',#258);
#142=PRESENTATION_STYLE_ASSIGNMENT((#259));
#143=EDGE_CURVE('',#149,#105,#260,.T.);
#144=PRESENTATION_STYLE_ASSIGNMENT((#261));
#145=VERTEX_POINT('',#262);
#146=PRESENTATION_STYLE_ASSIGNMENT((#263));
#147=EDGE_CURVE('',#117,#91,#264,.T.);
#148=PRESENTATION_STYLE_ASSIGNMENT((#265));
#149=VERTEX_POINT('',#266);
#150=PRESENTATION_STYLE_ASSIGNMENT((#267));
#151=ADVANCED_FACE('',(#268),#269,.T.);
#152=PRESENTATION_STYLE_ASSIGNMENT((#270));
#153=EDGE_CURVE('',#141,#105,#271,.T.);
#154=PRESENTATION_STYLE_ASSIGNMENT((#272));
#155=VERTEX_POINT('',#273);
#156=PRESENTATION_STYLE_ASSIGNMENT((#274));
#157=EDGE_CURVE('',#101,#117,#275,.T.);
#158=PRESENTATION_STYLE_ASSIGNMENT((#276));
#159=VERTEX_POINT('',#277);
#160=PRESENTATION_STYLE_ASSIGNMENT((#278));
#161=EDGE_CURVE('',#105,#149,#279,.T.);
#162=PRESENTATION_STYLE_ASSIGNMENT((#280));
#163=EDGE_CURVE('',#95,#159,#281,.T.);
#164=PRODUCT('1','1','PART-1-DESC',(#282));
#165=PRODUCT_DEFINITION('NONE','NONE',#283,#2);
#166=AXIS2_PLACEMENT_3D('',#284,#285,#286);
#167=PRODUCT('2','2','PART-2-DESC',(#287));
#168=PRODUCT_DEFINITION('NONE','NONE',#288,#6);
#169=AXIS2_PLACEMENT_3D('',#289,#290,#291);
#172=LENGTH_MEASURE_WITH_UNIT(LENGTH_MEASURE(1.0),#292);
#175=DIMENSIONAL_EXPONENTS(1.0,0.0,0.0,0.0,0.0,0.0,0.0);
#177=DIMENSIONAL_EXPONENTS(0.0,0.0,0.0,0.0,0.0,0.0,0.0);
#183=CURVE_STYLE('',#293,POSITIVE_LENGTH_MEASURE(1.0E-006),#294);
#184=CIRCLE('',#295,1.5);
#185=SURFACE_STYLE_USAGE(.BOTH.,#296);
#186=FACE_OUTER_BOUND('',#297,.T.);
#187=CONICAL_SURFACE('',#298,2.8,0.78539816339745);
#188=SURFACE_STYLE_USAGE(.BOTH.,#299);
#189=CLOSED_SHELL('',(#131,#103,#85,#113,#79,#139));
#190=CURVE_STYLE('',#300,POSITIVE_LENGTH_MEASURE(1.0E-006),#301);
#191=LINE('',#302,#303);
#192=SURFACE_STYLE_USAGE(.BOTH.,#304);
#193=FACE_OUTER_BOUND('',#305,.T.);
#194=PLANE('',#306);
#195=CURVE_STYLE('',#307,POSITIVE_LENGTH_MEASURE(1.0E-006),#308);
#196=CIRCLE('',#309,3.0);
#197=SURFACE_STYLE_USAGE(.BOTH.,#310);
#198=FACE_OUTER_BOUND('',#311,.T.);
#199=PLANE('',#312);
#200=POINT_STYLE(' ',#313,POSITIVE_LENGTH_MEASURE(1.0E-006),#314);
#201=CARTESIAN_POINT('',(-0.75,-1.29903810567666,-38.5));
#202=CURVE_STYLE('',#315,POSITIVE_LENGTH_MEASURE(1.0E-006),#316);
#203=CIRCLE('',#317,1.5);
#204=POINT_STYLE(' ',#318,POSITIVE_LENGTH_MEASURE(1.0E-006),#319);
#205=CARTESIAN_POINT('',(0.75,1.29903810567666,-36.0));
#206=CURVE_STYLE('',#320,POSITIVE_LENGTH_MEASURE(1.0E-006),#321);
#207=CIRCLE('',#322,1.5);
#208=CURVE_STYLE('',#323,POSITIVE_LENGTH_MEASURE(1.0E-006),#324);
#209=CIRCLE('',#325,3.0);
#210=POINT_STYLE(' ',#326,POSITIVE_LENGTH_MEASURE(1.0E-006),#327);
#211=CARTESIAN_POINT('',(0.75,1.29903810567666,-38.5));
#212=SURFACE_STYLE_USAGE(.BOTH.,#328);
#213=FACE_OUTER_BOUND('',#329,.T.);
#214=CONICAL_SURFACE('',#330,2.8,0.78539816339745);
#215=POINT_STYLE(' ',#331,POSITIVE_LENGTH_MEASURE(1.0E-006),#332);
#216=CARTESIAN_POINT('',(0.0,3.0,-36.0));
#217=CURVE_STYLE('',#333,POSITIVE_LENGTH_MEASURE(1.0E-006),#334);
#218=LINE('',#335,#336);
#219=CURVE_STYLE('',#337,POSITIVE_LENGTH_MEASURE(1.0E-006),#338);
#220=CIRCLE('',#339,1.5);
#221=CURVE_STYLE('',#340,POSITIVE_LENGTH_MEASURE(1.0E-006),#341);
#222=LINE('',#342,#343);
#223=SURFACE_STYLE_USAGE(.BOTH.,#344);
#224=FACE_OUTER_BOUND('',#345,.T.);
#225=PLANE('',#346);
#226=POINT_STYLE(' ',#347,POSITIVE_LENGTH_MEASURE(1.0E-006),#348);
#227=CARTESIAN_POINT('',(3.67381906146713E-016,-3.0,-0.399999999999999));
#228=POINT_STYLE(' ',#349,POSITIVE_LENGTH_MEASURE(1.0E-006),#350);
#229=CARTESIAN_POINT('',(0.0,-1.5,-38.5));
#230=CURVE_STYLE('',#351,POSITIVE_LENGTH_MEASURE(1.0E-006),#352);
#231=CIRCLE('',#353,2.6);
#232=SURFACE_STYLE_USAGE(.BOTH.,#354);
#233=CLOSED_SHELL('',(#151,#123,#129,#89,#133));
#234=SURFACE_STYLE_USAGE(.BOTH.,#355);
#235=FACE_OUTER_BOUND('',#356,.T.);
#236=SPHERICAL_SURFACE('',#357,1.5);
#237=POINT_STYLE(' ',#358,POSITIVE_LENGTH_MEASURE(1.0E-006),#359);
#238=CARTESIAN_POINT('',(0.0,2.6,0.0));
#239=CURVE_STYLE('',#360,POSITIVE_LENGTH_MEASURE(1.0E-006),#361);
#240=CIRCLE('',#362,2.6);
#241=SURFACE_STYLE_USAGE(.BOTH.,#363);
#242=FACE_OUTER_BOUND('',#364,.T.);
#243=SPHERICAL_SURFACE('',#365,1.5);
#244=SURFACE_STYLE_USAGE(.BOTH.,#366);
#245=FACE_OUTER_BOUND('',#367,.T.);
#246=CYLINDRICAL_SURFACE('',#368,3.0);
#247=SURFACE_STYLE_USAGE(.BOTH.,#369);
#248=FACE_OUTER_BOUND('',#370,.T.);
#249=CYLINDRICAL_SURFACE('',#371,1.5);
#250=CURVE_STYLE('',#372,POSITIVE_LENGTH_MEASURE(1.0E-006),#373);
#251=LINE('',#374,#375);
#252=CURVE_STYLE('',#376,POSITIVE_LENGTH_MEASURE(1.0E-006),#377);
#253=LINE('',#378,#379);
#254=SURFACE_STYLE_USAGE(.BOTH.,#380);
#255=FACE_OUTER_BOUND('',#381,.T.);
#256=CYLINDRICAL_SURFACE('',#382,3.0);
#257=POINT_STYLE(' ',#383,POSITIVE_LENGTH_MEASURE(1.0E-006),#384);
#258=CARTESIAN_POINT('',(0.0,3.0,-0.399999999999999));
#259=CURVE_STYLE('',#385,POSITIVE_LENGTH_MEASURE(1.0E-006),#386);
#260=CIRCLE('',#387,3.0);
#261=POINT_STYLE(' ',#388,POSITIVE_LENGTH_MEASURE(1.0E-006),#389);
#262=CARTESIAN_POINT('',(0.0,1.5,-38.5));
#263=CURVE_STYLE('',#390,POSITIVE_LENGTH_MEASURE(1.0E-006),#391);
#264=CIRCLE('',#392,1.5);
#265=POINT_STYLE(' ',#393,POSITIVE_LENGTH_MEASURE(1.0E-006),#394);
#266=CARTESIAN_POINT('',(3.67381906146713E-016,-3.0,-36.0));
#267=SURFACE_STYLE_USAGE(.BOTH.,#395);
#268=FACE_OUTER_BOUND('',#396,.T.);
#269=CYLINDRICAL_SURFACE('',#397,1.5);
#270=CURVE_STYLE('',#398,POSITIVE_LENGTH_MEASURE(1.0E-006),#399);
#271=LINE('',#400,#401);
#272=POINT_STYLE(' ',#402,POSITIVE_LENGTH_MEASURE(1.0E-006),#403);
#273=CARTESIAN_POINT('',(3.18397651993818E-016,-2.6,0.0));
#274=CURVE_STYLE('',#404,POSITIVE_LENGTH_MEASURE(1.0E-006),#405);
#275=CIRCLE('',#406,1.5);
#276=POINT_STYLE(' ',#407,POSITIVE_LENGTH_MEASURE(1.0E-006),#408);
#277=CARTESIAN_POINT('',(-0.75,-1.29903810567666,-36.0));
#278=CURVE_STYLE('',#409,POSITIVE_LENGTH_MEASURE(1.0E-006),#410);
#279=CIRCLE('',#411,3.0);
#280=CURVE_STYLE('',#412,POSITIVE_LENGTH_MEASURE(1.0E-006),#413);
#281=CIRCLE('',#414,1.5);
#282=PRODUCT_CONTEXT('',#58,'mechanical');
#283=PRODUCT_DEFINITION_FORMATION_WITH_SPECIFIED_SOURCE(' ','NONE',#164,.NOT_KNOWN.);
#284=CARTESIAN_POINT('',(0.0,0.0,0.0));
#285=DIRECTION('',(0.0,0.0,1.0));
#286=DIRECTION('',(1.0,0.0,0.0));
#287=PRODUCT_CONTEXT('',#63,'mechanical');
#288=PRODUCT_DEFINITION_FORMATION_WITH_SPECIFIED_SOURCE(' ','NONE',#167,.NOT_KNOWN.);
#289=CARTESIAN_POINT('',(0.0,0.0,0.0));
#290=DIRECTION('',(0.0,0.0,1.0));
#291=DIRECTION('',(1.0,0.0,0.0));
#292= (NAMED_UNIT(#175)LENGTH_UNIT()SI_UNIT(.MILLI.,.METRE.));
#293=DRAUGHTING_PRE_DEFINED_CURVE_FONT('continuous');
#294=COLOUR_RGB('',0.800000011920929,0.800000011920929,0.800000011920929);
#295=AXIS2_PLACEMENT_3D('',#416,#417,#418);
#296=SURFACE_SIDE_STYLE('',(#419));
#297=EDGE_LOOP('',(#420,#421,#422,#423));
#298=AXIS2_PLACEMENT_3D('',#424,#425,#426);
#299=SURFACE_SIDE_STYLE('',(#427));
#300=DRAUGHTING_PRE_DEFINED_CURVE_FONT('continuous');
#301=COLOUR_RGB('',0.498039215803146,0.498039215803146,0.498039215803146);
#302=CARTESIAN_POINT('',(3.42889779070266E-016,-2.8,-0.199999999999996));
#303=VECTOR('',#428,1.0);
#304=SURFACE_SIDE_STYLE('',(#429));
#305=EDGE_LOOP('',(#430,#431));
#306=AXIS2_PLACEMENT_3D('',#432,#433,#434);
#307=DRAUGHTING_PRE_DEFINED_CURVE_FONT('continuous');
#308=COLOUR_RGB('',0.498039215803146,0.498039215803146,0.498039215803146);
#309=AXIS2_PLACEMENT_3D('',#435,#436,#437);
#310=SURFACE_SIDE_STYLE('',(#438));
#311=EDGE_LOOP('',(#439,#440));
#312=AXIS2_PLACEMENT_3D('',#441,#442,#443);
#313=PRE_DEFINED_MARKER('');
#314=COLOUR_RGB('',0.800000011920929,0.800000011920929,0.800000011920929);
#315=DRAUGHTING_PRE_DEFINED_CURVE_FONT('continuous');
#316=COLOUR_RGB('',0.800000011920929,0.800000011920929,0.800000011920929);
#317=AXIS2_PLACEMENT_3D('',#444,#445,#446);
#318=PRE_DEFINED_MARKER('');
#319=COLOUR_RGB('',0.800000011920929,0.800000011920929,0.800000011920929);
#320=DRAUGHTING_PRE_DEFINED_CURVE_FONT('continuous');
#321=COLOUR_RGB('',0.800000011920929,0.800000011920929,0.800000011920929);
#322=AXIS2_PLACEMENT_3D('',#447,#448,#449);
#323=DRAUGHTING_PRE_DEFINED_CURVE_FONT('continuous');
#324=COLOUR_RGB('',0.498039215803146,0.498039215803146,0.498039215803146);
#325=AXIS2_PLACEMENT_3D('',#450,#451,#452);
#326=PRE_DEFINED_MARKER('');
#327=COLOUR_RGB('',0.800000011920929,0.800000011920929,0.800000011920929);
#328=SURFACE_SIDE_STYLE('',(#453));
#329=EDGE_LOOP('',(#454,#455,#456,#457));
#330=AXIS2_PLACEMENT_3D('',#458,#459,#460);
#331=PRE_DEFINED_MARKER('');
#332=COLOUR_RGB('',0.498039215803146,0.498039215803146,0.498039215803146);
#333=DRAUGHTING_PRE_DEFINED_CURVE_FONT('continuous');
#334=COLOUR_RGB('',0.498039215803146,0.498039215803146,0.498039215803146);
#335=CARTESIAN_POINT('',(-3.42889779070266E-016,2.8,-0.199999999999996));
#336=VECTOR('',#461,1.0);
#337=DRAUGHTING_PRE_DEFINED_CURVE_FONT('continuous');
#338=COLOUR_RGB('',0.800000011920929,0.800000011920929,0.800000011920929);
#339=AXIS2_PLACEMENT_3D('',#462,#463,#464);
#340=DRAUGHTING_PRE_DEFINED_CURVE_FONT('continuous');
#341=COLOUR_RGB('',0.800000011920929,0.800000011920929,0.800000011920929);
#342=CARTESIAN_POINT('',(0.75,1.29903810567666,-37.25));
#343=VECTOR('',#465,1.0);
#344=SURFACE_SIDE_STYLE('',(#466));
#345=EDGE_LOOP('',(#467,#468));
#346=AXIS2_PLACEMENT_3D('',#469,#470,#471);
#347=PRE_DEFINED_MARKER('');
#348=COLOUR_RGB('',0.498039215803146,0.498039215803146,0.498039215803146);
#349=PRE_DEFINED_MARKER('');
#350=COLOUR_RGB('',0.800000011920929,0.800000011920929,0.800000011920929);
#351=DRAUGHTING_PRE_DEFINED_CURVE_FONT('continuous');
#352=COLOUR_RGB('',0.498039215803146,0.498039215803146,0.498039215803146);
#353=AXIS2_PLACEMENT_3D('',#472,#473,#474);
#354=SURFACE_SIDE_STYLE('',(#475));
#355=SURFACE_SIDE_STYLE('',(#476));
#356=EDGE_LOOP('',(#477,#478,#479));
#357=AXIS2_PLACEMENT_3D('',#480,#481,#482);
#358=PRE_DEFINED_MARKER('');
#359=COLOUR_RGB('',0.498039215803146,0.498039215803146,0.498039215803146);
#360=DRAUGHTING_PRE_DEFINED_CURVE_FONT('continuous');
#361=COLOUR_RGB('',0.498039215803146,0.498039215803146,0.498039215803146);
#362=AXIS2_PLACEMENT_3D('',#483,#484,#485);
#363=SURFACE_SIDE_STYLE('',(#486));
#364=EDGE_LOOP('',(#487,#488,#489));
#365=AXIS2_PLACEMENT_3D('',#490,#491,#492);
#366=SURFACE_SIDE_STYLE('',(#493));
#367=EDGE_LOOP('',(#494,#495,#496,#497));
#368=AXIS2_PLACEMENT_3D('',#498,#499,#500);
#369=SURFACE_SIDE_STYLE('',(#501));
#370=EDGE_LOOP('',(#502,#503,#504,#505,#506));
#371=AXIS2_PLACEMENT_3D('',#507,#508,#509);
#372=DRAUGHTING_PRE_DEFINED_CURVE_FONT('continuous');
#373=COLOUR_RGB('',0.800000011920929,0.800000011920929,0.800000011920929);
#374=CARTESIAN_POINT('',(-0.75,-1.29903810567666,-37.25));
#375=VECTOR('',#510,1.0);
#376=DRAUGHTING_PRE_DEFINED_CURVE_FONT('continuous');
#377=COLOUR_RGB('',0.498039215803146,0.498039215803146,0.498039215803146);
#378=CARTESIAN_POINT('',(3.67381906146713E-016,-3.0,-18.2));
#379=VECTOR('',#511,1.0);
#380=SURFACE_SIDE_STYLE('',(#512));
#381=EDGE_LOOP('',(#513,#514,#515,#516));
#382=AXIS2_PLACEMENT_3D('',#517,#518,#519);
#383=PRE_DEFINED_MARKER('');
#384=COLOUR_RGB('',0.498039215803146,0.498039215803146,0.498039215803146);
#385=DRAUGHTING_PRE_DEFINED_CURVE_FONT('continuous');
#386=COLOUR_RGB('',0.498039215803146,0.498039215803146,0.498039215803146);
#387=AXIS2_PLACEMENT_3D('',#520,#521,#522);
#388=PRE_DEFINED_MARKER('');
#389=COLOUR_RGB('',0.800000011920929,0.800000011920929,0.800000011920929);
#390=DRAUGHTING_PRE_DEFINED_CURVE_FONT('continuous');
#391=COLOUR_RGB('',0.800000011920929,0.800000011920929,0.800000011920929);
#392=AXIS2_PLACEMENT_3D('',#523,#524,#525);
#393=PRE_DEFINED_MARKER('');
#394=COLOUR_RGB('',0.498039215803146,0.498039215803146,0.498039215803146);
#395=SURFACE_SIDE_STYLE('',(#526));
#396=EDGE_LOOP('',(#527,#528,#529,#530,#531));
#397=AXIS2_PLACEMENT_3D('',#532,#533,#534);
#398=DRAUGHTING_PRE_DEFINED_CURVE_FONT('continuous');
#399=COLOUR_RGB('',0.498039215803146,0.498039215803146,0.498039215803146);
#400=CARTESIAN_POINT('',(-3.67381906146713E-016,3.0,-18.2));
#401=VECTOR('',#535,1.0);
#402=PRE_DEFINED_MARKER('');
#403=COLOUR_RGB('',0.498039215803146,0.498039215803146,0.498039215803146);
#404=DRAUGHTING_PRE_DEFINED_CURVE_FONT('continuous');
#405=COLOUR_RGB('',0.800000011920929,0.800000011920929,0.800000011920929);
#406=AXIS2_PLACEMENT_3D('',#536,#537,#538);
#407=PRE_DEFINED_MARKER('');
#408=COLOUR_RGB('',0.800000011920929,0.800000011920929,0.800000011920929);
#409=DRAUGHTING_PRE_DEFINED_CURVE_FONT('continuous');
#410=COLOUR_RGB('',0.498039215803146,0.498039215803146,0.498039215803146);
#411=AXIS2_PLACEMENT_3D('',#539,#540,#541);
#412=DRAUGHTING_PRE_DEFINED_CURVE_FONT('continuous');
#413=COLOUR_RGB('',0.800000011920929,0.800000011920929,0.800000011920929);
#414=AXIS2_PLACEMENT_3D('',#542,#543,#544);
#416=CARTESIAN_POINT('',(0.0,0.0,-38.5));
#417=DIRECTION('',(0.0,0.0,-1.0));
#418=DIRECTION('',(0.5,0.866025403784439,0.0));
#419=SURFACE_STYLE_FILL_AREA(#545);
#420=ORIENTED_EDGE('',*,*,#107,.T.);
#421=ORIENTED_EDGE('',*,*,#87,.F.);
#422=ORIENTED_EDGE('',*,*,#83,.T.);
#423=ORIENTED_EDGE('',*,*,#127,.T.);
#424=CARTESIAN_POINT('',(0.0,0.0,-0.199999999999996));
#425=DIRECTION('',(0.0,-0.0,-1.0));
#426=DIRECTION('',(0.0,1.0,0.0));
#427=SURFACE_STYLE_FILL_AREA(#546);
#428=DIRECTION('',(-8.65927457071937E-017,0.707106781186549,0.707106781186546));
#429=SURFACE_STYLE_FILL_AREA(#547);
#430=ORIENTED_EDGE('',*,*,#161,.T.);
#431=ORIENTED_EDGE('',*,*,#143,.T.);
#432=CARTESIAN_POINT('',(0.0,1.5,-36.0));
#433=DIRECTION('',(0.0,0.0,-1.0));
#434=DIRECTION('',(0.0,1.0,0.0));
#435=CARTESIAN_POINT('',(0.0,0.0,-0.399999999999999));
#436=DIRECTION('',(0.0,0.0,-1.0));
#437=DIRECTION('',(0.0,1.0,0.0));
#438=SURFACE_STYLE_FILL_AREA(#548);
#439=ORIENTED_EDGE('',*,*,#163,.F.);
#440=ORIENTED_EDGE('',*,*,#109,.F.);
#441=CARTESIAN_POINT('',(0.375,0.649519052838329,-36.0));
#442=DIRECTION('',(0.0,0.0,1.0));
#443=DIRECTION('',(-0.5,-0.866025403784439,0.0));
#444=CARTESIAN_POINT('',(0.0,0.0,-38.5));
#445=DIRECTION('',(1.0,0.0,1.22460635382238E-016));
#446=DIRECTION('',(-1.22460635382238E-016,0.0,1.0));
#447=CARTESIAN_POINT('',(0.0,0.0,-38.5));
#448=DIRECTION('',(0.0,0.0,-1.0));
#449=DIRECTION('',(0.5,0.866025403784439,0.0));
#450=CARTESIAN_POINT('',(0.0,0.0,-0.399999999999999));
#451=DIRECTION('',(0.0,0.0,-1.0));
#452=DIRECTION('',(0.0,1.0,0.0));
#453=SURFACE_STYLE_FILL_AREA(#549);
#454=ORIENTED_EDGE('',*,*,#107,.F.);
#455=ORIENTED_EDGE('',*,*,#119,.T.);
#456=ORIENTED_EDGE('',*,*,#83,.F.);
#457=ORIENTED_EDGE('',*,*,#99,.F.);
#458=CARTESIAN_POINT('',(0.0,0.0,-0.199999999999996));
#459=DIRECTION('',(0.0,-0.0,-1.0));
#460=DIRECTION('',(0.0,1.0,0.0));
#461=DIRECTION('',(-8.65927457071937E-017,0.707106781186549,-0.707106781186546));
#462=CARTESIAN_POINT('',(0.0,0.0,-36.0));
#463=DIRECTION('',(0.0,0.0,-1.0));
#464=DIRECTION('',(0.5,0.866025403784439,0.0));
#465=DIRECTION('',(0.0,0.0,-1.0));
#466=SURFACE_STYLE_FILL_AREA(#550);
#467=ORIENTED_EDGE('',*,*,#119,.F.);
#468=ORIENTED_EDGE('',*,*,#127,.F.);
#469=CARTESIAN_POINT('',(0.0,1.3,0.0));
#470=DIRECTION('',(-0.0,0.0,1.0));
#471=DIRECTION('',(0.0,-1.0,0.0));
#472=CARTESIAN_POINT('',(0.0,0.0,0.0));
#473=DIRECTION('',(0.0,0.0,-1.0));
#474=DIRECTION('',(0.0,1.0,0.0));
#475=SURFACE_STYLE_FILL_AREA(#551);
#476=SURFACE_STYLE_FILL_AREA(#552);
#477=ORIENTED_EDGE('',*,*,#93,.F.);
#478=ORIENTED_EDGE('',*,*,#147,.T.);
#479=ORIENTED_EDGE('',*,*,#77,.T.);
#480=CARTESIAN_POINT('',(0.0,0.0,-38.5));
#481=DIRECTION('',(0.0,1.0,0.0));
#482=DIRECTION('',(0.0,0.0,-1.0));
#483=CARTESIAN_POINT('',(0.0,0.0,0.0));
#484=DIRECTION('',(0.0,0.0,-1.0));
#485=DIRECTION('',(0.0,1.0,0.0));
#486=SURFACE_STYLE_FILL_AREA(#553);
#487=ORIENTED_EDGE('',*,*,#93,.T.);
#488=ORIENTED_EDGE('',*,*,#97,.T.);
#489=ORIENTED_EDGE('',*,*,#157,.T.);
#490=CARTESIAN_POINT('',(0.0,0.0,-38.5));
#491=DIRECTION('',(0.0,1.0,0.0));
#492=DIRECTION('',(0.0,0.0,-1.0));
#493=SURFACE_STYLE_FILL_AREA(#554);
#494=ORIENTED_EDGE('',*,*,#153,.F.);
#495=ORIENTED_EDGE('',*,*,#99,.T.);
#496=ORIENTED_EDGE('',*,*,#137,.F.);
#497=ORIENTED_EDGE('',*,*,#161,.F.);
#498=CARTESIAN_POINT('',(0.0,0.0,-18.2));
#499=DIRECTION('',(-0.0,-0.0,1.0));
#500=DIRECTION('',(0.0,1.0,0.0));
#501=SURFACE_STYLE_FILL_AREA(#555);
#502=ORIENTED_EDGE('',*,*,#111,.T.);
#503=ORIENTED_EDGE('',*,*,#97,.F.);
#504=ORIENTED_EDGE('',*,*,#77,.F.);
#505=ORIENTED_EDGE('',*,*,#135,.T.);
#506=ORIENTED_EDGE('',*,*,#109,.T.);
#507=CARTESIAN_POINT('',(0.0,0.0,-37.25));
#508=DIRECTION('',(-0.0,-0.0,1.0));
#509=DIRECTION('',(0.5,0.866025403784439,0.0));
#510=DIRECTION('',(-0.0,-0.0,1.0));
#511=DIRECTION('',(-0.0,-0.0,1.0));
#512=SURFACE_STYLE_FILL_AREA(#556);
#513=ORIENTED_EDGE('',*,*,#153,.T.);
#514=ORIENTED_EDGE('',*,*,#143,.F.);
#515=ORIENTED_EDGE('',*,*,#137,.T.);
#516=ORIENTED_EDGE('',*,*,#87,.T.);
#517=CARTESIAN_POINT('',(0.0,0.0,-18.2));
#518=DIRECTION('',(-0.0,-0.0,1.0));
#519=DIRECTION('',(0.0,1.0,0.0));
#520=CARTESIAN_POINT('',(0.0,0.0,-36.0));
#521=DIRECTION('',(0.0,0.0,-1.0));
#522=DIRECTION('',(0.0,1.0,0.0));
#523=CARTESIAN_POINT('',(0.0,0.0,-38.5));
#524=DIRECTION('',(0.0,0.0,-1.0));
#525=DIRECTION('',(0.5,0.866025403784439,0.0));
#526=SURFACE_STYLE_FILL_AREA(#557);
#527=ORIENTED_EDGE('',*,*,#111,.F.);
#528=ORIENTED_EDGE('',*,*,#163,.T.);
#529=ORIENTED_EDGE('',*,*,#135,.F.);
#530=ORIENTED_EDGE('',*,*,#147,.F.);
#531=ORIENTED_EDGE('',*,*,#157,.F.);
#532=CARTESIAN_POINT('',(0.0,0.0,-37.25));
#533=DIRECTION('',(-0.0,-0.0,1.0));
#534=DIRECTION('',(0.5,0.866025403784439,0.0));
#535=DIRECTION('',(0.0,0.0,-1.0));
#536=CARTESIAN_POINT('',(0.0,0.0,-38.5));
#537=DIRECTION('',(0.0,0.0,-1.0));
#538=DIRECTION('',(0.5,0.866025403784439,0.0));
#539=CARTESIAN_POINT('',(0.0,0.0,-36.0));
#540=DIRECTION('',(0.0,0.0,-1.0));
#541=DIRECTION('',(0.0,1.0,0.0));
#542=CARTESIAN_POINT('',(0.0,0.0,-36.0));
#543=DIRECTION('',(0.0,0.0,-1.0));
#544=DIRECTION('',(0.5,0.866025403784439,0.0));
#545=FILL_AREA_STYLE('',(#558));
#546=FILL_AREA_STYLE('',(#559));
#547=FILL_AREA_STYLE('',(#560));
#548=FILL_AREA_STYLE('',(#561));
#549=FILL_AREA_STYLE('',(#562));
#550=FILL_AREA_STYLE('',(#563));
#551=FILL_AREA_STYLE('',(#564));
#552=FILL_AREA_STYLE('',(#565));
#553=FILL_AREA_STYLE('',(#566));
#554=FILL_AREA_STYLE('',(#567));
#555=FILL_AREA_STYLE('',(#568));
#556=FILL_AREA_STYLE('',(#569));
#557=FILL_AREA_STYLE('',(#570));
#558=FILL_AREA_STYLE_COLOUR('',#571);
#559=FILL_AREA_STYLE_COLOUR('',#572);
#560=FILL_AREA_STYLE_COLOUR('',#573);
#561=FILL_AREA_STYLE_COLOUR('',#574);
#562=FILL_AREA_STYLE_COLOUR('',#575);
#563=FILL_AREA_STYLE_COLOUR('',#576);
#564=FILL_AREA_STYLE_COLOUR('',#577);
#565=FILL_AREA_STYLE_COLOUR('',#578);
#566=FILL_AREA_STYLE_COLOUR('',#579);
#567=FILL_AREA_STYLE_COLOUR('',#580);
#568=FILL_AREA_STYLE_COLOUR('',#581);
#569=FILL_AREA_STYLE_COLOUR('',#582);
#570=FILL_AREA_STYLE_COLOUR('',#583);
#571=COLOUR_RGB('',0.498039215803146,0.498039215803146,0.498039215803146);
#572=COLOUR_RGB('',0.498039215803146,0.498039215803146,0.498039215803146);
#573=COLOUR_RGB('',0.498039215803146,0.498039215803146,0.498039215803146);
#574=COLOUR_RGB('',0.800000011920929,0.800000011920929,0.800000011920929);
#575=COLOUR_RGB('',0.498039215803146,0.498039215803146,0.498039215803146);
#576=COLOUR_RGB('',0.498039215803146,0.498039215803146,0.498039215803146);
#577=COLOUR_RGB('',0.800000011920929,0.800000011920929,0.800000011920929);
#578=COLOUR_RGB('',0.800000011920929,0.800000011920929,0.800000011920929);
#579=COLOUR_RGB('',0.800000011920929,0.800000011920929,0.800000011920929);
#580=COLOUR_RGB('',0.498039215803146,0.498039215803146,0.498039215803146);
#581=COLOUR_RGB('',0.800000011920929,0.800000011920929,0.800000011920929);
#582=COLOUR_RGB('',0.498039215803146,0.498039215803146,0.498039215803146);
#583=COLOUR_RGB('',0.800000011920929,0.800000011920929,0.800000011920929);
#584=AXIS2_PLACEMENT_3D('PCS',#585,#586,#587);
#585=CARTESIAN_POINT('',(0.0,0.0,0.0));
#586=DIRECTION('',(0.0,0.0,1.0));
#587=DIRECTION('',(1.0,0.0,0.0));
#588=AXIS2_PLACEMENT_3D('MCS',#589,#590,#591);
#589=CARTESIAN_POINT('',(0.0,0.0,-36.0));
#590=DIRECTION('',(0.0,0.0,1.0));
#591=DIRECTION('',(1.0,0.0,0.0));
#592=AXIS2_PLACEMENT_3D('CIP',#593,#594,#595);
#593=CARTESIAN_POINT('',(0.0,0.0,-40.0));
#594=DIRECTION('',(0.0,0.0,1.0));
#595=DIRECTION('',(1.0,0.0,0.0));
#596=CONSTRUCTIVE_GEOMETRY_REPRESENTATION_RELATIONSHIP('coordinate systems',$,#62,#597);
#597=CONSTRUCTIVE_GEOMETRY_REPRESENTATION('coordinate systems',(#584,#588,#592),#10);
ENDSEC;
END-ISO-10303-21;
