  0
SECTION
  2
HEADER
  9
$ACADVER
  1
AC1015
  9
$ACADMAINTVER
 70
     6
  9
$DWGCODEPAGE
  3
ANSI_1252
  9
$INSBASE
 10
0.0
 20
0.0
 30
0.0
  9
$EXTMIN
 10
0.0
 20
0.0
 30
0.0
  9
$EXTMAX
 10
25.0
 20
35.0
 30
0.0
  9
$LIMMIN
 10
0.0
 20
0.0
  9
$LIMMAX
 10
420.0
 20
297.0
  9
$ORTHOMODE
 70
     0
  9
$REGENMODE
 70
     1
  9
$FILLMODE
 70
     1
  9
$QTEXTMODE
 70
     0
  9
$MIRRTEXT
 70
     1
  9
$LTSCALE
 40
4.7
  9
$ATTMODE
 70
     1
  9
$TEXTSIZE
 40
2.5
  9
$TRACEWID
 40
1.0
  9
$TEXTSTYLE
  7
Standard
  9
$CLAYER
  8
0
  9
$CELTYPE
  6
ByLayer
  9
$CECOLOR
 62
   256
  9
$CELTSCALE
 40
1.0
  9
$DISPSILH
 70
     0
  9
$DIMSCALE
 40
1.0
  9
$DIMASZ
 40
2.5
  9
$DIMEXO
 40
0.625
  9
$DIMDLI
 40
3.75
  9
$DIMRND
 40
0.0
  9
$DIMDLE
 40
0.0
  9
$DIMEXE
 40
1.25
  9
$DIMTP
 40
0.0
  9
$DIMTM
 40
0.0
  9
$DIMTXT
 40
2.5
  9
$DIMCEN
 40
2.5
  9
$DIMTSZ
 40
0.0
  9
$DIMTOL
 70
     0
  9
$DIMLIM
 70
     0
  9
$DIMTIH
 70
     0
  9
$DIMTOH
 70
     0
  9
$DIMSE1
 70
     0
  9
$DIMSE2
 70
     0
  9
$DIMTAD
 70
     1
  9
$DIMZIN
 70
     8
  9
$DIMBLK
  1

  9
$DIMASO
 70
     1
  9
$DIMSHO
 70
     1
  9
$DIMPOST
  1

  9
$DIMAPOST
  1

  9
$DIMALT
 70
     0
  9
$DIMALTD
 70
     3
  9
$DIMALTF
 40
0.03937007874016
  9
$DIMLFAC
 40
1.0
  9
$DIMTOFL
 70
     1
  9
$DIMTVP
 40
0.0
  9
$DIMTIX
 70
     0
  9
$DIMSOXD
 70
     0
  9
$DIMSAH
 70
     0
  9
$DIMBLK1
  1

  9
$DIMBLK2
  1

  9
$DIMSTYLE
  2
ISO-25
  9
$DIMCLRD
 70
     0
  9
$DIMCLRE
 70
     0
  9
$DIMCLRT
 70
     0
  9
$DIMTFAC
 40
1.0
  9
$DIMGAP
 40
0.625
  9
$DIMJUST
 70
     0
  9
$DIMSD1
 70
     0
  9
$DIMSD2
 70
     0
  9
$DIMTOLJ
 70
     0
  9
$DIMTZIN
 70
     8
  9
$DIMALTZ
 70
     0
  9
$DIMALTTZ
 70
     0
  9
$DIMUPT
 70
     0
  9
$DIMDEC
 70
     2
  9
$DIMTDEC
 70
     2
  9
$DIMALTU
 70
     2
  9
$DIMALTTD
 70
     3
  9
$DIMTXSTY
  7
Standard
  9
$DIMAUNIT
 70
     0
  9
$DIMADEC
 70
     0
  9
$DIMALTRND
 40
0.0
  9
$DIMAZIN
 70
     0
  9
$DIMDSEP
 70
    44
  9
$DIMATFIT
 70
     3
  9
$DIMFRAC
 70
     0
  9
$DIMLDRBLK
  1

  9
$DIMLUNIT
 70
     2
  9
$DIMLWD
 70
    -2
  9
$DIMLWE
 70
    -2
  9
$DIMTMOVE
 70
     0
  9
$LUNITS
 70
     2
  9
$LUPREC
 70
     4
  9
$SKETCHINC
 40
1.0
  9
$FILLETRAD
 40
10.0
  9
$AUNITS
 70
     0
  9
$AUPREC
 70
     0
  9
$MENU
  1
.
  9
$ELEVATION
 40
0.0
  9
$PELEVATION
 40
0.0
  9
$THICKNESS
 40
0.0
  9
$LIMCHECK
 70
     0
  9
$CHAMFERA
 40
10.0
  9
$CHAMFERB
 40
10.0
  9
$CHAMFERC
 40
20.0
  9
$CHAMFERD
 40
0.0
  9
$SKPOLY
 70
     0
  9
$TDCREATE
 40
2457249.777083333
  9
$TDUCREATE
 40
2457249.69375
  9
$TDUPDATE
 40
2457249.780555556
  9
$TDUUPDATE
 40
2457249.697222222
  9
$TDINDWG
 40
0.0000000116
  9
$TDUSRTIMER
 40
0.0000000116
  9
$USRTIMER
 70
     1
  9
$ANGBASE
 50
0.0
  9
$ANGDIR
 70
     0
  9
$PDMODE
 70
     0
  9
$PDSIZE
 40
0.0
  9
$PLINEWID
 40
0.0
  9
$SPLFRAME
 70
     0
  9
$SPLINETYPE
 70
     6
  9
$SPLINESEGS
 70
     8
  9
$HANDSEED
  5
E0E
  9
$SURFTAB1
 70
     6
  9
$SURFTAB2
 70
     6
  9
$SURFTYPE
 70
     6
  9
$SURFU
 70
     6
  9
$SURFV
 70
     6
  9
$UCSBASE
  2

  9
$UCSNAME
  2

  9
$UCSORG
 10
0.0
 20
0.0
 30
0.0
  9
$UCSXDIR
 10
1.0
 20
0.0
 30
0.0
  9
$UCSYDIR
 10
0.0
 20
1.0
 30
0.0
  9
$UCSORTHOREF
  2

  9
$UCSORTHOVIEW
 70
     0
  9
$UCSORGTOP
 10
0.0
 20
0.0
 30
0.0
  9
$UCSORGBOTTOM
 10
0.0
 20
0.0
 30
0.0
  9
$UCSORGLEFT
 10
0.0
 20
0.0
 30
0.0
  9
$UCSORGRIGHT
 10
0.0
 20
0.0
 30
0.0
  9
$UCSORGFRONT
 10
0.0
 20
0.0
 30
0.0
  9
$UCSORGBACK
 10
0.0
 20
0.0
 30
0.0
  9
$PUCSBASE
  2

  9
$PUCSNAME
  2

  9
$PUCSORG
 10
0.0
 20
0.0
 30
0.0
  9
$PUCSXDIR
 10
1.0
 20
0.0
 30
0.0
  9
$PUCSYDIR
 10
0.0
 20
1.0
 30
0.0
  9
$PUCSORTHOREF
  2

  9
$PUCSORTHOVIEW
 70
     0
  9
$PUCSORGTOP
 10
0.0
 20
0.0
 30
0.0
  9
$PUCSORGBOTTOM
 10
0.0
 20
0.0
 30
0.0
  9
$PUCSORGLEFT
 10
0.0
 20
0.0
 30
0.0
  9
$PUCSORGRIGHT
 10
0.0
 20
0.0
 30
0.0
  9
$PUCSORGFRONT
 10
0.0
 20
0.0
 30
0.0
  9
$PUCSORGBACK
 10
0.0
 20
0.0
 30
0.0
  9
$USERI1
 70
     0
  9
$USERI2
 70
     0
  9
$USERI3
 70
     0
  9
$USERI4
 70
     0
  9
$USERI5
 70
     0
  9
$USERR1
 40
0.0
  9
$USERR2
 40
0.0
  9
$USERR3
 40
0.0
  9
$USERR4
 40
0.0
  9
$USERR5
 40
0.0
  9
$WORLDVIEW
 70
     1
  9
$SHADEDGE
 70
     3
  9
$SHADEDIF
 70
    70
  9
$TILEMODE
 70
     1
  9
$MAXACTVP
 70
    64
  9
$PINSBASE
 10
0.0
 20
0.0
 30
0.0
  9
$PLIMCHECK
 70
     0
  9
$PEXTMIN
 10
1.000000000000000E+20
 20
1.000000000000000E+20
 30
1.000000000000000E+20
  9
$PEXTMAX
 10
-1.000000000000000E+20
 20
-1.000000000000000E+20
 30
-1.000000000000000E+20
  9
$PLIMMIN
 10
0.0
 20
0.0
  9
$PLIMMAX
 10
420.0
 20
297.0
  9
$UNITMODE
 70
     0
  9
$VISRETAIN
 70
     1
  9
$PLINEGEN
 70
     0
  9
$PSLTSCALE
 70
     1
  9
$TREEDEPTH
 70
  3020
  9
$CMLSTYLE
  2
Standard
  9
$CMLJUST
 70
     0
  9
$CMLSCALE
 40
20.0
  9
$PROXYGRAPHICS
 70
     1
  9
$MEASUREMENT
 70
     1
  9
$CELWEIGHT
370
    -1
  9
$ENDCAPS
280
     0
  9
$JOINSTYLE
280
     0
  9
$LWDISPLAY
290
     0
  9
$INSUNITS
 70
     4
  9
$HYPERLINKBASE
  1

  9
$STYLESHEET
  1

  9
$XEDIT
290
     1
  9
$CEPSNTYPE
380
     0
  9
$PSTYLEMODE
290
     1
  9
$FINGERPRINTGUID
  2
{79FBED5A-2A0C-4110-BA33-D425453CEF85}
  9
$VERSIONGUID
  2
{FAEB1C32-E019-11D5-929B-00C0DF256EC4}
  9
$EXTNAMES
290
     1
  9
$PSVPSCALE
 40
0.0
  9
$OLESTARTUP
290
     0
  0
ENDSEC
  0
SECTION
  2
CLASSES
  0
CLASS
  1
ACDBDICTIONARYWDFLT
  2
AcDbDictionaryWithDefault
  3
ObjectDBX Classes
 90
        0
280
     0
281
     0
  0
CLASS
  1
VISUALSTYLE
  2
AcDbVisualStyle
  3
ObjectDBX Classes
 90
     4095
280
     0
281
     0
  0
CLASS
  1
MATERIAL
  2
AcDbMaterial
  3
ObjectDBX Classes
 90
     1153
280
     0
281
     0
  0
CLASS
  1
SCALE
  2
AcDbScale
  3
ObjectDBX Classes
 90
     1153
280
     0
281
     0
  0
CLASS
  1
DICTIONARYVAR
  2
AcDbDictionaryVar
  3
ObjectDBX Classes
 90
        0
280
     0
281
     0
  0
CLASS
  1
ACDBPLACEHOLDER
  2
AcDbPlaceHolder
  3
ObjectDBX Classes
 90
        0
280
     0
281
     0
  0
CLASS
  1
LAYOUT
  2
AcDbLayout
  3
ObjectDBX Classes
 90
        0
280
     0
281
     0
  0
ENDSEC
  0
SECTION
  2
TABLES
  0
TABLE
  2
VPORT
  5
8
330
0
100
AcDbSymbolTable
 70
     1
  0
VPORT
  5
29
330
8
100
AcDbSymbolTableRecord
100
AcDbViewportTableRecord
  2
*Active
 70
     0
 10
0.0
 20
0.0
 11
1.0
 21
1.0
 12
11.26
 22
4.5
 13
0.0
 23
0.0
 14
10.0
 24
10.0
 15
10.0
 25
10.0
 16
0.0
 26
0.0
 36
1.0
 17
0.0
 27
0.0
 37
0.0
 40
9.0
 41
2.503333333333333
 42
50.0
 43
0.0
 44
0.0
 50
0.0
 51
0.0
 71
     0
 72
   100
 73
     1
 74
     3
 75
     0
 76
     0
 77
     0
 78
     0
281
     0
 65
     1
110
0.0
120
0.0
130
0.0
111
1.0
121
0.0
131
0.0
112
0.0
122
1.0
132
0.0
 79
     0
146
0.0
  0
ENDTAB
  0
TABLE
  2
LTYPE
  5
5
330
0
100
AcDbSymbolTable
 70
    10
  0
LTYPE
  5
14
330
5
100
AcDbSymbolTableRecord
100
AcDbLinetypeTableRecord
  2
ByBlock
 70
     0
  3

 72
    65
 73
     0
 40
0.0
  0
LTYPE
  5
15
330
5
100
AcDbSymbolTableRecord
100
AcDbLinetypeTableRecord
  2
ByLayer
 70
     0
  3

 72
    65
 73
     0
 40
0.0
  0
LTYPE
  5
16
330
5
100
AcDbSymbolTableRecord
100
AcDbLinetypeTableRecord
  2
Continuous
 70
     0
  3
Solid line
 72
    65
 73
     0
 40
0.0
  0
LTYPE
  5
45
330
5
100
AcDbSymbolTableRecord
100
AcDbLinetypeTableRecord
  2
phl_thick
 70
     0
  3
THICK
 72
    65
 73
     0
 40
0.0
  0
LTYPE
  5
505
330
5
100
AcDbSymbolTableRecord
100
AcDbLinetypeTableRecord
  2
ls1
 70
     0
  3
THICK
 72
    65
 73
     0
 40
0.0
  0
LTYPE
  5
514
330
5
100
AcDbSymbolTableRecord
100
AcDbLinetypeTableRecord
  2
SK1
 70
     0
  3
THICK
 72
    65
 73
     0
 40
0.0
  0
LTYPE
  5
521
330
5
100
AcDbSymbolTableRecord
100
AcDbLinetypeTableRecord
  2
SK2
 70
     0
  3
THIN
 72
    65
 73
     0
 40
0.0
  0
LTYPE
  5
586
330
5
100
AcDbSymbolTableRecord
100
AcDbLinetypeTableRecord
  2
dim_text
 70
     0
  3
THICK
 72
    65
 73
     0
 40
0.0
  0
LTYPE
  5
5CF
330
5
100
AcDbSymbolTableRecord
100
AcDbLinetypeTableRecord
  2
L2
 70
     0
  3
THIN
 72
    65
 73
     0
 40
0.0
  0
LTYPE
  5
6DF
330
5
100
AcDbSymbolTableRecord
100
AcDbLinetypeTableRecord
  2
LONGDASH_DASH
 70
     0
  3
THIN_DASHDOT
 72
    65
 73
     4
 40
0.85
 49
0.4
 74
     0
 49
-0.2
 74
     0
 49
0.05
 74
     0
 49
-0.2
 74
     0
  0
LTYPE
  5
6EC
330
5
100
AcDbSymbolTableRecord
100
AcDbLinetypeTableRecord
  2
INFTOTAL
 70
     0
  3
THIN
 72
    65
 73
     0
 40
0.0
  0
LTYPE
  5
6FC
330
5
100
AcDbSymbolTableRecord
100
AcDbLinetypeTableRecord
  2
cc_dim_arrow
 70
     0
  3
THICK
 72
    65
 73
     0
 40
0.0
  0
ENDTAB
  0
TABLE
  2
LAYER
  5
2
330
0
100
AcDbSymbolTable
 70
    11
  0
LAYER
  5
10
330
2
100
AcDbSymbolTableRecord
100
AcDbLayerTableRecord
  2
0
 70
     0
 62
     7
  6
Continuous
370
    -3
390
F
  0
LAYER
  5
44
330
2
100
AcDbSymbolTableRecord
100
AcDbLayerTableRecord
  2
1
 70
     0
 62
4
  6
CONTINUOUS
370
50
370
    -3
390
F
  0
LAYER
  5
504
330
2
100
AcDbSymbolTableRecord
100
AcDbLayerTableRecord
  2
CUT
 70
     0
 62
1
  6
CONTINUOUS
370
25
370
    -3
390
F
  0
LAYER
  5
50A
330
2
100
AcDbSymbolTableRecord
100
AcDbLayerTableRecord
  2
NOCUT
 70
     0
 62
7
  6
CONTINUOUS
370
25
370
    -3
390
F
  0
LAYER
  5
513
330
2
100
AcDbSymbolTableRecord
100
AcDbLayerTableRecord
  2
SK1
 70
     0
 62
4
  6
CONTINUOUS
370
50
370
    -3
390
F
  0
LAYER
  5
520
330
2
100
AcDbSymbolTableRecord
100
AcDbLayerTableRecord
  2
SK2
 70
     0
 62
7
  6
CONTINUOUS
370
25
370
    -3
390
F
  0
LAYER
  5
5CE
330
2
100
AcDbSymbolTableRecord
100
AcDbLayerTableRecord
  2
2
 70
     0
 62
7
  6
CONTINUOUS
370
25
370
    -3
390
F
  0
LAYER
  5
6DE
330
2
100
AcDbSymbolTableRecord
100
AcDbLayerTableRecord
  2
4
 70
     0
 62
2
  6
LONGDASH_DASH
370
25
370
    -3
390
F
  0
LAYER
  5
6E1
330
2
100
AcDbSymbolTableRecord
100
AcDbLayerTableRecord
  2
SK4
 70
     0
 62
2
  6
LONGDASH_DASH
370
25
370
    -3
390
F
  0
LAYER
  5
6EB
330
2
100
AcDbSymbolTableRecord
100
AcDbLayerTableRecord
  2
INFTOTAL
 70
     0
 62
9
  6
CONTINUOUS
370
18
370
    -3
390
F
  0
LAYER
  5
6F1
330
2
100
AcDbSymbolTableRecord
100
AcDbLayerTableRecord
  2
SK6
 70
     0
 62
5
  6
CONTINUOUS
370
25
370
    -3
390
F
  0
ENDTAB
  0
TABLE
  2
STYLE
  5
3
330
0
100
AcDbSymbolTable
 70
     1
  0
STYLE
  5
11
330
3
100
AcDbSymbolTableRecord
100
AcDbTextStyleTableRecord
  2
Standard
 70
     0
 40
0.0
 41
1.0
 50
0.0
 71
     0
 42
2.5
  3
Monospac821 BT
  4

  0
ENDTAB
  0
TABLE
  2
VIEW
  5
6
330
0
100
AcDbSymbolTable
 70
     0
  0
ENDTAB
  0
TABLE
  2
UCS
  5
7
330
0
100
AcDbSymbolTable
 70
     0
  0
ENDTAB
  0
TABLE
  2
APPID
  5
9
330
0
100
AcDbSymbolTable
 70
     2
  0
APPID
  5
12
330
9
100
AcDbSymbolTableRecord
100
AcDbRegAppTableRecord
  2
ACAD
 70
     0
  0
APPID
  5
3F
330
9
100
AcDbSymbolTableRecord
100
AcDbRegAppTableRecord
  2
ccLab
 70
     0
  0
ENDTAB
  0
TABLE
  2
DIMSTYLE
  5
A
330
0
100
AcDbSymbolTable
 70
     1
100
AcDbDimStyleTable
  0
DIMSTYLE
105
27
330
A
100
AcDbSymbolTableRecord
100
AcDbDimStyleTableRecord
  2
ISO-25
 70
     0
 41
2.5
 42
0.625
 43
3.75
 44
1.25
 73
     0
 74
     0
 77
     1
 78
     8
140
2.5
141
2.5
143
0.03937007874016
147
0.625
171
     3
172
     1
271
     2
272
     2
274
     3
278
    44
283
     0
284
     8
340
11
  0
ENDTAB
  0
TABLE
  2
BLOCK_RECORD
  5
1
330
0
100
AcDbSymbolTable
 70
     2
  0
BLOCK_RECORD
  5
1F
330
1
100
AcDbSymbolTableRecord
100
AcDbBlockTableRecord
  2
*Model_Space
340
22
  0
BLOCK_RECORD
  5
1B
330
1
100
AcDbSymbolTableRecord
100
AcDbBlockTableRecord
  2
*Paper_Space
340
1E
  0
BLOCK_RECORD
  5
23
330
1
100
AcDbSymbolTableRecord
100
AcDbBlockTableRecord
  2
*Paper_Space0
340
26
  0
ENDTAB
  0
ENDSEC
  0
SECTION
  2
BLOCKS
  0
BLOCK
  5
20
330
1F
100
AcDbEntity
  8
0
100
AcDbBlockBegin
  2
*Model_Space
 70
     0
 10
0.0
 20
0.0
 30
0.0
  3
*Model_Space
  1

  0
ENDBLK
  5
21
330
1F
100
AcDbEntity
  8
0
100
AcDbBlockEnd
  0
BLOCK
  5
1C
330
1B
100
AcDbEntity
 67
     1
  8
0
100
AcDbBlockBegin
  2
*Paper_Space
 70
     0
 10
0.0
 20
0.0
 30
0.0
  3
*Paper_Space
  1

  0
ENDBLK
  5
1D
330
1B
100
AcDbEntity
 67
     1
  8
0
100
AcDbBlockEnd
  0
BLOCK
  5
24
330
23
100
AcDbEntity
  8
0
100
AcDbBlockBegin
  2
*Paper_Space0
 70
     0
 10
0.0
 20
0.0
 30
0.0
  3
*Paper_Space0
  1

  0
ENDBLK
  5
25
330
23
100
AcDbEntity
  8
0
100
AcDbBlockEnd
  0
ENDSEC
  0
SECTION
  2
ENTITIES
  0
LINE
  5
72C
330
1F
100
AcDbEntity
  8
1
  6
CONTINUOUS
370
50
 62
4
100
AcDbLine
 10
78.778992
 20
1.463103
 30
0.0
 11
78.778419
 21
1.543104
 31
0.0
  0
LINE
  5
72D
330
1F
100
AcDbEntity
  8
1
  6
CONTINUOUS
370
50
 62
4
100
AcDbLine
 10
78.783104
 20
1.378322
 30
0.0
 11
78.778992
 21
1.463103
 31
0.0
  0
LINE
  5
72E
330
1F
100
AcDbEntity
  8
1
  6
CONTINUOUS
370
50
 62
4
100
AcDbLine
 10
79.679214
 20
2.831638
 30
0.0
 11
79.677864
 21
2.851552
 31
0.0
  0
LINE
  5
72F
330
1F
100
AcDbEntity
  8
1
  6
CONTINUOUS
370
50
 62
4
100
AcDbLine
 10
79.680588
 20
2.811728
 30
0.0
 11
79.679214
 21
2.831638
 31
0.0
  0
LINE
  5
730
330
1F
100
AcDbEntity
  8
1
  6
CONTINUOUS
370
50
 62
4
100
AcDbLine
 10
79.68197599999999
 20
2.791822
 30
0.0
 11
79.680588
 21
2.811728
 31
0.0
  0
LINE
  5
731
330
1F
100
AcDbEntity
  8
1
  6
CONTINUOUS
370
50
 62
4
100
AcDbLine
 10
79.683388
 20
2.771913
 30
0.0
 11
79.68197599999999
 21
2.791822
 31
0.0
  0
LINE
  5
732
330
1F
100
AcDbEntity
  8
1
  6
CONTINUOUS
370
50
 62
4
100
AcDbLine
 10
79.684814
 20
2.752002
 30
0.0
 11
79.683388
 21
2.771913
 31
0.0
  0
LINE
  5
733
330
1F
100
AcDbEntity
  8
1
  6
CONTINUOUS
370
50
 62
4
100
AcDbLine
 10
79.686264
 20
2.732093
 30
0.0
 11
79.684814
 21
2.752002
 31
0.0
  0
LINE
  5
734
330
1F
100
AcDbEntity
  8
1
  6
CONTINUOUS
370
50
 62
4
100
AcDbLine
 10
79.687737
 20
2.71219
 30
0.0
 11
79.686264
 21
2.732093
 31
0.0
  0
LINE
  5
735
330
1F
100
AcDbEntity
  8
1
  6
CONTINUOUS
370
50
 62
4
100
AcDbLine
 10
79.695274
 20
2.614583
 30
0.0
 11
79.687737
 21
2.71219
 31
0.0
  0
LINE
  5
736
330
1F
100
AcDbEntity
  8
1
  6
CONTINUOUS
370
50
 62
4
100
AcDbLine
 10
79.70343
 20
2.516647
 30
0.0
 11
79.695274
 21
2.614583
 31
0.0
  0
LINE
  5
737
330
1F
100
AcDbEntity
  8
1
  6
CONTINUOUS
370
50
 62
4
100
AcDbLine
 10
79.25735499999999
 20
-0.443128
 30
0.0
 11
79.24574299999999
 21
-0.305589
 31
0.0
  0
LINE
  5
738
330
1F
100
AcDbEntity
  8
1
  6
CONTINUOUS
370
50
 62
4
100
AcDbLine
 10
78.790787
 20
1.288833
 30
0.0
 11
78.783104
 21
1.378322
 31
0.0
  0
LINE
  5
739
330
1F
100
AcDbEntity
  8
1
  6
CONTINUOUS
370
50
 62
4
100
AcDbLine
 10
79.712234
 20
2.418836
 30
0.0
 11
79.70343
 21
2.516647
 31
0.0
  0
LINE
  5
73A
330
1F
100
AcDbEntity
  8
1
  6
CONTINUOUS
370
50
 62
4
100
AcDbLine
 10
79.72174799999999
 20
2.32138
 30
0.0
 11
79.712234
 21
2.418836
 31
0.0
  0
LINE
  5
73B
330
1F
100
AcDbEntity
  8
1
  6
CONTINUOUS
370
50
 62
4
100
AcDbLine
 10
79.271255
 20
-0.5812309999999999
 30
0.0
 11
79.25735499999999
 21
-0.443128
 31
0.0
  0
LINE
  5
73C
330
1F
100
AcDbEntity
  8
1
  6
CONTINUOUS
370
50
 62
4
100
AcDbLine
 10
79.732147
 20
2.223435
 30
0.0
 11
79.72174799999999
 21
2.32138
 31
0.0
  0
LINE
  5
73D
330
1F
100
AcDbEntity
  8
1
  6
CONTINUOUS
370
50
 62
4
100
AcDbLine
 10
79.74352999999999
 20
2.125376
 30
0.0
 11
79.732147
 21
2.223435
 31
0.0
  0
LINE
  5
73E
330
1F
100
AcDbEntity
  8
1
  6
CONTINUOUS
370
50
 62
4
100
AcDbLine
 10
79.287407
 20
-0.719692
 30
0.0
 11
79.271255
 21
-0.5812309999999999
 31
0.0
  0
LINE
  5
73F
330
1F
100
AcDbEntity
  8
1
  6
CONTINUOUS
370
50
 62
4
100
AcDbLine
 10
78.802071
 20
1.194705
 30
0.0
 11
78.790787
 21
1.288833
 31
0.0
  0
LINE
  5
740
330
1F
100
AcDbEntity
  8
1
  6
CONTINUOUS
370
50
 62
4
100
AcDbLine
 10
79.755951
 20
2.02781
 30
0.0
 11
79.74352999999999
 21
2.125376
 31
0.0
  0
LINE
  5
741
330
1F
100
AcDbEntity
  8
1
  6
CONTINUOUS
370
50
 62
4
100
AcDbLine
 10
79.305763
 20
-0.8583069999999999
 30
0.0
 11
79.287407
 21
-0.719692
 31
0.0
  0
LINE
  5
742
330
1F
100
AcDbEntity
  8
1
  6
CONTINUOUS
370
50
 62
4
100
AcDbLine
 10
79.326286
 20
-0.996869
 30
0.0
 11
79.305763
 21
-0.8583069999999999
 31
0.0
  0
LINE
  5
743
330
1F
100
AcDbEntity
  8
1
  6
CONTINUOUS
370
50
 62
4
100
AcDbLine
 10
78.81697799999999
 20
1.096009
 30
0.0
 11
78.802071
 21
1.194705
 31
0.0
  0
LINE
  5
744
330
1F
100
AcDbEntity
  8
1
  6
CONTINUOUS
370
50
 62
4
100
AcDbLine
 10
79.34893799999999
 20
-1.135174
 30
0.0
 11
79.326286
 21
-0.996869
 31
0.0
  0
LINE
  5
745
330
1F
100
AcDbEntity
  8
1
  6
CONTINUOUS
370
50
 62
4
100
AcDbLine
 10
79.373665
 20
-1.273015
 30
0.0
 11
79.34893799999999
 21
-1.135174
 31
0.0
  0
LINE
  5
746
330
1F
100
AcDbEntity
  8
1
  6
CONTINUOUS
370
50
 62
4
100
AcDbLine
 10
78.83547999999999
 20
0.9931209999999999
 30
0.0
 11
78.81697799999999
 21
1.096009
 31
0.0
  0
LINE
  5
747
330
1F
100
AcDbEntity
  8
1
  6
CONTINUOUS
370
50
 62
4
100
AcDbLine
 10
79.400436
 20
-1.410188
 30
0.0
 11
79.373665
 21
-1.273015
 31
0.0
  0
LINE
  5
748
330
1F
100
AcDbEntity
  8
1
  6
CONTINUOUS
370
50
 62
4
100
AcDbLine
 10
78.857422
 20
0.8869229999999999
 30
0.0
 11
78.83547999999999
 21
0.9931209999999999
 31
0.0
  0
LINE
  5
749
330
1F
100
AcDbEntity
  8
1
  6
CONTINUOUS
370
50
 62
4
100
AcDbLine
 10
79.42912299999999
 20
-1.546089
 30
0.0
 11
79.400436
 21
-1.410188
 31
0.0
  0
LINE
  5
74A
330
1F
100
AcDbEntity
  8
1
  6
CONTINUOUS
370
50
 62
4
100
AcDbLine
 10
79.459572
 20
-1.680165
 30
0.0
 11
79.42912299999999
 21
-1.546089
 31
0.0
  0
LINE
  5
74B
330
1F
100
AcDbEntity
  8
1
  6
CONTINUOUS
370
50
 62
4
100
AcDbLine
 10
78.88272099999999
 20
0.777639
 30
0.0
 11
78.857422
 21
0.8869229999999999
 31
0.0
  0
LINE
  5
74C
330
1F
100
AcDbEntity
  8
1
  6
CONTINUOUS
370
50
 62
4
100
AcDbLine
 10
79.491722
 20
-1.812249
 30
0.0
 11
79.459572
 21
-1.680165
 31
0.0
  0
LINE
  5
74D
330
1F
100
AcDbEntity
  8
1
  6
CONTINUOUS
370
50
 62
4
100
AcDbLine
 10
78.911293
 20
0.665459
 30
0.0
 11
78.88272099999999
 21
0.777639
 31
0.0
  0
LINE
  5
74E
330
1F
100
AcDbEntity
  8
1
  6
CONTINUOUS
370
50
 62
4
100
AcDbLine
 10
79.525505
 20
-1.942172
 30
0.0
 11
79.491722
 21
-1.812249
 31
0.0
  0
LINE
  5
74F
330
1F
100
AcDbEntity
  8
1
  6
CONTINUOUS
370
50
 62
4
100
AcDbLine
 10
43.308563
 20
3.092516
 30
0.0
 11
43.30519899999999
 21
3.105437
 31
0.0
  0
LINE
  5
750
330
1F
100
AcDbEntity
  8
1
  6
CONTINUOUS
370
50
 62
4
100
AcDbLine
 10
78.943069
 20
0.55057
 30
0.0
 11
78.911293
 21
0.665459
 31
0.0
  0
LINE
  5
751
330
1F
100
AcDbEntity
  8
1
  6
CONTINUOUS
370
50
 62
4
100
AcDbLine
 10
79.560844
 20
-2.069766
 30
0.0
 11
79.525505
 21
-1.942172
 31
0.0
  0
LINE
  5
752
330
1F
100
AcDbEntity
  8
1
  6
CONTINUOUS
370
50
 62
4
100
AcDbLine
 10
79.597672
 20
-2.194851
 30
0.0
 11
79.560844
 21
-2.069766
 31
0.0
  0
LINE
  5
753
330
1F
100
AcDbEntity
  8
1
  6
CONTINUOUS
370
50
 62
4
100
AcDbLine
 10
78.977982
 20
0.433163
 30
0.0
 11
78.943069
 21
0.55057
 31
0.0
  0
LINE
  5
754
330
1F
100
AcDbEntity
  8
1
  6
CONTINUOUS
370
50
 62
4
100
AcDbLine
 10
79.635834
 20
-2.317011
 30
0.0
 11
79.597672
 21
-2.194851
 31
0.0
  0
LINE
  5
755
330
1F
100
AcDbEntity
  8
1
  6
CONTINUOUS
370
50
 62
4
100
AcDbLine
 10
43.310001
 20
-2.96886
 30
0.0
 11
43.305626
 21
-2.95506
 31
0.0
  0
LINE
  5
756
330
1F
100
AcDbEntity
  8
1
  6
CONTINUOUS
370
50
 62
4
100
AcDbLine
 10
79.015945
 20
0.313427
 30
0.0
 11
78.977982
 21
0.433163
 31
0.0
  0
LINE
  5
757
330
1F
100
AcDbEntity
  8
1
  6
CONTINUOUS
370
50
 62
4
100
AcDbLine
 10
79.675224
 20
-2.436019
 30
0.0
 11
79.635834
 21
-2.317011
 31
0.0
  0
LINE
  5
758
330
1F
100
AcDbEntity
  8
1
  6
CONTINUOUS
370
50
 62
4
100
AcDbLine
 10
79.0569
 20
0.191562
 30
0.0
 11
79.015945
 21
0.313427
 31
0.0
  0
LINE
  5
759
330
1F
100
AcDbEntity
  8
1
  6
CONTINUOUS
370
50
 62
4
100
AcDbLine
 10
79.715775
 20
-2.551758
 30
0.0
 11
79.675224
 21
-2.436019
 31
0.0
  0
LINE
  5
75A
330
1F
100
AcDbEntity
  8
1
  6
CONTINUOUS
370
50
 62
4
100
AcDbLine
 10
79.100533
 20
0.068335
 30
0.0
 11
79.0569
 21
0.191562
 31
0.0
  0
LINE
  5
75B
330
1F
100
AcDbEntity
  8
1
  6
CONTINUOUS
370
50
 62
4
100
AcDbLine
 10
79.757408
 20
-2.664111
 30
0.0
 11
79.715775
 21
-2.551758
 31
0.0
  0
LINE
  5
75C
330
1F
100
AcDbEntity
  8
1
  6
CONTINUOUS
370
50
 62
4
100
AcDbLine
 10
79.146637
 20
-0.055728
 30
0.0
 11
79.100533
 21
0.068335
 31
0.0
  0
LINE
  5
75D
330
1F
100
AcDbEntity
  8
1
  6
CONTINUOUS
370
50
 62
4
100
AcDbLine
 10
79.195076
 20
-0.180433
 30
0.0
 11
79.146637
 21
-0.055728
 31
0.0
  0
LINE
  5
75E
330
1F
100
AcDbEntity
  8
1
  6
CONTINUOUS
370
50
 62
4
100
AcDbLine
 10
79.800049
 20
-2.772962
 30
0.0
 11
79.757408
 21
-2.664111
 31
0.0
  0
LINE
  5
75F
330
1F
100
AcDbEntity
  8
1
  6
CONTINUOUS
370
50
 62
4
100
AcDbLine
 10
79.24574299999999
 20
-0.305589
 30
0.0
 11
79.195076
 21
-0.180433
 31
0.0
  0
LINE
  5
760
330
1F
100
AcDbEntity
  8
1
  6
CONTINUOUS
370
50
 62
4
100
AcDbLine
 10
43.316944
 20
3.080082
 30
0.0
 11
43.308563
 21
3.092516
 31
0.0
  0
LINE
  5
761
330
1F
100
AcDbEntity
  8
1
  6
CONTINUOUS
370
50
 62
4
100
AcDbLine
 10
43.31876
 20
-2.981763
 30
0.0
 11
43.310001
 21
-2.96886
 31
0.0
  0
LINE
  5
762
330
1F
100
AcDbEntity
  8
1
  6
CONTINUOUS
370
50
 62
4
100
AcDbLine
 10
79.80000299999999
 20
0.282217
 30
0.0
 11
78.787567
 21
1.710847
 31
0.0
  0
LINE
  5
763
330
1F
100
AcDbEntity
  8
1
  6
CONTINUOUS
370
50
 62
4
100
AcDbLine
 10
50.40403
 20
-0.881388
 30
0.0
 11
50.0
 21
-0.432405
 31
0.0
  0
LINE
  5
764
330
1F
100
AcDbEntity
  8
1
  6
CONTINUOUS
370
50
 62
4
100
AcDbLine
 10
43.331604
 20
-2.993683
 30
0.0
 11
43.31876
 21
-2.981763
 31
0.0
  0
LINE
  5
765
330
1F
100
AcDbEntity
  8
1
  6
CONTINUOUS
370
50
 62
4
100
AcDbLine
 10
43.33004
 20
3.068301
 30
0.0
 11
43.316944
 21
3.080082
 31
0.0
  0
LINE
  5
766
330
1F
100
AcDbEntity
  8
1
  6
CONTINUOUS
370
50
 62
4
100
AcDbLine
 10
46.456928
 20
1.285282
 30
0.0
 11
46.210262
 21
1.504073
 31
0.0
  0
LINE
  5
767
330
1F
100
AcDbEntity
  8
1
  6
CONTINUOUS
370
50
 62
4
100
AcDbLine
 10
46.708534
 20
1.062803
 30
0.0
 11
46.456928
 21
1.285282
 31
0.0
  0
LINE
  5
768
330
1F
100
AcDbEntity
  8
1
  6
CONTINUOUS
370
50
 62
4
100
AcDbLine
 10
46.210262
 20
1.504073
 30
0.0
 11
45.962826
 21
1.718131
 31
0.0
  0
LINE
  5
769
330
1F
100
AcDbEntity
  8
1
  6
CONTINUOUS
370
50
 62
4
100
AcDbLine
 10
46.970791
 20
0.8376779999999999
 30
0.0
 11
46.708534
 21
1.062803
 31
0.0
  0
LINE
  5
76A
330
1F
100
AcDbEntity
  8
1
  6
CONTINUOUS
370
50
 62
4
100
AcDbLine
 10
45.962826
 20
1.718131
 30
0.0
 11
45.708904
 21
1.926413
 31
0.0
  0
LINE
  5
76B
330
1F
100
AcDbEntity
  8
1
  6
CONTINUOUS
370
50
 62
4
100
AcDbLine
 10
47.244862
 20
0.615174
 30
0.0
 11
46.970791
 21
0.8376779999999999
 31
0.0
  0
LINE
  5
76C
330
1F
100
AcDbEntity
  8
1
  6
CONTINUOUS
370
50
 62
4
100
AcDbLine
 10
45.708904
 20
1.926413
 30
0.0
 11
45.442787
 21
2.127875
 31
0.0
  0
LINE
  5
76D
330
1F
100
AcDbEntity
  8
1
  6
CONTINUOUS
370
50
 62
4
100
AcDbLine
 10
47.52121
 20
0.409421
 30
0.0
 11
47.244862
 21
0.615174
 31
0.0
  0
LINE
  5
76E
330
1F
100
AcDbEntity
  8
1
  6
CONTINUOUS
370
50
 62
4
100
AcDbLine
 10
49.999969
 20
3.499967
 30
0.0
 11
49.999958
 21
3.499975
 31
0.0
  0
LINE
  5
76F
330
1F
100
AcDbEntity
  8
1
  6
CONTINUOUS
370
50
 62
4
100
AcDbLine
 10
45.442787
 20
2.127875
 30
0.0
 11
45.158794
 21
2.321452
 31
0.0
  0
LINE
  5
770
330
1F
100
AcDbEntity
  8
1
  6
CONTINUOUS
370
50
 62
4
100
AcDbLine
 10
47.801975
 20
0.222549
 30
0.0
 11
47.52121
 21
0.409421
 31
0.0
  0
LINE
  5
771
330
1F
100
AcDbEntity
  8
1
  6
CONTINUOUS
370
50
 62
4
100
AcDbLine
 10
43.347839
 20
-3.004416
 30
0.0
 11
43.331604
 21
-2.993683
 31
0.0
  0
LINE
  5
772
330
1F
100
AcDbEntity
  8
1
  6
CONTINUOUS
370
50
 62
4
100
AcDbLine
 10
50.899975
 20
-1.206418
 30
0.0
 11
50.40403
 21
-0.881388
 31
0.0
  0
LINE
  5
773
330
1F
100
AcDbEntity
  8
1
  6
CONTINUOUS
370
50
 62
4
100
AcDbLine
 10
43.346905
 20
3.057588
 30
0.0
 11
43.33004
 21
3.068301
 31
0.0
  0
LINE
  5
774
330
1F
100
AcDbEntity
  8
1
  6
CONTINUOUS
370
50
 62
4
100
AcDbLine
 10
49.99994299999999
 20
3.499983
 30
0.0
 11
49.999928
 21
3.499992
 31
0.0
  0
LINE
  5
775
330
1F
100
AcDbEntity
  8
1
  6
CONTINUOUS
370
50
 62
4
100
AcDbLine
 10
45.158794
 20
2.321452
 30
0.0
 11
44.862759
 21
2.498507
 31
0.0
  0
LINE
  5
776
330
1F
100
AcDbEntity
  8
1
  6
CONTINUOUS
370
50
 62
4
100
AcDbLine
 10
72.739914
 20
0.0
 30
0.0
 11
72.70968599999999
 21
0.017623
 31
0.0
  0
LINE
  5
777
330
1F
100
AcDbEntity
  8
1
  6
CONTINUOUS
370
50
 62
4
100
AcDbLine
 10
72.588905
 20
0.087811
 30
0.0
 11
72.558762
 21
0.105343
 31
0.0
  0
LINE
  5
778
330
1F
100
AcDbEntity
  8
1
  6
CONTINUOUS
370
50
 62
4
100
AcDbLine
 10
72.619072
 20
0.070273
 30
0.0
 11
72.588905
 21
0.087811
 31
0.0
  0
LINE
  5
779
330
1F
100
AcDbEntity
  8
1
  6
CONTINUOUS
370
50
 62
4
100
AcDbLine
 10
72.649254
 20
0.052729
 30
0.0
 11
72.619072
 21
0.070273
 31
0.0
  0
LINE
  5
77A
330
1F
100
AcDbEntity
  8
1
  6
CONTINUOUS
370
50
 62
4
100
AcDbLine
 10
72.679459
 20
0.035179
 30
0.0
 11
72.649254
 21
0.052729
 31
0.0
  0
LINE
  5
77B
330
1F
100
AcDbEntity
  8
1
  6
CONTINUOUS
370
50
 62
4
100
AcDbLine
 10
72.70968599999999
 20
0.017623
 30
0.0
 11
72.679459
 21
0.035179
 31
0.0
  0
LINE
  5
77C
330
1F
100
AcDbEntity
  8
1
  6
CONTINUOUS
370
50
 62
4
100
AcDbLine
 10
59.585297
 20
0.264286
 30
0.0
 11
59.311756
 21
0.42278
 31
0.0
  0
LINE
  5
77D
330
1F
100
AcDbEntity
  8
1
  6
CONTINUOUS
370
50
 62
4
100
AcDbLine
 10
48.09023999999999
 20
0.055774
 30
0.0
 11
47.801975
 21
0.222549
 31
0.0
  0
LINE
  5
77E
330
1F
100
AcDbEntity
  8
1
  6
CONTINUOUS
370
50
 62
4
100
AcDbLine
 10
72.558762
 20
0.105343
 30
0.0
 11
71.974228
 21
0.443358
 31
0.0
  0
LINE
  5
77F
330
1F
100
AcDbEntity
  8
1
  6
CONTINUOUS
370
50
 62
4
100
AcDbLine
 10
62.126785
 20
-0.321583
 30
0.0
 11
61.570297
 21
0.0
 31
0.0
  0
LINE
  5
780
330
1F
100
AcDbEntity
  8
1
  6
CONTINUOUS
370
50
 62
4
100
AcDbLine
 10
42.597988
 20
3.5
 30
0.0
 11
40.0
 21
4.99995
 31
0.0
  0
LINE
  5
781
330
1F
100
AcDbEntity
  8
1
  6
CONTINUOUS
370
50
 62
4
100
AcDbLine
 10
59.861282
 20
0.104997
 30
0.0
 11
59.585297
 21
0.264286
 31
0.0
  0
LINE
  5
782
330
1F
100
AcDbEntity
  8
1
  6
CONTINUOUS
370
50
 62
4
100
AcDbLine
 10
73.104164
 20
-0.210046
 30
0.0
 11
72.739914
 21
0.0
 31
0.0
  0
LINE
  5
783
330
1F
100
AcDbEntity
  8
1
  6
CONTINUOUS
370
50
 62
4
100
AcDbLine
 10
74.26503799999999
 20
0.0
 30
0.0
 11
73.682953
 21
0.335331
 31
0.0
  0
LINE
  5
784
330
1F
100
AcDbEntity
  8
1
  6
CONTINUOUS
370
50
 62
4
100
AcDbLine
 10
59.891685
 20
0.087492
 30
0.0
 11
59.861282
 21
0.104997
 31
0.0
  0
LINE
  5
785
330
1F
100
AcDbEntity
  8
1
  6
CONTINUOUS
370
50
 62
4
100
AcDbLine
 10
59.922096
 20
0.069988
 30
0.0
 11
59.891685
 21
0.087492
 31
0.0
  0
LINE
  5
786
330
1F
100
AcDbEntity
  8
1
  6
CONTINUOUS
370
50
 62
4
100
AcDbLine
 10
59.952518
 20
0.052487
 30
0.0
 11
59.922096
 21
0.069988
 31
0.0
  0
LINE
  5
787
330
1F
100
AcDbEntity
  8
1
  6
CONTINUOUS
370
50
 62
4
100
AcDbLine
 10
59.311756
 20
0.42278
 30
0.0
 11
59.03677
 21
0.580944
 31
0.0
  0
LINE
  5
788
330
1F
100
AcDbEntity
  8
1
  6
CONTINUOUS
370
50
 62
4
100
AcDbLine
 10
59.982948
 20
0.034987
 30
0.0
 11
59.952518
 21
0.052487
 31
0.0
  0
LINE
  5
789
330
1F
100
AcDbEntity
  8
1
  6
CONTINUOUS
370
50
 62
4
100
AcDbLine
 10
60.013386
 20
0.01749
 30
0.0
 11
59.982948
 21
0.034987
 31
0.0
  0
LINE
  5
78A
330
1F
100
AcDbEntity
  8
1
  6
CONTINUOUS
370
50
 62
4
100
AcDbLine
 10
61.570297
 20
0.0
 30
0.0
 11
61.191864
 21
0.217442
 31
0.0
  0
LINE
  5
78B
330
1F
100
AcDbEntity
  8
1
  6
CONTINUOUS
370
50
 62
4
100
AcDbLine
 10
74.771294
 20
-0.290825
 30
0.0
 11
74.265053
 21
0.000026
 31
0.0
  0
LINE
  5
78C
330
1F
100
AcDbEntity
  8
1
  6
CONTINUOUS
370
50
 62
4
100
AcDbLine
 10
60.043831
 20
0.0
 30
0.0
 11
60.013386
 21
0.01749
 31
0.0
  0
LINE
  5
78D
330
1F
100
AcDbEntity
  8
1
  6
CONTINUOUS
370
50
 62
4
100
AcDbLine
 10
75.276146
 20
-0.580777
 30
0.0
 11
74.771294
 21
-0.290825
 31
0.0
  0
LINE
  5
78E
330
1F
100
AcDbEntity
  8
1
  6
CONTINUOUS
370
50
 62
4
100
AcDbLine
 10
60.597706
 20
-0.317522
 30
0.0
 11
60.043831
 21
0.0
 31
0.0
  0
LINE
  5
78F
330
1F
100
AcDbEntity
  8
1
  6
CONTINUOUS
370
50
 62
4
100
AcDbLine
 10
73.682953
 20
0.335331
 30
0.0
 11
73.104027
 21
0.667173
 31
0.0
  0
LINE
  5
790
330
1F
100
AcDbEntity
  8
1
  6
CONTINUOUS
370
50
 62
4
100
AcDbLine
 10
62.684559
 20
-0.641274
 30
0.0
 11
62.126785
 21
-0.321583
 31
0.0
  0
LINE
  5
791
330
1F
100
AcDbEntity
  8
1
  6
CONTINUOUS
370
50
 62
4
100
AcDbLine
 10
61.191864
 20
0.217442
 30
0.0
 11
60.813419
 21
0.434344
 31
0.0
  0
LINE
  5
792
330
1F
100
AcDbEntity
  8
1
  6
CONTINUOUS
370
50
 62
4
100
AcDbLine
 10
61.14600799999999
 20
-0.631477
 30
0.0
 11
60.597706
 21
-0.317522
 31
0.0
  0
LINE
  5
793
330
1F
100
AcDbEntity
  8
1
  6
CONTINUOUS
370
50
 62
4
100
AcDbLine
 10
73.47039
 20
-0.419404
 30
0.0
 11
73.104164
 21
-0.210046
 31
0.0
  0
LINE
  5
794
330
1F
100
AcDbEntity
  8
1
  6
CONTINUOUS
370
50
 62
4
100
AcDbLine
 10
60.813419
 20
0.434344
 30
0.0
 11
60.43648899999999
 21
0.649755
 31
0.0
  0
LINE
  5
795
330
1F
100
AcDbEntity
  8
1
  6
CONTINUOUS
370
50
 62
4
100
AcDbLine
 10
73.836365
 20
-0.627267
 30
0.0
 11
73.47039
 21
-0.419404
 31
0.0
  0
LINE
  5
796
330
1F
100
AcDbEntity
  8
1
  6
CONTINUOUS
370
50
 62
4
100
AcDbLine
 10
51.233315
 20
-2.046986
 30
0.0
 11
50.963207
 21
-1.894
 31
0.0
  0
LINE
  5
797
330
1F
100
AcDbEntity
  8
1
  6
CONTINUOUS
370
50
 62
4
100
AcDbLine
 10
75.78042599999999
 20
-0.866383
 30
0.0
 11
75.276146
 21
-0.580777
 31
0.0
  0
LINE
  5
798
330
1F
100
AcDbEntity
  8
1
  6
CONTINUOUS
370
50
 62
4
100
AcDbLine
 10
59.03677
 20
0.580944
 30
0.0
 11
58.758289
 21
0.738622
 31
0.0
  0
LINE
  5
799
330
1F
100
AcDbEntity
  8
1
  6
CONTINUOUS
370
50
 62
4
100
AcDbLine
 10
60.43648899999999
 20
0.649755
 30
0.0
 11
60.059399
 21
0.86305
 31
0.0
  0
LINE
  5
79A
330
1F
100
AcDbEntity
  8
1
  6
CONTINUOUS
370
50
 62
4
100
AcDbLine
 10
74.199745
 20
-0.832679
 30
0.0
 11
73.836365
 21
-0.627267
 31
0.0
  0
LINE
  5
79B
330
1F
100
AcDbEntity
  8
1
  6
CONTINUOUS
370
50
 62
4
100
AcDbLine
 10
71.974228
 20
0.443358
 30
0.0
 11
71.381378
 21
0.778484
 31
0.0
  0
LINE
  5
79C
330
1F
100
AcDbEntity
  8
1
  6
CONTINUOUS
370
50
 62
4
100
AcDbLine
 10
61.69122299999999
 20
-0.9396009999999999
 30
0.0
 11
61.14600799999999
 21
-0.631477
 31
0.0
  0
LINE
  5
79D
330
1F
100
AcDbEntity
  8
1
  6
CONTINUOUS
370
50
 62
4
100
AcDbLine
 10
49.999985
 20
3.499958
 30
0.0
 11
49.999969
 21
3.499967
 31
0.0
  0
LINE
  5
79E
330
1F
100
AcDbEntity
  8
1
  6
CONTINUOUS
370
50
 62
4
100
AcDbLine
 10
73.104027
 20
0.667173
 30
0.0
 11
72.522171
 21
0.9929709999999999
 31
0.0
  0
LINE
  5
79F
330
1F
100
AcDbEntity
  8
1
  6
CONTINUOUS
370
50
 62
4
100
AcDbLine
 10
63.245796
 20
-0.9553149999999999
 30
0.0
 11
62.684559
 21
-0.641274
 31
0.0
  0
LINE
  5
7A0
330
1F
100
AcDbEntity
  8
1
  6
CONTINUOUS
370
50
 62
4
100
AcDbLine
 10
74.560707
 20
-1.034595
 30
0.0
 11
74.199745
 21
-0.832679
 31
0.0
  0
LINE
  5
7A1
330
1F
100
AcDbEntity
  8
1
  6
CONTINUOUS
370
50
 62
4
100
AcDbLine
 10
58.758289
 20
0.738622
 30
0.0
 11
58.479015
 21
0.8945609999999999
 31
0.0
  0
LINE
  5
7A2
330
1F
100
AcDbEntity
  8
1
  6
CONTINUOUS
370
50
 62
4
100
AcDbLine
 10
71.381378
 20
0.778484
 30
0.0
 11
70.789749
 21
1.106921
 31
0.0
  0
LINE
  5
7A3
330
1F
100
AcDbEntity
  8
1
  6
CONTINUOUS
370
50
 62
4
100
AcDbLine
 10
60.059399
 20
0.86305
 30
0.0
 11
59.680687
 21
1.073268
 31
0.0
  0
LINE
  5
7A4
330
1F
100
AcDbEntity
  8
1
  6
CONTINUOUS
370
50
 62
4
100
AcDbLine
 10
58.479015
 20
0.8945609999999999
 30
0.0
 11
58.19976399999999
 21
1.048513
 31
0.0
  0
LINE
  5
7A5
330
1F
100
AcDbEntity
  8
1
  6
CONTINUOUS
370
50
 62
4
100
AcDbLine
 10
76.28524
 20
-1.144622
 30
0.0
 11
75.78042599999999
 21
-0.866383
 31
0.0
  0
LINE
  5
7A6
330
1F
100
AcDbEntity
  8
1
  6
CONTINUOUS
370
50
 62
4
100
AcDbLine
 10
59.86129
 20
0.105016
 30
0.0
 11
59.481922
 21
0.313672
 31
0.0
  0
LINE
  5
7A7
330
1F
100
AcDbEntity
  8
1
  6
CONTINUOUS
370
50
 62
4
100
AcDbLine
 10
59.481922
 20
0.313672
 30
0.0
 11
59.102608
 21
0.522232
 31
0.0
  0
LINE
  5
7A8
330
1F
100
AcDbEntity
  8
1
  6
CONTINUOUS
370
50
 62
4
100
AcDbLine
 10
74.92236299999999
 20
-1.232746
 30
0.0
 11
74.560707
 21
-1.034595
 31
0.0
  0
LINE
  5
7A9
330
1F
100
AcDbEntity
  8
1
  6
CONTINUOUS
370
50
 62
4
100
AcDbLine
 10
63.804787
 20
-1.261276
 30
0.0
 11
63.245796
 21
-0.9553149999999999
 31
0.0
  0
LINE
  5
7AA
330
1F
100
AcDbEntity
  8
1
  6
CONTINUOUS
370
50
 62
4
100
AcDbLine
 10
62.243565
 20
-1.241134
 30
0.0
 11
61.69122299999999
 21
-0.9396009999999999
 31
0.0
  0
LINE
  5
7AB
330
1F
100
AcDbEntity
  8
1
  6
CONTINUOUS
370
50
 62
4
100
AcDbLine
 10
58.19976399999999
 20
1.048513
 30
0.0
 11
57.92136
 21
1.200227
 31
0.0
  0
LINE
  5
7AC
330
1F
100
AcDbEntity
  8
1
  6
CONTINUOUS
370
50
 62
4
100
AcDbLine
 10
72.522171
 20
0.9929709999999999
 30
0.0
 11
71.93899499999999
 21
1.309823
 31
0.0
  0
LINE
  5
7AD
330
1F
100
AcDbEntity
  8
1
  6
CONTINUOUS
370
50
 62
4
100
AcDbLine
 10
59.680687
 20
1.073268
 30
0.0
 11
59.301022
 21
1.278873
 31
0.0
  0
LINE
  5
7AE
330
1F
100
AcDbEntity
  8
1
  6
CONTINUOUS
370
50
 62
4
100
AcDbLine
 10
70.789749
 20
1.106921
 30
0.0
 11
70.20255999999999
 21
1.424847
 31
0.0
  0
LINE
  5
7AF
330
1F
100
AcDbEntity
  8
1
  6
CONTINUOUS
370
50
 62
4
100
AcDbLine
 10
50.963207
 20
-1.894
 30
0.0
 11
50.811878
 21
-1.812126
 31
0.0
  0
LINE
  5
7B0
330
1F
100
AcDbEntity
  8
1
  6
CONTINUOUS
370
50
 62
4
100
AcDbLine
 10
57.92136
 20
1.200227
 30
0.0
 11
57.645424
 21
1.349112
 31
0.0
  0
LINE
  5
7B1
330
1F
100
AcDbEntity
  8
1
  6
CONTINUOUS
370
50
 62
4
100
AcDbLine
 10
59.102608
 20
0.522232
 30
0.0
 11
58.723301
 21
0.726831
 31
0.0
  0
LINE
  5
7B2
330
1F
100
AcDbEntity
  8
1
  6
CONTINUOUS
370
50
 62
4
100
AcDbLine
 10
51.510796
 20
-2.196107
 30
0.0
 11
51.233315
 21
-2.046986
 31
0.0
  0
LINE
  5
7B3
330
1F
100
AcDbEntity
  8
1
  6
CONTINUOUS
370
50
 62
4
100
AcDbLine
 10
76.787666
 20
-1.41417
 30
0.0
 11
76.28524
 21
-1.144622
 31
0.0
  0
LINE
  5
7B4
330
1F
100
AcDbEntity
  8
1
  6
CONTINUOUS
370
50
 62
4
100
AcDbLine
 10
50.0
 20
3.49995
 30
0.0
 11
49.999985
 21
3.499958
 31
0.0
  0
LINE
  5
7B5
330
1F
100
AcDbEntity
  8
1
  6
CONTINUOUS
370
50
 62
4
100
AcDbLine
 10
49.999958
 20
3.499975
 30
0.0
 11
49.99994299999999
 21
3.499983
 31
0.0
  0
LINE
  5
7B6
330
1F
100
AcDbEntity
  8
1
  6
CONTINUOUS
370
50
 62
4
100
AcDbLine
 10
57.645424
 20
1.349112
 30
0.0
 11
57.371468
 21
1.494794
 31
0.0
  0
LINE
  5
7B7
330
1F
100
AcDbEntity
  8
1
  6
CONTINUOUS
370
50
 62
4
100
AcDbLine
 10
75.28744499999999
 20
-1.42683
 30
0.0
 11
74.92236299999999
 21
-1.232746
 31
0.0
  0
LINE
  5
7B8
330
1F
100
AcDbEntity
  8
1
  6
CONTINUOUS
370
50
 62
4
100
AcDbLine
 10
64.361542
 20
-1.556397
 30
0.0
 11
63.804787
 21
-1.261276
 31
0.0
  0
LINE
  5
7B9
330
1F
100
AcDbEntity
  8
1
  6
CONTINUOUS
370
50
 62
4
100
AcDbLine
 10
58.723301
 20
0.726831
 30
0.0
 11
58.343925
 21
0.9277719999999999
 31
0.0
  0
LINE
  5
7BA
330
1F
100
AcDbEntity
  8
1
  6
CONTINUOUS
370
50
 62
4
100
AcDbLine
 10
59.301022
 20
1.278873
 30
0.0
 11
58.922062
 21
1.479419
 31
0.0
  0
LINE
  5
7BB
330
1F
100
AcDbEntity
  8
1
  6
CONTINUOUS
370
50
 62
4
100
AcDbLine
 10
62.797256
 20
-1.533585
 30
0.0
 11
62.243565
 21
-1.241134
 31
0.0
  0
LINE
  5
7BC
330
1F
100
AcDbEntity
  8
1
  6
CONTINUOUS
370
50
 62
4
100
AcDbLine
 10
71.93899499999999
 20
1.309823
 30
0.0
 11
71.359825
 21
1.614438
 31
0.0
  0
LINE
  5
7BD
330
1F
100
AcDbEntity
  8
1
  6
CONTINUOUS
370
50
 62
4
100
AcDbLine
 10
58.343925
 20
0.9277719999999999
 30
0.0
 11
57.96446599999999
 21
1.125457
 31
0.0
  0
LINE
  5
7BE
330
1F
100
AcDbEntity
  8
1
  6
CONTINUOUS
370
50
 62
4
100
AcDbLine
 10
57.371468
 20
1.494794
 30
0.0
 11
57.096619
 21
1.637511
 31
0.0
  0
LINE
  5
7BF
330
1F
100
AcDbEntity
  8
1
  6
CONTINUOUS
370
50
 62
4
100
AcDbLine
 10
77.28897099999999
 20
-1.67438
 30
0.0
 11
76.787666
 21
-1.41417
 31
0.0
  0
LINE
  5
7C0
330
1F
100
AcDbEntity
  8
1
  6
CONTINUOUS
370
50
 62
4
100
AcDbLine
 10
75.653786
 20
-1.616123
 30
0.0
 11
75.28744499999999
 21
-1.42683
 31
0.0
  0
LINE
  5
7C1
330
1F
100
AcDbEntity
  8
1
  6
CONTINUOUS
370
50
 62
4
100
AcDbLine
 10
58.922062
 20
1.479419
 30
0.0
 11
58.545258
 21
1.674031
 31
0.0
  0
LINE
  5
7C2
330
1F
100
AcDbEntity
  8
1
  6
CONTINUOUS
370
50
 62
4
100
AcDbLine
 10
70.20255999999999
 20
1.424847
 30
0.0
 11
69.606506
 21
1.730412
 31
0.0
  0
LINE
  5
7C3
330
1F
100
AcDbEntity
  8
1
  6
CONTINUOUS
370
50
 62
4
100
AcDbLine
 10
57.96446599999999
 20
1.125457
 30
0.0
 11
57.584972
 21
1.319986
 31
0.0
  0
LINE
  5
7C4
330
1F
100
AcDbEntity
  8
1
  6
CONTINUOUS
370
50
 62
4
100
AcDbLine
 10
44.862759
 20
2.498507
 30
0.0
 11
44.559544
 21
2.653611
 31
0.0
  0
LINE
  5
7C5
330
1F
100
AcDbEntity
  8
1
  6
CONTINUOUS
370
50
 62
4
100
AcDbLine
 10
63.344841
 20
-1.813226
 30
0.0
 11
62.797256
 21
-1.533585
 31
0.0
  0
LINE
  5
7C6
330
1F
100
AcDbEntity
  8
1
  6
CONTINUOUS
370
50
 62
4
100
AcDbLine
 10
51.805511
 20
-2.345911
 30
0.0
 11
51.510796
 21
-2.196107
 31
0.0
  0
LINE
  5
7C7
330
1F
100
AcDbEntity
  8
1
  6
CONTINUOUS
370
50
 62
4
100
AcDbLine
 10
64.92144
 20
-1.838526
 30
0.0
 11
64.361542
 21
-1.556397
 31
0.0
  0
LINE
  5
7C8
330
1F
100
AcDbEntity
  8
1
  6
CONTINUOUS
370
50
 62
4
100
AcDbLine
 10
43.36668
 20
-3.013908
 30
0.0
 11
43.347839
 21
-3.004416
 31
0.0
  0
LINE
  5
7C9
330
1F
100
AcDbEntity
  8
1
  6
CONTINUOUS
370
50
 62
4
100
AcDbLine
 10
76.018562
 20
-1.799778
 30
0.0
 11
75.653786
 21
-1.616123
 31
0.0
  0
LINE
  5
7CA
330
1F
100
AcDbEntity
  8
1
  6
CONTINUOUS
370
50
 62
4
100
AcDbLine
 10
57.096619
 20
1.637511
 30
0.0
 11
56.818645
 21
1.777332
 31
0.0
  0
LINE
  5
7CB
330
1F
100
AcDbEntity
  8
1
  6
CONTINUOUS
370
50
 62
4
100
AcDbLine
 10
57.584972
 20
1.319986
 30
0.0
 11
57.205551
 21
1.510043
 31
0.0
  0
LINE
  5
7CC
330
1F
100
AcDbEntity
  8
1
  6
CONTINUOUS
370
50
 62
4
100
AcDbLine
 10
49.999928
 20
3.499992
 30
0.0
 11
49.99991199999999
 21
3.5
 31
0.0
  0
LINE
  5
7CD
330
1F
100
AcDbEntity
  8
1
  6
CONTINUOUS
370
50
 62
4
100
AcDbLine
 10
58.545258
 20
1.674031
 30
0.0
 11
58.169582
 21
1.861839
 31
0.0
  0
LINE
  5
7CE
330
1F
100
AcDbEntity
  8
1
  6
CONTINUOUS
370
50
 62
4
100
AcDbLine
 10
71.359825
 20
1.614438
 30
0.0
 11
70.779709
 21
1.903946
 31
0.0
  0
LINE
  5
7CF
330
1F
100
AcDbEntity
  8
1
  6
CONTINUOUS
370
50
 62
4
100
AcDbLine
 10
77.79201499999999
 20
-1.922879
 30
0.0
 11
77.28897099999999
 21
-1.67438
 31
0.0
  0
LINE
  5
7D0
330
1F
100
AcDbEntity
  8
1
  6
CONTINUOUS
370
50
 62
4
100
AcDbLine
 10
52.716324
 20
-2.066414
 30
0.0
 11
52.271412
 21
-1.846997
 31
0.0
  0
LINE
  5
7D1
330
1F
100
AcDbEntity
  8
1
  6
CONTINUOUS
370
50
 62
4
100
AcDbLine
 10
50.069702
 20
2.214349
 30
0.0
 11
50.0
 21
2.24854
 31
0.0
  0
LINE
  5
7D2
330
1F
100
AcDbEntity
  8
1
  6
CONTINUOUS
370
50
 62
4
100
AcDbLine
 10
76.380455
 20
-1.976548
 30
0.0
 11
76.018562
 21
-1.799778
 31
0.0
  0
LINE
  5
7D3
330
1F
100
AcDbEntity
  8
1
  6
CONTINUOUS
370
50
 62
4
100
AcDbLine
 10
56.818645
 20
1.777332
 30
0.0
 11
56.539379
 21
1.913449
 31
0.0
  0
LINE
  5
7D4
330
1F
100
AcDbEntity
  8
1
  6
CONTINUOUS
370
50
 62
4
100
AcDbLine
 10
48.389084
 20
-0.089687
 30
0.0
 11
48.09023999999999
 21
0.055774
 31
0.0
  0
LINE
  5
7D5
330
1F
100
AcDbEntity
  8
1
  6
CONTINUOUS
370
50
 62
4
100
AcDbLine
 10
69.606506
 20
1.730412
 30
0.0
 11
69.0121
 21
2.019153
 31
0.0
  0
LINE
  5
7D6
330
1F
100
AcDbEntity
  8
1
  6
CONTINUOUS
370
50
 62
4
100
AcDbLine
 10
43.36668
 20
3.047982
 30
0.0
 11
43.346905
 21
3.057588
 31
0.0
  0
LINE
  5
7D7
330
1F
100
AcDbEntity
  8
1
  6
CONTINUOUS
370
50
 62
4
100
AcDbLine
 10
57.205551
 20
1.510043
 30
0.0
 11
56.826271
 21
1.692673
 31
0.0
  0
LINE
  5
7D8
330
1F
100
AcDbEntity
  8
1
  6
CONTINUOUS
370
50
 62
4
100
AcDbLine
 10
58.169582
 20
1.861839
 30
0.0
 11
57.793098
 21
2.042341
 31
0.0
  0
LINE
  5
7D9
330
1F
100
AcDbEntity
  8
1
  6
CONTINUOUS
370
50
 62
4
100
AcDbLine
 10
63.899727
 20
-2.078852
 30
0.0
 11
63.344841
 21
-1.813226
 31
0.0
  0
LINE
  5
7DA
330
1F
100
AcDbEntity
  8
1
  6
CONTINUOUS
370
50
 62
4
100
AcDbLine
 10
53.153049
 20
-2.27469
 30
0.0
 11
52.716324
 21
-2.066414
 31
0.0
  0
LINE
  5
7DB
330
1F
100
AcDbEntity
  8
1
  6
CONTINUOUS
370
50
 62
4
100
AcDbLine
 10
65.48252099999999
 20
-2.105202
 30
0.0
 11
64.92144
 21
-1.838526
 31
0.0
  0
LINE
  5
7DC
330
1F
100
AcDbEntity
  8
1
  6
CONTINUOUS
370
50
 62
4
100
AcDbLine
 10
52.271412
 20
-1.846997
 30
0.0
 11
51.822304
 21
-1.634419
 31
0.0
  0
LINE
  5
7DD
330
1F
100
AcDbEntity
  8
1
  6
CONTINUOUS
370
50
 62
4
100
AcDbLine
 10
56.539379
 20
1.913449
 30
0.0
 11
56.259865
 21
2.045556
 31
0.0
  0
LINE
  5
7DE
330
1F
100
AcDbEntity
  8
1
  6
CONTINUOUS
370
50
 62
4
100
AcDbLine
 10
76.743057
 20
-2.146223
 30
0.0
 11
76.380455
 21
-1.976548
 31
0.0
  0
LINE
  5
7DF
330
1F
100
AcDbEntity
  8
1
  6
CONTINUOUS
370
50
 62
4
100
AcDbLine
 10
70.779709
 20
1.903946
 30
0.0
 11
70.19575499999999
 21
2.176511
 31
0.0
  0
LINE
  5
7E0
330
1F
100
AcDbEntity
  8
1
  6
CONTINUOUS
370
50
 62
4
100
AcDbLine
 10
78.297829
 20
-2.1582
 30
0.0
 11
77.79201499999999
 21
-1.922879
 31
0.0
  0
LINE
  5
7E1
330
1F
100
AcDbEntity
  8
1
  6
CONTINUOUS
370
50
 62
4
100
AcDbLine
 10
51.361004
 20
-1.420819
 30
0.0
 11
50.899975
 21
-1.206418
 31
0.0
  0
LINE
  5
7E2
330
1F
100
AcDbEntity
  8
1
  6
CONTINUOUS
370
50
 62
4
100
AcDbLine
 10
51.822304
 20
-1.634419
 30
0.0
 11
51.361004
 21
-1.420819
 31
0.0
  0
LINE
  5
7E3
330
1F
100
AcDbEntity
  8
1
  6
CONTINUOUS
370
50
 62
4
100
AcDbLine
 10
56.826271
 20
1.692673
 30
0.0
 11
56.44706
 21
1.868052
 31
0.0
  0
LINE
  5
7E4
330
1F
100
AcDbEntity
  8
1
  6
CONTINUOUS
370
50
 62
4
100
AcDbLine
 10
56.259865
 20
2.045556
 30
0.0
 11
55.980808
 21
2.173452
 31
0.0
  0
LINE
  5
7E5
330
1F
100
AcDbEntity
  8
1
  6
CONTINUOUS
370
50
 62
4
100
AcDbLine
 10
69.0121
 20
2.019153
 30
0.0
 11
68.425232
 21
2.287695
 31
0.0
  0
LINE
  5
7E6
330
1F
100
AcDbEntity
  8
1
  6
CONTINUOUS
370
50
 62
4
100
AcDbLine
 10
57.793098
 20
2.042341
 30
0.0
 11
57.41490899999999
 21
2.214636
 31
0.0
  0
LINE
  5
7E7
330
1F
100
AcDbEntity
  8
1
  6
CONTINUOUS
370
50
 62
4
100
AcDbLine
 10
50.13935499999999
 20
2.18287
 30
0.0
 11
50.069702
 21
2.214349
 31
0.0
  0
LINE
  5
7E8
330
1F
100
AcDbEntity
  8
1
  6
CONTINUOUS
370
50
 62
4
100
AcDbLine
 10
52.251808
 20
-2.547287
 30
0.0
 11
51.805511
 21
-2.345911
 31
0.0
  0
LINE
  5
7E9
330
1F
100
AcDbEntity
  8
1
  6
CONTINUOUS
370
50
 62
4
100
AcDbLine
 10
66.04039
 20
-2.354027
 30
0.0
 11
65.48252099999999
 21
-2.105202
 31
0.0
  0
LINE
  5
7EA
330
1F
100
AcDbEntity
  8
1
  6
CONTINUOUS
370
50
 62
4
100
AcDbLine
 10
64.45597099999999
 20
-2.326813
 30
0.0
 11
63.899727
 21
-2.078852
 31
0.0
  0
LINE
  5
7EB
330
1F
100
AcDbEntity
  8
1
  6
CONTINUOUS
370
50
 62
4
100
AcDbLine
 10
55.980808
 20
2.173452
 30
0.0
 11
55.70391799999999
 21
2.29655
 31
0.0
  0
LINE
  5
7EC
330
1F
100
AcDbEntity
  8
1
  6
CONTINUOUS
370
50
 62
4
100
AcDbLine
 10
77.108932
 20
-2.308571
 30
0.0
 11
76.743057
 21
-2.146223
 31
0.0
  0
LINE
  5
7ED
330
1F
100
AcDbEntity
  8
1
  6
CONTINUOUS
370
50
 62
4
100
AcDbLine
 10
56.44706
 20
1.868052
 30
0.0
 11
56.06788599999999
 21
2.036294
 31
0.0
  0
LINE
  5
7EE
330
1F
100
AcDbEntity
  8
1
  6
CONTINUOUS
370
50
 62
4
100
AcDbLine
 10
78.801414
 20
-2.379745
 30
0.0
 11
78.297829
 21
-2.1582
 31
0.0
  0
LINE
  5
7EF
330
1F
100
AcDbEntity
  8
1
  6
CONTINUOUS
370
50
 62
4
100
AcDbLine
 10
70.19575499999999
 20
2.176511
 30
0.0
 11
69.614449
 21
2.429598
 31
0.0
  0
LINE
  5
7F0
330
1F
100
AcDbEntity
  8
1
  6
CONTINUOUS
370
50
 62
4
100
AcDbLine
 10
57.41490899999999
 20
2.214636
 30
0.0
 11
57.037651
 21
2.378342
 31
0.0
  0
LINE
  5
7F1
330
1F
100
AcDbEntity
  8
1
  6
CONTINUOUS
370
50
 62
4
100
AcDbLine
 10
55.70391799999999
 20
2.29655
 30
0.0
 11
55.429752
 21
2.414089
 31
0.0
  0
LINE
  5
7F2
330
1F
100
AcDbEntity
  8
1
  6
CONTINUOUS
370
50
 62
4
100
AcDbLine
 10
44.559544
 20
2.653611
 30
0.0
 11
44.245281
 21
2.788184
 31
0.0
  0
LINE
  5
7F3
330
1F
100
AcDbEntity
  8
1
  6
CONTINUOUS
370
50
 62
4
100
AcDbLine
 10
53.61438399999999
 20
-2.47082
 30
0.0
 11
53.153049
 21
-2.27469
 31
0.0
  0
LINE
  5
7F4
330
1F
100
AcDbEntity
  8
1
  6
CONTINUOUS
370
50
 62
4
100
AcDbLine
 10
56.06788599999999
 20
2.036294
 30
0.0
 11
55.688797
 21
2.197193
 31
0.0
  0
LINE
  5
7F5
330
1F
100
AcDbEntity
  8
1
  6
CONTINUOUS
370
50
 62
4
100
AcDbLine
 10
77.47538
 20
-2.46295
 30
0.0
 11
77.108932
 21
-2.308571
 31
0.0
  0
LINE
  5
7F6
330
1F
100
AcDbEntity
  8
1
  6
CONTINUOUS
370
50
 62
4
100
AcDbLine
 10
68.425232
 20
2.287695
 30
0.0
 11
67.830597
 21
2.535502
 31
0.0
  0
LINE
  5
7F7
330
1F
100
AcDbEntity
  8
1
  6
CONTINUOUS
370
50
 62
4
100
AcDbLine
 10
65.00595899999999
 20
-2.554912
 30
0.0
 11
64.45597099999999
 21
-2.326813
 31
0.0
  0
LINE
  5
7F8
330
1F
100
AcDbEntity
  8
1
  6
CONTINUOUS
370
50
 62
4
100
AcDbLine
 10
72.55935699999999
 20
0.104959
 30
0.0
 11
72.186821
 21
0.259092
 31
0.0
  0
LINE
  5
7F9
330
1F
100
AcDbEntity
  8
1
  6
CONTINUOUS
370
50
 62
4
100
AcDbLine
 10
50.208961
 20
2.154103
 30
0.0
 11
50.13935499999999
 21
2.18287
 31
0.0
  0
LINE
  5
7FA
330
1F
100
AcDbEntity
  8
1
  6
CONTINUOUS
370
50
 62
4
100
AcDbLine
 10
57.037651
 20
2.378342
 30
0.0
 11
56.661629
 21
2.53324
 31
0.0
  0
LINE
  5
7FB
330
1F
100
AcDbEntity
  8
1
  6
CONTINUOUS
370
50
 62
4
100
AcDbLine
 10
79.30077399999999
 20
-2.58516
 30
0.0
 11
78.801414
 21
-2.379745
 31
0.0
  0
LINE
  5
7FC
330
1F
100
AcDbEntity
  8
1
  6
CONTINUOUS
370
50
 62
4
100
AcDbLine
 10
59.861256
 20
0.104935
 30
0.0
 11
59.481911
 21
0.260958
 31
0.0
  0
LINE
  5
7FD
330
1F
100
AcDbEntity
  8
1
  6
CONTINUOUS
370
50
 62
4
100
AcDbLine
 10
59.481911
 20
0.260958
 30
0.0
 11
59.102608
 21
0.416898
 31
0.0
  0
LINE
  5
7FE
330
1F
100
AcDbEntity
  8
1
  6
CONTINUOUS
370
50
 62
4
100
AcDbLine
 10
66.599724
 20
-2.582901
 30
0.0
 11
66.04039
 21
-2.354027
 31
0.0
  0
LINE
  5
7FF
330
1F
100
AcDbEntity
  8
1
  6
CONTINUOUS
370
50
 62
4
100
AcDbLine
 10
55.429752
 20
2.414089
 30
0.0
 11
55.153851
 21
2.526802
 31
0.0
  0
LINE
  5
800
330
1F
100
AcDbEntity
  8
1
  6
CONTINUOUS
370
50
 62
4
100
AcDbLine
 10
72.186821
 20
0.259092
 30
0.0
 11
71.814308
 21
0.410604
 31
0.0
  0
LINE
  5
801
330
1F
100
AcDbEntity
  8
1
  6
CONTINUOUS
370
50
 62
4
100
AcDbLine
 10
50.811878
 20
-1.812126
 30
0.0
 11
50.658257
 21
-1.750161
 31
0.0
  0
LINE
  5
802
330
1F
100
AcDbEntity
  8
1
  6
CONTINUOUS
370
50
 62
4
100
AcDbLine
 10
55.688797
 20
2.197193
 30
0.0
 11
55.309692
 21
2.349856
 31
0.0
  0
LINE
  5
803
330
1F
100
AcDbEntity
  8
1
  6
CONTINUOUS
370
50
 62
4
100
AcDbLine
 10
59.102608
 20
0.416898
 30
0.0
 11
58.723309
 21
0.569614
 31
0.0
  0
LINE
  5
804
330
1F
100
AcDbEntity
  8
1
  6
CONTINUOUS
370
50
 62
4
100
AcDbLine
 10
71.814308
 20
0.410604
 30
0.0
 11
71.441765
 21
0.559954
 31
0.0
  0
LINE
  5
805
330
1F
100
AcDbEntity
  8
1
  6
CONTINUOUS
370
50
 62
4
100
AcDbLine
 10
77.839264
 20
-2.608484
 30
0.0
 11
77.47538
 21
-2.46295
 31
0.0
  0
LINE
  5
806
330
1F
100
AcDbEntity
  8
1
  6
CONTINUOUS
370
50
 62
4
100
AcDbLine
 10
69.614449
 20
2.429598
 30
0.0
 11
69.032417
 21
2.660361
 31
0.0
  0
LINE
  5
807
330
1F
100
AcDbEntity
  8
1
  6
CONTINUOUS
370
50
 62
4
100
AcDbLine
 10
71.441765
 20
0.559954
 30
0.0
 11
71.069183
 21
0.707525
 31
0.0
  0
LINE
  5
808
330
1F
100
AcDbEntity
  8
1
  6
CONTINUOUS
370
50
 62
4
100
AcDbLine
 10
50.377735
 20
3.350526
 30
0.0
 11
50.0
 21
3.5
 31
0.0
  0
LINE
  5
809
330
1F
100
AcDbEntity
  8
1
  6
CONTINUOUS
370
50
 62
4
100
AcDbLine
 10
50.378101
 20
2.510578
 30
0.0
 11
50.0
 21
2.66
 31
0.0
  0
LINE
  5
80A
330
1F
100
AcDbEntity
  8
1
  6
CONTINUOUS
370
50
 62
4
100
AcDbLine
 10
58.723309
 20
0.569614
 30
0.0
 11
58.34396
 21
0.719436
 31
0.0
  0
LINE
  5
80B
330
1F
100
AcDbEntity
  8
1
  6
CONTINUOUS
370
50
 62
4
100
AcDbLine
 10
48.699718
 20
-0.211938
 30
0.0
 11
48.389084
 21
-0.089687
 31
0.0
  0
LINE
  5
80C
330
1F
100
AcDbEntity
  8
1
  6
CONTINUOUS
370
50
 62
4
100
AcDbLine
 10
71.069183
 20
0.707525
 30
0.0
 11
70.696602
 21
0.853468
 31
0.0
  0
LINE
  5
80D
330
1F
100
AcDbEntity
  8
1
  6
CONTINUOUS
370
50
 62
4
100
AcDbLine
 10
55.153851
 20
2.526802
 30
0.0
 11
54.87706799999999
 21
2.634389
 31
0.0
  0
LINE
  5
80E
330
1F
100
AcDbEntity
  8
1
  6
CONTINUOUS
370
50
 62
4
100
AcDbLine
 10
58.34396
 20
0.719436
 30
0.0
 11
57.964546
 21
0.866759
 31
0.0
  0
LINE
  5
80F
330
1F
100
AcDbEntity
  8
1
  6
CONTINUOUS
370
50
 62
4
100
AcDbLine
 10
56.661629
 20
2.53324
 30
0.0
 11
56.285416
 21
2.678795
 31
0.0
  0
LINE
  5
810
330
1F
100
AcDbEntity
  8
1
  6
CONTINUOUS
370
50
 62
4
100
AcDbLine
 10
54.060993
 20
-2.643218
 30
0.0
 11
53.61438399999999
 21
-2.47082
 31
0.0
  0
LINE
  5
811
330
1F
100
AcDbEntity
  8
1
  6
CONTINUOUS
370
50
 62
4
100
AcDbLine
 10
70.696602
 20
0.853468
 30
0.0
 11
70.324066
 21
0.9966879999999999
 31
0.0
  0
LINE
  5
812
330
1F
100
AcDbEntity
  8
1
  6
CONTINUOUS
370
50
 62
4
100
AcDbLine
 10
50.537022
 20
2.04025
 30
0.0
 11
50.473988
 21
2.064349
 31
0.0
  0
LINE
  5
813
330
1F
100
AcDbEntity
  8
1
  6
CONTINUOUS
370
50
 62
4
100
AcDbLine
 10
57.964546
 20
0.866759
 30
0.0
 11
57.58511
 21
1.011689
 31
0.0
  0
LINE
  5
814
330
1F
100
AcDbEntity
  8
1
  6
CONTINUOUS
370
50
 62
4
100
AcDbLine
 10
55.309692
 20
2.349856
 30
0.0
 11
54.930294
 21
2.492935
 31
0.0
  0
LINE
  5
815
330
1F
100
AcDbEntity
  8
1
  6
CONTINUOUS
370
50
 62
4
100
AcDbLine
 10
78.19768499999999
 20
-2.743555
 30
0.0
 11
77.839264
 21
-2.608484
 31
0.0
  0
LINE
  5
816
330
1F
100
AcDbEntity
  8
1
  6
CONTINUOUS
370
50
 62
4
100
AcDbLine
 10
79.800049
 20
-2.772962
 30
0.0
 11
79.30077399999999
 21
-2.58516
 31
0.0
  0
LINE
  5
817
330
1F
100
AcDbEntity
  8
1
  6
CONTINUOUS
370
50
 62
4
100
AcDbLine
 10
65.555824
 20
-2.761737
 30
0.0
 11
65.00595899999999
 21
-2.554912
 31
0.0
  0
LINE
  5
818
330
1F
100
AcDbEntity
  8
1
  6
CONTINUOUS
370
50
 62
4
100
AcDbLine
 10
79.800049
 20
3.235944
 30
0.0
 11
79.788727
 21
3.2402
 31
0.0
  0
LINE
  5
819
330
1F
100
AcDbEntity
  8
1
  6
CONTINUOUS
370
50
 62
4
100
AcDbLine
 10
67.830597
 20
2.535502
 30
0.0
 11
67.23262
 21
2.759913
 31
0.0
  0
LINE
  5
81A
330
1F
100
AcDbEntity
  8
1
  6
CONTINUOUS
370
50
 62
4
100
AcDbLine
 10
50.278526
 20
2.128042
 30
0.0
 11
50.208961
 21
2.154103
 31
0.0
  0
LINE
  5
81B
330
1F
100
AcDbEntity
  8
1
  6
CONTINUOUS
370
50
 62
4
100
AcDbLine
 10
50.60601
 20
2.014425
 30
0.0
 11
50.537022
 21
2.04025
 31
0.0
  0
LINE
  5
81C
330
1F
100
AcDbEntity
  8
1
  6
CONTINUOUS
370
50
 62
4
100
AcDbLine
 10
57.58511
 20
1.011689
 30
0.0
 11
57.205727
 21
1.153206
 31
0.0
  0
LINE
  5
81D
330
1F
100
AcDbEntity
  8
1
  6
CONTINUOUS
370
50
 62
4
100
AcDbLine
 10
70.324066
 20
0.9966879999999999
 30
0.0
 11
69.95155299999999
 21
1.134953
 31
0.0
  0
LINE
  5
81E
330
1F
100
AcDbEntity
  8
1
  6
CONTINUOUS
370
50
 62
4
100
AcDbLine
 10
54.87706799999999
 20
2.634389
 30
0.0
 11
54.600338
 21
2.73667
 31
0.0
  0
LINE
  5
81F
330
1F
100
AcDbEntity
  8
1
  6
CONTINUOUS
370
50
 62
4
100
AcDbLine
 10
67.162453
 20
-2.789819
 30
0.0
 11
66.599724
 21
-2.582901
 31
0.0
  0
LINE
  5
820
330
1F
100
AcDbEntity
  8
1
  6
CONTINUOUS
370
50
 62
4
100
AcDbLine
 10
52.78281
 20
-2.740674
 30
0.0
 11
52.251808
 21
-2.547287
 31
0.0
  0
LINE
  5
821
330
1F
100
AcDbEntity
  8
1
  6
CONTINUOUS
370
50
 62
4
100
AcDbLine
 10
72.746506
 20
-0.251414
 30
0.0
 11
72.48516099999999
 21
-0.157334
 31
0.0
  0
LINE
  5
822
330
1F
100
AcDbEntity
  8
1
  6
CONTINUOUS
370
50
 62
4
100
AcDbLine
 10
54.494183
 20
-2.798951
 30
0.0
 11
54.060993
 21
-2.643218
 31
0.0
  0
LINE
  5
823
330
1F
100
AcDbEntity
  8
1
  6
CONTINUOUS
370
50
 62
4
100
AcDbLine
 10
56.285416
 20
2.678795
 30
0.0
 11
55.90887799999999
 21
2.813976
 31
0.0
  0
LINE
  5
824
330
1F
100
AcDbEntity
  8
1
  6
CONTINUOUS
370
50
 62
4
100
AcDbLine
 10
69.95155299999999
 20
1.134953
 30
0.0
 11
69.57901
 21
1.268528
 31
0.0
  0
LINE
  5
825
330
1F
100
AcDbEntity
  8
1
  6
CONTINUOUS
370
50
 62
4
100
AcDbLine
 10
57.205727
 20
1.153206
 30
0.0
 11
56.82644699999999
 21
1.289017
 31
0.0
  0
LINE
  5
826
330
1F
100
AcDbEntity
  8
1
  6
CONTINUOUS
370
50
 62
4
100
AcDbLine
 10
58.98339799999999
 20
0.0
 30
0.0
 11
58.250065
 21
0.261595
 31
0.0
  0
LINE
  5
827
330
1F
100
AcDbEntity
  8
1
  6
CONTINUOUS
370
50
 62
4
100
AcDbLine
 10
70.721603
 20
0.448013
 30
0.0
 11
70.617836
 21
0.484995
 31
0.0
  0
LINE
  5
828
330
1F
100
AcDbEntity
  8
1
  6
CONTINUOUS
370
50
 62
4
100
AcDbLine
 10
72.48516099999999
 20
-0.157334
 30
0.0
 11
72.041573
 21
0.0
 31
0.0
  0
LINE
  5
829
330
1F
100
AcDbEntity
  8
1
  6
CONTINUOUS
370
50
 62
4
100
AcDbLine
 10
60.368675
 20
-0.470788
 30
0.0
 11
60.106674
 21
-0.378244
 31
0.0
  0
LINE
  5
82A
330
1F
100
AcDbEntity
  8
1
  6
CONTINUOUS
370
50
 62
4
100
AcDbLine
 10
69.032417
 20
2.660361
 30
0.0
 11
68.44779199999999
 21
2.866134
 31
0.0
  0
LINE
  5
82B
330
1F
100
AcDbEntity
  8
1
  6
CONTINUOUS
370
50
 62
4
100
AcDbLine
 10
70.822433
 20
0.41255
 30
0.0
 11
70.721603
 21
0.448013
 31
0.0
  0
LINE
  5
82C
330
1F
100
AcDbEntity
  8
1
  6
CONTINUOUS
370
50
 62
4
100
AcDbLine
 10
54.930294
 20
2.492935
 30
0.0
 11
54.550579
 21
2.62638
 31
0.0
  0
LINE
  5
82D
330
1F
100
AcDbEntity
  8
1
  6
CONTINUOUS
370
50
 62
4
100
AcDbLine
 10
54.600338
 20
2.73667
 30
0.0
 11
54.324593
 21
2.833466
 31
0.0
  0
LINE
  5
82E
330
1F
100
AcDbEntity
  8
1
  6
CONTINUOUS
370
50
 62
4
100
AcDbLine
 10
44.245281
 20
2.788184
 30
0.0
 11
43.916241
 21
2.9036
 31
0.0
  0
LINE
  5
82F
330
1F
100
AcDbEntity
  8
1
  6
CONTINUOUS
370
50
 62
4
100
AcDbLine
 10
60.106674
 20
-0.378244
 30
0.0
 11
59.847851
 21
-0.287596
 31
0.0
  0
LINE
  5
830
330
1F
100
AcDbEntity
  8
1
  6
CONTINUOUS
370
50
 62
4
100
AcDbLine
 10
70.617836
 20
0.484995
 30
0.0
 11
70.404831
 21
0.559472
 31
0.0
  0
LINE
  5
831
330
1F
100
AcDbEntity
  8
1
  6
CONTINUOUS
370
50
 62
4
100
AcDbLine
 10
59.335606
 20
0.0
 30
0.0
 11
58.740269
 21
0.208097
 31
0.0
  0
LINE
  5
832
330
1F
100
AcDbEntity
  8
1
  6
CONTINUOUS
370
50
 62
4
100
AcDbLine
 10
50.473988
 20
2.064349
 30
0.0
 11
50.417564
 21
2.084033
 31
0.0
  0
LINE
  5
833
330
1F
100
AcDbEntity
  8
1
  6
CONTINUOUS
370
50
 62
4
100
AcDbLine
 10
60.632423
 20
-0.5627249999999999
 30
0.0
 11
60.368675
 21
-0.470788
 31
0.0
  0
LINE
  5
834
330
1F
100
AcDbEntity
  8
1
  6
CONTINUOUS
370
50
 62
4
100
AcDbLine
 10
78.557884
 20
-2.868714
 30
0.0
 11
78.19768499999999
 21
-2.743555
 31
0.0
  0
LINE
  5
835
330
1F
100
AcDbEntity
  8
1
  6
CONTINUOUS
370
50
 62
4
100
AcDbLine
 10
70.923523
 20
0.377441
 30
0.0
 11
70.822433
 21
0.41255
 31
0.0
  0
LINE
  5
836
330
1F
100
AcDbEntity
  8
1
  6
CONTINUOUS
370
50
 62
4
100
AcDbLine
 10
73.562927
 20
-0.638033
 30
0.0
 11
73.203407
 21
-0.5133179999999999
 31
0.0
  0
LINE
  5
837
330
1F
100
AcDbEntity
  8
1
  6
CONTINUOUS
370
50
 62
4
100
AcDbLine
 10
69.57901
 20
1.268528
 30
0.0
 11
69.206429
 21
1.397578
 31
0.0
  0
LINE
  5
838
330
1F
100
AcDbEntity
  8
1
  6
CONTINUOUS
370
50
 62
4
100
AcDbLine
 10
73.004654
 20
-0.340318
 30
0.0
 11
72.746506
 21
-0.251414
 31
0.0
  0
LINE
  5
839
330
1F
100
AcDbEntity
  8
1
  6
CONTINUOUS
370
50
 62
4
100
AcDbLine
 10
72.45564999999999
 20
-0.263427
 30
0.0
 11
71.68989599999999
 21
0.0
 31
0.0
  0
LINE
  5
83A
330
1F
100
AcDbEntity
  8
1
  6
CONTINUOUS
370
50
 62
4
100
AcDbLine
 10
56.82644699999999
 20
1.289017
 30
0.0
 11
56.44721999999999
 21
1.41931
 31
0.0
  0
LINE
  5
83B
330
1F
100
AcDbEntity
  8
1
  6
CONTINUOUS
370
50
 62
4
100
AcDbLine
 10
71.024742
 20
0.342681
 30
0.0
 11
70.923523
 21
0.377441
 31
0.0
  0
LINE
  5
83C
330
1F
100
AcDbEntity
  8
1
  6
CONTINUOUS
370
50
 62
4
100
AcDbLine
 10
73.203407
 20
-0.5133179999999999
 30
0.0
 11
72.848686
 21
-0.391568
 31
0.0
  0
LINE
  5
83D
330
1F
100
AcDbEntity
  8
1
  6
CONTINUOUS
370
50
 62
4
100
AcDbLine
 10
79.788727
 20
3.2402
 30
0.0
 11
79.777473
 21
3.244059
 31
0.0
  0
LINE
  5
83E
330
1F
100
AcDbEntity
  8
1
  6
CONTINUOUS
370
50
 62
4
100
AcDbLine
 10
72.041573
 20
0.0
 30
0.0
 11
71.940178
 21
0.034729
 31
0.0
  0
LINE
  5
83F
330
1F
100
AcDbEntity
  8
1
  6
CONTINUOUS
370
50
 62
4
100
AcDbLine
 10
58.14257
 20
0.406906
 30
0.0
 11
57.548645
 21
0.609063
 31
0.0
  0
LINE
  5
840
330
1F
100
AcDbEntity
  8
1
  6
CONTINUOUS
370
50
 62
4
100
AcDbLine
 10
71.126167
 20
0.308188
 30
0.0
 11
71.024742
 21
0.342681
 31
0.0
  0
LINE
  5
841
330
1F
100
AcDbEntity
  8
1
  6
CONTINUOUS
370
50
 62
4
100
AcDbLine
 10
59.847851
 20
-0.287596
 30
0.0
 11
59.587334
 21
-0.19911
 31
0.0
  0
LINE
  5
842
330
1F
100
AcDbEntity
  8
1
  6
CONTINUOUS
370
50
 62
4
100
AcDbLine
 10
71.940178
 20
0.034729
 30
0.0
 11
71.838554
 21
0.069229
 31
0.0
  0
LINE
  5
843
330
1F
100
AcDbEntity
  8
1
  6
CONTINUOUS
370
50
 62
4
100
AcDbLine
 10
61.836555
 20
-0.845703
 30
0.0
 11
59.335606
 21
0.0
 31
0.0
  0
LINE
  5
844
330
1F
100
AcDbEntity
  8
1
  6
CONTINUOUS
370
50
 62
4
100
AcDbLine
 10
71.22803499999999
 20
0.273817
 30
0.0
 11
71.126167
 21
0.308188
 31
0.0
  0
LINE
  5
845
330
1F
100
AcDbEntity
  8
1
  6
CONTINUOUS
370
50
 62
4
100
AcDbLine
 10
71.838554
 20
0.069229
 30
0.0
 11
71.736893
 21
0.103495
 31
0.0
  0
LINE
  5
846
330
1F
100
AcDbEntity
  8
1
  6
CONTINUOUS
370
50
 62
4
100
AcDbLine
 10
73.92112
 20
-0.7584909999999999
 30
0.0
 11
73.562927
 21
-0.638033
 31
0.0
  0
LINE
  5
847
330
1F
100
AcDbEntity
  8
1
  6
CONTINUOUS
370
50
 62
4
100
AcDbLine
 10
60.894962
 20
-0.651009
 30
0.0
 11
60.632423
 21
-0.5627249999999999
 31
0.0
  0
LINE
  5
848
330
1F
100
AcDbEntity
  8
1
  6
CONTINUOUS
370
50
 62
4
100
AcDbLine
 10
58.250065
 20
0.261595
 30
0.0
 11
57.555912
 21
0.494987
 31
0.0
  0
LINE
  5
849
330
1F
100
AcDbEntity
  8
1
  6
CONTINUOUS
370
50
 62
4
100
AcDbLine
 10
50.34806099999999
 20
2.104687
 30
0.0
 11
50.278526
 21
2.128042
 31
0.0
  0
LINE
  5
84A
330
1F
100
AcDbEntity
  8
1
  6
CONTINUOUS
370
50
 62
4
100
AcDbLine
 10
71.33013199999999
 20
0.239558
 30
0.0
 11
71.22803499999999
 21
0.273817
 31
0.0
  0
LINE
  5
84B
330
1F
100
AcDbEntity
  8
1
  6
CONTINUOUS
370
50
 62
4
100
AcDbLine
 10
71.736893
 20
0.103495
 30
0.0
 11
71.63542199999999
 21
0.137524
 31
0.0
  0
LINE
  5
84C
330
1F
100
AcDbEntity
  8
1
  6
CONTINUOUS
370
50
 62
4
100
AcDbLine
 10
56.935612
 20
0.694693
 30
0.0
 11
56.306038
 21
0.905486
 31
0.0
  0
LINE
  5
84D
330
1F
100
AcDbEntity
  8
1
  6
CONTINUOUS
370
50
 62
4
100
AcDbLine
 10
67.23262
 20
2.759913
 30
0.0
 11
66.64634699999999
 21
2.956131
 31
0.0
  0
LINE
  5
84E
330
1F
100
AcDbEntity
  8
1
  6
CONTINUOUS
370
50
 62
4
100
AcDbLine
 10
71.43222
 20
0.205421
 30
0.0
 11
71.33013199999999
 21
0.239558
 31
0.0
  0
LINE
  5
84F
330
1F
100
AcDbEntity
  8
1
  6
CONTINUOUS
370
50
 62
4
100
AcDbLine
 10
71.63542199999999
 20
0.137524
 30
0.0
 11
71.534058
 21
0.171412
 31
0.0
  0
LINE
  5
850
330
1F
100
AcDbEntity
  8
1
  6
CONTINUOUS
370
50
 62
4
100
AcDbLine
 10
50.680225
 20
1.989617
 30
0.0
 11
50.60601
 21
2.014425
 31
0.0
  0
LINE
  5
851
330
1F
100
AcDbEntity
  8
1
  6
CONTINUOUS
370
50
 62
4
100
AcDbLine
 10
71.534058
 20
0.171412
 30
0.0
 11
71.43222
 21
0.205421
 31
0.0
  0
LINE
  5
852
330
1F
100
AcDbEntity
  8
1
  6
CONTINUOUS
370
50
 62
4
100
AcDbLine
 10
59.318375
 20
-0.111847
 30
0.0
 11
58.98339799999999
 21
0.0
 31
0.0
  0
LINE
  5
853
330
1F
100
AcDbEntity
  8
1
  6
CONTINUOUS
370
50
 62
4
100
AcDbLine
 10
69.206429
 20
1.397578
 30
0.0
 11
68.833855
 21
1.521963
 31
0.0
  0
LINE
  5
854
330
1F
100
AcDbEntity
  8
1
  6
CONTINUOUS
370
50
 62
4
100
AcDbLine
 10
54.324593
 20
2.833466
 30
0.0
 11
54.052189
 21
2.924256
 31
0.0
  0
LINE
  5
855
330
1F
100
AcDbEntity
  8
1
  6
CONTINUOUS
370
50
 62
4
100
AcDbLine
 10
73.264732
 20
-0.426937
 30
0.0
 11
73.004654
 21
-0.340318
 31
0.0
  0
LINE
  5
856
330
1F
100
AcDbEntity
  8
1
  6
CONTINUOUS
370
50
 62
4
100
AcDbLine
 10
71.68989599999999
 20
0.0
 30
0.0
 11
68.710678
 21
0.9919709999999999
 31
0.0
  0
LINE
  5
857
330
1F
100
AcDbEntity
  8
1
  6
CONTINUOUS
370
50
 62
4
100
AcDbLine
 10
70.404831
 20
0.559472
 30
0.0
 11
70.115982
 21
0.655613
 31
0.0
  0
LINE
  5
858
330
1F
100
AcDbEntity
  8
1
  6
CONTINUOUS
370
50
 62
4
100
AcDbLine
 10
58.740269
 20
0.208097
 30
0.0
 11
58.14257
 21
0.406906
 31
0.0
  0
LINE
  5
859
330
1F
100
AcDbEntity
  8
1
  6
CONTINUOUS
370
50
 62
4
100
AcDbLine
 10
66.113602
 20
-2.946647
 30
0.0
 11
65.555824
 21
-2.761737
 31
0.0
  0
LINE
  5
85A
330
1F
100
AcDbEntity
  8
1
  6
CONTINUOUS
370
50
 62
4
100
AcDbLine
 10
54.925694
 20
-2.941395
 30
0.0
 11
54.494183
 21
-2.798951
 31
0.0
  0
LINE
  5
85B
330
1F
100
AcDbEntity
  8
1
  6
CONTINUOUS
370
50
 62
4
100
AcDbLine
 10
56.44721999999999
 20
1.41931
 30
0.0
 11
56.06802
 21
1.544199
 31
0.0
  0
LINE
  5
85C
330
1F
100
AcDbEntity
  8
1
  6
CONTINUOUS
370
50
 62
4
100
AcDbLine
 10
55.90887799999999
 20
2.813976
 30
0.0
 11
55.531189
 21
2.938101
 31
0.0
  0
LINE
  5
85D
330
1F
100
AcDbEntity
  8
1
  6
CONTINUOUS
370
50
 62
4
100
AcDbLine
 10
67.722534
 20
-2.973239
 30
0.0
 11
67.162453
 21
-2.789819
 31
0.0
  0
LINE
  5
85E
330
1F
100
AcDbEntity
  8
1
  6
CONTINUOUS
370
50
 62
4
100
AcDbLine
 10
73.524193
 20
-0.511712
 30
0.0
 11
73.264732
 21
-0.426937
 31
0.0
  0
LINE
  5
85F
330
1F
100
AcDbEntity
  8
1
  6
CONTINUOUS
370
50
 62
4
100
AcDbLine
 10
72.848686
 20
-0.391568
 30
0.0
 11
72.45564999999999
 21
-0.263427
 31
0.0
  0
LINE
  5
860
330
1F
100
AcDbEntity
  8
1
  6
CONTINUOUS
370
50
 62
4
100
AcDbLine
 10
73.783127
 20
-0.5959019999999999
 30
0.0
 11
73.524193
 21
-0.511712
 31
0.0
  0
LINE
  5
861
330
1F
100
AcDbEntity
  8
1
  6
CONTINUOUS
370
50
 62
4
100
AcDbLine
 10
54.550579
 20
2.62638
 30
0.0
 11
54.170586
 21
2.749828
 31
0.0
  0
LINE
  5
862
330
1F
100
AcDbEntity
  8
1
  6
CONTINUOUS
370
50
 62
4
100
AcDbLine
 10
59.587334
 20
-0.19911
 30
0.0
 11
59.318375
 21
-0.111847
 31
0.0
  0
LINE
  5
863
330
1F
100
AcDbEntity
  8
1
  6
CONTINUOUS
370
50
 62
4
100
AcDbLine
 10
57.555912
 20
0.494987
 30
0.0
 11
56.935612
 21
0.694693
 31
0.0
  0
LINE
  5
864
330
1F
100
AcDbEntity
  8
1
  6
CONTINUOUS
370
50
 62
4
100
AcDbLine
 10
53.197899
 20
-2.873304
 30
0.0
 11
52.78281
 21
-2.740674
 31
0.0
  0
LINE
  5
865
330
1F
100
AcDbEntity
  8
1
  6
CONTINUOUS
370
50
 62
4
100
AcDbLine
 10
68.833855
 20
1.521963
 30
0.0
 11
68.461319
 21
1.640903
 31
0.0
  0
LINE
  5
866
330
1F
100
AcDbEntity
  8
1
  6
CONTINUOUS
370
50
 62
4
100
AcDbLine
 10
70.115982
 20
0.655613
 30
0.0
 11
69.82592799999999
 21
0.748108
 31
0.0
  0
LINE
  5
867
330
1F
100
AcDbEntity
  8
1
  6
CONTINUOUS
370
50
 62
4
100
AcDbLine
 10
57.548645
 20
0.609063
 30
0.0
 11
56.28474
 21
1.009716
 31
0.0
  0
LINE
  5
868
330
1F
100
AcDbEntity
  8
1
  6
CONTINUOUS
370
50
 62
4
100
AcDbLine
 10
61.12350799999999
 20
-0.7234269999999999
 30
0.0
 11
60.894962
 21
-0.651009
 31
0.0
  0
LINE
  5
869
330
1F
100
AcDbEntity
  8
1
  6
CONTINUOUS
370
50
 62
4
100
AcDbLine
 10
54.052189
 20
2.924256
 30
0.0
 11
53.79121
 21
3.006753
 31
0.0
  0
LINE
  5
86A
330
1F
100
AcDbEntity
  8
1
  6
CONTINUOUS
370
50
 62
4
100
AcDbLine
 10
56.06802
 20
1.544199
 30
0.0
 11
55.68888099999999
 21
1.663501
 31
0.0
  0
LINE
  5
86B
330
1F
100
AcDbEntity
  8
1
  6
CONTINUOUS
370
50
 62
4
100
AcDbLine
 10
68.95401799999999
 20
1.01743
 30
0.0
 11
68.70114099999999
 21
1.096811
 31
0.0
  0
LINE
  5
86C
330
1F
100
AcDbEntity
  8
1
  6
CONTINUOUS
370
50
 62
4
100
AcDbLine
 10
78.92746
 20
-2.984622
 30
0.0
 11
78.557884
 21
-2.868714
 31
0.0
  0
LINE
  5
86D
330
1F
100
AcDbEntity
  8
1
  6
CONTINUOUS
370
50
 62
4
100
AcDbLine
 10
74.25354
 20
-0.8624419999999999
 30
0.0
 11
73.92112
 21
-0.7584909999999999
 31
0.0
  0
LINE
  5
86E
330
1F
100
AcDbEntity
  8
1
  6
CONTINUOUS
370
50
 62
4
100
AcDbLine
 10
53.596775
 20
-2.997216
 30
0.0
 11
53.197899
 21
-2.873304
 31
0.0
  0
LINE
  5
86F
330
1F
100
AcDbEntity
  8
1
  6
CONTINUOUS
370
50
 62
4
100
AcDbLine
 10
69.82592799999999
 20
0.748108
 30
0.0
 11
69.535332
 21
0.838282
 31
0.0
  0
LINE
  5
870
330
1F
100
AcDbEntity
  8
1
  6
CONTINUOUS
370
50
 62
4
100
AcDbLine
 10
56.306038
 20
0.905486
 30
0.0
 11
55.710922
 21
1.09014
 31
0.0
  0
LINE
  5
871
330
1F
100
AcDbEntity
  8
1
  6
CONTINUOUS
370
50
 62
4
100
AcDbLine
 10
79.677864
 20
2.851552
 30
0.0
 11
79.242958
 21
2.986362
 31
0.0
  0
LINE
  5
872
330
1F
100
AcDbEntity
  8
1
  6
CONTINUOUS
370
50
 62
4
100
AcDbLine
 10
79.777473
 20
3.244059
 30
0.0
 11
79.76628099999999
 21
3.24752
 31
0.0
  0
LINE
  5
873
330
1F
100
AcDbEntity
  8
1
  6
CONTINUOUS
370
50
 62
4
100
AcDbLine
 10
69.24344599999999
 20
0.927936
 30
0.0
 11
68.95401799999999
 21
1.01743
 31
0.0
  0
LINE
  5
874
330
1F
100
AcDbEntity
  8
1
  6
CONTINUOUS
370
50
 62
4
100
AcDbLine
 10
68.44779199999999
 20
2.866134
 30
0.0
 11
67.86717999999999
 21
3.045367
 31
0.0
  0
LINE
  5
875
330
1F
100
AcDbEntity
  8
1
  6
CONTINUOUS
370
50
 62
4
100
AcDbLine
 10
69.535332
 20
0.838282
 30
0.0
 11
69.24344599999999
 21
0.927936
 31
0.0
  0
LINE
  5
876
330
1F
100
AcDbEntity
  8
1
  6
CONTINUOUS
370
50
 62
4
100
AcDbLine
 10
61.527355
 20
-0.8462959999999999
 30
0.0
 11
61.32515
 21
-0.784517
 31
0.0
  0
LINE
  5
877
330
1F
100
AcDbEntity
  8
1
  6
CONTINUOUS
370
50
 62
4
100
AcDbLine
 10
79.687737
 20
2.71219
 30
0.0
 11
79.298141
 21
2.830304
 31
0.0
  0
LINE
  5
878
330
1F
100
AcDbEntity
  8
1
  6
CONTINUOUS
370
50
 62
4
100
AcDbLine
 10
61.32515
 20
-0.784517
 30
0.0
 11
61.12350799999999
 21
-0.7234269999999999
 31
0.0
  0
LINE
  5
879
330
1F
100
AcDbEntity
  8
1
  6
CONTINUOUS
370
50
 62
4
100
AcDbLine
 10
49.01709
 20
-0.307832
 30
0.0
 11
48.699718
 21
-0.211938
 31
0.0
  0
LINE
  5
87A
330
1F
100
AcDbEntity
  8
1
  6
CONTINUOUS
370
50
 62
4
100
AcDbLine
 10
68.70114099999999
 20
1.096811
 30
0.0
 11
68.47054299999999
 21
1.166382
 31
0.0
  0
LINE
  5
87B
330
1F
100
AcDbEntity
  8
1
  6
CONTINUOUS
370
50
 62
4
100
AcDbLine
 10
68.461319
 20
1.640903
 30
0.0
 11
68.08880599999999
 21
1.752996
 31
0.0
  0
LINE
  5
87C
330
1F
100
AcDbEntity
  8
1
  6
CONTINUOUS
370
50
 62
4
100
AcDbLine
 10
55.531189
 20
2.938101
 30
0.0
 11
55.150414
 21
3.051881
 31
0.0
  0
LINE
  5
87D
330
1F
100
AcDbEntity
  8
1
  6
CONTINUOUS
370
50
 62
4
100
AcDbLine
 10
55.68888099999999
 20
1.663501
 30
0.0
 11
55.309734
 21
1.776559
 31
0.0
  0
LINE
  5
87E
330
1F
100
AcDbEntity
  8
1
  6
CONTINUOUS
370
50
 62
4
100
AcDbLine
 10
62.901035
 20
-1.162853
 30
0.0
 11
61.836555
 21
-0.845703
 31
0.0
  0
LINE
  5
87F
330
1F
100
AcDbEntity
  8
1
  6
CONTINUOUS
370
50
 62
4
100
AcDbLine
 10
50.417564
 20
2.084033
 30
0.0
 11
50.34806099999999
 21
2.104687
 31
0.0
  0
LINE
  5
880
330
1F
100
AcDbEntity
  8
1
  6
CONTINUOUS
370
50
 62
4
100
AcDbLine
 10
54.170586
 20
2.749828
 30
0.0
 11
53.79044
 21
2.862427
 31
0.0
  0
LINE
  5
881
330
1F
100
AcDbEntity
  8
1
  6
CONTINUOUS
370
50
 62
4
100
AcDbLine
 10
55.358891
 20
-3.069632
 30
0.0
 11
54.925694
 21
-2.941395
 31
0.0
  0
LINE
  5
882
330
1F
100
AcDbEntity
  8
1
  6
CONTINUOUS
370
50
 62
4
100
AcDbLine
 10
53.162025
 20
1.711559
 30
0.0
 11
52.763935
 21
1.828379
 31
0.0
  0
LINE
  5
883
330
1F
100
AcDbEntity
  8
1
  6
CONTINUOUS
370
50
 62
4
100
AcDbLine
 10
53.79121
 20
3.006753
 30
0.0
 11
53.530693
 21
3.082438
 31
0.0
  0
LINE
  5
884
330
1F
100
AcDbEntity
  8
1
  6
CONTINUOUS
370
50
 62
4
100
AcDbLine
 10
53.979954
 20
-3.108292
 30
0.0
 11
53.596775
 21
-2.997216
 31
0.0
  0
LINE
  5
885
330
1F
100
AcDbEntity
  8
1
  6
CONTINUOUS
370
50
 62
4
100
AcDbLine
 10
66.6717
 20
-3.107656
 30
0.0
 11
66.113602
 21
-2.946647
 31
0.0
  0
LINE
  5
886
330
1F
100
AcDbEntity
  8
1
  6
CONTINUOUS
370
50
 62
4
100
AcDbLine
 10
63.521324
 20
-1.341433
 30
0.0
 11
62.901035
 21
-1.162853
 31
0.0
  0
LINE
  5
887
330
1F
100
AcDbEntity
  8
1
  6
CONTINUOUS
370
50
 62
4
100
AcDbLine
 10
55.710922
 20
1.09014
 30
0.0
 11
55.216976
 21
1.231234
 31
0.0
  0
LINE
  5
888
330
1F
100
AcDbEntity
  8
1
  6
CONTINUOUS
370
50
 62
4
100
AcDbLine
 10
66.64634699999999
 20
2.956131
 30
0.0
 11
66.065834
 21
3.1215
 31
0.0
  0
LINE
  5
889
330
1F
100
AcDbEntity
  8
1
  6
CONTINUOUS
370
50
 62
4
100
AcDbLine
 10
68.47054299999999
 20
1.166382
 30
0.0
 11
68.23904399999999
 21
1.232244
 31
0.0
  0
LINE
  5
88A
330
1F
100
AcDbEntity
  8
1
  6
CONTINUOUS
370
50
 62
4
100
AcDbLine
 10
68.08880599999999
 20
1.752996
 30
0.0
 11
67.716263
 21
1.858305
 31
0.0
  0
LINE
  5
88B
330
1F
100
AcDbEntity
  8
1
  6
CONTINUOUS
370
50
 62
4
100
AcDbLine
 10
68.28173799999999
 20
-3.131105
 30
0.0
 11
67.722534
 21
-2.973239
 31
0.0
  0
LINE
  5
88C
330
1F
100
AcDbEntity
  8
1
  6
CONTINUOUS
370
50
 62
4
100
AcDbLine
 10
43.916241
 20
2.9036
 30
0.0
 11
43.576439
 21
2.999367
 31
0.0
  0
LINE
  5
88D
330
1F
100
AcDbEntity
  8
1
  6
CONTINUOUS
370
50
 62
4
100
AcDbLine
 10
79.302238
 20
-3.089756
 30
0.0
 11
78.92746
 21
-2.984622
 31
0.0
  0
LINE
  5
88E
330
1F
100
AcDbEntity
  8
1
  6
CONTINUOUS
370
50
 62
4
100
AcDbLine
 10
55.309734
 20
1.776559
 30
0.0
 11
54.930367
 21
1.882403
 31
0.0
  0
LINE
  5
88F
330
1F
100
AcDbEntity
  8
1
  6
CONTINUOUS
370
50
 62
4
100
AcDbLine
 10
79.242958
 20
2.986362
 30
0.0
 11
78.809586
 21
3.106961
 31
0.0
  0
LINE
  5
890
330
1F
100
AcDbEntity
  8
1
  6
CONTINUOUS
370
50
 62
4
100
AcDbLine
 10
56.28474
 20
1.009716
 30
0.0
 11
54.746174
 21
1.437231
 31
0.0
  0
LINE
  5
891
330
1F
100
AcDbEntity
  8
1
  6
CONTINUOUS
370
50
 62
4
100
AcDbLine
 10
55.216976
 20
1.231234
 30
0.0
 11
54.735222
 21
1.364277
 31
0.0
  0
LINE
  5
892
330
1F
100
AcDbEntity
  8
1
  6
CONTINUOUS
370
50
 62
4
100
AcDbLine
 10
79.76628099999999
 20
3.24752
 30
0.0
 11
79.75516499999999
 21
3.250582
 31
0.0
  0
LINE
  5
893
330
1F
100
AcDbEntity
  8
1
  6
CONTINUOUS
370
50
 62
4
100
AcDbLine
 10
79.298141
 20
2.830304
 30
0.0
 11
78.908447
 21
2.937336
 31
0.0
  0
LINE
  5
894
330
1F
100
AcDbEntity
  8
1
  6
CONTINUOUS
370
50
 62
4
100
AcDbLine
 10
68.23904399999999
 20
1.232244
 30
0.0
 11
68.00634
 21
1.295255
 31
0.0
  0
LINE
  5
895
330
1F
100
AcDbEntity
  8
1
  6
CONTINUOUS
370
50
 62
4
100
AcDbLine
 10
50.758846
 20
1.968442
 30
0.0
 11
50.680225
 21
1.989617
 31
0.0
  0
LINE
  5
896
330
1F
100
AcDbEntity
  8
1
  6
CONTINUOUS
370
50
 62
4
100
AcDbLine
 10
55.150414
 20
3.051881
 30
0.0
 11
54.771221
 21
3.15328
 31
0.0
  0
LINE
  5
897
330
1F
100
AcDbEntity
  8
1
  6
CONTINUOUS
370
50
 62
4
100
AcDbLine
 10
53.79044
 20
2.862427
 30
0.0
 11
53.410954
 21
2.963259
 31
0.0
  0
LINE
  5
898
330
1F
100
AcDbEntity
  8
1
  6
CONTINUOUS
370
50
 62
4
100
AcDbLine
 10
52.038414
 20
1.937848
 30
0.0
 11
51.978161
 21
1.953849
 31
0.0
  0
LINE
  5
899
330
1F
100
AcDbEntity
  8
1
  6
CONTINUOUS
370
50
 62
4
100
AcDbLine
 10
67.716263
 20
1.858305
 30
0.0
 11
67.343689
 21
1.956769
 31
0.0
  0
LINE
  5
89A
330
1F
100
AcDbEntity
  8
1
  6
CONTINUOUS
370
50
 62
4
100
AcDbLine
 10
67.86717999999999
 20
3.045367
 30
0.0
 11
67.287292
 21
3.1966
 31
0.0
  0
LINE
  5
89B
330
1F
100
AcDbEntity
  8
1
  6
CONTINUOUS
370
50
 62
4
100
AcDbLine
 10
68.00634
 20
1.295255
 30
0.0
 11
67.773895
 21
1.355747
 31
0.0
  0
LINE
  5
89C
330
1F
100
AcDbEntity
  8
1
  6
CONTINUOUS
370
50
 62
4
100
AcDbLine
 10
54.930367
 20
1.882403
 30
0.0
 11
54.550762
 21
1.980952
 31
0.0
  0
LINE
  5
89D
330
1F
100
AcDbEntity
  8
1
  6
CONTINUOUS
370
50
 62
4
100
AcDbLine
 10
53.530693
 20
3.082438
 30
0.0
 11
53.259563
 21
3.152685
 31
0.0
  0
LINE
  5
89E
330
1F
100
AcDbEntity
  8
1
  6
CONTINUOUS
370
50
 62
4
100
AcDbLine
 10
55.79357899999999
 20
-3.182213
 30
0.0
 11
55.358891
 21
-3.069632
 31
0.0
  0
LINE
  5
89F
330
1F
100
AcDbEntity
  8
1
  6
CONTINUOUS
370
50
 62
4
100
AcDbLine
 10
67.773895
 20
1.355747
 30
0.0
 11
67.542351
 21
1.414241
 31
0.0
  0
LINE
  5
8A0
330
1F
100
AcDbEntity
  8
1
  6
CONTINUOUS
370
50
 62
4
100
AcDbLine
 10
54.380306
 20
-3.209164
 30
0.0
 11
53.979954
 21
-3.108292
 31
0.0
  0
LINE
  5
8A1
330
1F
100
AcDbEntity
  8
1
  6
CONTINUOUS
370
50
 62
4
100
AcDbLine
 10
64.06841299999999
 20
-1.478696
 30
0.0
 11
63.521324
 21
-1.341433
 31
0.0
  0
LINE
  5
8A2
330
1F
100
AcDbEntity
  8
1
  6
CONTINUOUS
370
50
 62
4
100
AcDbLine
 10
79.677864
 20
-3.183328
 30
0.0
 11
79.302238
 21
-3.089756
 31
0.0
  0
LINE
  5
8A3
330
1F
100
AcDbEntity
  8
1
  6
CONTINUOUS
370
50
 62
4
100
AcDbLine
 10
68.710678
 20
0.9919709999999999
 30
0.0
 11
65.424362
 21
1.807886
 31
0.0
  0
LINE
  5
8A4
330
1F
100
AcDbEntity
  8
1
  6
CONTINUOUS
370
50
 62
4
100
AcDbLine
 10
44.184536
 20
-3.211167
 30
0.0
 11
43.782387
 21
-3.111389
 31
0.0
  0
LINE
  5
8A5
330
1F
100
AcDbEntity
  8
1
  6
CONTINUOUS
370
50
 62
4
100
AcDbLine
 10
50.658257
 20
-1.750161
 30
0.0
 11
50.496437
 21
-1.710048
 31
0.0
  0
LINE
  5
8A6
330
1F
100
AcDbEntity
  8
1
  6
CONTINUOUS
370
50
 62
4
100
AcDbLine
 10
78.809586
 20
3.106961
 30
0.0
 11
78.386292
 21
3.211848
 31
0.0
  0
LINE
  5
8A7
330
1F
100
AcDbEntity
  8
1
  6
CONTINUOUS
370
50
 62
4
100
AcDbLine
 10
67.542351
 20
1.414241
 30
0.0
 11
67.310715
 21
1.471635
 31
0.0
  0
LINE
  5
8A8
330
1F
100
AcDbEntity
  8
1
  6
CONTINUOUS
370
50
 62
4
100
AcDbLine
 10
43.576439
 20
2.999367
 30
0.0
 11
43.541702
 21
3.007961
 31
0.0
  0
LINE
  5
8A9
330
1F
100
AcDbEntity
  8
1
  6
CONTINUOUS
370
50
 62
4
100
AcDbLine
 10
44.565689
 20
-3.304754
 30
0.0
 11
44.184536
 21
-3.211167
 31
0.0
  0
LINE
  5
8AA
330
1F
100
AcDbEntity
  8
1
  6
CONTINUOUS
370
50
 62
4
100
AcDbLine
 10
67.310715
 20
1.471635
 30
0.0
 11
67.080139
 21
1.528172
 31
0.0
  0
LINE
  5
8AB
330
1F
100
AcDbEntity
  8
1
  6
CONTINUOUS
370
50
 62
4
100
AcDbLine
 10
67.343689
 20
1.956769
 30
0.0
 11
66.97109999999999
 21
2.047974
 31
0.0
  0
LINE
  5
8AC
330
1F
100
AcDbEntity
  8
1
  6
CONTINUOUS
370
50
 62
4
100
AcDbLine
 10
78.908447
 20
2.937336
 30
0.0
 11
78.51870699999999
 21
3.032589
 31
0.0
  0
LINE
  5
8AD
330
1F
100
AcDbEntity
  8
1
  6
CONTINUOUS
370
50
 62
4
100
AcDbLine
 10
67.080139
 20
1.528172
 30
0.0
 11
66.841713
 21
1.586252
 31
0.0
  0
LINE
  5
8AE
330
1F
100
AcDbEntity
  8
1
  6
CONTINUOUS
370
50
 62
4
100
AcDbLine
 10
54.735222
 20
1.364277
 30
0.0
 11
54.243233
 21
1.484043
 31
0.0
  0
LINE
  5
8AF
330
1F
100
AcDbEntity
  8
1
  6
CONTINUOUS
370
50
 62
4
100
AcDbLine
 10
67.235443
 20
-3.244614
 30
0.0
 11
66.6717
 21
-3.107656
 31
0.0
  0
LINE
  5
8B0
330
1F
100
AcDbEntity
  8
1
  6
CONTINUOUS
370
50
 62
4
100
AcDbLine
 10
43.541702
 20
3.007961
 30
0.0
 11
43.506878
 21
3.016369
 31
0.0
  0
LINE
  5
8B1
330
1F
100
AcDbEntity
  8
1
  6
CONTINUOUS
370
50
 62
4
100
AcDbLine
 10
79.75516499999999
 20
3.250582
 30
0.0
 11
79.74410999999999
 21
3.253243
 31
0.0
  0
LINE
  5
8B2
330
1F
100
AcDbEntity
  8
1
  6
CONTINUOUS
370
50
 62
4
100
AcDbLine
 10
54.550762
 20
1.980952
 30
0.0
 11
54.170956
 21
2.071841
 31
0.0
  0
LINE
  5
8B3
330
1F
100
AcDbEntity
  8
1
  6
CONTINUOUS
370
50
 62
4
100
AcDbLine
 10
53.410954
 20
2.963259
 30
0.0
 11
53.032917
 21
3.053087
 31
0.0
  0
LINE
  5
8B4
330
1F
100
AcDbEntity
  8
1
  6
CONTINUOUS
370
50
 62
4
100
AcDbLine
 10
51.978161
 20
1.953849
 30
0.0
 11
51.918144
 21
1.96799
 31
0.0
  0
LINE
  5
8B5
330
1F
100
AcDbEntity
  8
1
  6
CONTINUOUS
370
50
 62
4
100
AcDbLine
 10
43.506878
 20
3.016369
 30
0.0
 11
43.47196599999999
 21
3.024593
 31
0.0
  0
LINE
  5
8B6
330
1F
100
AcDbEntity
  8
1
  6
CONTINUOUS
370
50
 62
4
100
AcDbLine
 10
66.065834
 20
3.1215
 30
0.0
 11
65.486252
 21
3.257739
 31
0.0
  0
LINE
  5
8B7
330
1F
100
AcDbEntity
  8
1
  6
CONTINUOUS
370
50
 62
4
100
AcDbLine
 10
43.782387
 20
-3.111389
 30
0.0
 11
43.36668
 21
-3.013908
 31
0.0
  0
LINE
  5
8B8
330
1F
100
AcDbEntity
  8
1
  6
CONTINUOUS
370
50
 62
4
100
AcDbLine
 10
54.771221
 20
3.15328
 30
0.0
 11
54.39118999999999
 21
3.242108
 31
0.0
  0
LINE
  5
8B9
330
1F
100
AcDbEntity
  8
1
  6
CONTINUOUS
370
50
 62
4
100
AcDbLine
 10
68.844925
 20
-3.262282
 30
0.0
 11
68.28173799999999
 21
-3.131105
 31
0.0
  0
LINE
  5
8BA
330
1F
100
AcDbEntity
  8
1
  6
CONTINUOUS
370
50
 62
4
100
AcDbLine
 10
64.616112
 20
-1.60459
 30
0.0
 11
64.06841299999999
 21
-1.478696
 31
0.0
  0
LINE
  5
8BB
330
1F
100
AcDbEntity
  8
1
  6
CONTINUOUS
370
50
 62
4
100
AcDbLine
 10
43.47196599999999
 20
3.024593
 30
0.0
 11
43.436958
 21
3.032637
 31
0.0
  0
LINE
  5
8BC
330
1F
100
AcDbEntity
  8
1
  6
CONTINUOUS
370
50
 62
4
100
AcDbLine
 10
79.755951
 20
2.02781
 30
0.0
 11
79.377113
 21
2.11421
 31
0.0
  0
LINE
  5
8BD
330
1F
100
AcDbEntity
  8
1
  6
CONTINUOUS
370
50
 62
4
100
AcDbLine
 10
53.259563
 20
3.152685
 30
0.0
 11
52.984505
 21
3.215071
 31
0.0
  0
LINE
  5
8BE
330
1F
100
AcDbEntity
  8
1
  6
CONTINUOUS
370
50
 62
4
100
AcDbLine
 10
44.514416
 20
2.786889
 30
0.0
 11
43.570286
 21
3.00076
 31
0.0
  0
LINE
  5
8BF
330
1F
100
AcDbEntity
  8
1
  6
CONTINUOUS
370
50
 62
4
100
AcDbLine
 10
43.436958
 20
3.032637
 30
0.0
 11
43.401855
 21
3.040502
 31
0.0
  0
LINE
  5
8C0
330
1F
100
AcDbEntity
  8
1
  6
CONTINUOUS
370
50
 62
4
100
AcDbLine
 10
66.97109999999999
 20
2.047974
 30
0.0
 11
66.598564
 21
2.131441
 31
0.0
  0
LINE
  5
8C1
330
1F
100
AcDbEntity
  8
1
  6
CONTINUOUS
370
50
 62
4
100
AcDbLine
 10
53.747345
 20
1.580535
 30
0.0
 11
53.162025
 21
1.711559
 31
0.0
  0
LINE
  5
8C2
330
1F
100
AcDbEntity
  8
1
  6
CONTINUOUS
370
50
 62
4
100
AcDbLine
 10
44.93103
 20
-3.38615
 30
0.0
 11
44.565689
 21
-3.304754
 31
0.0
  0
LINE
  5
8C3
330
1F
100
AcDbEntity
  8
1
  6
CONTINUOUS
370
50
 62
4
100
AcDbLine
 10
56.227039
 20
-3.278469
 30
0.0
 11
55.79357899999999
 21
-3.182213
 31
0.0
  0
LINE
  5
8C4
330
1F
100
AcDbEntity
  8
1
  6
CONTINUOUS
370
50
 62
4
100
AcDbLine
 10
66.841713
 20
1.586252
 30
0.0
 11
66.394165
 21
1.685387
 31
0.0
  0
LINE
  5
8C5
330
1F
100
AcDbEntity
  8
1
  6
CONTINUOUS
370
50
 62
4
100
AcDbLine
 10
65.057724
 20
-1.701893
 30
0.0
 11
64.616112
 21
-1.60459
 31
0.0
  0
LINE
  5
8C6
330
1F
100
AcDbEntity
  8
1
  6
CONTINUOUS
370
50
 62
4
100
AcDbLine
 10
79.800049
 20
3.235944
 30
0.0
 11
79.732918
 21
3.250702
 31
0.0
  0
LINE
  5
8C7
330
1F
100
AcDbEntity
  8
1
  6
CONTINUOUS
370
50
 62
4
100
AcDbLine
 10
54.170956
 20
2.071841
 30
0.0
 11
53.791035
 21
2.154277
 31
0.0
  0
LINE
  5
8C8
330
1F
100
AcDbEntity
  8
1
  6
CONTINUOUS
370
50
 62
4
100
AcDbLine
 10
51.918144
 20
1.96799
 30
0.0
 11
51.857296
 21
1.981028
 31
0.0
  0
LINE
  5
8C9
330
1F
100
AcDbEntity
  8
1
  6
CONTINUOUS
370
50
 62
4
100
AcDbLine
 10
79.732918
 20
3.250702
 30
0.0
 11
79.665855
 21
3.265042
 31
0.0
  0
LINE
  5
8CA
330
1F
100
AcDbEntity
  8
1
  6
CONTINUOUS
370
50
 62
4
100
AcDbLine
 10
49.340046
 20
-0.376788
 30
0.0
 11
49.01709
 21
-0.307832
 31
0.0
  0
LINE
  5
8CB
330
1F
100
AcDbEntity
  8
1
  6
CONTINUOUS
370
50
 62
4
100
AcDbLine
 10
78.386292
 20
3.211848
 30
0.0
 11
77.971268
 21
3.300441
 31
0.0
  0
LINE
  5
8CC
330
1F
100
AcDbEntity
  8
1
  6
CONTINUOUS
370
50
 62
4
100
AcDbLine
 10
53.032917
 20
3.053087
 30
0.0
 11
52.65552899999999
 21
3.133472
 31
0.0
  0
LINE
  5
8CD
330
1F
100
AcDbEntity
  8
1
  6
CONTINUOUS
370
50
 62
4
100
AcDbLine
 10
54.788017
 20
-3.295916
 30
0.0
 11
54.380306
 21
-3.209164
 31
0.0
  0
LINE
  5
8CE
330
1F
100
AcDbEntity
  8
1
  6
CONTINUOUS
370
50
 62
4
100
AcDbLine
 10
43.401855
 20
3.040502
 30
0.0
 11
43.36668
 21
3.047982
 31
0.0
  0
LINE
  5
8CF
330
1F
100
AcDbEntity
  8
1
  6
CONTINUOUS
370
50
 62
4
100
AcDbLine
 10
78.51870699999999
 20
3.032589
 30
0.0
 11
78.129066
 21
3.11496
 31
0.0
  0
LINE
  5
8D0
330
1F
100
AcDbEntity
  8
1
  6
CONTINUOUS
370
50
 62
4
100
AcDbLine
 10
67.287292
 20
3.1966
 30
0.0
 11
66.70401799999999
 21
3.318343
 31
0.0
  0
LINE
  5
8D1
330
1F
100
AcDbEntity
  8
1
  6
CONTINUOUS
370
50
 62
4
100
AcDbLine
 10
79.665855
 20
3.265042
 30
0.0
 11
79.598854
 21
3.278965
 31
0.0
  0
LINE
  5
8D2
330
1F
100
AcDbEntity
  8
1
  6
CONTINUOUS
370
50
 62
4
100
AcDbLine
 10
79.377113
 20
2.11421
 30
0.0
 11
78.998192
 21
2.192755
 31
0.0
  0
LINE
  5
8D3
330
1F
100
AcDbEntity
  8
1
  6
CONTINUOUS
370
50
 62
4
100
AcDbLine
 10
79.74410999999999
 20
3.253243
 30
0.0
 11
79.733131
 21
3.255501
 31
0.0
  0
LINE
  5
8D4
330
1F
100
AcDbEntity
  8
1
  6
CONTINUOUS
370
50
 62
4
100
AcDbLine
 10
78.78776599999999
 20
1.688486
 30
0.0
 11
78.48430599999999
 21
1.750178
 31
0.0
  0
LINE
  5
8D5
330
1F
100
AcDbEntity
  8
1
  6
CONTINUOUS
370
50
 62
4
100
AcDbLine
 10
66.598564
 20
2.131441
 30
0.0
 11
66.226051
 21
2.206813
 31
0.0
  0
LINE
  5
8D6
330
1F
100
AcDbEntity
  8
1
  6
CONTINUOUS
370
50
 62
4
100
AcDbLine
 10
79.598854
 20
3.278965
 30
0.0
 11
79.53190599999999
 21
3.292471
 31
0.0
  0
LINE
  5
8D7
330
1F
100
AcDbEntity
  8
1
  6
CONTINUOUS
370
50
 62
4
100
AcDbLine
 10
54.39118999999999
 20
3.242108
 30
0.0
 11
54.007942
 21
3.318081
 31
0.0
  0
LINE
  5
8D8
330
1F
100
AcDbEntity
  8
1
  6
CONTINUOUS
370
50
 62
4
100
AcDbLine
 10
52.984505
 20
3.215071
 30
0.0
 11
52.687706
 21
3.273904
 31
0.0
  0
LINE
  5
8D9
330
1F
100
AcDbEntity
  8
1
  6
CONTINUOUS
370
50
 62
4
100
AcDbLine
 10
54.746174
 20
1.437231
 30
0.0
 11
52.763935
 21
1.828379
 31
0.0
  0
LINE
  5
8DA
330
1F
100
AcDbEntity
  8
1
  6
CONTINUOUS
370
50
 62
4
100
AcDbLine
 10
79.53190599999999
 20
3.292471
 30
0.0
 11
79.464989
 21
3.305559
 31
0.0
  0
LINE
  5
8DB
330
1F
100
AcDbEntity
  8
1
  6
CONTINUOUS
370
50
 62
4
100
AcDbLine
 10
51.857296
 20
1.981028
 30
0.0
 11
51.79575
 21
1.993052
 31
0.0
  0
LINE
  5
8DC
330
1F
100
AcDbEntity
  8
1
  6
CONTINUOUS
370
50
 62
4
100
AcDbLine
 10
54.243233
 20
1.484043
 30
0.0
 11
53.747345
 21
1.580535
 31
0.0
  0
LINE
  5
8DD
330
1F
100
AcDbEntity
  8
1
  6
CONTINUOUS
370
50
 62
4
100
AcDbLine
 10
53.791035
 20
2.154277
 30
0.0
 11
53.411606
 21
2.227978
 31
0.0
  0
LINE
  5
8DE
330
1F
100
AcDbEntity
  8
1
  6
CONTINUOUS
370
50
 62
4
100
AcDbLine
 10
66.394165
 20
1.685387
 30
0.0
 11
65.89729299999999
 21
1.779978
 31
0.0
  0
LINE
  5
8DF
330
1F
100
AcDbEntity
  8
1
  6
CONTINUOUS
370
50
 62
4
100
AcDbLine
 10
67.809708
 20
-3.353824
 30
0.0
 11
67.235443
 21
-3.244614
 31
0.0
  0
LINE
  5
8E0
330
1F
100
AcDbEntity
  8
1
  6
CONTINUOUS
370
50
 62
4
100
AcDbLine
 10
79.464989
 20
3.305559
 30
0.0
 11
79.398102
 21
3.318228
 31
0.0
  0
LINE
  5
8E1
330
1F
100
AcDbEntity
  8
1
  6
CONTINUOUS
370
50
 62
4
100
AcDbLine
 10
79.733131
 20
3.255499
 30
0.0
 11
79.67729899999999
 21
3.265985
 31
0.0
  0
LINE
  5
8E2
330
1F
100
AcDbEntity
  8
1
  6
CONTINUOUS
370
50
 62
4
100
AcDbLine
 10
79.67729899999999
 20
3.265985
 30
0.0
 11
79.621468
 21
3.27646
 31
0.0
  0
LINE
  5
8E3
330
1F
100
AcDbEntity
  8
1
  6
CONTINUOUS
370
50
 62
4
100
AcDbLine
 10
79.621468
 20
3.27646
 30
0.0
 11
79.56562799999999
 21
3.286922
 31
0.0
  0
LINE
  5
8E4
330
1F
100
AcDbEntity
  8
1
  6
CONTINUOUS
370
50
 62
4
100
AcDbLine
 10
79.56562799999999
 20
3.286922
 30
0.0
 11
79.509789
 21
3.297369
 31
0.0
  0
LINE
  5
8E5
330
1F
100
AcDbEntity
  8
1
  6
CONTINUOUS
370
50
 62
4
100
AcDbLine
 10
79.509789
 20
3.297369
 30
0.0
 11
79.453949
 21
3.307799
 31
0.0
  0
LINE
  5
8E6
330
1F
100
AcDbEntity
  8
1
  6
CONTINUOUS
370
50
 62
4
100
AcDbLine
 10
79.453949
 20
3.307799
 30
0.0
 11
79.39810899999999
 21
3.31821
 31
0.0
  0
LINE
  5
8E7
330
1F
100
AcDbEntity
  8
1
  6
CONTINUOUS
370
50
 62
4
100
AcDbLine
 10
65.486252
 20
3.257739
 30
0.0
 11
64.915634
 21
3.364041
 31
0.0
  0
LINE
  5
8E8
330
1F
100
AcDbEntity
  8
1
  6
CONTINUOUS
370
50
 62
4
100
AcDbLine
 10
67.796936
 20
3.116718
 30
0.0
 11
67.590012
 21
3.155158
 31
0.0
  0
LINE
  5
8E9
330
1F
100
AcDbEntity
  8
1
  6
CONTINUOUS
370
50
 62
4
100
AcDbLine
 10
67.90038299999999
 20
3.097513
 30
0.0
 11
67.796936
 21
3.116718
 31
0.0
  0
LINE
  5
8EA
330
1F
100
AcDbEntity
  8
1
  6
CONTINUOUS
370
50
 62
4
100
AcDbLine
 10
67.590012
 20
3.155158
 30
0.0
 11
67.48655699999999
 21
3.174364
 31
0.0
  0
LINE
  5
8EB
330
1F
100
AcDbEntity
  8
1
  6
CONTINUOUS
370
50
 62
4
100
AcDbLine
 10
67.48655699999999
 20
3.174364
 30
0.0
 11
67.38311
 21
3.193546
 31
0.0
  0
LINE
  5
8EC
330
1F
100
AcDbEntity
  8
1
  6
CONTINUOUS
370
50
 62
4
100
AcDbLine
 10
55.037491
 20
3.128982
 30
0.0
 11
54.966167
 21
3.142205
 31
0.0
  0
LINE
  5
8ED
330
1F
100
AcDbEntity
  8
1
  6
CONTINUOUS
370
50
 62
4
100
AcDbLine
 10
68.00383
 20
3.078335
 30
0.0
 11
67.90038299999999
 21
3.097513
 31
0.0
  0
LINE
  5
8EE
330
1F
100
AcDbEntity
  8
1
  6
CONTINUOUS
370
50
 62
4
100
AcDbLine
 10
54.966167
 20
3.142205
 30
0.0
 11
54.900352
 21
3.154405
 31
0.0
  0
LINE
  5
8EF
330
1F
100
AcDbEntity
  8
1
  6
CONTINUOUS
370
50
 62
4
100
AcDbLine
 10
55.10881
 20
3.115765
 30
0.0
 11
55.037491
 21
3.128982
 31
0.0
  0
LINE
  5
8F0
330
1F
100
AcDbEntity
  8
1
  6
CONTINUOUS
370
50
 62
4
100
AcDbLine
 10
54.900352
 20
3.154405
 30
0.0
 11
54.834534
 21
3.166602
 31
0.0
  0
LINE
  5
8F1
330
1F
100
AcDbEntity
  8
1
  6
CONTINUOUS
370
50
 62
4
100
AcDbLine
 10
55.180122
 20
3.102558
 30
0.0
 11
55.10881
 21
3.115765
 31
0.0
  0
LINE
  5
8F2
330
1F
100
AcDbEntity
  8
1
  6
CONTINUOUS
370
50
 62
4
100
AcDbLine
 10
54.834534
 20
3.166602
 30
0.0
 11
54.768707
 21
3.178792
 31
0.0
  0
LINE
  5
8F3
330
1F
100
AcDbEntity
  8
1
  6
CONTINUOUS
370
50
 62
4
100
AcDbLine
 10
78.998192
 20
2.192755
 30
0.0
 11
78.61921699999999
 21
2.262931
 31
0.0
  0
LINE
  5
8F4
330
1F
100
AcDbEntity
  8
1
  6
CONTINUOUS
370
50
 62
4
100
AcDbLine
 10
67.38311
 20
3.193546
 30
0.0
 11
67.298203
 21
3.209265
 31
0.0
  0
LINE
  5
8F5
330
1F
100
AcDbEntity
  8
1
  6
CONTINUOUS
370
50
 62
4
100
AcDbLine
 10
54.768707
 20
3.178792
 30
0.0
 11
54.702881
 21
3.190972
 31
0.0
  0
LINE
  5
8F6
330
1F
100
AcDbEntity
  8
1
  6
CONTINUOUS
370
50
 62
4
100
AcDbLine
 10
68.10728499999999
 20
3.059197
 30
0.0
 11
68.00383
 21
3.078335
 31
0.0
  0
LINE
  5
8F7
330
1F
100
AcDbEntity
  8
1
  6
CONTINUOUS
370
50
 62
4
100
AcDbLine
 10
55.251431
 20
3.089368
 30
0.0
 11
55.180122
 21
3.102558
 31
0.0
  0
LINE
  5
8F8
330
1F
100
AcDbEntity
  8
1
  6
CONTINUOUS
370
50
 62
4
100
AcDbLine
 10
54.702881
 20
3.190972
 30
0.0
 11
54.632278
 21
3.204021
 31
0.0
  0
LINE
  5
8F9
330
1F
100
AcDbEntity
  8
1
  6
CONTINUOUS
370
50
 62
4
100
AcDbLine
 10
67.298203
 20
3.209265
 30
0.0
 11
67.213318
 21
3.224951
 31
0.0
  0
LINE
  5
8FA
330
1F
100
AcDbEntity
  8
1
  6
CONTINUOUS
370
50
 62
4
100
AcDbLine
 10
55.322731
 20
3.076198
 30
0.0
 11
55.251431
 21
3.089368
 31
0.0
  0
LINE
  5
8FB
330
1F
100
AcDbEntity
  8
1
  6
CONTINUOUS
370
50
 62
4
100
AcDbLine
 10
54.632278
 20
3.204021
 30
0.0
 11
54.561668
 21
3.217049
 31
0.0
  0
LINE
  5
8FC
330
1F
100
AcDbEntity
  8
1
  6
CONTINUOUS
370
50
 62
4
100
AcDbLine
 10
68.210724
 20
3.040116
 30
0.0
 11
68.10728499999999
 21
3.059197
 31
0.0
  0
LINE
  5
8FD
330
1F
100
AcDbEntity
  8
1
  6
CONTINUOUS
370
50
 62
4
100
AcDbLine
 10
67.213318
 20
3.224951
 30
0.0
 11
67.12842599999999
 21
3.240605
 31
0.0
  0
LINE
  5
8FE
330
1F
100
AcDbEntity
  8
1
  6
CONTINUOUS
370
50
 62
4
100
AcDbLine
 10
55.39402399999999
 20
3.063055
 30
0.0
 11
55.322731
 21
3.076198
 31
0.0
  0
LINE
  5
8FF
330
1F
100
AcDbEntity
  8
1
  6
CONTINUOUS
370
50
 62
4
100
AcDbLine
 10
54.561668
 20
3.217049
 30
0.0
 11
54.491058
 21
3.230054
 31
0.0
  0
LINE
  5
900
330
1F
100
AcDbEntity
  8
1
  6
CONTINUOUS
370
50
 62
4
100
AcDbLine
 10
78.41384099999999
 20
1.803684
 30
0.0
 11
78.247169
 21
1.834377
 31
0.0
  0
LINE
  5
901
330
1F
100
AcDbEntity
  8
1
  6
CONTINUOUS
370
50
 62
4
100
AcDbLine
 10
78.581497
 20
1.772823
 30
0.0
 11
78.41384099999999
 21
1.803684
 31
0.0
  0
LINE
  5
902
330
1F
100
AcDbEntity
  8
1
  6
CONTINUOUS
370
50
 62
4
100
AcDbLine
 10
67.12842599999999
 20
3.240605
 30
0.0
 11
67.043526
 21
3.256221
 31
0.0
  0
LINE
  5
903
330
1F
100
AcDbEntity
  8
1
  6
CONTINUOUS
370
50
 62
4
100
AcDbLine
 10
55.465309
 20
3.049944
 30
0.0
 11
55.39402399999999
 21
3.063055
 31
0.0
  0
LINE
  5
904
330
1F
100
AcDbEntity
  8
1
  6
CONTINUOUS
370
50
 62
4
100
AcDbLine
 10
69.407669
 20
-3.36572
 30
0.0
 11
68.844925
 21
-3.262282
 31
0.0
  0
LINE
  5
905
330
1F
100
AcDbEntity
  8
1
  6
CONTINUOUS
370
50
 62
4
100
AcDbLine
 10
54.491058
 20
3.230054
 30
0.0
 11
54.420444
 21
3.243033
 31
0.0
  0
LINE
  5
906
330
1F
100
AcDbEntity
  8
1
  6
CONTINUOUS
370
50
 62
4
100
AcDbLine
 10
68.314171
 20
3.021105
 30
0.0
 11
68.210724
 21
3.040116
 31
0.0
  0
LINE
  5
907
330
1F
100
AcDbEntity
  8
1
  6
CONTINUOUS
370
50
 62
4
100
AcDbLine
 10
45.503006
 20
2.605277
 30
0.0
 11
44.514416
 21
2.786889
 31
0.0
  0
LINE
  5
908
330
1F
100
AcDbEntity
  8
1
  6
CONTINUOUS
370
50
 62
4
100
AcDbLine
 10
56.659145
 20
-3.357748
 30
0.0
 11
56.227039
 21
-3.278469
 31
0.0
  0
LINE
  5
909
330
1F
100
AcDbEntity
  8
1
  6
CONTINUOUS
370
50
 62
4
100
AcDbLine
 10
78.75
 20
1.741914
 30
0.0
 11
78.581497
 21
1.772823
 31
0.0
  0
LINE
  5
90A
330
1F
100
AcDbEntity
  8
1
  6
CONTINUOUS
370
50
 62
4
100
AcDbLine
 10
67.043526
 20
3.256221
 30
0.0
 11
66.958649
 21
3.27179
 31
0.0
  0
LINE
  5
90B
330
1F
100
AcDbEntity
  8
1
  6
CONTINUOUS
370
50
 62
4
100
AcDbLine
 10
55.536587
 20
3.036872
 30
0.0
 11
55.465309
 21
3.049944
 31
0.0
  0
LINE
  5
90C
330
1F
100
AcDbEntity
  8
1
  6
CONTINUOUS
370
50
 62
4
100
AcDbLine
 10
54.420444
 20
3.243033
 30
0.0
 11
54.349842
 21
3.25598
 31
0.0
  0
LINE
  5
90D
330
1F
100
AcDbEntity
  8
1
  6
CONTINUOUS
370
50
 62
4
100
AcDbLine
 10
78.919044
 20
1.710931
 30
0.0
 11
78.75
 21
1.741914
 31
0.0
  0
LINE
  5
90E
330
1F
100
AcDbEntity
  8
1
  6
CONTINUOUS
370
50
 62
4
100
AcDbLine
 10
68.41761799999999
 20
3.002181
 30
0.0
 11
68.314171
 21
3.021105
 31
0.0
  0
LINE
  5
90F
330
1F
100
AcDbEntity
  8
1
  6
CONTINUOUS
370
50
 62
4
100
AcDbLine
 10
54.349842
 20
3.25598
 30
0.0
 11
54.279232
 21
3.268893
 31
0.0
  0
LINE
  5
910
330
1F
100
AcDbEntity
  8
1
  6
CONTINUOUS
370
50
 62
4
100
AcDbLine
 10
66.958649
 20
3.27179
 30
0.0
 11
66.873772
 21
3.287312
 31
0.0
  0
LINE
  5
911
330
1F
100
AcDbEntity
  8
1
  6
CONTINUOUS
370
50
 62
4
100
AcDbLine
 10
55.600853
 20
3.025122
 30
0.0
 11
55.536587
 21
3.036872
 31
0.0
  0
LINE
  5
912
330
1F
100
AcDbEntity
  8
1
  6
CONTINUOUS
370
50
 62
4
100
AcDbLine
 10
66.788895
 20
3.302816
 30
0.0
 11
66.70401799999999
 21
3.318328
 31
0.0
  0
LINE
  5
913
330
1F
100
AcDbEntity
  8
1
  6
CONTINUOUS
370
50
 62
4
100
AcDbLine
 10
66.873772
 20
3.287312
 30
0.0
 11
66.788895
 21
3.302816
 31
0.0
  0
LINE
  5
914
330
1F
100
AcDbEntity
  8
1
  6
CONTINUOUS
370
50
 62
4
100
AcDbLine
 10
78.247169
 20
1.834377
 30
0.0
 11
78.094955
 21
1.86218
 31
0.0
  0
LINE
  5
915
330
1F
100
AcDbEntity
  8
1
  6
CONTINUOUS
370
50
 62
4
100
AcDbLine
 10
54.279232
 20
3.268893
 30
0.0
 11
54.208626
 21
3.281771
 31
0.0
  0
LINE
  5
916
330
1F
100
AcDbEntity
  8
1
  6
CONTINUOUS
370
50
 62
4
100
AcDbLine
 10
55.665115
 20
3.013403
 30
0.0
 11
55.600853
 21
3.025122
 31
0.0
  0
LINE
  5
917
330
1F
100
AcDbEntity
  8
1
  6
CONTINUOUS
370
50
 62
4
100
AcDbLine
 10
55.793648
 20
2.989965
 30
0.0
 11
55.72938199999999
 21
3.001684
 31
0.0
  0
LINE
  5
918
330
1F
100
AcDbEntity
  8
1
  6
CONTINUOUS
370
50
 62
4
100
AcDbLine
 10
55.72938199999999
 20
3.001684
 30
0.0
 11
55.665115
 21
3.013403
 31
0.0
  0
LINE
  5
919
330
1F
100
AcDbEntity
  8
1
  6
CONTINUOUS
370
50
 62
4
100
AcDbLine
 10
55.865768
 20
2.976816
 30
0.0
 11
55.793648
 21
2.989965
 31
0.0
  0
LINE
  5
91A
330
1F
100
AcDbEntity
  8
1
  6
CONTINUOUS
370
50
 62
4
100
AcDbLine
 10
55.93788499999999
 20
2.963673
 30
0.0
 11
55.865768
 21
2.976816
 31
0.0
  0
LINE
  5
91B
330
1F
100
AcDbEntity
  8
1
  6
CONTINUOUS
370
50
 62
4
100
AcDbLine
 10
56.01000999999999
 20
2.95054
 30
0.0
 11
55.93788499999999
 21
2.963673
 31
0.0
  0
LINE
  5
91C
330
1F
100
AcDbEntity
  8
1
  6
CONTINUOUS
370
50
 62
4
100
AcDbLine
 10
68.521065
 20
2.98336
 30
0.0
 11
68.41761799999999
 21
3.002181
 31
0.0
  0
LINE
  5
91D
330
1F
100
AcDbEntity
  8
1
  6
CONTINUOUS
370
50
 62
4
100
AcDbLine
 10
50.84387599999999
 20
1.952973
 30
0.0
 11
50.758846
 21
1.968442
 31
0.0
  0
LINE
  5
91E
330
1F
100
AcDbEntity
  8
1
  6
CONTINUOUS
370
50
 62
4
100
AcDbLine
 10
56.082134
 20
2.937421
 30
0.0
 11
56.01000999999999
 21
2.95054
 31
0.0
  0
LINE
  5
91F
330
1F
100
AcDbEntity
  8
1
  6
CONTINUOUS
370
50
 62
4
100
AcDbLine
 10
54.208626
 20
3.281771
 30
0.0
 11
54.13802
 21
3.294611
 31
0.0
  0
LINE
  5
920
330
1F
100
AcDbEntity
  8
1
  6
CONTINUOUS
370
50
 62
4
100
AcDbLine
 10
56.154259
 20
2.92432
 30
0.0
 11
56.082134
 21
2.937421
 31
0.0
  0
LINE
  5
921
330
1F
100
AcDbEntity
  8
1
  6
CONTINUOUS
370
50
 62
4
100
AcDbLine
 10
56.226383
 20
2.911241
 30
0.0
 11
56.154259
 21
2.92432
 31
0.0
  0
LINE
  5
922
330
1F
100
AcDbEntity
  8
1
  6
CONTINUOUS
370
50
 62
4
100
AcDbLine
 10
54.13802
 20
3.294611
 30
0.0
 11
54.072987
 21
3.3064
 31
0.0
  0
LINE
  5
923
330
1F
100
AcDbEntity
  8
1
  6
CONTINUOUS
370
50
 62
4
100
AcDbLine
 10
52.687706
 20
3.273904
 30
0.0
 11
52.3181
 21
3.340862
 31
0.0
  0
LINE
  5
924
330
1F
100
AcDbEntity
  8
1
  6
CONTINUOUS
370
50
 62
4
100
AcDbLine
 10
56.298512
 20
2.89819
 30
0.0
 11
56.226383
 21
2.911241
 31
0.0
  0
LINE
  5
925
330
1F
100
AcDbEntity
  8
1
  6
CONTINUOUS
370
50
 62
4
100
AcDbLine
 10
68.624512
 20
2.964658
 30
0.0
 11
68.521065
 21
2.98336
 31
0.0
  0
LINE
  5
926
330
1F
100
AcDbEntity
  8
1
  6
CONTINUOUS
370
50
 62
4
100
AcDbLine
 10
54.072987
 20
3.3064
 30
0.0
 11
54.007954
 21
3.318153
 31
0.0
  0
LINE
  5
927
330
1F
100
AcDbEntity
  8
1
  6
CONTINUOUS
370
50
 62
4
100
AcDbLine
 10
56.37063999999999
 20
2.88517
 30
0.0
 11
56.298512
 21
2.89819
 31
0.0
  0
LINE
  5
928
330
1F
100
AcDbEntity
  8
1
  6
CONTINUOUS
370
50
 62
4
100
AcDbLine
 10
66.226051
 20
2.206813
 30
0.0
 11
65.85350799999999
 21
2.273973
 31
0.0
  0
LINE
  5
929
330
1F
100
AcDbEntity
  8
1
  6
CONTINUOUS
370
50
 62
4
100
AcDbLine
 10
56.433231
 20
2.873901
 30
0.0
 11
56.37063999999999
 21
2.88517
 31
0.0
  0
LINE
  5
92A
330
1F
100
AcDbEntity
  8
1
  6
CONTINUOUS
370
50
 62
4
100
AcDbLine
 10
56.49582299999999
 20
2.862663
 30
0.0
 11
56.433231
 21
2.873901
 31
0.0
  0
LINE
  5
92B
330
1F
100
AcDbEntity
  8
1
  6
CONTINUOUS
370
50
 62
4
100
AcDbLine
 10
68.727959
 20
2.946093
 30
0.0
 11
68.624512
 21
2.964658
 31
0.0
  0
LINE
  5
92C
330
1F
100
AcDbEntity
  8
1
  6
CONTINUOUS
370
50
 62
4
100
AcDbLine
 10
56.558418
 20
2.851458
 30
0.0
 11
56.49582299999999
 21
2.862663
 31
0.0
  0
LINE
  5
92D
330
1F
100
AcDbEntity
  8
1
  6
CONTINUOUS
370
50
 62
4
100
AcDbLine
 10
51.79575
 20
1.993052
 30
0.0
 11
51.733624
 21
2.004155
 31
0.0
  0
LINE
  5
92E
330
1F
100
AcDbEntity
  8
1
  6
CONTINUOUS
370
50
 62
4
100
AcDbLine
 10
45.285385
 20
-3.449465
 30
0.0
 11
44.93103
 21
-3.38615
 31
0.0
  0
LINE
  5
92F
330
1F
100
AcDbEntity
  8
1
  6
CONTINUOUS
370
50
 62
4
100
AcDbLine
 10
68.831413
 20
2.927628
 30
0.0
 11
68.727959
 21
2.946093
 31
0.0
  0
LINE
  5
930
330
1F
100
AcDbEntity
  8
1
  6
CONTINUOUS
370
50
 62
4
100
AcDbLine
 10
68.93487499999999
 20
2.909165
 30
0.0
 11
68.831413
 21
2.927628
 31
0.0
  0
LINE
  5
931
330
1F
100
AcDbEntity
  8
1
  6
CONTINUOUS
370
50
 62
4
100
AcDbLine
 10
56.62101
 20
2.840291
 30
0.0
 11
56.558418
 21
2.851458
 31
0.0
  0
LINE
  5
932
330
1F
100
AcDbEntity
  8
1
  6
CONTINUOUS
370
50
 62
4
100
AcDbLine
 10
69.03834499999999
 20
2.890712
 30
0.0
 11
68.93487499999999
 21
2.909165
 31
0.0
  0
LINE
  5
933
330
1F
100
AcDbEntity
  8
1
  6
CONTINUOUS
370
50
 62
4
100
AcDbLine
 10
69.141808
 20
2.872283
 30
0.0
 11
69.03834499999999
 21
2.890712
 31
0.0
  0
LINE
  5
934
330
1F
100
AcDbEntity
  8
1
  6
CONTINUOUS
370
50
 62
4
100
AcDbLine
 10
69.24526999999999
 20
2.85389
 30
0.0
 11
69.141808
 21
2.872283
 31
0.0
  0
LINE
  5
935
330
1F
100
AcDbEntity
  8
1
  6
CONTINUOUS
370
50
 62
4
100
AcDbLine
 10
56.69416
 20
2.827293
 30
0.0
 11
56.62101
 21
2.840291
 31
0.0
  0
LINE
  5
936
330
1F
100
AcDbEntity
  8
1
  6
CONTINUOUS
370
50
 62
4
100
AcDbLine
 10
78.129066
 20
3.11496
 30
0.0
 11
77.739548
 21
3.18416
 31
0.0
  0
LINE
  5
937
330
1F
100
AcDbEntity
  8
1
  6
CONTINUOUS
370
50
 62
4
100
AcDbLine
 10
69.348732
 20
2.835545
 30
0.0
 11
69.24526999999999
 21
2.85389
 31
0.0
  0
LINE
  5
938
330
1F
100
AcDbEntity
  8
1
  6
CONTINUOUS
370
50
 62
4
100
AcDbLine
 10
52.65552899999999
 20
3.133472
 30
0.0
 11
52.276169
 21
3.200594
 31
0.0
  0
LINE
  5
939
330
1F
100
AcDbEntity
  8
1
  6
CONTINUOUS
370
50
 62
4
100
AcDbLine
 10
56.767307
 20
2.814355
 30
0.0
 11
56.69416
 21
2.827293
 31
0.0
  0
LINE
  5
93A
330
1F
100
AcDbEntity
  8
1
  6
CONTINUOUS
370
50
 62
4
100
AcDbLine
 10
69.45219399999999
 20
2.817264
 30
0.0
 11
69.348732
 21
2.835545
 31
0.0
  0
LINE
  5
93B
330
1F
100
AcDbEntity
  8
1
  6
CONTINUOUS
370
50
 62
4
100
AcDbLine
 10
69.555664
 20
2.799059
 30
0.0
 11
69.45219399999999
 21
2.817264
 31
0.0
  0
LINE
  5
93C
330
1F
100
AcDbEntity
  8
1
  6
CONTINUOUS
370
50
 62
4
100
AcDbLine
 10
56.840462
 20
2.801485
 30
0.0
 11
56.767307
 21
2.814355
 31
0.0
  0
LINE
  5
93D
330
1F
100
AcDbEntity
  8
1
  6
CONTINUOUS
370
50
 62
4
100
AcDbLine
 10
52.763935
 20
1.828379
 30
0.0
 11
52.643398
 21
1.849561
 31
0.0
  0
LINE
  5
93E
330
1F
100
AcDbEntity
  8
1
  6
CONTINUOUS
370
50
 62
4
100
AcDbLine
 10
53.411606
 20
2.227978
 30
0.0
 11
53.033249
 21
2.29446
 31
0.0
  0
LINE
  5
93F
330
1F
100
AcDbEntity
  8
1
  6
CONTINUOUS
370
50
 62
4
100
AcDbLine
 10
55.19649099999999
 20
-3.367548
 30
0.0
 11
54.788017
 21
-3.295916
 31
0.0
  0
LINE
  5
940
330
1F
100
AcDbEntity
  8
1
  6
CONTINUOUS
370
50
 62
4
100
AcDbLine
 10
69.659134
 20
2.780947
 30
0.0
 11
69.555664
 21
2.799059
 31
0.0
  0
LINE
  5
941
330
1F
100
AcDbEntity
  8
1
  6
CONTINUOUS
370
50
 62
4
100
AcDbLine
 10
56.913612
 20
2.788686
 30
0.0
 11
56.840462
 21
2.801485
 31
0.0
  0
LINE
  5
942
330
1F
100
AcDbEntity
  8
1
  6
CONTINUOUS
370
50
 62
4
100
AcDbLine
 10
77.971268
 20
3.300441
 30
0.0
 11
77.552025
 21
3.373523
 31
0.0
  0
LINE
  5
943
330
1F
100
AcDbEntity
  8
1
  6
CONTINUOUS
370
50
 62
4
100
AcDbLine
 10
69.762604
 20
2.762945
 30
0.0
 11
69.659134
 21
2.780947
 31
0.0
  0
LINE
  5
944
330
1F
100
AcDbEntity
  8
1
  6
CONTINUOUS
370
50
 62
4
100
AcDbLine
 10
56.986767
 20
2.775965
 30
0.0
 11
56.913612
 21
2.788686
 31
0.0
  0
LINE
  5
945
330
1F
100
AcDbEntity
  8
1
  6
CONTINUOUS
370
50
 62
4
100
AcDbLine
 10
69.866066
 20
2.745069
 30
0.0
 11
69.762604
 21
2.762945
 31
0.0
  0
LINE
  5
946
330
1F
100
AcDbEntity
  8
1
  6
CONTINUOUS
370
50
 62
4
100
AcDbLine
 10
57.059925
 20
2.763329
 30
0.0
 11
56.986767
 21
2.775965
 31
0.0
  0
LINE
  5
947
330
1F
100
AcDbEntity
  8
1
  6
CONTINUOUS
370
50
 62
4
100
AcDbLine
 10
57.133087
 20
2.750782
 30
0.0
 11
57.059925
 21
2.763329
 31
0.0
  0
LINE
  5
948
330
1F
100
AcDbEntity
  8
1
  6
CONTINUOUS
370
50
 62
4
100
AcDbLine
 10
69.969528
 20
2.727336
 30
0.0
 11
69.866066
 21
2.745069
 31
0.0
  0
LINE
  5
949
330
1F
100
AcDbEntity
  8
1
  6
CONTINUOUS
370
50
 62
4
100
AcDbLine
 10
57.206253
 20
2.73833
 30
0.0
 11
57.133087
 21
2.750782
 31
0.0
  0
LINE
  5
94A
330
1F
100
AcDbEntity
  8
1
  6
CONTINUOUS
370
50
 62
4
100
AcDbLine
 10
79.398102
 20
3.318228
 30
0.0
 11
79.052872
 21
3.376928
 31
0.0
  0
LINE
  5
94B
330
1F
100
AcDbEntity
  8
1
  6
CONTINUOUS
370
50
 62
4
100
AcDbLine
 10
70.072983
 20
2.709763
 30
0.0
 11
69.969528
 21
2.727336
 31
0.0
  0
LINE
  5
94C
330
1F
100
AcDbEntity
  8
1
  6
CONTINUOUS
370
50
 62
4
100
AcDbLine
 10
78.48430599999999
 20
1.750178
 30
0.0
 11
78.17662
 21
1.802419
 31
0.0
  0
LINE
  5
94D
330
1F
100
AcDbEntity
  8
1
  6
CONTINUOUS
370
50
 62
4
100
AcDbLine
 10
78.094955
 20
1.86218
 30
0.0
 11
77.923637
 21
1.89124
 31
0.0
  0
LINE
  5
94E
330
1F
100
AcDbEntity
  8
1
  6
CONTINUOUS
370
50
 62
4
100
AcDbLine
 10
57.266834
 20
2.728097
 30
0.0
 11
57.206253
 21
2.73833
 31
0.0
  0
LINE
  5
94F
330
1F
100
AcDbEntity
  8
1
  6
CONTINUOUS
370
50
 62
4
100
AcDbLine
 10
66.70401799999999
 20
3.318343
 30
0.0
 11
66.376144
 21
3.373561
 31
0.0
  0
LINE
  5
950
330
1F
100
AcDbEntity
  8
1
  6
CONTINUOUS
370
50
 62
4
100
AcDbLine
 10
70.176445
 20
2.692368
 30
0.0
 11
70.072983
 21
2.709763
 31
0.0
  0
LINE
  5
951
330
1F
100
AcDbEntity
  8
1
  6
CONTINUOUS
370
50
 62
4
100
AcDbLine
 10
65.89729299999999
 20
1.779978
 30
0.0
 11
65.398293
 21
1.863832
 31
0.0
  0
LINE
  5
952
330
1F
100
AcDbEntity
  8
1
  6
CONTINUOUS
370
50
 62
4
100
AcDbLine
 10
57.327419
 20
2.717938
 30
0.0
 11
57.266834
 21
2.728097
 31
0.0
  0
LINE
  5
953
330
1F
100
AcDbEntity
  8
1
  6
CONTINUOUS
370
50
 62
4
100
AcDbLine
 10
52.643398
 20
1.849561
 30
0.0
 11
52.522682
 21
1.869747
 31
0.0
  0
LINE
  5
954
330
1F
100
AcDbEntity
  8
1
  6
CONTINUOUS
370
50
 62
4
100
AcDbLine
 10
57.388004
 20
2.707855
 30
0.0
 11
57.327419
 21
2.717938
 31
0.0
  0
LINE
  5
955
330
1F
100
AcDbEntity
  8
1
  6
CONTINUOUS
370
50
 62
4
100
AcDbLine
 10
70.2799
 20
2.675168
 30
0.0
 11
70.176445
 21
2.692368
 31
0.0
  0
LINE
  5
956
330
1F
100
AcDbEntity
  8
1
  6
CONTINUOUS
370
50
 62
4
100
AcDbLine
 10
54.007942
 20
3.318081
 30
0.0
 11
53.68733599999999
 21
3.371242
 31
0.0
  0
LINE
  5
957
330
1F
100
AcDbEntity
  8
1
  6
CONTINUOUS
370
50
 62
4
100
AcDbLine
 10
50.754482
 20
3.288179
 30
0.0
 11
50.377735
 21
3.350526
 31
0.0
  0
LINE
  5
958
330
1F
100
AcDbEntity
  8
1
  6
CONTINUOUS
370
50
 62
4
100
AcDbLine
 10
57.448597
 20
2.697852
 30
0.0
 11
57.388004
 21
2.707855
 31
0.0
  0
LINE
  5
959
330
1F
100
AcDbEntity
  8
1
  6
CONTINUOUS
370
50
 62
4
100
AcDbLine
 10
52.3181
 20
3.340862
 30
0.0
 11
51.979889
 21
3.396661
 31
0.0
  0
LINE
  5
95A
330
1F
100
AcDbEntity
  8
1
  6
CONTINUOUS
370
50
 62
4
100
AcDbLine
 10
70.383347
 20
2.658183
 30
0.0
 11
70.2799
 21
2.675168
 31
0.0
  0
LINE
  5
95B
330
1F
100
AcDbEntity
  8
1
  6
CONTINUOUS
370
50
 62
4
100
AcDbLine
 10
51.733624
 20
2.004155
 30
0.0
 11
51.671055
 21
2.014427
 31
0.0
  0
LINE
  5
95C
330
1F
100
AcDbEntity
  8
1
  6
CONTINUOUS
370
50
 62
4
100
AcDbLine
 10
57.522121
 20
2.685822
 30
0.0
 11
57.448597
 21
2.697852
 31
0.0
  0
LINE
  5
95D
330
1F
100
AcDbEntity
  8
1
  6
CONTINUOUS
370
50
 62
4
100
AcDbLine
 10
57.59565
 20
2.673838
 30
0.0
 11
57.522121
 21
2.685822
 31
0.0
  0
LINE
  5
95E
330
1F
100
AcDbEntity
  8
1
  6
CONTINUOUS
370
50
 62
4
100
AcDbLine
 10
57.669178
 20
2.66188
 30
0.0
 11
57.59565
 21
2.673838
 31
0.0
  0
LINE
  5
95F
330
1F
100
AcDbEntity
  8
1
  6
CONTINUOUS
370
50
 62
4
100
AcDbLine
 10
50.75552
 20
2.449306
 30
0.0
 11
50.378101
 21
2.510578
 31
0.0
  0
LINE
  5
960
330
1F
100
AcDbEntity
  8
1
  6
CONTINUOUS
370
50
 62
4
100
AcDbLine
 10
57.742706
 20
2.649953
 30
0.0
 11
57.669178
 21
2.66188
 31
0.0
  0
LINE
  5
961
330
1F
100
AcDbEntity
  8
1
  6
CONTINUOUS
370
50
 62
4
100
AcDbLine
 10
70.486801
 20
2.64143
 30
0.0
 11
70.383347
 21
2.658183
 31
0.0
  0
LINE
  5
962
330
1F
100
AcDbEntity
  8
1
  6
CONTINUOUS
370
50
 62
4
100
AcDbLine
 10
57.816246
 20
2.63806
 30
0.0
 11
57.742706
 21
2.649953
 31
0.0
  0
LINE
  5
963
330
1F
100
AcDbEntity
  8
1
  6
CONTINUOUS
370
50
 62
4
100
AcDbLine
 10
57.889786
 20
2.626208
 30
0.0
 11
57.816246
 21
2.63806
 31
0.0
  0
LINE
  5
964
330
1F
100
AcDbEntity
  8
1
  6
CONTINUOUS
370
50
 62
4
100
AcDbLine
 10
78.61921699999999
 20
2.262931
 30
0.0
 11
78.240273
 21
2.323855
 31
0.0
  0
LINE
  5
965
330
1F
100
AcDbEntity
  8
1
  6
CONTINUOUS
370
50
 62
4
100
AcDbLine
 10
57.963326
 20
2.614403
 30
0.0
 11
57.889786
 21
2.626208
 31
0.0
  0
LINE
  5
966
330
1F
100
AcDbEntity
  8
1
  6
CONTINUOUS
370
50
 62
4
100
AcDbLine
 10
53.033249
 20
2.29446
 30
0.0
 11
52.655373
 21
2.35488
 31
0.0
  0
LINE
  5
967
330
1F
100
AcDbEntity
  8
1
  6
CONTINUOUS
370
50
 62
4
100
AcDbLine
 10
58.036865
 20
2.602651
 30
0.0
 11
57.963326
 21
2.614403
 31
0.0
  0
LINE
  5
968
330
1F
100
AcDbEntity
  8
1
  6
CONTINUOUS
370
50
 62
4
100
AcDbLine
 10
70.590256
 20
2.624928
 30
0.0
 11
70.486801
 21
2.64143
 31
0.0
  0
LINE
  5
969
330
1F
100
AcDbEntity
  8
1
  6
CONTINUOUS
370
50
 62
4
100
AcDbLine
 10
58.09679
 20
2.593117
 30
0.0
 11
58.036865
 21
2.602651
 31
0.0
  0
LINE
  5
96A
330
1F
100
AcDbEntity
  8
1
  6
CONTINUOUS
370
50
 62
4
100
AcDbLine
 10
58.156715
 20
2.583625
 30
0.0
 11
58.09679
 21
2.593117
 31
0.0
  0
LINE
  5
96B
330
1F
100
AcDbEntity
  8
1
  6
CONTINUOUS
370
50
 62
4
100
AcDbLine
 10
58.216637
 20
2.574177
 30
0.0
 11
58.156715
 21
2.583625
 31
0.0
  0
LINE
  5
96C
330
1F
100
AcDbEntity
  8
1
  6
CONTINUOUS
370
50
 62
4
100
AcDbLine
 10
52.522682
 20
1.869747
 30
0.0
 11
52.401802
 21
1.888805
 31
0.0
  0
LINE
  5
96D
330
1F
100
AcDbEntity
  8
1
  6
CONTINUOUS
370
50
 62
4
100
AcDbLine
 10
65.85350799999999
 20
2.273973
 30
0.0
 11
65.48093399999999
 21
2.332639
 31
0.0
  0
LINE
  5
96E
330
1F
100
AcDbEntity
  8
1
  6
CONTINUOUS
370
50
 62
4
100
AcDbLine
 10
70.693726
 20
2.608645
 30
0.0
 11
70.590256
 21
2.624928
 31
0.0
  0
LINE
  5
96F
330
1F
100
AcDbEntity
  8
1
  6
CONTINUOUS
370
50
 62
4
100
AcDbLine
 10
58.27655799999999
 20
2.564778
 30
0.0
 11
58.216637
 21
2.574177
 31
0.0
  0
LINE
  5
970
330
1F
100
AcDbEntity
  8
1
  6
CONTINUOUS
370
50
 62
4
100
AcDbLine
 10
70.73440599999999
 20
2.602266
 30
0.0
 11
70.693726
 21
2.608645
 31
0.0
  0
LINE
  5
971
330
1F
100
AcDbEntity
  8
1
  6
CONTINUOUS
370
50
 62
4
100
AcDbLine
 10
70.832779
 20
2.586888
 30
0.0
 11
70.73440599999999
 21
2.602266
 31
0.0
  0
LINE
  5
972
330
1F
100
AcDbEntity
  8
1
  6
CONTINUOUS
370
50
 62
4
100
AcDbLine
 10
58.351112
 20
2.553156
 30
0.0
 11
58.27655799999999
 21
2.564778
 31
0.0
  0
LINE
  5
973
330
1F
100
AcDbEntity
  8
1
  6
CONTINUOUS
370
50
 62
4
100
AcDbLine
 10
70.93115999999999
 20
2.571588
 30
0.0
 11
70.832779
 21
2.586888
 31
0.0
  0
LINE
  5
974
330
1F
100
AcDbEntity
  8
1
  6
CONTINUOUS
370
50
 62
4
100
AcDbLine
 10
58.425667
 20
2.54162
 30
0.0
 11
58.351112
 21
2.553156
 31
0.0
  0
LINE
  5
975
330
1F
100
AcDbEntity
  8
1
  6
CONTINUOUS
370
50
 62
4
100
AcDbLine
 10
71.029556
 20
2.556378
 30
0.0
 11
70.93115999999999
 21
2.571588
 31
0.0
  0
LINE
  5
976
330
1F
100
AcDbEntity
  8
1
  6
CONTINUOUS
370
50
 62
4
100
AcDbLine
 10
71.12795299999999
 20
2.541273
 30
0.0
 11
71.029556
 21
2.556378
 31
0.0
  0
LINE
  5
977
330
1F
100
AcDbEntity
  8
1
  6
CONTINUOUS
370
50
 62
4
100
AcDbLine
 10
58.500214
 20
2.530178
 30
0.0
 11
58.425667
 21
2.54162
 31
0.0
  0
LINE
  5
978
330
1F
100
AcDbEntity
  8
1
  6
CONTINUOUS
370
50
 62
4
100
AcDbLine
 10
77.923637
 20
1.89124
 30
0.0
 11
77.733948
 21
1.920244
 31
0.0
  0
LINE
  5
979
330
1F
100
AcDbEntity
  8
1
  6
CONTINUOUS
370
50
 62
4
100
AcDbLine
 10
71.226357
 20
2.526285
 30
0.0
 11
71.12795299999999
 21
2.541273
 31
0.0
  0
LINE
  5
97A
330
1F
100
AcDbEntity
  8
1
  6
CONTINUOUS
370
50
 62
4
100
AcDbLine
 10
58.57476399999999
 20
2.518835
 30
0.0
 11
58.500214
 21
2.530178
 31
0.0
  0
LINE
  5
97B
330
1F
100
AcDbEntity
  8
1
  6
CONTINUOUS
370
50
 62
4
100
AcDbLine
 10
51.671055
 20
2.014427
 30
0.0
 11
51.608158
 21
2.023959
 31
0.0
  0
LINE
  5
97C
330
1F
100
AcDbEntity
  8
1
  6
CONTINUOUS
370
50
 62
4
100
AcDbLine
 10
71.32476
 20
2.511429
 30
0.0
 11
71.226357
 21
2.526285
 31
0.0
  0
LINE
  5
97D
330
1F
100
AcDbEntity
  8
1
  6
CONTINUOUS
370
50
 62
4
100
AcDbLine
 10
58.649307
 20
2.5076
 30
0.0
 11
58.57476399999999
 21
2.518835
 31
0.0
  0
LINE
  5
97E
330
1F
100
AcDbEntity
  8
1
  6
CONTINUOUS
370
50
 62
4
100
AcDbLine
 10
78.17662
 20
1.802419
 30
0.0
 11
77.738159
 21
1.86844
 31
0.0
  0
LINE
  5
97F
330
1F
100
AcDbEntity
  8
1
  6
CONTINUOUS
370
50
 62
4
100
AcDbLine
 10
71.423157
 20
2.496721
 30
0.0
 11
71.32476
 21
2.511429
 31
0.0
  0
LINE
  5
980
330
1F
100
AcDbEntity
  8
1
  6
CONTINUOUS
370
50
 62
4
100
AcDbLine
 10
58.72385
 20
2.496478
 30
0.0
 11
58.649307
 21
2.5076
 31
0.0
  0
LINE
  5
981
330
1F
100
AcDbEntity
  8
1
  6
CONTINUOUS
370
50
 62
4
100
AcDbLine
 10
71.521553
 20
2.482174
 30
0.0
 11
71.423157
 21
2.496721
 31
0.0
  0
LINE
  5
982
330
1F
100
AcDbEntity
  8
1
  6
CONTINUOUS
370
50
 62
4
100
AcDbLine
 10
58.798393
 20
2.485477
 30
0.0
 11
58.72385
 21
2.496478
 31
0.0
  0
LINE
  5
983
330
1F
100
AcDbEntity
  8
1
  6
CONTINUOUS
370
50
 62
4
100
AcDbLine
 10
65.424362
 20
1.807886
 30
0.0
 11
64.41680099999999
 21
1.956307
 31
0.0
  0
LINE
  5
984
330
1F
100
AcDbEntity
  8
1
  6
CONTINUOUS
370
50
 62
4
100
AcDbLine
 10
65.398293
 20
1.863832
 30
0.0
 11
64.75076299999999
 21
1.959062
 31
0.0
  0
LINE
  5
985
330
1F
100
AcDbEntity
  8
1
  6
CONTINUOUS
370
50
 62
4
100
AcDbLine
 10
52.401802
 20
1.888805
 30
0.0
 11
52.280781
 21
1.9066
 31
0.0
  0
LINE
  5
986
330
1F
100
AcDbEntity
  8
1
  6
CONTINUOUS
370
50
 62
4
100
AcDbLine
 10
71.568604
 20
2.47528
 30
0.0
 11
71.521553
 21
2.482174
 31
0.0
  0
LINE
  5
987
330
1F
100
AcDbEntity
  8
1
  6
CONTINUOUS
370
50
 62
4
100
AcDbLine
 10
58.872932
 20
2.474604
 30
0.0
 11
58.798393
 21
2.485477
 31
0.0
  0
LINE
  5
988
330
1F
100
AcDbEntity
  8
1
  6
CONTINUOUS
370
50
 62
4
100
AcDbLine
 10
71.666191
 20
2.461117
 30
0.0
 11
71.568604
 21
2.47528
 31
0.0
  0
LINE
  5
989
330
1F
100
AcDbEntity
  8
1
  6
CONTINUOUS
370
50
 62
4
100
AcDbLine
 10
77.739548
 20
3.18416
 30
0.0
 11
77.349983
 21
3.240571
 31
0.0
  0
LINE
  5
98A
330
1F
100
AcDbEntity
  8
1
  6
CONTINUOUS
370
50
 62
4
100
AcDbLine
 10
77.738159
 20
1.86844
 30
0.0
 11
77.191818
 21
1.947001
 31
0.0
  0
LINE
  5
98B
330
1F
100
AcDbEntity
  8
1
  6
CONTINUOUS
370
50
 62
4
100
AcDbLine
 10
51.979889
 20
3.396661
 30
0.0
 11
51.72707699999999
 21
3.432958
 31
0.0
  0
LINE
  5
98C
330
1F
100
AcDbEntity
  8
1
  6
CONTINUOUS
370
50
 62
4
100
AcDbLine
 10
58.988628
 20
2.457996
 30
0.0
 11
58.872932
 21
2.474604
 31
0.0
  0
LINE
  5
98D
330
1F
100
AcDbEntity
  8
1
  6
CONTINUOUS
370
50
 62
4
100
AcDbLine
 10
57.092339
 20
-3.41979
 30
0.0
 11
56.659145
 21
-3.357748
 31
0.0
  0
LINE
  5
98E
330
1F
100
AcDbEntity
  8
1
  6
CONTINUOUS
370
50
 62
4
100
AcDbLine
 10
71.763779
 20
2.447149
 30
0.0
 11
71.666191
 21
2.461117
 31
0.0
  0
LINE
  5
98F
330
1F
100
AcDbEntity
  8
1
  6
CONTINUOUS
370
50
 62
4
100
AcDbLine
 10
46.593849
 20
2.450802
 30
0.0
 11
45.503006
 21
2.605277
 31
0.0
  0
LINE
  5
990
330
1F
100
AcDbEntity
  8
1
  6
CONTINUOUS
370
50
 62
4
100
AcDbLine
 10
71.861366
 20
2.433393
 30
0.0
 11
71.763779
 21
2.447149
 31
0.0
  0
LINE
  5
991
330
1F
100
AcDbEntity
  8
1
  6
CONTINUOUS
370
50
 62
4
100
AcDbLine
 10
51.608158
 20
2.023959
 30
0.0
 11
51.54504799999999
 21
2.032841
 31
0.0
  0
LINE
  5
992
330
1F
100
AcDbEntity
  8
1
  6
CONTINUOUS
370
50
 62
4
100
AcDbLine
 10
59.104324
 20
2.44174
 30
0.0
 11
58.988628
 21
2.457996
 31
0.0
  0
LINE
  5
993
330
1F
100
AcDbEntity
  8
1
  6
CONTINUOUS
370
50
 62
4
100
AcDbLine
 10
53.68733599999999
 20
3.371242
 30
0.0
 11
53.366856
 21
3.415807
 31
0.0
  0
LINE
  5
994
330
1F
100
AcDbEntity
  8
1
  6
CONTINUOUS
370
50
 62
4
100
AcDbLine
 10
66.376144
 20
3.373561
 30
0.0
 11
66.049881
 21
3.418926
 31
0.0
  0
LINE
  5
995
330
1F
100
AcDbEntity
  8
1
  6
CONTINUOUS
370
50
 62
4
100
AcDbLine
 10
55.602673
 20
-3.42391
 30
0.0
 11
55.19649099999999
 21
-3.367548
 31
0.0
  0
LINE
  5
996
330
1F
100
AcDbEntity
  8
1
  6
CONTINUOUS
370
50
 62
4
100
AcDbLine
 10
71.95895399999999
 20
2.419864
 30
0.0
 11
71.861366
 21
2.433393
 31
0.0
  0
LINE
  5
997
330
1F
100
AcDbEntity
  8
1
  6
CONTINUOUS
370
50
 62
4
100
AcDbLine
 10
68.381287
 20
-3.432971
 30
0.0
 11
67.809708
 21
-3.353824
 31
0.0
  0
LINE
  5
998
330
1F
100
AcDbEntity
  8
1
  6
CONTINUOUS
370
50
 62
4
100
AcDbLine
 10
59.179222
 20
2.431416
 30
0.0
 11
59.104324
 21
2.44174
 31
0.0
  0
LINE
  5
999
330
1F
100
AcDbEntity
  8
1
  6
CONTINUOUS
370
50
 62
4
100
AcDbLine
 10
77.733948
 20
1.920244
 30
0.0
 11
77.54370899999999
 21
1.94646
 31
0.0
  0
LINE
  5
99A
330
1F
100
AcDbEntity
  8
1
  6
CONTINUOUS
370
50
 62
4
100
AcDbLine
 10
79.052872
 20
3.376928
 30
0.0
 11
78.70649
 21
3.424351
 31
0.0
  0
LINE
  5
99B
330
1F
100
AcDbEntity
  8
1
  6
CONTINUOUS
370
50
 62
4
100
AcDbLine
 10
72.056534
 20
2.406578
 30
0.0
 11
71.95895399999999
 21
2.419864
 31
0.0
  0
LINE
  5
99C
330
1F
100
AcDbEntity
  8
1
  6
CONTINUOUS
370
50
 62
4
100
AcDbLine
 10
59.254124
 20
2.421257
 30
0.0
 11
59.179222
 21
2.431416
 31
0.0
  0
LINE
  5
99D
330
1F
100
AcDbEntity
  8
1
  6
CONTINUOUS
370
50
 62
4
100
AcDbLine
 10
52.280781
 20
1.9066
 30
0.0
 11
52.159645
 21
1.922999
 31
0.0
  0
LINE
  5
99E
330
1F
100
AcDbEntity
  8
1
  6
CONTINUOUS
370
50
 62
4
100
AcDbLine
 10
78.240273
 20
2.323855
 30
0.0
 11
77.86142699999999
 21
2.375081
 31
0.0
  0
LINE
  5
99F
330
1F
100
AcDbEntity
  8
1
  6
CONTINUOUS
370
50
 62
4
100
AcDbLine
 10
77.552025
 20
3.373523
 30
0.0
 11
77.127571
 21
3.430413
 31
0.0
  0
LINE
  5
9A0
330
1F
100
AcDbEntity
  8
1
  6
CONTINUOUS
370
50
 62
4
100
AcDbLine
 10
72.154121
 20
2.39355
 30
0.0
 11
72.056534
 21
2.406578
 31
0.0
  0
LINE
  5
9A1
330
1F
100
AcDbEntity
  8
1
  6
CONTINUOUS
370
50
 62
4
100
AcDbLine
 10
59.32902499999999
 20
2.411272
 30
0.0
 11
59.254124
 21
2.421257
 31
0.0
  0
LINE
  5
9A2
330
1F
100
AcDbEntity
  8
1
  6
CONTINUOUS
370
50
 62
4
100
AcDbLine
 10
64.915634
 20
3.364041
 30
0.0
 11
64.342102
 21
3.440331
 31
0.0
  0
LINE
  5
9A3
330
1F
100
AcDbEntity
  8
1
  6
CONTINUOUS
370
50
 62
4
100
AcDbLine
 10
65.48093399999999
 20
2.332639
 30
0.0
 11
65.108353
 21
2.382173
 31
0.0
  0
LINE
  5
9A4
330
1F
100
AcDbEntity
  8
1
  6
CONTINUOUS
370
50
 62
4
100
AcDbLine
 10
69.96788
 20
-3.440175
 30
0.0
 11
69.407669
 21
-3.36572
 31
0.0
  0
LINE
  5
9A5
330
1F
100
AcDbEntity
  8
1
  6
CONTINUOUS
370
50
 62
4
100
AcDbLine
 10
59.403934
 20
2.401455
 30
0.0
 11
59.32902499999999
 21
2.411272
 31
0.0
  0
LINE
  5
9A6
330
1F
100
AcDbEntity
  8
1
  6
CONTINUOUS
370
50
 62
4
100
AcDbLine
 10
72.251701
 20
2.380795
 30
0.0
 11
72.154121
 21
2.39355
 31
0.0
  0
LINE
  5
9A7
330
1F
100
AcDbEntity
  8
1
  6
CONTINUOUS
370
50
 62
4
100
AcDbLine
 10
51.54504799999999
 20
2.032841
 30
0.0
 11
51.481457
 21
2.041147
 31
0.0
  0
LINE
  5
9A8
330
1F
100
AcDbEntity
  8
1
  6
CONTINUOUS
370
50
 62
4
100
AcDbLine
 10
59.478844
 20
2.39172
 30
0.0
 11
59.403934
 21
2.401455
 31
0.0
  0
LINE
  5
9A9
330
1F
100
AcDbEntity
  8
1
  6
CONTINUOUS
370
50
 62
4
100
AcDbLine
 10
52.655373
 20
2.35488
 30
0.0
 11
52.276035
 21
2.404003
 31
0.0
  0
LINE
  5
9AA
330
1F
100
AcDbEntity
  8
1
  6
CONTINUOUS
370
50
 62
4
100
AcDbLine
 10
59.553753
 20
2.382049
 30
0.0
 11
59.478844
 21
2.39172
 31
0.0
  0
LINE
  5
9AB
330
1F
100
AcDbEntity
  8
1
  6
CONTINUOUS
370
50
 62
4
100
AcDbLine
 10
59.62867
 20
2.372448
 30
0.0
 11
59.553753
 21
2.382049
 31
0.0
  0
LINE
  5
9AC
330
1F
100
AcDbEntity
  8
1
  6
CONTINUOUS
370
50
 62
4
100
AcDbLine
 10
72.349289
 20
2.368329
 30
0.0
 11
72.251701
 21
2.380795
 31
0.0
  0
LINE
  5
9AD
330
1F
100
AcDbEntity
  8
1
  6
CONTINUOUS
370
50
 62
4
100
AcDbLine
 10
59.703587
 20
2.362924
 30
0.0
 11
59.62867
 21
2.372448
 31
0.0
  0
LINE
  5
9AE
330
1F
100
AcDbEntity
  8
1
  6
CONTINUOUS
370
50
 62
4
100
AcDbLine
 10
49.667885
 20
-0.418435
 30
0.0
 11
49.340046
 21
-0.376788
 31
0.0
  0
LINE
  5
9AF
330
1F
100
AcDbEntity
  8
1
  6
CONTINUOUS
370
50
 62
4
100
AcDbLine
 10
52.276169
 20
3.200594
 30
0.0
 11
51.895107
 21
3.248917
 31
0.0
  0
LINE
  5
9B0
330
1F
100
AcDbEntity
  8
1
  6
CONTINUOUS
370
50
 62
4
100
AcDbLine
 10
59.81785199999999
 20
2.348556
 30
0.0
 11
59.703587
 21
2.362924
 31
0.0
  0
LINE
  5
9B1
330
1F
100
AcDbEntity
  8
1
  6
CONTINUOUS
370
50
 62
4
100
AcDbLine
 10
72.402534
 20
2.361656
 30
0.0
 11
72.349289
 21
2.368329
 31
0.0
  0
LINE
  5
9B2
330
1F
100
AcDbEntity
  8
1
  6
CONTINUOUS
370
50
 62
4
100
AcDbLine
 10
77.54370899999999
 20
1.94646
 30
0.0
 11
77.35275299999999
 21
1.970261
 31
0.0
  0
LINE
  5
9B3
330
1F
100
AcDbEntity
  8
1
  6
CONTINUOUS
370
50
 62
4
100
AcDbLine
 10
59.932121
 20
2.334401
 30
0.0
 11
59.81785199999999
 21
2.348556
 31
0.0
  0
LINE
  5
9B4
330
1F
100
AcDbEntity
  8
1
  6
CONTINUOUS
370
50
 62
4
100
AcDbLine
 10
72.499344
 20
2.349762
 30
0.0
 11
72.402534
 21
2.361656
 31
0.0
  0
LINE
  5
9B5
330
1F
100
AcDbEntity
  8
1
  6
CONTINUOUS
370
50
 62
4
100
AcDbLine
 10
52.159645
 20
1.922999
 30
0.0
 11
52.038414
 21
1.937848
 31
0.0
  0
LINE
  5
9B6
330
1F
100
AcDbEntity
  8
1
  6
CONTINUOUS
370
50
 62
4
100
AcDbLine
 10
60.00803399999999
 20
2.325125
 30
0.0
 11
59.932121
 21
2.334401
 31
0.0
  0
LINE
  5
9B7
330
1F
100
AcDbEntity
  8
1
  6
CONTINUOUS
370
50
 62
4
100
AcDbLine
 10
51.481457
 20
2.041147
 30
0.0
 11
51.417404
 21
2.048885
 31
0.0
  0
LINE
  5
9B8
330
1F
100
AcDbEntity
  8
1
  6
CONTINUOUS
370
50
 62
4
100
AcDbLine
 10
60.083946
 20
2.315961
 30
0.0
 11
60.00803399999999
 21
2.325125
 31
0.0
  0
LINE
  5
9B9
330
1F
100
AcDbEntity
  8
1
  6
CONTINUOUS
370
50
 62
4
100
AcDbLine
 10
72.596169
 20
2.338079
 30
0.0
 11
72.499344
 21
2.349762
 31
0.0
  0
LINE
  5
9BA
330
1F
100
AcDbEntity
  8
1
  6
CONTINUOUS
370
50
 62
4
100
AcDbLine
 10
72.692993
 20
2.326514
 30
0.0
 11
72.596169
 21
2.338079
 31
0.0
  0
LINE
  5
9BB
330
1F
100
AcDbEntity
  8
1
  6
CONTINUOUS
370
50
 62
4
100
AcDbLine
 10
60.159855
 20
2.306913
 30
0.0
 11
60.083946
 21
2.315961
 31
0.0
  0
LINE
  5
9BC
330
1F
100
AcDbEntity
  8
1
  6
CONTINUOUS
370
50
 62
4
100
AcDbLine
 10
51.72707699999999
 20
3.432958
 30
0.0
 11
51.535042
 21
3.455665
 31
0.0
  0
LINE
  5
9BD
330
1F
100
AcDbEntity
  8
1
  6
CONTINUOUS
370
50
 62
4
100
AcDbLine
 10
72.789818
 20
2.315078
 30
0.0
 11
72.692993
 21
2.326514
 31
0.0
  0
LINE
  5
9BE
330
1F
100
AcDbEntity
  8
1
  6
CONTINUOUS
370
50
 62
4
100
AcDbLine
 10
77.191818
 20
1.947001
 30
0.0
 11
76.65349599999999
 21
2.010354
 31
0.0
  0
LINE
  5
9BF
330
1F
100
AcDbEntity
  8
1
  6
CONTINUOUS
370
50
 62
4
100
AcDbLine
 10
60.235764
 20
2.297989
 30
0.0
 11
60.159855
 21
2.306913
 31
0.0
  0
LINE
  5
9C0
330
1F
100
AcDbEntity
  8
1
  6
CONTINUOUS
370
50
 62
4
100
AcDbLine
 10
72.886665
 20
2.303784
 30
0.0
 11
72.789818
 21
2.315078
 31
0.0
  0
LINE
  5
9C1
330
1F
100
AcDbEntity
  8
1
  6
CONTINUOUS
370
50
 62
4
100
AcDbLine
 10
60.31167199999999
 20
2.289196
 30
0.0
 11
60.235764
 21
2.297989
 31
0.0
  0
LINE
  5
9C2
330
1F
100
AcDbEntity
  8
1
  6
CONTINUOUS
370
50
 62
4
100
AcDbLine
 10
45.615231
 20
-3.487559
 30
0.0
 11
45.285385
 21
-3.449465
 31
0.0
  0
LINE
  5
9C3
330
1F
100
AcDbEntity
  8
1
  6
CONTINUOUS
370
50
 62
4
100
AcDbLine
 10
72.983505
 20
2.292645
 30
0.0
 11
72.886665
 21
2.303784
 31
0.0
  0
LINE
  5
9C4
330
1F
100
AcDbEntity
  8
1
  6
CONTINUOUS
370
50
 62
4
100
AcDbLine
 10
60.387577
 20
2.280541
 30
0.0
 11
60.31167199999999
 21
2.289196
 31
0.0
  0
LINE
  5
9C5
330
1F
100
AcDbEntity
  8
1
  6
CONTINUOUS
370
50
 62
4
100
AcDbLine
 10
53.366856
 20
3.415807
 30
0.0
 11
53.048569
 21
3.451886
 31
0.0
  0
LINE
  5
9C6
330
1F
100
AcDbEntity
  8
1
  6
CONTINUOUS
370
50
 62
4
100
AcDbLine
 10
73.080353
 20
2.281677
 30
0.0
 11
72.983505
 21
2.292645
 31
0.0
  0
LINE
  5
9C7
330
1F
100
AcDbEntity
  8
1
  6
CONTINUOUS
370
50
 62
4
100
AcDbLine
 10
77.35275299999999
 20
1.970261
 30
0.0
 11
77.161514
 21
1.991861
 31
0.0
  0
LINE
  5
9C8
330
1F
100
AcDbEntity
  8
1
  6
CONTINUOUS
370
50
 62
4
100
AcDbLine
 10
64.41680099999999
 20
1.956307
 30
0.0
 11
63.777866
 21
2.027962
 31
0.0
  0
LINE
  5
9C9
330
1F
100
AcDbEntity
  8
1
  6
CONTINUOUS
370
50
 62
4
100
AcDbLine
 10
60.463482
 20
2.272031
 30
0.0
 11
60.387577
 21
2.280541
 31
0.0
  0
LINE
  5
9CA
330
1F
100
AcDbEntity
  8
1
  6
CONTINUOUS
370
50
 62
4
100
AcDbLine
 10
77.86142699999999
 20
2.375081
 30
0.0
 11
77.482567
 21
2.417472
 31
0.0
  0
LINE
  5
9CB
330
1F
100
AcDbEntity
  8
1
  6
CONTINUOUS
370
50
 62
4
100
AcDbLine
 10
51.417404
 20
2.048885
 30
0.0
 11
51.353085
 21
2.056052
 31
0.0
  0
LINE
  5
9CC
330
1F
100
AcDbEntity
  8
1
  6
CONTINUOUS
370
50
 62
4
100
AcDbLine
 10
77.349983
 20
3.240571
 30
0.0
 11
76.960312
 21
3.283985
 31
0.0
  0
LINE
  5
9CD
330
1F
100
AcDbEntity
  8
1
  6
CONTINUOUS
370
50
 62
4
100
AcDbLine
 10
73.1772
 20
2.270892
 30
0.0
 11
73.080353
 21
2.281677
 31
0.0
  0
LINE
  5
9CE
330
1F
100
AcDbEntity
  8
1
  6
CONTINUOUS
370
50
 62
4
100
AcDbLine
 10
60.539387
 20
2.263672
 30
0.0
 11
60.463482
 21
2.272031
 31
0.0
  0
LINE
  5
9CF
330
1F
100
AcDbEntity
  8
1
  6
CONTINUOUS
370
50
 62
4
100
AcDbLine
 10
73.234627
 20
2.264589
 30
0.0
 11
73.1772
 21
2.270892
 31
0.0
  0
LINE
  5
9D0
330
1F
100
AcDbEntity
  8
1
  6
CONTINUOUS
370
50
 62
4
100
AcDbLine
 10
66.049881
 20
3.418926
 30
0.0
 11
65.724152
 21
3.45433
 31
0.0
  0
LINE
  5
9D1
330
1F
100
AcDbEntity
  8
1
  6
CONTINUOUS
370
50
 62
4
100
AcDbLine
 10
73.33094
 20
2.254183
 30
0.0
 11
73.234627
 21
2.264589
 31
0.0
  0
LINE
  5
9D2
330
1F
100
AcDbEntity
  8
1
  6
CONTINUOUS
370
50
 62
4
100
AcDbLine
 10
65.108353
 20
2.382173
 30
0.0
 11
64.735817
 21
2.422342
 31
0.0
  0
LINE
  5
9D3
330
1F
100
AcDbEntity
  8
1
  6
CONTINUOUS
370
50
 62
4
100
AcDbLine
 10
60.64967
 20
2.251813
 30
0.0
 11
60.539387
 21
2.263672
 31
0.0
  0
LINE
  5
9D4
330
1F
100
AcDbEntity
  8
1
  6
CONTINUOUS
370
50
 62
4
100
AcDbLine
 10
73.427246
 20
2.243995
 30
0.0
 11
73.33094
 21
2.254183
 31
0.0
  0
LINE
  5
9D5
330
1F
100
AcDbEntity
  8
1
  6
CONTINUOUS
370
50
 62
4
100
AcDbLine
 10
60.759953
 20
2.240312
 30
0.0
 11
60.64967
 21
2.251813
 31
0.0
  0
LINE
  5
9D6
330
1F
100
AcDbEntity
  8
1
  6
CONTINUOUS
370
50
 62
4
100
AcDbLine
 10
73.523544
 20
2.23404
 30
0.0
 11
73.427246
 21
2.243995
 31
0.0
  0
LINE
  5
9D7
330
1F
100
AcDbEntity
  8
1
  6
CONTINUOUS
370
50
 62
4
100
AcDbLine
 10
78.70649
 20
3.424351
 30
0.0
 11
78.357697
 21
3.460353
 31
0.0
  0
LINE
  5
9D8
330
1F
100
AcDbEntity
  8
1
  6
CONTINUOUS
370
50
 62
4
100
AcDbLine
 10
77.161514
 20
1.991861
 30
0.0
 11
76.97032899999999
 21
2.01144
 31
0.0
  0
LINE
  5
9D9
330
1F
100
AcDbEntity
  8
1
  6
CONTINUOUS
370
50
 62
4
100
AcDbLine
 10
51.353085
 20
2.056052
 30
0.0
 11
51.288677
 21
2.062646
 31
0.0
  0
LINE
  5
9DA
330
1F
100
AcDbEntity
  8
1
  6
CONTINUOUS
370
50
 62
4
100
AcDbLine
 10
57.527798
 20
-3.464271
 30
0.0
 11
57.092339
 21
-3.41979
 31
0.0
  0
LINE
  5
9DB
330
1F
100
AcDbEntity
  8
1
  6
CONTINUOUS
370
50
 62
4
100
AcDbLine
 10
60.83638
 20
2.232561
 30
0.0
 11
60.759953
 21
2.240312
 31
0.0
  0
LINE
  5
9DC
330
1F
100
AcDbEntity
  8
1
  6
CONTINUOUS
370
50
 62
4
100
AcDbLine
 10
73.61985
 20
2.224333
 30
0.0
 11
73.523544
 21
2.23404
 31
0.0
  0
LINE
  5
9DD
330
1F
100
AcDbEntity
  8
1
  6
CONTINUOUS
370
50
 62
4
100
AcDbLine
 10
56.01035299999999
 20
-3.464999
 30
0.0
 11
55.602673
 21
-3.42391
 31
0.0
  0
LINE
  5
9DE
330
1F
100
AcDbEntity
  8
1
  6
CONTINUOUS
370
50
 62
4
100
AcDbLine
 10
47.716068
 20
2.338715
 30
0.0
 11
46.593849
 21
2.450802
 31
0.0
  0
LINE
  5
9DF
330
1F
100
AcDbEntity
  8
1
  6
CONTINUOUS
370
50
 62
4
100
AcDbLine
 10
60.91280699999999
 20
2.225
 30
0.0
 11
60.83638
 21
2.232561
 31
0.0
  0
LINE
  5
9E0
330
1F
100
AcDbEntity
  8
1
  6
CONTINUOUS
370
50
 62
4
100
AcDbLine
 10
73.71614799999999
 20
2.214886
 30
0.0
 11
73.61985
 21
2.224333
 31
0.0
  0
LINE
  5
9E1
330
1F
100
AcDbEntity
  8
1
  6
CONTINUOUS
370
50
 62
4
100
AcDbLine
 10
60.989235
 20
2.217635
 30
0.0
 11
60.91280699999999
 21
2.225
 31
0.0
  0
LINE
  5
9E2
330
1F
100
AcDbEntity
  8
1
  6
CONTINUOUS
370
50
 62
4
100
AcDbLine
 10
73.812439
 20
2.205715
 30
0.0
 11
73.71614799999999
 21
2.214886
 31
0.0
  0
LINE
  5
9E3
330
1F
100
AcDbEntity
  8
1
  6
CONTINUOUS
370
50
 62
4
100
AcDbLine
 10
51.535042
 20
3.455665
 30
0.0
 11
51.346836
 21
3.473511
 31
0.0
  0
LINE
  5
9E4
330
1F
100
AcDbEntity
  8
1
  6
CONTINUOUS
370
50
 62
4
100
AcDbLine
 10
77.127571
 20
3.430413
 30
0.0
 11
76.703712
 21
3.470457
 31
0.0
  0
LINE
  5
9E5
330
1F
100
AcDbEntity
  8
1
  6
CONTINUOUS
370
50
 62
4
100
AcDbLine
 10
61.065666
 20
2.210472
 30
0.0
 11
60.989235
 21
2.217635
 31
0.0
  0
LINE
  5
9E6
330
1F
100
AcDbEntity
  8
1
  6
CONTINUOUS
370
50
 62
4
100
AcDbLine
 10
76.97032899999999
 20
2.01144
 30
0.0
 11
76.777946
 21
2.029272
 31
0.0
  0
LINE
  5
9E7
330
1F
100
AcDbEntity
  8
1
  6
CONTINUOUS
370
50
 62
4
100
AcDbLine
 10
51.288677
 20
2.062646
 30
0.0
 11
51.222355
 21
2.068772
 31
0.0
  0
LINE
  5
9E8
330
1F
100
AcDbEntity
  8
1
  6
CONTINUOUS
370
50
 62
4
100
AcDbLine
 10
73.908737
 20
2.196834
 30
0.0
 11
73.812439
 21
2.205715
 31
0.0
  0
LINE
  5
9E9
330
1F
100
AcDbEntity
  8
1
  6
CONTINUOUS
370
50
 62
4
100
AcDbLine
 10
61.142097
 20
2.203519
 30
0.0
 11
61.065666
 21
2.210472
 31
0.0
  0
LINE
  5
9EA
330
1F
100
AcDbEntity
  8
1
  6
CONTINUOUS
370
50
 62
4
100
AcDbLine
 10
74.005028
 20
2.188256
 30
0.0
 11
73.908737
 21
2.196834
 31
0.0
  0
LINE
  5
9EB
330
1F
100
AcDbEntity
  8
1
  6
CONTINUOUS
370
50
 62
4
100
AcDbLine
 10
77.482567
 20
2.417472
 30
0.0
 11
77.10363799999999
 21
2.450876
 31
0.0
  0
LINE
  5
9EC
330
1F
100
AcDbEntity
  8
1
  6
CONTINUOUS
370
50
 62
4
100
AcDbLine
 10
61.218533
 20
2.196782
 30
0.0
 11
61.142097
 21
2.203519
 31
0.0
  0
LINE
  5
9ED
330
1F
100
AcDbEntity
  8
1
  6
CONTINUOUS
370
50
 62
4
100
AcDbLine
 10
68.94472499999999
 20
-3.481645
 30
0.0
 11
68.381287
 21
-3.432971
 31
0.0
  0
LINE
  5
9EE
330
1F
100
AcDbEntity
  8
1
  6
CONTINUOUS
370
50
 62
4
100
AcDbLine
 10
74.07032
 20
2.18262
 30
0.0
 11
74.005028
 21
2.188256
 31
0.0
  0
LINE
  5
9EF
330
1F
100
AcDbEntity
  8
1
  6
CONTINUOUS
370
50
 62
4
100
AcDbLine
 10
61.294971
 20
2.190243
 30
0.0
 11
61.218533
 21
2.196782
 31
0.0
  0
LINE
  5
9F0
330
1F
100
AcDbEntity
  8
1
  6
CONTINUOUS
370
50
 62
4
100
AcDbLine
 10
52.276035
 20
2.404003
 30
0.0
 11
51.895432
 21
2.436464
 31
0.0
  0
LINE
  5
9F1
330
1F
100
AcDbEntity
  8
1
  6
CONTINUOUS
370
50
 62
4
100
AcDbLine
 10
53.048569
 20
3.451886
 30
0.0
 11
52.736626
 21
3.478366
 31
0.0
  0
LINE
  5
9F2
330
1F
100
AcDbEntity
  8
1
  6
CONTINUOUS
370
50
 62
4
100
AcDbLine
 10
64.735817
 20
2.422342
 30
0.0
 11
64.363304
 21
2.453919
 31
0.0
  0
LINE
  5
9F3
330
1F
100
AcDbEntity
  8
1
  6
CONTINUOUS
370
50
 62
4
100
AcDbLine
 10
61.37141399999999
 20
2.183807
 30
0.0
 11
61.294971
 21
2.190243
 31
0.0
  0
LINE
  5
9F4
330
1F
100
AcDbEntity
  8
1
  6
CONTINUOUS
370
50
 62
4
100
AcDbLine
 10
76.65349599999999
 20
2.010354
 30
0.0
 11
76.142883
 21
2.053061
 31
0.0
  0
LINE
  5
9F5
330
1F
100
AcDbEntity
  8
1
  6
CONTINUOUS
370
50
 62
4
100
AcDbLine
 10
74.165627
 20
2.174665
 30
0.0
 11
74.07032
 21
2.18262
 31
0.0
  0
LINE
  5
9F6
330
1F
100
AcDbEntity
  8
1
  6
CONTINUOUS
370
50
 62
4
100
AcDbLine
 10
76.777946
 20
2.029272
 30
0.0
 11
76.585983
 21
2.045294
 31
0.0
  0
LINE
  5
9F7
330
1F
100
AcDbEntity
  8
1
  6
CONTINUOUS
370
50
 62
4
100
AcDbLine
 10
61.47963
 20
2.174866
 30
0.0
 11
61.37141399999999
 21
2.183807
 31
0.0
  0
LINE
  5
9F8
330
1F
100
AcDbEntity
  8
1
  6
CONTINUOUS
370
50
 62
4
100
AcDbLine
 10
50.496437
 20
-1.710048
 30
0.0
 11
50.330025
 21
-1.696321
 31
0.0
  0
LINE
  5
9F9
330
1F
100
AcDbEntity
  8
1
  6
CONTINUOUS
370
50
 62
4
100
AcDbLine
 10
51.222355
 20
2.068772
 30
0.0
 11
51.148293
 21
2.074746
 31
0.0
  0
LINE
  5
9FA
330
1F
100
AcDbEntity
  8
1
  6
CONTINUOUS
370
50
 62
4
100
AcDbLine
 10
61.58784499999999
 20
2.16614
 30
0.0
 11
61.47963
 21
2.174866
 31
0.0
  0
LINE
  5
9FB
330
1F
100
AcDbEntity
  8
1
  6
CONTINUOUS
370
50
 62
4
100
AcDbLine
 10
74.260941
 20
2.167043
 30
0.0
 11
74.165627
 21
2.174665
 31
0.0
  0
LINE
  5
9FC
330
1F
100
AcDbEntity
  8
1
  6
CONTINUOUS
370
50
 62
4
100
AcDbLine
 10
70.530647
 20
-3.485061
 30
0.0
 11
69.96788
 21
-3.440175
 31
0.0
  0
LINE
  5
9FD
330
1F
100
AcDbEntity
  8
1
  6
CONTINUOUS
370
50
 62
4
100
AcDbLine
 10
61.665146
 20
2.160048
 30
0.0
 11
61.58784499999999
 21
2.16614
 31
0.0
  0
LINE
  5
9FE
330
1F
100
AcDbEntity
  8
1
  6
CONTINUOUS
370
50
 62
4
100
AcDbLine
 10
64.342102
 20
3.440331
 30
0.0
 11
63.76343199999999
 21
3.485835
 31
0.0
  0
LINE
  5
9FF
330
1F
100
AcDbEntity
  8
1
  6
CONTINUOUS
370
50
 62
4
100
AcDbLine
 10
65.724152
 20
3.45433
 30
0.0
 11
65.397751
 21
3.479697
 31
0.0
  0
LINE
  5
A00
330
1F
100
AcDbEntity
  8
1
  6
CONTINUOUS
370
50
 62
4
100
AcDbLine
 10
61.74244299999999
 20
2.154082
 30
0.0
 11
61.665146
 21
2.160048
 31
0.0
  0
LINE
  5
A01
330
1F
100
AcDbEntity
  8
1
  6
CONTINUOUS
370
50
 62
4
100
AcDbLine
 10
76.960312
 20
3.283985
 30
0.0
 11
76.57054099999999
 21
3.313767
 31
0.0
  0
LINE
  5
A02
330
1F
100
AcDbEntity
  8
1
  6
CONTINUOUS
370
50
 62
4
100
AcDbLine
 10
74.35625499999999
 20
2.159767
 30
0.0
 11
74.260941
 21
2.167043
 31
0.0
  0
LINE
  5
A03
330
1F
100
AcDbEntity
  8
1
  6
CONTINUOUS
370
50
 62
4
100
AcDbLine
 10
61.819744
 20
2.148248
 30
0.0
 11
61.74244299999999
 21
2.154082
 31
0.0
  0
LINE
  5
A04
330
1F
100
AcDbEntity
  8
1
  6
CONTINUOUS
370
50
 62
4
100
AcDbLine
 10
76.585983
 20
2.045294
 30
0.0
 11
76.395119
 21
2.059492
 31
0.0
  0
LINE
  5
A05
330
1F
100
AcDbEntity
  8
1
  6
CONTINUOUS
370
50
 62
4
100
AcDbLine
 10
51.895107
 20
3.248917
 30
0.0
 11
51.513855
 21
3.277015
 31
0.0
  0
LINE
  5
A06
330
1F
100
AcDbEntity
  8
1
  6
CONTINUOUS
370
50
 62
4
100
AcDbLine
 10
61.89704099999999
 20
2.142553
 30
0.0
 11
61.819744
 21
2.148248
 31
0.0
  0
LINE
  5
A07
330
1F
100
AcDbEntity
  8
1
  6
CONTINUOUS
370
50
 62
4
100
AcDbLine
 10
74.45156899999999
 20
2.152779
 30
0.0
 11
74.35625499999999
 21
2.159767
 31
0.0
  0
LINE
  5
A08
330
1F
100
AcDbEntity
  8
1
  6
CONTINUOUS
370
50
 62
4
100
AcDbLine
 10
50.937202
 20
1.946136
 30
0.0
 11
50.84387599999999
 21
1.952973
 31
0.0
  0
LINE
  5
A09
330
1F
100
AcDbEntity
  8
1
  6
CONTINUOUS
370
50
 62
4
100
AcDbLine
 10
63.777866
 20
2.027962
 30
0.0
 11
63.18232699999999
 21
2.071245
 31
0.0
  0
LINE
  5
A0A
330
1F
100
AcDbEntity
  8
1
  6
CONTINUOUS
370
50
 62
4
100
AcDbLine
 10
51.148293
 20
2.074746
 30
0.0
 11
51.071835
 21
2.080295
 31
0.0
  0
LINE
  5
A0B
330
1F
100
AcDbEntity
  8
1
  6
CONTINUOUS
370
50
 62
4
100
AcDbLine
 10
61.974339
 20
2.137004
 30
0.0
 11
61.89704099999999
 21
2.142553
 31
0.0
  0
LINE
  5
A0C
330
1F
100
AcDbEntity
  8
1
  6
CONTINUOUS
370
50
 62
4
100
AcDbLine
 10
74.54690599999999
 20
2.14595
 30
0.0
 11
74.45156899999999
 21
2.152779
 31
0.0
  0
LINE
  5
A0D
330
1F
100
AcDbEntity
  8
1
  6
CONTINUOUS
370
50
 62
4
100
AcDbLine
 10
51.346836
 20
3.473511
 30
0.0
 11
51.159168
 21
3.486867
 31
0.0
  0
LINE
  5
A0E
330
1F
100
AcDbEntity
  8
1
  6
CONTINUOUS
370
50
 62
4
100
AcDbLine
 10
74.642242
 20
2.139288
 30
0.0
 11
74.54690599999999
 21
2.14595
 31
0.0
  0
LINE
  5
A0F
330
1F
100
AcDbEntity
  8
1
  6
CONTINUOUS
370
50
 62
4
100
AcDbLine
 10
62.05163599999999
 20
2.131607
 30
0.0
 11
61.974339
 21
2.137004
 31
0.0
  0
LINE
  5
A10
330
1F
100
AcDbEntity
  8
1
  6
CONTINUOUS
370
50
 62
4
100
AcDbLine
 10
78.357697
 20
3.460353
 30
0.0
 11
78.00750699999999
 21
3.484798
 31
0.0
  0
LINE
  5
A11
330
1F
100
AcDbEntity
  8
1
  6
CONTINUOUS
370
50
 62
4
100
AcDbLine
 10
74.737579
 20
2.132805
 30
0.0
 11
74.642242
 21
2.139288
 31
0.0
  0
LINE
  5
A12
330
1F
100
AcDbEntity
  8
1
  6
CONTINUOUS
370
50
 62
4
100
AcDbLine
 10
62.128929
 20
2.12637
 30
0.0
 11
62.05163599999999
 21
2.131607
 31
0.0
  0
LINE
  5
A13
330
1F
100
AcDbEntity
  8
1
  6
CONTINUOUS
370
50
 62
4
100
AcDbLine
 10
51.071835
 20
2.080295
 30
0.0
 11
50.999477
 21
2.085079
 31
0.0
  0
LINE
  5
A14
330
1F
100
AcDbEntity
  8
1
  6
CONTINUOUS
370
50
 62
4
100
AcDbLine
 10
74.83292399999999
 20
2.126512
 30
0.0
 11
74.737579
 21
2.132805
 31
0.0
  0
LINE
  5
A15
330
1F
100
AcDbEntity
  8
1
  6
CONTINUOUS
370
50
 62
4
100
AcDbLine
 10
62.20622299999999
 20
2.1213
 30
0.0
 11
62.128929
 21
2.12637
 31
0.0
  0
LINE
  5
A16
330
1F
100
AcDbEntity
  8
1
  6
CONTINUOUS
370
50
 62
4
100
AcDbLine
 10
76.395119
 20
2.059492
 30
0.0
 11
76.219696
 21
2.070968
 31
0.0
  0
LINE
  5
A17
330
1F
100
AcDbEntity
  8
1
  6
CONTINUOUS
370
50
 62
4
100
AcDbLine
 10
74.901321
 20
2.122123
 30
0.0
 11
74.83292399999999
 21
2.126512
 31
0.0
  0
LINE
  5
A18
330
1F
100
AcDbEntity
  8
1
  6
CONTINUOUS
370
50
 62
4
100
AcDbLine
 10
77.10363799999999
 20
2.450876
 30
0.0
 11
76.724617
 21
2.474869
 31
0.0
  0
LINE
  5
A19
330
1F
100
AcDbEntity
  8
1
  6
CONTINUOUS
370
50
 62
4
100
AcDbLine
 10
64.75076299999999
 20
1.959062
 30
0.0
 11
62.514256
 21
2.1
 31
0.0
  0
LINE
  5
A1A
330
1F
100
AcDbEntity
  8
1
  6
CONTINUOUS
370
50
 62
4
100
AcDbLine
 10
62.31102
 20
2.114703
 30
0.0
 11
62.20622299999999
 21
2.1213
 31
0.0
  0
LINE
  5
A1B
330
1F
100
AcDbEntity
  8
1
  6
CONTINUOUS
370
50
 62
4
100
AcDbLine
 10
74.988564
 20
2.116681
 30
0.0
 11
74.901321
 21
2.122123
 31
0.0
  0
LINE
  5
A1C
330
1F
100
AcDbEntity
  8
1
  6
CONTINUOUS
370
50
 62
4
100
AcDbLine
 10
56.422504
 20
-3.490434
 30
0.0
 11
56.01035299999999
 21
-3.464999
 31
0.0
  0
LINE
  5
A1D
330
1F
100
AcDbEntity
  8
1
  6
CONTINUOUS
370
50
 62
4
100
AcDbLine
 10
57.96281099999999
 20
-3.491063
 30
0.0
 11
57.527798
 21
-3.464271
 31
0.0
  0
LINE
  5
A1E
330
1F
100
AcDbEntity
  8
1
  6
CONTINUOUS
370
50
 62
4
100
AcDbLine
 10
64.363304
 20
2.453919
 30
0.0
 11
63.990765
 21
2.476638
 31
0.0
  0
LINE
  5
A1F
330
1F
100
AcDbEntity
  8
1
  6
CONTINUOUS
370
50
 62
4
100
AcDbLine
 10
75.075806
 20
2.111427
 30
0.0
 11
74.988564
 21
2.116681
 31
0.0
  0
LINE
  5
A20
330
1F
100
AcDbEntity
  8
1
  6
CONTINUOUS
370
50
 62
4
100
AcDbLine
 10
62.415817
 20
2.108442
 30
0.0
 11
62.31102
 21
2.114703
 31
0.0
  0
LINE
  5
A21
330
1F
100
AcDbEntity
  8
1
  6
CONTINUOUS
370
50
 62
4
100
AcDbLine
 10
50.999477
 20
2.085079
 30
0.0
 11
50.937725
 21
2.088763
 31
0.0
  0
LINE
  5
A22
330
1F
100
AcDbEntity
  8
1
  6
CONTINUOUS
370
50
 62
4
100
AcDbLine
 10
48.852905
 20
2.271172
 30
0.0
 11
47.716068
 21
2.338715
 31
0.0
  0
LINE
  5
A23
330
1F
100
AcDbEntity
  8
1
  6
CONTINUOUS
370
50
 62
4
100
AcDbLine
 10
75.163048
 20
2.106367
 30
0.0
 11
75.075806
 21
2.111427
 31
0.0
  0
LINE
  5
A24
330
1F
100
AcDbEntity
  8
1
  6
CONTINUOUS
370
50
 62
4
100
AcDbLine
 10
76.142883
 20
2.053061
 30
0.0
 11
75.599251
 21
2.084327
 31
0.0
  0
LINE
  5
A25
330
1F
100
AcDbEntity
  8
1
  6
CONTINUOUS
370
50
 62
4
100
AcDbLine
 10
62.47646
 20
2.104978
 30
0.0
 11
62.415817
 21
2.108442
 31
0.0
  0
LINE
  5
A26
330
1F
100
AcDbEntity
  8
1
  6
CONTINUOUS
370
50
 62
4
100
AcDbLine
 10
75.25028999999999
 20
2.101513
 30
0.0
 11
75.163048
 21
2.106367
 31
0.0
  0
LINE
  5
A27
330
1F
100
AcDbEntity
  8
1
  6
CONTINUOUS
370
50
 62
4
100
AcDbLine
 10
76.703712
 20
3.470457
 30
0.0
 11
76.283974
 21
3.493615
 31
0.0
  0
LINE
  5
A28
330
1F
100
AcDbEntity
  8
1
  6
CONTINUOUS
370
50
 62
4
100
AcDbLine
 10
62.537102
 20
2.101635
 30
0.0
 11
62.47646
 21
2.104978
 31
0.0
  0
LINE
  5
A29
330
1F
100
AcDbEntity
  8
1
  6
CONTINUOUS
370
50
 62
4
100
AcDbLine
 10
76.219696
 20
2.070968
 30
0.0
 11
76.038338
 21
2.080719
 31
0.0
  0
LINE
  5
A2A
330
1F
100
AcDbEntity
  8
1
  6
CONTINUOUS
370
50
 62
4
100
AcDbLine
 10
75.337532
 20
2.096873
 30
0.0
 11
75.25028999999999
 21
2.101513
 31
0.0
  0
LINE
  5
A2B
330
1F
100
AcDbEntity
  8
1
  6
CONTINUOUS
370
50
 62
4
100
AcDbLine
 10
62.597744
 20
2.098417
 30
0.0
 11
62.537102
 21
2.101635
 31
0.0
  0
LINE
  5
A2C
330
1F
100
AcDbEntity
  8
1
  6
CONTINUOUS
370
50
 62
4
100
AcDbLine
 10
62.658386
 20
2.095326
 30
0.0
 11
62.597744
 21
2.098417
 31
0.0
  0
LINE
  5
A2D
330
1F
100
AcDbEntity
  8
1
  6
CONTINUOUS
370
50
 62
4
100
AcDbLine
 10
52.736626
 20
3.478366
 30
0.0
 11
52.420361
 21
3.494479
 31
0.0
  0
LINE
  5
A2E
330
1F
100
AcDbEntity
  8
1
  6
CONTINUOUS
370
50
 62
4
100
AcDbLine
 10
75.424774
 20
2.092456
 30
0.0
 11
75.337532
 21
2.096873
 31
0.0
  0
LINE
  5
A2F
330
1F
100
AcDbEntity
  8
1
  6
CONTINUOUS
370
50
 62
4
100
AcDbLine
 10
50.937725
 20
2.088763
 30
0.0
 11
50.893078
 21
2.091008
 31
0.0
  0
LINE
  5
A30
330
1F
100
AcDbEntity
  8
1
  6
CONTINUOUS
370
50
 62
4
100
AcDbLine
 10
62.71902799999999
 20
2.092366
 30
0.0
 11
62.658386
 21
2.095326
 31
0.0
  0
LINE
  5
A31
330
1F
100
AcDbEntity
  8
1
  6
CONTINUOUS
370
50
 62
4
100
AcDbLine
 10
75.51200899999999
 20
2.088271
 30
0.0
 11
75.424774
 21
2.092456
 31
0.0
  0
LINE
  5
A32
330
1F
100
AcDbEntity
  8
1
  6
CONTINUOUS
370
50
 62
4
100
AcDbLine
 10
51.159168
 20
3.486867
 30
0.0
 11
50.97517
 21
3.495531
 31
0.0
  0
LINE
  5
A33
330
1F
100
AcDbEntity
  8
1
  6
CONTINUOUS
370
50
 62
4
100
AcDbLine
 10
62.779671
 20
2.089538
 30
0.0
 11
62.71902799999999
 21
2.092366
 31
0.0
  0
LINE
  5
A34
330
1F
100
AcDbEntity
  8
1
  6
CONTINUOUS
370
50
 62
4
100
AcDbLine
 10
65.397751
 20
3.479697
 30
0.0
 11
65.069901
 21
3.494938
 31
0.0
  0
LINE
  5
A35
330
1F
100
AcDbEntity
  8
1
  6
CONTINUOUS
370
50
 62
4
100
AcDbLine
 10
63.18232699999999
 20
2.071245
 30
0.0
 11
62.900959
 21
2.084292
 31
0.0
  0
LINE
  5
A36
330
1F
100
AcDbEntity
  8
1
  6
CONTINUOUS
370
50
 62
4
100
AcDbLine
 10
75.599251
 20
2.084328
 30
0.0
 11
75.51200899999999
 21
2.088271
 31
0.0
  0
LINE
  5
A37
330
1F
100
AcDbEntity
  8
1
  6
CONTINUOUS
370
50
 62
4
100
AcDbLine
 10
62.840317
 20
2.086848
 30
0.0
 11
62.779671
 21
2.089538
 31
0.0
  0
LINE
  5
A38
330
1F
100
AcDbEntity
  8
1
  6
CONTINUOUS
370
50
 62
4
100
AcDbLine
 10
62.900959
 20
2.084296
 30
0.0
 11
62.840317
 21
2.086848
 31
0.0
  0
LINE
  5
A39
330
1F
100
AcDbEntity
  8
1
  6
CONTINUOUS
370
50
 62
4
100
AcDbLine
 10
49.99991199999999
 20
-0.432405
 30
0.0
 11
49.667885
 21
-0.418435
 31
0.0
  0
LINE
  5
A3A
330
1F
100
AcDbEntity
  8
1
  6
CONTINUOUS
370
50
 62
4
100
AcDbLine
 10
76.038338
 20
2.080719
 30
0.0
 11
75.85273699999999
 21
2.088474
 31
0.0
  0
LINE
  5
A3B
330
1F
100
AcDbEntity
  8
1
  6
CONTINUOUS
370
50
 62
4
100
AcDbLine
 10
51.895432
 20
2.436464
 30
0.0
 11
51.514698
 21
2.451798
 31
0.0
  0
LINE
  5
A3C
330
1F
100
AcDbEntity
  8
1
  6
CONTINUOUS
370
50
 62
4
100
AcDbLine
 10
45.924156
 20
-3.5
 30
0.0
 11
45.615231
 21
-3.487559
 31
0.0
  0
LINE
  5
A3D
330
1F
100
AcDbEntity
  8
1
  6
CONTINUOUS
370
50
 62
4
100
AcDbLine
 10
76.57054099999999
 20
3.313767
 30
0.0
 11
76.180733
 21
3.328993
 31
0.0
  0
LINE
  5
A3E
330
1F
100
AcDbEntity
  8
1
  6
CONTINUOUS
370
50
 62
4
100
AcDbLine
 10
78.00750699999999
 20
3.484798
 30
0.0
 11
77.65774499999999
 21
3.497735
 31
0.0
  0
LINE
  5
A3F
330
1F
100
AcDbEntity
  8
1
  6
CONTINUOUS
370
50
 62
4
100
AcDbLine
 10
50.893078
 20
2.091008
 30
0.0
 11
50.860462
 21
2.092204
 31
0.0
  0
LINE
  5
A40
330
1F
100
AcDbEntity
  8
1
  6
CONTINUOUS
370
50
 62
4
100
AcDbLine
 10
76.724617
 20
2.474869
 30
0.0
 11
76.345551
 21
2.48863
 31
0.0
  0
LINE
  5
A41
330
1F
100
AcDbEntity
  8
1
  6
CONTINUOUS
370
50
 62
4
100
AcDbLine
 10
63.990765
 20
2.476638
 30
0.0
 11
63.618187
 21
2.490016
 31
0.0
  0
LINE
  5
A42
330
1F
100
AcDbEntity
  8
1
  6
CONTINUOUS
370
50
 62
4
100
AcDbLine
 10
69.51450299999999
 20
-3.499869
 30
0.0
 11
68.94472499999999
 21
-3.481645
 31
0.0
  0
LINE
  5
A43
330
1F
100
AcDbEntity
  8
1
  6
CONTINUOUS
370
50
 62
4
100
AcDbLine
 10
75.85273699999999
 20
2.088474
 30
0.0
 11
75.666702
 21
2.094163
 31
0.0
  0
LINE
  5
A44
330
1F
100
AcDbEntity
  8
1
  6
CONTINUOUS
370
50
 62
4
100
AcDbLine
 10
50.860462
 20
2.092204
 30
0.0
 11
50.827278
 21
2.093181
 31
0.0
  0
LINE
  5
A45
330
1F
100
AcDbEntity
  8
1
  6
CONTINUOUS
370
50
 62
4
100
AcDbLine
 10
52.038414
 20
1.937848
 30
0.0
 11
52.01461399999999
 21
1.938535
 31
0.0
  0
LINE
  5
A46
330
1F
100
AcDbEntity
  8
1
  6
CONTINUOUS
370
50
 62
4
100
AcDbLine
 10
50.97517
 20
3.495531
 30
0.0
 11
50.86707699999999
 21
3.498436
 31
0.0
  0
LINE
  5
A47
330
1F
100
AcDbEntity
  8
1
  6
CONTINUOUS
370
50
 62
4
100
AcDbLine
 10
51.513855
 20
3.277015
 30
0.0
 11
51.133495
 21
3.287191
 31
0.0
  0
LINE
  5
A48
330
1F
100
AcDbEntity
  8
1
  6
CONTINUOUS
370
50
 62
4
100
AcDbLine
 10
71.092232
 20
-3.500001
 30
0.0
 11
70.530647
 21
-3.485061
 31
0.0
  0
LINE
  5
A49
330
1F
100
AcDbEntity
  8
1
  6
CONTINUOUS
370
50
 62
4
100
AcDbLine
 10
63.76343199999999
 20
3.485835
 30
0.0
 11
63.18891499999999
 21
3.499971
 31
0.0
  0
LINE
  5
A4A
330
1F
100
AcDbEntity
  8
1
  6
CONTINUOUS
370
50
 62
4
100
AcDbLine
 10
50.827278
 20
2.093181
 30
0.0
 11
50.793522
 21
2.093959
 31
0.0
  0
LINE
  5
A4B
330
1F
100
AcDbEntity
  8
1
  6
CONTINUOUS
370
50
 62
4
100
AcDbLine
 10
56.834763
 20
-3.499929
 30
0.0
 11
56.422504
 21
-3.490434
 31
0.0
  0
LINE
  5
A4C
330
1F
100
AcDbEntity
  8
1
  6
CONTINUOUS
370
50
 62
4
100
AcDbLine
 10
52.01461399999999
 20
1.938535
 30
0.0
 11
51.99136
 21
1.939062
 31
0.0
  0
LINE
  5
A4D
330
1F
100
AcDbEntity
  8
1
  6
CONTINUOUS
370
50
 62
4
100
AcDbLine
 10
58.396748
 20
-3.5
 30
0.0
 11
57.96281099999999
 21
-3.491063
 31
0.0
  0
LINE
  5
A4E
330
1F
100
AcDbEntity
  8
1
  6
CONTINUOUS
370
50
 62
4
100
AcDbLine
 10
75.666702
 20
2.094163
 30
0.0
 11
75.480232
 21
2.097905
 31
0.0
  0
LINE
  5
A4F
330
1F
100
AcDbEntity
  8
1
  6
CONTINUOUS
370
50
 62
4
100
AcDbLine
 10
50.0
 20
2.24854
 30
0.0
 11
48.852905
 21
2.271172
 31
0.0
  0
LINE
  5
A50
330
1F
100
AcDbEntity
  8
1
  6
CONTINUOUS
370
50
 62
4
100
AcDbLine
 10
50.793522
 20
2.093959
 30
0.0
 11
50.75924699999999
 21
2.094553
 31
0.0
  0
LINE
  5
A51
330
1F
100
AcDbEntity
  8
1
  6
CONTINUOUS
370
50
 62
4
100
AcDbLine
 10
51.99136
 20
1.939062
 30
0.0
 11
51.968319
 21
1.939447
 31
0.0
  0
LINE
  5
A52
330
1F
100
AcDbEntity
  8
1
  6
CONTINUOUS
370
50
 62
4
100
AcDbLine
 10
52.420361
 20
3.494479
 30
0.0
 11
52.074825
 21
3.499999
 31
0.0
  0
LINE
  5
A53
330
1F
100
AcDbEntity
  8
1
  6
CONTINUOUS
370
50
 62
4
100
AcDbLine
 10
65.069901
 20
3.494938
 30
0.0
 11
64.741783
 21
3.500001
 31
0.0
  0
LINE
  5
A54
330
1F
100
AcDbEntity
  8
1
  6
CONTINUOUS
370
50
 62
4
100
AcDbLine
 10
51.032246
 20
1.944682
 30
0.0
 11
50.937202
 21
1.946136
 31
0.0
  0
LINE
  5
A55
330
1F
100
AcDbEntity
  8
1
  6
CONTINUOUS
370
50
 62
4
100
AcDbLine
 10
76.283974
 20
3.493615
 30
0.0
 11
75.863953
 21
3.499859
 31
0.0
  0
LINE
  5
A56
330
1F
100
AcDbEntity
  8
1
  6
CONTINUOUS
370
50
 62
4
100
AcDbLine
 10
51.121922
 20
1.943403
 30
0.0
 11
51.032246
 21
1.944682
 31
0.0
  0
LINE
  5
A57
330
1F
100
AcDbEntity
  8
1
  6
CONTINUOUS
370
50
 62
4
100
AcDbLine
 10
51.205063
 20
1.942337
 30
0.0
 11
51.121922
 21
1.943403
 31
0.0
  0
LINE
  5
A58
330
1F
100
AcDbEntity
  8
1
  6
CONTINUOUS
370
50
 62
4
100
AcDbLine
 10
50.86707699999999
 20
3.498436
 30
0.0
 11
50.76678099999999
 21
3.499668
 31
0.0
  0
LINE
  5
A59
330
1F
100
AcDbEntity
  8
1
  6
CONTINUOUS
370
50
 62
4
100
AcDbLine
 10
50.75924699999999
 20
2.094553
 30
0.0
 11
50.724548
 21
2.094974
 31
0.0
  0
LINE
  5
A5A
330
1F
100
AcDbEntity
  8
1
  6
CONTINUOUS
370
50
 62
4
100
AcDbLine
 10
51.28199799999999
 20
1.941468
 30
0.0
 11
51.205063
 21
1.942337
 31
0.0
  0
LINE
  5
A5B
330
1F
100
AcDbEntity
  8
1
  6
CONTINUOUS
370
50
 62
4
100
AcDbLine
 10
51.968319
 20
1.939447
 30
0.0
 11
51.945156
 21
1.939707
 31
0.0
  0
LINE
  5
A5C
330
1F
100
AcDbEntity
  8
1
  6
CONTINUOUS
370
50
 62
4
100
AcDbLine
 10
75.480232
 20
2.097905
 30
0.0
 11
75.293831
 21
2.099765
 31
0.0
  0
LINE
  5
A5D
330
1F
100
AcDbEntity
  8
1
  6
CONTINUOUS
370
50
 62
4
100
AcDbLine
 10
51.35307299999999
 20
1.940778
 30
0.0
 11
51.28199799999999
 21
1.941468
 31
0.0
  0
LINE
  5
A5E
330
1F
100
AcDbEntity
  8
1
  6
CONTINUOUS
370
50
 62
4
100
AcDbLine
 10
76.345551
 20
2.48863
 30
0.0
 11
75.966515
 21
2.492159
 31
0.0
  0
LINE
  5
A5F
330
1F
100
AcDbEntity
  8
1
  6
CONTINUOUS
370
50
 62
4
100
AcDbLine
 10
63.618187
 20
2.490016
 30
0.0
 11
63.245605
 21
2.493237
 31
0.0
  0
LINE
  5
A60
330
1F
100
AcDbEntity
  8
1
  6
CONTINUOUS
370
50
 62
4
100
AcDbLine
 10
51.418625
 20
1.940247
 30
0.0
 11
51.35307299999999
 21
1.940778
 31
0.0
  0
LINE
  5
A61
330
1F
100
AcDbEntity
  8
1
  6
CONTINUOUS
370
50
 62
4
100
AcDbLine
 10
50.724548
 20
2.094974
 30
0.0
 11
50.689484
 21
2.095229
 31
0.0
  0
LINE
  5
A62
330
1F
100
AcDbEntity
  8
1
  6
CONTINUOUS
370
50
 62
4
100
AcDbLine
 10
51.945156
 20
1.939707
 30
0.0
 11
51.921524
 21
1.93986
 31
0.0
  0
LINE
  5
A63
330
1F
100
AcDbEntity
  8
1
  6
CONTINUOUS
370
50
 62
4
100
AcDbLine
 10
51.478989
 20
1.93986
 30
0.0
 11
51.418625
 21
1.940247
 31
0.0
  0
LINE
  5
A64
330
1F
100
AcDbEntity
  8
1
  6
CONTINUOUS
370
50
 62
4
100
AcDbLine
 10
51.53449999999999
 20
1.939597
 30
0.0
 11
51.478989
 21
1.93986
 31
0.0
  0
LINE
  5
A65
330
1F
100
AcDbEntity
  8
1
  6
CONTINUOUS
370
50
 62
4
100
AcDbLine
 10
76.180733
 20
3.328993
 30
0.0
 11
75.79098499999999
 21
3.330823
 31
0.0
  0
LINE
  5
A66
330
1F
100
AcDbEntity
  8
1
  6
CONTINUOUS
370
50
 62
4
100
AcDbLine
 10
77.65774499999999
 20
3.497735
 30
0.0
 11
77.309868
 21
3.499205
 31
0.0
  0
LINE
  5
A67
330
1F
100
AcDbEntity
  8
1
  6
CONTINUOUS
370
50
 62
4
100
AcDbLine
 10
51.514698
 20
2.451798
 30
0.0
 11
51.134617
 21
2.453084
 31
0.0
  0
LINE
  5
A68
330
1F
100
AcDbEntity
  8
1
  6
CONTINUOUS
370
50
 62
4
100
AcDbLine
 10
50.76678099999999
 20
3.499668
 30
0.0
 11
50.661716
 21
3.5
 31
0.0
  0
LINE
  5
A69
330
1F
100
AcDbEntity
  8
1
  6
CONTINUOUS
370
50
 62
4
100
AcDbLine
 10
51.585499
 20
1.939442
 30
0.0
 11
51.53449999999999
 21
1.939597
 31
0.0
  0
LINE
  5
A6A
330
1F
100
AcDbEntity
  8
1
  6
CONTINUOUS
370
50
 62
4
100
AcDbLine
 10
51.921524
 20
1.93986
 30
0.0
 11
51.897095
 21
1.939924
 31
0.0
  0
LINE
  5
A6B
330
1F
100
AcDbEntity
  8
1
  6
CONTINUOUS
370
50
 62
4
100
AcDbLine
 10
51.133495
 20
3.287191
 30
0.0
 11
50.754482
 21
3.288179
 31
0.0
  0
LINE
  5
A6C
330
1F
100
AcDbEntity
  8
1
  6
CONTINUOUS
370
50
 62
4
100
AcDbLine
 10
50.218819
 20
3.499587
 30
0.0
 11
50.108112
 21
3.499853
 31
0.0
  0
LINE
  5
A6D
330
1F
100
AcDbEntity
  8
1
  6
CONTINUOUS
370
50
 62
4
100
AcDbLine
 10
50.689484
 20
2.095229
 30
0.0
 11
50.65428199999999
 21
2.095308
 31
0.0
  0
LINE
  5
A6E
330
1F
100
AcDbEntity
  8
1
  6
CONTINUOUS
370
50
 62
4
100
AcDbLine
 10
51.632324
 20
1.939376
 30
0.0
 11
51.585499
 21
1.939442
 31
0.0
  0
LINE
  5
A6F
330
1F
100
AcDbEntity
  8
1
  6
CONTINUOUS
370
50
 62
4
100
AcDbLine
 10
50.108112
 20
3.499853
 30
0.0
 11
50.0
 21
3.5
 31
0.0
  0
LINE
  5
A70
330
1F
100
AcDbEntity
  8
1
  6
CONTINUOUS
370
50
 62
4
100
AcDbLine
 10
50.331867
 20
3.49946
 30
0.0
 11
50.218819
 21
3.499587
 31
0.0
  0
LINE
  5
A71
330
1F
100
AcDbEntity
  8
1
  6
CONTINUOUS
370
50
 62
4
100
AcDbLine
 10
42.597988
 20
-3.5
 30
0.0
 11
45.924156
 21
-3.5
 31
0.0
  0
LINE
  5
A72
330
1F
100
AcDbEntity
  8
1
  6
CONTINUOUS
370
50
 62
4
100
AcDbLine
 10
56.873627
 20
-3.5
 30
0.0
 11
58.394424
 21
-3.5
 31
0.0
  0
LINE
  5
A73
330
1F
100
AcDbEntity
  8
1
  6
CONTINUOUS
370
50
 62
4
100
AcDbLine
 10
69.567291
 20
-3.5
 30
0.0
 11
71.09144599999999
 21
-3.5
 31
0.0
  0
LINE
  5
A74
330
1F
100
AcDbEntity
  8
1
  6
CONTINUOUS
370
50
 62
4
100
AcDbLine
 10
79.677864
 20
-3.183328
 30
0.0
 11
80.0
 21
-3.183328
 31
0.0
  0
LINE
  5
A75
330
1F
100
AcDbEntity
  8
1
  6
CONTINUOUS
370
50
 62
4
100
AcDbLine
 10
79.80000299999999
 20
0.199066
 30
0.0
 11
80.0
 21
0.199066
 31
0.0
  0
LINE
  5
A76
330
1F
100
AcDbEntity
  8
1
  6
CONTINUOUS
370
50
 62
4
100
AcDbLine
 10
79.80000299999999
 20
0.331776
 30
0.0
 11
80.0
 21
0.331776
 31
0.0
  0
LINE
  5
A77
330
1F
100
AcDbEntity
  8
1
  6
CONTINUOUS
370
50
 62
4
100
AcDbLine
 10
78.787567
 20
1.710847
 30
0.0
 11
79.80000299999999
 21
1.710847
 31
0.0
  0
LINE
  5
A78
330
1F
100
AcDbEntity
  8
1
  6
CONTINUOUS
370
50
 62
4
100
AcDbLine
 10
78.919044
 20
1.710931
 30
0.0
 11
80.0
 21
1.710931
 31
0.0
  0
LINE
  5
A79
330
1F
100
AcDbEntity
  8
1
  6
CONTINUOUS
370
50
 62
4
100
AcDbLine
 10
62.173298
 20
2.1
 30
0.0
 11
62.654106
 21
2.1
 31
0.0
  0
LINE
  5
A7A
330
1F
100
AcDbEntity
  8
1
  6
CONTINUOUS
370
50
 62
4
100
AcDbLine
 10
79.677864
 20
2.851552
 30
0.0
 11
80.0
 21
2.851552
 31
0.0
  0
LINE
  5
A7B
330
1F
100
AcDbEntity
  8
1
  6
CONTINUOUS
370
50
 62
4
100
AcDbLine
 10
42.597988
 20
3.5
 30
0.0
 11
49.99991199999999
 21
3.5
 31
0.0
  0
LINE
  5
A7C
330
1F
100
AcDbEntity
  8
1
  6
CONTINUOUS
370
50
 62
4
100
AcDbLine
 10
50.65703999999999
 20
3.5
 30
0.0
 11
52.070263
 21
3.5
 31
0.0
  0
LINE
  5
A7D
330
1F
100
AcDbEntity
  8
1
  6
CONTINUOUS
370
50
 62
4
100
AcDbLine
 10
75.918228
 20
3.5
 30
0.0
 11
77.439568
 21
3.5
 31
0.0
  0
LINE
  5
A7E
330
1F
100
AcDbEntity
  8
1
  6
CONTINUOUS
370
50
 62
4
100
AcDbLine
 10
63.21961599999999
 20
3.5
 30
0.0
 11
64.741837
 21
3.5
 31
0.0
  0
LINE
  5
A7F
330
1F
100
AcDbEntity
  8
1
  6
CONTINUOUS
370
50
 62
4
100
AcDbLine
 10
49.122116
 20
3.499959
 30
0.0
 11
49.99991199999999
 21
3.5
 31
0.0
  0
LINE
  5
A80
330
1F
100
AcDbEntity
  8
1
  6
CONTINUOUS
370
50
 62
4
100
AcDbLine
 10
51.632324
 20
1.939376
 30
0.0
 11
51.675308
 21
1.939382
 31
0.0
  0
LINE
  5
A81
330
1F
100
AcDbEntity
  8
1
  6
CONTINUOUS
370
50
 62
4
100
AcDbLine
 10
51.871525
 20
1.939917
 30
0.0
 11
51.897095
 21
1.939924
 31
0.0
  0
LINE
  5
A82
330
1F
100
AcDbEntity
  8
1
  6
CONTINUOUS
370
50
 62
4
100
AcDbLine
 10
50.331867
 20
3.49946
 30
0.0
 11
50.443905
 21
3.499606
 31
0.0
  0
LINE
  5
A83
330
1F
100
AcDbEntity
  8
1
  6
CONTINUOUS
370
50
 62
4
100
AcDbLine
 10
50.553833
 20
3.499858
 30
0.0
 11
50.661716
 21
3.5
 31
0.0
  0
LINE
  5
A84
330
1F
100
AcDbEntity
  8
1
  6
CONTINUOUS
370
50
 62
4
100
AcDbLine
 10
48.238197
 20
3.498734
 30
0.0
 11
49.122116
 21
3.499959
 31
0.0
  0
LINE
  5
A85
330
1F
100
AcDbEntity
  8
1
  6
CONTINUOUS
370
50
 62
4
100
AcDbLine
 10
51.675308
 20
1.939382
 30
0.0
 11
51.714794
 21
1.939441
 31
0.0
  0
LINE
  5
A86
330
1F
100
AcDbEntity
  8
1
  6
CONTINUOUS
370
50
 62
4
100
AcDbLine
 10
51.844479
 20
1.939857
 30
0.0
 11
51.871525
 21
1.939917
 31
0.0
  0
LINE
  5
A87
330
1F
100
AcDbEntity
  8
1
  6
CONTINUOUS
370
50
 62
4
100
AcDbLine
 10
50.443905
 20
3.499606
 30
0.0
 11
50.553833
 21
3.499858
 31
0.0
  0
LINE
  5
A88
330
1F
100
AcDbEntity
  8
1
  6
CONTINUOUS
370
50
 62
4
100
AcDbLine
 10
51.714794
 20
1.939441
 30
0.0
 11
51.751118
 21
1.939536
 31
0.0
  0
LINE
  5
A89
330
1F
100
AcDbEntity
  8
1
  6
CONTINUOUS
370
50
 62
4
100
AcDbLine
 10
50.61920199999999
 20
2.095201
 30
0.0
 11
50.65428199999999
 21
2.095308
 31
0.0
  0
LINE
  5
A8A
330
1F
100
AcDbEntity
  8
1
  6
CONTINUOUS
370
50
 62
4
100
AcDbLine
 10
51.815624
 20
1.939762
 30
0.0
 11
51.844479
 21
1.939857
 31
0.0
  0
LINE
  5
A8B
330
1F
100
AcDbEntity
  8
1
  6
CONTINUOUS
370
50
 62
4
100
AcDbLine
 10
51.751118
 20
1.939536
 30
0.0
 11
51.784615
 21
1.939649
 31
0.0
  0
LINE
  5
A8C
330
1F
100
AcDbEntity
  8
1
  6
CONTINUOUS
370
50
 62
4
100
AcDbLine
 10
51.784615
 20
1.939649
 30
0.0
 11
51.815624
 21
1.939762
 31
0.0
  0
LINE
  5
A8D
330
1F
100
AcDbEntity
  8
1
  6
CONTINUOUS
370
50
 62
4
100
AcDbLine
 10
47.354923
 20
3.493476
 30
0.0
 11
48.238197
 21
3.498734
 31
0.0
  0
LINE
  5
A8E
330
1F
100
AcDbEntity
  8
1
  6
CONTINUOUS
370
50
 62
4
100
AcDbLine
 10
50.585266
 20
2.094902
 30
0.0
 11
50.61920199999999
 21
2.095201
 31
0.0
  0
LINE
  5
A8F
330
1F
100
AcDbEntity
  8
1
  6
CONTINUOUS
370
50
 62
4
100
AcDbLine
 10
50.75552
 20
2.449306
 30
0.0
 11
51.134617
 21
2.453084
 31
0.0
  0
LINE
  5
A90
330
1F
100
AcDbEntity
  8
1
  6
CONTINUOUS
370
50
 62
4
100
AcDbLine
 10
75.58751699999999
 20
2.486936
 30
0.0
 11
75.966515
 21
2.492159
 31
0.0
  0
LINE
  5
A91
330
1F
100
AcDbEntity
  8
1
  6
CONTINUOUS
370
50
 62
4
100
AcDbLine
 10
49.46146
 20
-1.75778
 30
0.0
 11
49.99991199999999
 21
-1.75
 31
0.0
  0
LINE
  5
A92
330
1F
100
AcDbEntity
  8
1
  6
CONTINUOUS
370
50
 62
4
100
AcDbLine
 10
71.092232
 20
-3.500001
 30
0.0
 11
71.417664
 21
-3.494948
 31
0.0
  0
LINE
  5
A93
330
1F
100
AcDbEntity
  8
1
  6
CONTINUOUS
370
50
 62
4
100
AcDbLine
 10
58.396748
 20
-3.5
 30
0.0
 11
58.723766
 21
-3.494817
 31
0.0
  0
LINE
  5
A94
330
1F
100
AcDbEntity
  8
1
  6
CONTINUOUS
370
50
 62
4
100
AcDbLine
 10
50.553875
 20
2.094404
 30
0.0
 11
50.585266
 21
2.094902
 31
0.0
  0
LINE
  5
A95
330
1F
100
AcDbEntity
  8
1
  6
CONTINUOUS
370
50
 62
4
100
AcDbLine
 10
46.47890899999999
 20
3.479325
 30
0.0
 11
47.354923
 21
3.493476
 31
0.0
  0
LINE
  5
A96
330
1F
100
AcDbEntity
  8
1
  6
CONTINUOUS
370
50
 62
4
100
AcDbLine
 10
62.873062
 20
2.486261
 30
0.0
 11
63.245605
 21
2.493237
 31
0.0
  0
LINE
  5
A97
330
1F
100
AcDbEntity
  8
1
  6
CONTINUOUS
370
50
 62
4
100
AcDbLine
 10
45.924156
 20
-3.5
 30
0.0
 11
46.09446699999999
 21
-3.49613
 31
0.0
  0
LINE
  5
A98
330
1F
100
AcDbEntity
  8
1
  6
CONTINUOUS
370
50
 62
4
100
AcDbLine
 10
50.525181
 20
2.093698
 30
0.0
 11
50.553875
 21
2.094404
 31
0.0
  0
LINE
  5
A99
330
1F
100
AcDbEntity
  8
1
  6
CONTINUOUS
370
50
 62
4
100
AcDbLine
 10
75.443832
 20
3.489337
 30
0.0
 11
75.863953
 21
3.499859
 31
0.0
  0
LINE
  5
A9A
330
1F
100
AcDbEntity
  8
1
  6
CONTINUOUS
370
50
 62
4
100
AcDbLine
 10
75.401276
 20
3.319782
 30
0.0
 11
75.79098499999999
 21
3.330823
 31
0.0
  0
LINE
  5
A9B
330
1F
100
AcDbEntity
  8
1
  6
CONTINUOUS
370
50
 62
4
100
AcDbLine
 10
45.616493
 20
3.449744
 30
0.0
 11
46.47890899999999
 21
3.479325
 31
0.0
  0
LINE
  5
A9C
330
1F
100
AcDbEntity
  8
1
  6
CONTINUOUS
370
50
 62
4
100
AcDbLine
 10
62.530525
 20
3.47728
 30
0.0
 11
63.18891499999999
 21
3.499971
 31
0.0
  0
LINE
  5
A9D
330
1F
100
AcDbEntity
  8
1
  6
CONTINUOUS
370
50
 62
4
100
AcDbLine
 10
79.24574299999999
 20
-0.305589
 30
0.0
 11
79.444542
 21
-0.298527
 31
0.0
  0
LINE
  5
A9E
330
1F
100
AcDbEntity
  8
1
  6
CONTINUOUS
370
50
 62
4
100
AcDbLine
 10
79.438873
 20
-0.287719
 30
0.0
 11
79.523727
 21
-0.284687
 31
0.0
  0
LINE
  5
A9F
330
1F
100
AcDbEntity
  8
1
  6
CONTINUOUS
370
50
 62
4
100
AcDbLine
 10
50.49932099999999
 20
2.092773
 30
0.0
 11
50.525181
 21
2.093698
 31
0.0
  0
LINE
  5
AA0
330
1F
100
AcDbEntity
  8
1
  6
CONTINUOUS
370
50
 62
4
100
AcDbLine
 10
75.208527
 20
2.472552
 30
0.0
 11
75.58751699999999
 21
2.486936
 31
0.0
  0
LINE
  5
AA1
330
1F
100
AcDbEntity
  8
1
  6
CONTINUOUS
370
50
 62
4
100
AcDbLine
 10
62.500549
 20
2.471005
 30
0.0
 11
62.873062
 21
2.486261
 31
0.0
  0
LINE
  5
AA2
330
1F
100
AcDbEntity
  8
1
  6
CONTINUOUS
370
50
 62
4
100
AcDbLine
 10
48.914082
 20
-1.781261
 30
0.0
 11
49.46146
 21
-1.75778
 31
0.0
  0
LINE
  5
AA3
330
1F
100
AcDbEntity
  8
1
  6
CONTINUOUS
370
50
 62
4
100
AcDbLine
 10
71.417664
 20
-3.494948
 30
0.0
 11
71.74301899999999
 21
-3.479753
 31
0.0
  0
LINE
  5
AA4
330
1F
100
AcDbEntity
  8
1
  6
CONTINUOUS
370
50
 62
4
100
AcDbLine
 10
58.723766
 20
-3.494817
 30
0.0
 11
59.05172
 21
-3.479412
 31
0.0
  0
LINE
  5
AA5
330
1F
100
AcDbEntity
  8
1
  6
CONTINUOUS
370
50
 62
4
100
AcDbLine
 10
50.476479
 20
2.091616
 30
0.0
 11
50.49932099999999
 21
2.092773
 31
0.0
  0
LINE
  5
AA6
330
1F
100
AcDbEntity
  8
1
  6
CONTINUOUS
370
50
 62
4
100
AcDbLine
 10
78.919044
 20
1.710931
 30
0.0
 11
78.968262
 21
1.713865
 31
0.0
  0
LINE
  5
AA7
330
1F
100
AcDbEntity
  8
1
  6
CONTINUOUS
370
50
 62
4
100
AcDbLine
 10
44.773853
 20
3.397018
 30
0.0
 11
45.616493
 21
3.449744
 31
0.0
  0
LINE
  5
AA8
330
1F
100
AcDbEntity
  8
1
  6
CONTINUOUS
370
50
 62
4
100
AcDbLine
 10
75.011528
 20
3.295324
 30
0.0
 11
75.401276
 21
3.319782
 31
0.0
  0
LINE
  5
AA9
330
1F
100
AcDbEntity
  8
1
  6
CONTINUOUS
370
50
 62
4
100
AcDbLine
 10
74.829506
 20
2.448351
 30
0.0
 11
75.208527
 21
2.472552
 31
0.0
  0
LINE
  5
AAA
330
1F
100
AcDbEntity
  8
1
  6
CONTINUOUS
370
50
 62
4
100
AcDbLine
 10
62.128014
 20
2.447136
 30
0.0
 11
62.500549
 21
2.471005
 31
0.0
  0
LINE
  5
AAB
330
1F
100
AcDbEntity
  8
1
  6
CONTINUOUS
370
50
 62
4
100
AcDbLine
 10
75.02362099999999
 20
3.462265
 30
0.0
 11
75.443832
 21
3.489337
 31
0.0
  0
LINE
  5
AAC
330
1F
100
AcDbEntity
  8
1
  6
CONTINUOUS
370
50
 62
4
100
AcDbLine
 10
46.09446699999999
 20
-3.49613
 30
0.0
 11
46.262848
 21
-3.484532
 31
0.0
  0
LINE
  5
AAD
330
1F
100
AcDbEntity
  8
1
  6
CONTINUOUS
370
50
 62
4
100
AcDbLine
 10
48.360088
 20
-1.820663
 30
0.0
 11
48.914082
 21
-1.781261
 31
0.0
  0
LINE
  5
AAE
330
1F
100
AcDbEntity
  8
1
  6
CONTINUOUS
370
50
 62
4
100
AcDbLine
 10
50.456821
 20
2.090213
 30
0.0
 11
50.476479
 21
2.091616
 31
0.0
  0
LINE
  5
AAF
330
1F
100
AcDbEntity
  8
1
  6
CONTINUOUS
370
50
 62
4
100
AcDbLine
 10
78.968262
 20
1.713865
 30
0.0
 11
79.01705199999999
 21
1.717461
 31
0.0
  0
LINE
  5
AB0
330
1F
100
AcDbEntity
  8
1
  6
CONTINUOUS
370
50
 62
4
100
AcDbLine
 10
71.74301899999999
 20
-3.479753
 30
0.0
 11
72.069504
 21
-3.454415
 31
0.0
  0
LINE
  5
AB1
330
1F
100
AcDbEntity
  8
1
  6
CONTINUOUS
370
50
 62
4
100
AcDbLine
 10
59.05172
 20
-3.479412
 30
0.0
 11
59.380062
 21
-3.453923
 31
0.0
  0
LINE
  5
AB2
330
1F
100
AcDbEntity
  8
1
  6
CONTINUOUS
370
50
 62
4
100
AcDbLine
 10
50.162243
 20
-1.710513
 30
0.0
 11
50.330025
 21
-1.696321
 31
0.0
  0
LINE
  5
AB3
330
1F
100
AcDbEntity
  8
1
  6
CONTINUOUS
370
50
 62
4
100
AcDbLine
 10
79.01705199999999
 20
1.717461
 30
0.0
 11
79.0653
 21
1.721721
 31
0.0
  0
LINE
  5
AB4
330
1F
100
AcDbEntity
  8
1
  6
CONTINUOUS
370
50
 62
4
100
AcDbLine
 10
61.755436
 20
2.414024
 30
0.0
 11
62.128014
 21
2.447136
 31
0.0
  0
LINE
  5
AB5
330
1F
100
AcDbEntity
  8
1
  6
CONTINUOUS
370
50
 62
4
100
AcDbLine
 10
74.450508
 20
2.413398
 30
0.0
 11
74.829506
 21
2.448351
 31
0.0
  0
LINE
  5
AB6
330
1F
100
AcDbEntity
  8
1
  6
CONTINUOUS
370
50
 62
4
100
AcDbLine
 10
61.867439
 20
3.413499
 30
0.0
 11
62.530525
 21
3.47728
 31
0.0
  0
LINE
  5
AB7
330
1F
100
AcDbEntity
  8
1
  6
CONTINUOUS
370
50
 62
4
100
AcDbLine
 10
47.801792
 20
-1.876204
 30
0.0
 11
48.360088
 21
-1.820663
 31
0.0
  0
LINE
  5
AB8
330
1F
100
AcDbEntity
  8
1
  6
CONTINUOUS
370
50
 62
4
100
AcDbLine
 10
74.62177299999999
 20
3.256533
 30
0.0
 11
75.011528
 21
3.295324
 31
0.0
  0
LINE
  5
AB9
330
1F
100
AcDbEntity
  8
1
  6
CONTINUOUS
370
50
 62
4
100
AcDbLine
 10
50.440456
 20
2.088542
 30
0.0
 11
50.456821
 21
2.090213
 31
0.0
  0
LINE
  5
ABA
330
1F
100
AcDbEntity
  8
1
  6
CONTINUOUS
370
50
 62
4
100
AcDbLine
 10
43.956894
 20
3.312507
 30
0.0
 11
44.773853
 21
3.397018
 31
0.0
  0
LINE
  5
ABB
330
1F
100
AcDbEntity
  8
1
  6
CONTINUOUS
370
50
 62
4
100
AcDbLine
 10
79.0653
 20
1.721721
 30
0.0
 11
79.11288499999999
 21
1.726648
 31
0.0
  0
LINE
  5
ABC
330
1F
100
AcDbEntity
  8
1
  6
CONTINUOUS
370
50
 62
4
100
AcDbLine
 10
74.60754399999999
 20
3.418896
 30
0.0
 11
75.02362099999999
 21
3.462265
 31
0.0
  0
LINE
  5
ABD
330
1F
100
AcDbEntity
  8
1
  6
CONTINUOUS
370
50
 62
4
100
AcDbLine
 10
72.069504
 20
-3.454415
 30
0.0
 11
72.397545
 21
-3.41905
 31
0.0
  0
LINE
  5
ABE
330
1F
100
AcDbEntity
  8
1
  6
CONTINUOUS
370
50
 62
4
100
AcDbLine
 10
59.380062
 20
-3.453923
 30
0.0
 11
59.70699699999999
 21
-3.418512
 31
0.0
  0
LINE
  5
ABF
330
1F
100
AcDbEntity
  8
1
  6
CONTINUOUS
370
50
 62
4
100
AcDbLine
 10
46.262848
 20
-3.484532
 30
0.0
 11
46.431526
 21
-3.465429
 31
0.0
  0
LINE
  5
AC0
330
1F
100
AcDbEntity
  8
1
  6
CONTINUOUS
370
50
 62
4
100
AcDbLine
 10
51.815926
 20
-2.581307
 30
0.0
 11
51.916061
 21
-2.569707
 31
0.0
  0
LINE
  5
AC1
330
1F
100
AcDbEntity
  8
1
  6
CONTINUOUS
370
50
 62
4
100
AcDbLine
 10
61.382851
 20
2.370762
 30
0.0
 11
61.755436
 21
2.414024
 31
0.0
  0
LINE
  5
AC2
330
1F
100
AcDbEntity
  8
1
  6
CONTINUOUS
370
50
 62
4
100
AcDbLine
 10
51.711308
 20
-2.593499
 30
0.0
 11
51.815926
 21
-2.581307
 31
0.0
  0
LINE
  5
AC3
330
1F
100
AcDbEntity
  8
1
  6
CONTINUOUS
370
50
 62
4
100
AcDbLine
 10
51.658932
 20
-2.599658
 30
0.0
 11
51.711308
 21
-2.593499
 31
0.0
  0
LINE
  5
AC4
330
1F
100
AcDbEntity
  8
1
  6
CONTINUOUS
370
50
 62
4
100
AcDbLine
 10
51.575024
 20
-2.609601
 30
0.0
 11
51.658932
 21
-2.599658
 31
0.0
  0
LINE
  5
AC5
330
1F
100
AcDbEntity
  8
1
  6
CONTINUOUS
370
50
 62
4
100
AcDbLine
 10
74.071556
 20
2.368296
 30
0.0
 11
74.450508
 21
2.413398
 31
0.0
  0
LINE
  5
AC6
330
1F
100
AcDbEntity
  8
1
  6
CONTINUOUS
370
50
 62
4
100
AcDbLine
 10
79.11288499999999
 20
1.726648
 30
0.0
 11
79.15969799999999
 21
1.732245
 31
0.0
  0
LINE
  5
AC7
330
1F
100
AcDbEntity
  8
1
  6
CONTINUOUS
370
50
 62
4
100
AcDbLine
 10
51.486141
 20
-2.620232
 30
0.0
 11
51.575024
 21
-2.609601
 31
0.0
  0
LINE
  5
AC8
330
1F
100
AcDbEntity
  8
1
  6
CONTINUOUS
370
50
 62
4
100
AcDbLine
 10
51.39769
 20
-2.630909
 30
0.0
 11
51.486141
 21
-2.620232
 31
0.0
  0
LINE
  5
AC9
330
1F
100
AcDbEntity
  8
1
  6
CONTINUOUS
370
50
 62
4
100
AcDbLine
 10
51.916061
 20
-2.569707
 30
0.0
 11
52.016216
 21
-2.557589
 31
0.0
  0
LINE
  5
ACA
330
1F
100
AcDbEntity
  8
1
  6
CONTINUOUS
370
50
 62
4
100
AcDbLine
 10
51.30928
 20
-2.641675
 30
0.0
 11
51.39769
 21
-2.630909
 31
0.0
  0
LINE
  5
ACB
330
1F
100
AcDbEntity
  8
1
  6
CONTINUOUS
370
50
 62
4
100
AcDbLine
 10
51.220932
 20
-2.652527
 30
0.0
 11
51.30928
 21
-2.641675
 31
0.0
  0
LINE
  5
ACC
330
1F
100
AcDbEntity
  8
1
  6
CONTINUOUS
370
50
 62
4
100
AcDbLine
 10
51.13262599999999
 20
-2.663464
 30
0.0
 11
51.220932
 21
-2.652527
 31
0.0
  0
LINE
  5
ACD
330
1F
100
AcDbEntity
  8
1
  6
CONTINUOUS
370
50
 62
4
100
AcDbLine
 10
51.044365
 20
-2.674483
 30
0.0
 11
51.13262599999999
 21
-2.663464
 31
0.0
  0
LINE
  5
ACE
330
1F
100
AcDbEntity
  8
1
  6
CONTINUOUS
370
50
 62
4
100
AcDbLine
 10
50.954784
 20
-2.685754
 30
0.0
 11
51.044365
 21
-2.674483
 31
0.0
  0
LINE
  5
ACF
330
1F
100
AcDbEntity
  8
1
  6
CONTINUOUS
370
50
 62
4
100
AcDbLine
 10
52.016216
 20
-2.557589
 30
0.0
 11
52.11636
 21
-2.544831
 31
0.0
  0
LINE
  5
AD0
330
1F
100
AcDbEntity
  8
1
  6
CONTINUOUS
370
50
 62
4
100
AcDbLine
 10
47.24148599999999
 20
-1.947794
 30
0.0
 11
47.801792
 21
-1.876204
 31
0.0
  0
LINE
  5
AD1
330
1F
100
AcDbEntity
  8
1
  6
CONTINUOUS
370
50
 62
4
100
AcDbLine
 10
43.916512
 20
3.307162
 30
0.0
 11
43.956894
 21
3.312507
 31
0.0
  0
LINE
  5
AD2
330
1F
100
AcDbEntity
  8
1
  6
CONTINUOUS
370
50
 62
4
100
AcDbLine
 10
50.89104099999999
 20
-2.69426
 30
0.0
 11
50.954784
 21
-2.685754
 31
0.0
  0
LINE
  5
AD3
330
1F
100
AcDbEntity
  8
1
  6
CONTINUOUS
370
50
 62
4
100
AcDbLine
 10
52.11636
 20
-2.544831
 30
0.0
 11
52.216473
 21
-2.531447
 31
0.0
  0
LINE
  5
AD4
330
1F
100
AcDbEntity
  8
1
  6
CONTINUOUS
370
50
 62
4
100
AcDbLine
 10
79.15969799999999
 20
1.732245
 30
0.0
 11
79.20562699999999
 21
1.738515
 31
0.0
  0
LINE
  5
AD5
330
1F
100
AcDbEntity
  8
1
  6
CONTINUOUS
370
50
 62
4
100
AcDbLine
 10
72.397545
 20
-3.41905
 30
0.0
 11
72.725624
 21
-3.373799
 31
0.0
  0
LINE
  5
AD6
330
1F
100
AcDbEntity
  8
1
  6
CONTINUOUS
370
50
 62
4
100
AcDbLine
 10
74.232079
 20
3.202665
 30
0.0
 11
74.62177299999999
 21
3.256533
 31
0.0
  0
LINE
  5
AD7
330
1F
100
AcDbEntity
  8
1
  6
CONTINUOUS
370
50
 62
4
100
AcDbLine
 10
59.70699699999999
 20
-3.418512
 30
0.0
 11
60.031872
 21
-3.37332
 31
0.0
  0
LINE
  5
AD8
330
1F
100
AcDbEntity
  8
1
  6
CONTINUOUS
370
50
 62
4
100
AcDbLine
 10
73.692619
 20
2.315486
 30
0.0
 11
74.071556
 21
2.368296
 31
0.0
  0
LINE
  5
AD9
330
1F
100
AcDbEntity
  8
1
  6
CONTINUOUS
370
50
 62
4
100
AcDbLine
 10
43.876961
 20
3.301625
 30
0.0
 11
43.916512
 21
3.307162
 31
0.0
  0
LINE
  5
ADA
330
1F
100
AcDbEntity
  8
1
  6
CONTINUOUS
370
50
 62
4
100
AcDbLine
 10
61.01029999999999
 20
2.317418
 30
0.0
 11
61.382851
 21
2.370762
 31
0.0
  0
LINE
  5
ADB
330
1F
100
AcDbEntity
  8
1
  6
CONTINUOUS
370
50
 62
4
100
AcDbLine
 10
74.1931
 20
3.359361
 30
0.0
 11
74.60754399999999
 21
3.418896
 31
0.0
  0
LINE
  5
ADC
330
1F
100
AcDbEntity
  8
1
  6
CONTINUOUS
370
50
 62
4
100
AcDbLine
 10
43.838272
 20
3.2959
 30
0.0
 11
43.876961
 21
3.301625
 31
0.0
  0
LINE
  5
ADD
330
1F
100
AcDbEntity
  8
1
  6
CONTINUOUS
370
50
 62
4
100
AcDbLine
 10
64.844337
 20
-2.530524
 30
0.0
 11
64.917694
 21
-2.519636
 31
0.0
  0
LINE
  5
ADE
330
1F
100
AcDbEntity
  8
1
  6
CONTINUOUS
370
50
 62
4
100
AcDbLine
 10
77.538673
 20
-2.530868
 30
0.0
 11
77.614677
 21
-2.51946
 31
0.0
  0
LINE
  5
ADF
330
1F
100
AcDbEntity
  8
1
  6
CONTINUOUS
370
50
 62
4
100
AcDbLine
 10
64.755562
 20
-2.543898
 30
0.0
 11
64.844337
 21
-2.530524
 31
0.0
  0
LINE
  5
AE0
330
1F
100
AcDbEntity
  8
1
  6
CONTINUOUS
370
50
 62
4
100
AcDbLine
 10
77.462654
 20
-2.542413
 30
0.0
 11
77.538673
 21
-2.530868
 31
0.0
  0
LINE
  5
AE1
330
1F
100
AcDbEntity
  8
1
  6
CONTINUOUS
370
50
 62
4
100
AcDbLine
 10
64.659561
 20
-2.558579
 30
0.0
 11
64.755562
 21
-2.543898
 31
0.0
  0
LINE
  5
AE2
330
1F
100
AcDbEntity
  8
1
  6
CONTINUOUS
370
50
 62
4
100
AcDbLine
 10
50.427128
 20
2.0865
 30
0.0
 11
50.440456
 21
2.088542
 31
0.0
  0
LINE
  5
AE3
330
1F
100
AcDbEntity
  8
1
  6
CONTINUOUS
370
50
 62
4
100
AcDbLine
 10
77.38658099999999
 20
-2.554097
 30
0.0
 11
77.462654
 21
-2.542413
 31
0.0
  0
LINE
  5
AE4
330
1F
100
AcDbEntity
  8
1
  6
CONTINUOUS
370
50
 62
4
100
AcDbLine
 10
46.681355
 20
-2.034286
 30
0.0
 11
47.24148599999999
 21
-1.947794
 31
0.0
  0
LINE
  5
AE5
330
1F
100
AcDbEntity
  8
1
  6
CONTINUOUS
370
50
 62
4
100
AcDbLine
 10
79.20562699999999
 20
1.738515
 30
0.0
 11
79.250565
 21
1.745461
 31
0.0
  0
LINE
  5
AE6
330
1F
100
AcDbEntity
  8
1
  6
CONTINUOUS
370
50
 62
4
100
AcDbLine
 10
46.431526
 20
-3.465429
 30
0.0
 11
46.60233299999999
 21
-3.43901
 31
0.0
  0
LINE
  5
AE7
330
1F
100
AcDbEntity
  8
1
  6
CONTINUOUS
370
50
 62
4
100
AcDbLine
 10
77.311897
 20
-2.565684
 30
0.0
 11
77.38658099999999
 21
-2.554097
 31
0.0
  0
LINE
  5
AE8
330
1F
100
AcDbEntity
  8
1
  6
CONTINUOUS
370
50
 62
4
100
AcDbLine
 10
64.564461
 20
-2.57334
 30
0.0
 11
64.659561
 21
-2.558579
 31
0.0
  0
LINE
  5
AE9
330
1F
100
AcDbEntity
  8
1
  6
CONTINUOUS
370
50
 62
4
100
AcDbLine
 10
77.252708
 20
-2.574947
 30
0.0
 11
77.311897
 21
-2.565684
 31
0.0
  0
LINE
  5
AEA
330
1F
100
AcDbEntity
  8
1
  6
CONTINUOUS
370
50
 62
4
100
AcDbLine
 10
43.800529
 20
3.28999
 30
0.0
 11
43.838272
 21
3.2959
 31
0.0
  0
LINE
  5
AEB
330
1F
100
AcDbEntity
  8
1
  6
CONTINUOUS
370
50
 62
4
100
AcDbLine
 10
64.46936
 20
-2.5883
 30
0.0
 11
64.564461
 21
-2.57334
 31
0.0
  0
LINE
  5
AEC
330
1F
100
AcDbEntity
  8
1
  6
CONTINUOUS
370
50
 62
4
100
AcDbLine
 10
77.193512
 20
-2.584276
 30
0.0
 11
77.252708
 21
-2.574947
 31
0.0
  0
LINE
  5
AED
330
1F
100
AcDbEntity
  8
1
  6
CONTINUOUS
370
50
 62
4
100
AcDbLine
 10
61.212971
 20
3.309962
 30
0.0
 11
61.867439
 21
3.413499
 31
0.0
  0
LINE
  5
AEE
330
1F
100
AcDbEntity
  8
1
  6
CONTINUOUS
370
50
 62
4
100
AcDbLine
 10
77.134315
 20
-2.593667
 30
0.0
 11
77.193512
 21
-2.584276
 31
0.0
  0
LINE
  5
AEF
330
1F
100
AcDbEntity
  8
1
  6
CONTINUOUS
370
50
 62
4
100
AcDbLine
 10
64.37425999999999
 20
-2.603444
 30
0.0
 11
64.46936
 21
-2.5883
 31
0.0
  0
LINE
  5
AF0
330
1F
100
AcDbEntity
  8
1
  6
CONTINUOUS
370
50
 62
4
100
AcDbLine
 10
77.07455399999999
 20
-2.603208
 30
0.0
 11
77.134315
 21
-2.593667
 31
0.0
  0
LINE
  5
AF1
330
1F
100
AcDbEntity
  8
1
  6
CONTINUOUS
370
50
 62
4
100
AcDbLine
 10
76.99748199999999
 20
-2.615592
 30
0.0
 11
77.07455399999999
 21
-2.603208
 31
0.0
  0
LINE
  5
AF2
330
1F
100
AcDbEntity
  8
1
  6
CONTINUOUS
370
50
 62
4
100
AcDbLine
 10
64.27915999999999
 20
-2.618759
 30
0.0
 11
64.37425999999999
 21
-2.603444
 31
0.0
  0
LINE
  5
AF3
330
1F
100
AcDbEntity
  8
1
  6
CONTINUOUS
370
50
 62
4
100
AcDbLine
 10
73.313644
 20
2.254385
 30
0.0
 11
73.692619
 21
2.315486
 31
0.0
  0
LINE
  5
AF4
330
1F
100
AcDbEntity
  8
1
  6
CONTINUOUS
370
50
 62
4
100
AcDbLine
 10
76.92205
 20
-2.627798
 30
0.0
 11
76.99748199999999
 21
-2.615592
 31
0.0
  0
LINE
  5
AF5
330
1F
100
AcDbEntity
  8
1
  6
CONTINUOUS
370
50
 62
4
100
AcDbLine
 10
50.827484
 20
-2.704571
 30
0.0
 11
50.89104099999999
 21
-2.69426
 31
0.0
  0
LINE
  5
AF6
330
1F
100
AcDbEntity
  8
1
  6
CONTINUOUS
370
50
 62
4
100
AcDbLine
 10
64.18405899999999
 20
-2.634231
 30
0.0
 11
64.27915999999999
 21
-2.618759
 31
0.0
  0
LINE
  5
AF7
330
1F
100
AcDbEntity
  8
1
  6
CONTINUOUS
370
50
 62
4
100
AcDbLine
 10
60.637787
 20
2.256813
 30
0.0
 11
61.01029999999999
 21
2.317418
 31
0.0
  0
LINE
  5
AF8
330
1F
100
AcDbEntity
  8
1
  6
CONTINUOUS
370
50
 62
4
100
AcDbLine
 10
76.846611
 20
-2.640078
 30
0.0
 11
76.92205
 21
-2.627798
 31
0.0
  0
LINE
  5
AF9
330
1F
100
AcDbEntity
  8
1
  6
CONTINUOUS
370
50
 62
4
100
AcDbLine
 10
76.771164
 20
-2.652427
 30
0.0
 11
76.846611
 21
-2.640078
 31
0.0
  0
LINE
  5
AFA
330
1F
100
AcDbEntity
  8
1
  6
CONTINUOUS
370
50
 62
4
100
AcDbLine
 10
64.086868
 20
-2.650191
 30
0.0
 11
64.18405899999999
 21
-2.634231
 31
0.0
  0
LINE
  5
AFB
330
1F
100
AcDbEntity
  8
1
  6
CONTINUOUS
370
50
 62
4
100
AcDbLine
 10
76.695724
 20
-2.664838
 30
0.0
 11
76.771164
 21
-2.652427
 31
0.0
  0
LINE
  5
AFC
330
1F
100
AcDbEntity
  8
1
  6
CONTINUOUS
370
50
 62
4
100
AcDbLine
 10
76.620277
 20
-2.677304
 30
0.0
 11
76.695724
 21
-2.664838
 31
0.0
  0
LINE
  5
AFD
330
1F
100
AcDbEntity
  8
1
  6
CONTINUOUS
370
50
 62
4
100
AcDbLine
 10
64.00767499999999
 20
-2.663294
 30
0.0
 11
64.086868
 21
-2.650191
 31
0.0
  0
LINE
  5
AFE
330
1F
100
AcDbEntity
  8
1
  6
CONTINUOUS
370
50
 62
4
100
AcDbLine
 10
43.764008
 20
3.283935
 30
0.0
 11
43.800529
 21
3.28999
 31
0.0
  0
LINE
  5
AFF
330
1F
100
AcDbEntity
  8
1
  6
CONTINUOUS
370
50
 62
4
100
AcDbLine
 10
76.544174
 20
-2.689928
 30
0.0
 11
76.620277
 21
-2.677304
 31
0.0
  0
LINE
  5
B00
330
1F
100
AcDbEntity
  8
1
  6
CONTINUOUS
370
50
 62
4
100
AcDbLine
 10
76.47318299999999
 20
-2.701743
 30
0.0
 11
76.544174
 21
-2.689928
 31
0.0
  0
LINE
  5
B01
330
1F
100
AcDbEntity
  8
1
  6
CONTINUOUS
370
50
 62
4
100
AcDbLine
 10
63.92954599999999
 20
-2.676302
 30
0.0
 11
64.00767499999999
 21
-2.663294
 31
0.0
  0
LINE
  5
B02
330
1F
100
AcDbEntity
  8
1
  6
CONTINUOUS
370
50
 62
4
100
AcDbLine
 10
76.412643
 20
-2.711843
 30
0.0
 11
76.47318299999999
 21
-2.701743
 31
0.0
  0
LINE
  5
B03
330
1F
100
AcDbEntity
  8
1
  6
CONTINUOUS
370
50
 62
4
100
AcDbLine
 10
76.35211199999999
 20
-2.721966
 30
0.0
 11
76.412643
 21
-2.711843
 31
0.0
  0
LINE
  5
B04
330
1F
100
AcDbEntity
  8
1
  6
CONTINUOUS
370
50
 62
4
100
AcDbLine
 10
63.846428
 20
-2.69022
 30
0.0
 11
63.92954599999999
 21
-2.676302
 31
0.0
  0
LINE
  5
B05
330
1F
100
AcDbEntity
  8
1
  6
CONTINUOUS
370
50
 62
4
100
AcDbLine
 10
76.291573
 20
-2.732105
 30
0.0
 11
76.35211199999999
 21
-2.721966
 31
0.0
  0
LINE
  5
B06
330
1F
100
AcDbEntity
  8
1
  6
CONTINUOUS
370
50
 62
4
100
AcDbLine
 10
76.22863
 20
-2.742669
 30
0.0
 11
76.291573
 21
-2.732105
 31
0.0
  0
LINE
  5
B07
330
1F
100
AcDbEntity
  8
1
  6
CONTINUOUS
370
50
 62
4
100
AcDbLine
 10
63.76188999999999
 20
-2.704451
 30
0.0
 11
63.846428
 21
-2.69022
 31
0.0
  0
LINE
  5
B08
330
1F
100
AcDbEntity
  8
1
  6
CONTINUOUS
370
50
 62
4
100
AcDbLine
 10
72.725624
 20
-3.373799
 30
0.0
 11
73.05240599999999
 21
-3.31871
 31
0.0
  0
LINE
  5
B09
330
1F
100
AcDbEntity
  8
1
  6
CONTINUOUS
370
50
 62
4
100
AcDbLine
 10
76.15177899999999
 20
-2.755657
 30
0.0
 11
76.22863
 21
-2.742669
 31
0.0
  0
LINE
  5
B0A
330
1F
100
AcDbEntity
  8
1
  6
CONTINUOUS
370
50
 62
4
100
AcDbLine
 10
63.677505
 20
-2.718724
 30
0.0
 11
63.76188999999999
 21
-2.704451
 31
0.0
  0
LINE
  5
B0B
330
1F
100
AcDbEntity
  8
1
  6
CONTINUOUS
370
50
 62
4
100
AcDbLine
 10
73.84243
 20
3.136708
 30
0.0
 11
74.232079
 21
3.202665
 31
0.0
  0
LINE
  5
B0C
330
1F
100
AcDbEntity
  8
1
  6
CONTINUOUS
370
50
 62
4
100
AcDbLine
 10
60.031872
 20
-3.37332
 30
0.0
 11
60.355717
 21
-3.318472
 31
0.0
  0
LINE
  5
B0D
330
1F
100
AcDbEntity
  8
1
  6
CONTINUOUS
370
50
 62
4
100
AcDbLine
 10
63.593121
 20
-2.733055
 30
0.0
 11
63.677505
 21
-2.718724
 31
0.0
  0
LINE
  5
B0E
330
1F
100
AcDbEntity
  8
1
  6
CONTINUOUS
370
50
 62
4
100
AcDbLine
 10
63.508743
 20
-2.747435
 30
0.0
 11
63.593121
 21
-2.733055
 31
0.0
  0
LINE
  5
B0F
330
1F
100
AcDbEntity
  8
1
  6
CONTINUOUS
370
50
 62
4
100
AcDbLine
 10
76.077011
 20
-2.768406
 30
0.0
 11
76.15177899999999
 21
-2.755657
 31
0.0
  0
LINE
  5
B10
330
1F
100
AcDbEntity
  8
1
  6
CONTINUOUS
370
50
 62
4
100
AcDbLine
 10
63.42437
 20
-2.761858
 30
0.0
 11
63.508743
 21
-2.747435
 31
0.0
  0
LINE
  5
B11
330
1F
100
AcDbEntity
  8
1
  6
CONTINUOUS
370
50
 62
4
100
AcDbLine
 10
63.34
 20
-2.776317
 30
0.0
 11
63.42437
 21
-2.761858
 31
0.0
  0
LINE
  5
B12
330
1F
100
AcDbEntity
  8
1
  6
CONTINUOUS
370
50
 62
4
100
AcDbLine
 10
63.25563
 20
-2.790803
 30
0.0
 11
63.34
 21
-2.776317
 31
0.0
  0
LINE
  5
B13
330
1F
100
AcDbEntity
  8
1
  6
CONTINUOUS
370
50
 62
4
100
AcDbLine
 10
76.00224299999999
 20
-2.781257
 30
0.0
 11
76.077011
 21
-2.768406
 31
0.0
  0
LINE
  5
B14
330
1F
100
AcDbEntity
  8
1
  6
CONTINUOUS
370
50
 62
4
100
AcDbLine
 10
63.14164
 20
-2.810409
 30
0.0
 11
63.25563
 21
-2.790803
 31
0.0
  0
LINE
  5
B15
330
1F
100
AcDbEntity
  8
1
  6
CONTINUOUS
370
50
 62
4
100
AcDbLine
 10
63.016811
 20
-2.832006
 30
0.0
 11
63.14164
 21
-2.810409
 31
0.0
  0
LINE
  5
B16
330
1F
100
AcDbEntity
  8
1
  6
CONTINUOUS
370
50
 62
4
100
AcDbLine
 10
75.927475
 20
-2.794205
 30
0.0
 11
76.00224299999999
 21
-2.781257
 31
0.0
  0
LINE
  5
B17
330
1F
100
AcDbEntity
  8
1
  6
CONTINUOUS
370
50
 62
4
100
AcDbLine
 10
79.250565
 20
1.745461
 30
0.0
 11
79.29437999999999
 21
1.753086
 31
0.0
  0
LINE
  5
B18
330
1F
100
AcDbEntity
  8
1
  6
CONTINUOUS
370
50
 62
4
100
AcDbLine
 10
75.852707
 20
-2.807243
 30
0.0
 11
75.927475
 21
-2.794205
 31
0.0
  0
LINE
  5
B19
330
1F
100
AcDbEntity
  8
1
  6
CONTINUOUS
370
50
 62
4
100
AcDbLine
 10
62.941273
 20
-2.845208
 30
0.0
 11
63.016811
 21
-2.832006
 31
0.0
  0
LINE
  5
B1A
330
1F
100
AcDbEntity
  8
1
  6
CONTINUOUS
370
50
 62
4
100
AcDbLine
 10
75.777931
 20
-2.820364
 30
0.0
 11
75.852707
 21
-2.807243
 31
0.0
  0
LINE
  5
B1B
330
1F
100
AcDbEntity
  8
1
  6
CONTINUOUS
370
50
 62
4
100
AcDbLine
 10
43.728764
 20
3.277745
 30
0.0
 11
43.764008
 21
3.283935
 31
0.0
  0
LINE
  5
B1C
330
1F
100
AcDbEntity
  8
1
  6
CONTINUOUS
370
50
 62
4
100
AcDbLine
 10
62.86729
 20
-2.858229
 30
0.0
 11
62.941273
 21
-2.845208
 31
0.0
  0
LINE
  5
B1D
330
1F
100
AcDbEntity
  8
1
  6
CONTINUOUS
370
50
 62
4
100
AcDbLine
 10
75.70185099999999
 20
-2.833793
 30
0.0
 11
75.777931
 21
-2.820364
 31
0.0
  0
LINE
  5
B1E
330
1F
100
AcDbEntity
  8
1
  6
CONTINUOUS
370
50
 62
4
100
AcDbLine
 10
62.793312
 20
-2.871333
 30
0.0
 11
62.86729
 21
-2.858229
 31
0.0
  0
LINE
  5
B1F
330
1F
100
AcDbEntity
  8
1
  6
CONTINUOUS
370
50
 62
4
100
AcDbLine
 10
75.633949
 20
-2.845841
 30
0.0
 11
75.70185099999999
 21
-2.833793
 31
0.0
  0
LINE
  5
B20
330
1F
100
AcDbEntity
  8
1
  6
CONTINUOUS
370
50
 62
4
100
AcDbLine
 10
62.71933
 20
-2.884514
 30
0.0
 11
62.793312
 21
-2.871333
 31
0.0
  0
LINE
  5
B21
330
1F
100
AcDbEntity
  8
1
  6
CONTINUOUS
370
50
 62
4
100
AcDbLine
 10
75.57197599999999
 20
-2.856883
 30
0.0
 11
75.633949
 21
-2.845841
 31
0.0
  0
LINE
  5
B22
330
1F
100
AcDbEntity
  8
1
  6
CONTINUOUS
370
50
 62
4
100
AcDbLine
 10
75.510002
 20
-2.867965
 30
0.0
 11
75.57197599999999
 21
-2.856883
 31
0.0
  0
LINE
  5
B23
330
1F
100
AcDbEntity
  8
1
  6
CONTINUOUS
370
50
 62
4
100
AcDbLine
 10
62.645351
 20
-2.897764
 30
0.0
 11
62.71933
 21
-2.884514
 31
0.0
  0
LINE
  5
B24
330
1F
100
AcDbEntity
  8
1
  6
CONTINUOUS
370
50
 62
4
100
AcDbLine
 10
46.123573
 20
-2.134319
 30
0.0
 11
46.681355
 21
-2.034286
 31
0.0
  0
LINE
  5
B25
330
1F
100
AcDbEntity
  8
1
  6
CONTINUOUS
370
50
 62
4
100
AcDbLine
 10
75.44802899999999
 20
-2.879085
 30
0.0
 11
75.510002
 21
-2.867965
 31
0.0
  0
LINE
  5
B26
330
1F
100
AcDbEntity
  8
1
  6
CONTINUOUS
370
50
 62
4
100
AcDbLine
 10
62.571369
 20
-2.911079
 30
0.0
 11
62.645351
 21
-2.897764
 31
0.0
  0
LINE
  5
B27
330
1F
100
AcDbEntity
  8
1
  6
CONTINUOUS
370
50
 62
4
100
AcDbLine
 10
75.38158399999999
 20
-2.891044
 30
0.0
 11
75.44802899999999
 21
-2.879085
 31
0.0
  0
LINE
  5
B28
330
1F
100
AcDbEntity
  8
1
  6
CONTINUOUS
370
50
 62
4
100
AcDbLine
 10
75.306061
 20
-2.904679
 30
0.0
 11
75.38158399999999
 21
-2.891044
 31
0.0
  0
LINE
  5
B29
330
1F
100
AcDbEntity
  8
1
  6
CONTINUOUS
370
50
 62
4
100
AcDbLine
 10
62.497387
 20
-2.924452
 30
0.0
 11
62.571369
 21
-2.911079
 31
0.0
  0
LINE
  5
B2A
330
1F
100
AcDbEntity
  8
1
  6
CONTINUOUS
370
50
 62
4
100
AcDbLine
 10
75.232018
 20
-2.918085
 30
0.0
 11
75.306061
 21
-2.904679
 31
0.0
  0
LINE
  5
B2B
330
1F
100
AcDbEntity
  8
1
  6
CONTINUOUS
370
50
 62
4
100
AcDbLine
 10
73.775787
 20
3.283742
 30
0.0
 11
74.1931
 21
3.359361
 31
0.0
  0
LINE
  5
B2C
330
1F
100
AcDbEntity
  8
1
  6
CONTINUOUS
370
50
 62
4
100
AcDbLine
 10
62.423409
 20
-2.937876
 30
0.0
 11
62.497387
 21
-2.924452
 31
0.0
  0
LINE
  5
B2D
330
1F
100
AcDbEntity
  8
1
  6
CONTINUOUS
370
50
 62
4
100
AcDbLine
 10
75.15798199999999
 20
-2.931523
 30
0.0
 11
75.232018
 21
-2.918085
 31
0.0
  0
LINE
  5
B2E
330
1F
100
AcDbEntity
  8
1
  6
CONTINUOUS
370
50
 62
4
100
AcDbLine
 10
75.083939
 20
-2.944988
 30
0.0
 11
75.15798199999999
 21
-2.931523
 31
0.0
  0
LINE
  5
B2F
330
1F
100
AcDbEntity
  8
1
  6
CONTINUOUS
370
50
 62
4
100
AcDbLine
 10
62.34303999999999
 20
-2.952511
 30
0.0
 11
62.423409
 21
-2.937876
 31
0.0
  0
LINE
  5
B30
330
1F
100
AcDbEntity
  8
1
  6
CONTINUOUS
370
50
 62
4
100
AcDbLine
 10
75.009903
 20
-2.958474
 30
0.0
 11
75.083939
 21
-2.944988
 31
0.0
  0
LINE
  5
B31
330
1F
100
AcDbEntity
  8
1
  6
CONTINUOUS
370
50
 62
4
100
AcDbLine
 10
74.386253
 20
-3.072308
 30
0.0
 11
74.459351
 21
-3.058987
 31
0.0
  0
LINE
  5
B32
330
1F
100
AcDbEntity
  8
1
  6
CONTINUOUS
370
50
 62
4
100
AcDbLine
 10
74.93585999999999
 20
-2.971977
 30
0.0
 11
75.009903
 21
-2.958474
 31
0.0
  0
LINE
  5
B33
330
1F
100
AcDbEntity
  8
1
  6
CONTINUOUS
370
50
 62
4
100
AcDbLine
 10
74.31315599999999
 20
-3.085639
 30
0.0
 11
74.386253
 21
-3.072308
 31
0.0
  0
LINE
  5
B34
330
1F
100
AcDbEntity
  8
1
  6
CONTINUOUS
370
50
 62
4
100
AcDbLine
 10
74.459351
 20
-3.058987
 30
0.0
 11
74.533081
 21
-3.045536
 31
0.0
  0
LINE
  5
B35
330
1F
100
AcDbEntity
  8
1
  6
CONTINUOUS
370
50
 62
4
100
AcDbLine
 10
74.860367
 20
-2.985759
 30
0.0
 11
74.93585999999999
 21
-2.971977
 31
0.0
  0
LINE
  5
B36
330
1F
100
AcDbEntity
  8
1
  6
CONTINUOUS
370
50
 62
4
100
AcDbLine
 10
74.533081
 20
-3.045536
 30
0.0
 11
74.602516
 21
-3.032859
 31
0.0
  0
LINE
  5
B37
330
1F
100
AcDbEntity
  8
1
  6
CONTINUOUS
370
50
 62
4
100
AcDbLine
 10
74.794029
 20
-2.997875
 30
0.0
 11
74.860367
 21
-2.985759
 31
0.0
  0
LINE
  5
B38
330
1F
100
AcDbEntity
  8
1
  6
CONTINUOUS
370
50
 62
4
100
AcDbLine
 10
74.602516
 20
-3.032859
 30
0.0
 11
74.66635099999999
 21
-3.0212
 31
0.0
  0
LINE
  5
B39
330
1F
100
AcDbEntity
  8
1
  6
CONTINUOUS
370
50
 62
4
100
AcDbLine
 10
62.261826
 20
-2.967347
 30
0.0
 11
62.34303999999999
 21
-2.952511
 31
0.0
  0
LINE
  5
B3A
330
1F
100
AcDbEntity
  8
1
  6
CONTINUOUS
370
50
 62
4
100
AcDbLine
 10
74.66635099999999
 20
-3.0212
 30
0.0
 11
74.730194
 21
-3.009537
 31
0.0
  0
LINE
  5
B3B
330
1F
100
AcDbEntity
  8
1
  6
CONTINUOUS
370
50
 62
4
100
AcDbLine
 10
74.730194
 20
-3.009537
 30
0.0
 11
74.794029
 21
-2.997875
 31
0.0
  0
LINE
  5
B3C
330
1F
100
AcDbEntity
  8
1
  6
CONTINUOUS
370
50
 62
4
100
AcDbLine
 10
74.240067
 20
-3.099016
 30
0.0
 11
74.31315599999999
 21
-3.085639
 31
0.0
  0
LINE
  5
B3D
330
1F
100
AcDbEntity
  8
1
  6
CONTINUOUS
370
50
 62
4
100
AcDbLine
 10
62.18067199999999
 20
-2.982213
 30
0.0
 11
62.261826
 21
-2.967347
 31
0.0
  0
LINE
  5
B3E
330
1F
100
AcDbEntity
  8
1
  6
CONTINUOUS
370
50
 62
4
100
AcDbLine
 10
61.185066
 20
-3.165365
 30
0.0
 11
61.28715099999999
 21
-3.146656
 31
0.0
  0
LINE
  5
B3F
330
1F
100
AcDbEntity
  8
1
  6
CONTINUOUS
370
50
 62
4
100
AcDbLine
 10
61.28715099999999
 20
-3.146656
 30
0.0
 11
61.389236
 21
-3.127923
 31
0.0
  0
LINE
  5
B40
330
1F
100
AcDbEntity
  8
1
  6
CONTINUOUS
370
50
 62
4
100
AcDbLine
 10
62.09825499999999
 20
-2.997343
 30
0.0
 11
62.18067199999999
 21
-2.982213
 31
0.0
  0
LINE
  5
B41
330
1F
100
AcDbEntity
  8
1
  6
CONTINUOUS
370
50
 62
4
100
AcDbLine
 10
74.166977
 20
-3.112437
 30
0.0
 11
74.240067
 21
-3.099016
 31
0.0
  0
LINE
  5
B42
330
1F
100
AcDbEntity
  8
1
  6
CONTINUOUS
370
50
 62
4
100
AcDbLine
 10
61.079502
 20
-3.184772
 30
0.0
 11
61.185066
 21
-3.165365
 31
0.0
  0
LINE
  5
B43
330
1F
100
AcDbEntity
  8
1
  6
CONTINUOUS
370
50
 62
4
100
AcDbLine
 10
61.389236
 20
-3.127923
 30
0.0
 11
61.491405
 21
-3.109138
 31
0.0
  0
LINE
  5
B44
330
1F
100
AcDbEntity
  8
1
  6
CONTINUOUS
370
50
 62
4
100
AcDbLine
 10
62.034691
 20
-3.009031
 30
0.0
 11
62.09825499999999
 21
-2.997343
 31
0.0
  0
LINE
  5
B45
330
1F
100
AcDbEntity
  8
1
  6
CONTINUOUS
370
50
 62
4
100
AcDbLine
 10
73.05240599999999
 20
-3.318702
 30
0.0
 11
73.116142
 21
-3.306973
 31
0.0
  0
LINE
  5
B46
330
1F
100
AcDbEntity
  8
1
  6
CONTINUOUS
370
50
 62
4
100
AcDbLine
 10
61.97137499999999
 20
-3.020686
 30
0.0
 11
62.034691
 21
-3.009031
 31
0.0
  0
LINE
  5
B47
330
1F
100
AcDbEntity
  8
1
  6
CONTINUOUS
370
50
 62
4
100
AcDbLine
 10
74.09388
 20
-3.125895
 30
0.0
 11
74.166977
 21
-3.112437
 31
0.0
  0
LINE
  5
B48
330
1F
100
AcDbEntity
  8
1
  6
CONTINUOUS
370
50
 62
4
100
AcDbLine
 10
61.491405
 20
-3.109138
 30
0.0
 11
61.591457
 21
-3.090716
 31
0.0
  0
LINE
  5
B49
330
1F
100
AcDbEntity
  8
1
  6
CONTINUOUS
370
50
 62
4
100
AcDbLine
 10
61.908054
 20
-3.032351
 30
0.0
 11
61.97137499999999
 21
-3.020686
 31
0.0
  0
LINE
  5
B4A
330
1F
100
AcDbEntity
  8
1
  6
CONTINUOUS
370
50
 62
4
100
AcDbLine
 10
61.591457
 20
-3.090716
 30
0.0
 11
61.654778
 21
-3.079047
 31
0.0
  0
LINE
  5
B4B
330
1F
100
AcDbEntity
  8
1
  6
CONTINUOUS
370
50
 62
4
100
AcDbLine
 10
60.973812
 20
-3.204254
 30
0.0
 11
61.079502
 21
-3.184772
 31
0.0
  0
LINE
  5
B4C
330
1F
100
AcDbEntity
  8
1
  6
CONTINUOUS
370
50
 62
4
100
AcDbLine
 10
61.844734
 20
-3.044023
 30
0.0
 11
61.908054
 21
-3.032351
 31
0.0
  0
LINE
  5
B4D
330
1F
100
AcDbEntity
  8
1
  6
CONTINUOUS
370
50
 62
4
100
AcDbLine
 10
73.116142
 20
-3.306973
 30
0.0
 11
73.17989299999999
 21
-3.29522
 31
0.0
  0
LINE
  5
B4E
330
1F
100
AcDbEntity
  8
1
  6
CONTINUOUS
370
50
 62
4
100
AcDbLine
 10
61.654778
 20
-3.079047
 30
0.0
 11
61.718098
 21
-3.067373
 31
0.0
  0
LINE
  5
B4F
330
1F
100
AcDbEntity
  8
1
  6
CONTINUOUS
370
50
 62
4
100
AcDbLine
 10
61.781418
 20
-3.055697
 30
0.0
 11
61.844734
 21
-3.044023
 31
0.0
  0
LINE
  5
B50
330
1F
100
AcDbEntity
  8
1
  6
CONTINUOUS
370
50
 62
4
100
AcDbLine
 10
60.355732
 20
-3.318438
 30
0.0
 11
60.457394
 21
-3.299693
 31
0.0
  0
LINE
  5
B51
330
1F
100
AcDbEntity
  8
1
  6
CONTINUOUS
370
50
 62
4
100
AcDbLine
 10
61.718098
 20
-3.067373
 30
0.0
 11
61.781418
 21
-3.055697
 31
0.0
  0
LINE
  5
B52
330
1F
100
AcDbEntity
  8
1
  6
CONTINUOUS
370
50
 62
4
100
AcDbLine
 10
74.019707
 20
-3.139585
 30
0.0
 11
74.09388
 21
-3.125895
 31
0.0
  0
LINE
  5
B53
330
1F
100
AcDbEntity
  8
1
  6
CONTINUOUS
370
50
 62
4
100
AcDbLine
 10
60.868126
 20
-3.223772
 30
0.0
 11
60.973812
 21
-3.204254
 31
0.0
  0
LINE
  5
B54
330
1F
100
AcDbEntity
  8
1
  6
CONTINUOUS
370
50
 62
4
100
AcDbLine
 10
73.17989299999999
 20
-3.29522
 30
0.0
 11
73.252808
 21
-3.281754
 31
0.0
  0
LINE
  5
B55
330
1F
100
AcDbEntity
  8
1
  6
CONTINUOUS
370
50
 62
4
100
AcDbLine
 10
60.457394
 20
-3.299693
 30
0.0
 11
60.559055
 21
-3.280918
 31
0.0
  0
LINE
  5
B56
330
1F
100
AcDbEntity
  8
1
  6
CONTINUOUS
370
50
 62
4
100
AcDbLine
 10
60.559055
 20
-3.280918
 30
0.0
 11
60.66071299999999
 21
-3.262124
 31
0.0
  0
LINE
  5
B57
330
1F
100
AcDbEntity
  8
1
  6
CONTINUOUS
370
50
 62
4
100
AcDbLine
 10
60.762375
 20
-3.243323
 30
0.0
 11
60.868126
 21
-3.223772
 31
0.0
  0
LINE
  5
B58
330
1F
100
AcDbEntity
  8
1
  6
CONTINUOUS
370
50
 62
4
100
AcDbLine
 10
73.95433799999999
 20
-3.151672
 30
0.0
 11
74.019707
 21
-3.139585
 31
0.0
  0
LINE
  5
B59
330
1F
100
AcDbEntity
  8
1
  6
CONTINUOUS
370
50
 62
4
100
AcDbLine
 10
60.66071299999999
 20
-3.262124
 30
0.0
 11
60.762375
 21
-3.243323
 31
0.0
  0
LINE
  5
B5A
330
1F
100
AcDbEntity
  8
1
  6
CONTINUOUS
370
50
 62
4
100
AcDbLine
 10
73.252808
 20
-3.281754
 30
0.0
 11
73.32547
 21
-3.268312
 31
0.0
  0
LINE
  5
B5B
330
1F
100
AcDbEntity
  8
1
  6
CONTINUOUS
370
50
 62
4
100
AcDbLine
 10
73.889633
 20
-3.163653
 30
0.0
 11
73.95433799999999
 21
-3.151672
 31
0.0
  0
LINE
  5
B5C
330
1F
100
AcDbEntity
  8
1
  6
CONTINUOUS
370
50
 62
4
100
AcDbLine
 10
73.32547
 20
-3.268312
 30
0.0
 11
73.398125
 21
-3.254853
 31
0.0
  0
LINE
  5
B5D
330
1F
100
AcDbEntity
  8
1
  6
CONTINUOUS
370
50
 62
4
100
AcDbLine
 10
73.824928
 20
-3.175647
 30
0.0
 11
73.889633
 21
-3.163653
 31
0.0
  0
LINE
  5
B5E
330
1F
100
AcDbEntity
  8
1
  6
CONTINUOUS
370
50
 62
4
100
AcDbLine
 10
73.398125
 20
-3.254853
 30
0.0
 11
73.470787
 21
-3.241379
 31
0.0
  0
LINE
  5
B5F
330
1F
100
AcDbEntity
  8
1
  6
CONTINUOUS
370
50
 62
4
100
AcDbLine
 10
73.760223
 20
-3.187651
 30
0.0
 11
73.824928
 21
-3.175647
 31
0.0
  0
LINE
  5
B60
330
1F
100
AcDbEntity
  8
1
  6
CONTINUOUS
370
50
 62
4
100
AcDbLine
 10
73.470787
 20
-3.241379
 30
0.0
 11
73.543442
 21
-3.227896
 31
0.0
  0
LINE
  5
B61
330
1F
100
AcDbEntity
  8
1
  6
CONTINUOUS
370
50
 62
4
100
AcDbLine
 10
73.543442
 20
-3.227896
 30
0.0
 11
73.61610399999999
 21
-3.214408
 31
0.0
  0
LINE
  5
B62
330
1F
100
AcDbEntity
  8
1
  6
CONTINUOUS
370
50
 62
4
100
AcDbLine
 10
73.688881
 20
-3.200895
 30
0.0
 11
73.760223
 21
-3.187651
 31
0.0
  0
LINE
  5
B63
330
1F
100
AcDbEntity
  8
1
  6
CONTINUOUS
370
50
 62
4
100
AcDbLine
 10
73.61610399999999
 20
-3.214408
 30
0.0
 11
73.688881
 21
-3.200895
 31
0.0
  0
LINE
  5
B64
330
1F
100
AcDbEntity
  8
1
  6
CONTINUOUS
370
50
 62
4
100
AcDbLine
 10
43.694817
 20
3.271423
 30
0.0
 11
43.728764
 21
3.277745
 31
0.0
  0
LINE
  5
B65
330
1F
100
AcDbEntity
  8
1
  6
CONTINUOUS
370
50
 62
4
100
AcDbLine
 10
46.60233299999999
 20
-3.43901
 30
0.0
 11
46.777096
 21
-3.405465
 31
0.0
  0
LINE
  5
B66
330
1F
100
AcDbEntity
  8
1
  6
CONTINUOUS
370
50
 62
4
100
AcDbLine
 10
79.29437999999999
 20
1.753086
 30
0.0
 11
79.336967
 21
1.761393
 31
0.0
  0
LINE
  5
B67
330
1F
100
AcDbEntity
  8
1
  6
CONTINUOUS
370
50
 62
4
100
AcDbLine
 10
43.66217
 20
3.264976
 30
0.0
 11
43.694817
 21
3.271423
 31
0.0
  0
LINE
  5
B68
330
1F
100
AcDbEntity
  8
1
  6
CONTINUOUS
370
50
 62
4
100
AcDbLine
 10
73.452766
 20
3.05904
 30
0.0
 11
73.84243
 21
3.136708
 31
0.0
  0
LINE
  5
B69
330
1F
100
AcDbEntity
  8
1
  6
CONTINUOUS
370
50
 62
4
100
AcDbLine
 10
50.72637899999999
 20
-2.724896
 30
0.0
 11
50.827484
 21
-2.704571
 31
0.0
  0
LINE
  5
B6A
330
1F
100
AcDbEntity
  8
1
  6
CONTINUOUS
370
50
 62
4
100
AcDbLine
 10
45.570316
 20
-2.246525
 30
0.0
 11
46.123573
 21
-2.134319
 31
0.0
  0
LINE
  5
B6B
330
1F
100
AcDbEntity
  8
1
  6
CONTINUOUS
370
50
 62
4
100
AcDbLine
 10
43.630852
 20
3.258408
 30
0.0
 11
43.66217
 21
3.264976
 31
0.0
  0
LINE
  5
B6C
330
1F
100
AcDbEntity
  8
1
  6
CONTINUOUS
370
50
 62
4
100
AcDbLine
 10
73.355362
 20
3.192467
 30
0.0
 11
73.775787
 21
3.283742
 31
0.0
  0
LINE
  5
B6D
330
1F
100
AcDbEntity
  8
1
  6
CONTINUOUS
370
50
 62
4
100
AcDbLine
 10
60.55658
 20
3.167368
 30
0.0
 11
61.212971
 21
3.309962
 31
0.0
  0
LINE
  5
B6E
330
1F
100
AcDbEntity
  8
1
  6
CONTINUOUS
370
50
 62
4
100
AcDbLine
 10
79.336967
 20
1.761393
 30
0.0
 11
79.37822
 21
1.770384
 31
0.0
  0
LINE
  5
B6F
330
1F
100
AcDbEntity
  8
1
  6
CONTINUOUS
370
50
 62
4
100
AcDbLine
 10
43.600864
 20
3.251724
 30
0.0
 11
43.630852
 21
3.258408
 31
0.0
  0
LINE
  5
B70
330
1F
100
AcDbEntity
  8
1
  6
CONTINUOUS
370
50
 62
4
100
AcDbLine
 10
46.777096
 20
-3.405465
 30
0.0
 11
46.957642
 21
-3.364983
 31
0.0
  0
LINE
  5
B71
330
1F
100
AcDbEntity
  8
1
  6
CONTINUOUS
370
50
 62
4
100
AcDbLine
 10
45.023552
 20
-2.369176
 30
0.0
 11
45.570316
 21
-2.246525
 31
0.0
  0
LINE
  5
B72
330
1F
100
AcDbEntity
  8
1
  6
CONTINUOUS
370
50
 62
4
100
AcDbLine
 10
73.063026
 20
2.968902
 30
0.0
 11
73.452766
 21
3.05904
 31
0.0
  0
LINE
  5
B73
330
1F
100
AcDbEntity
  8
1
  6
CONTINUOUS
370
50
 62
4
100
AcDbLine
 10
43.572231
 20
3.244929
 30
0.0
 11
43.600864
 21
3.251724
 31
0.0
  0
LINE
  5
B74
330
1F
100
AcDbEntity
  8
1
  6
CONTINUOUS
370
50
 62
4
100
AcDbLine
 10
44.485126
 20
-2.499628
 30
0.0
 11
45.023552
 21
-2.369176
 31
0.0
  0
LINE
  5
B75
330
1F
100
AcDbEntity
  8
1
  6
CONTINUOUS
370
50
 62
4
100
AcDbLine
 10
79.37822
 20
1.770384
 30
0.0
 11
79.418015
 21
1.780063
 31
0.0
  0
LINE
  5
B76
330
1F
100
AcDbEntity
  8
1
  6
CONTINUOUS
370
50
 62
4
100
AcDbLine
 10
50.0
 20
-1.75
 30
0.0
 11
50.162243
 21
-1.710513
 31
0.0
  0
LINE
  5
B77
330
1F
100
AcDbEntity
  8
1
  6
CONTINUOUS
370
50
 62
4
100
AcDbLine
 10
50.623043
 20
-2.750525
 30
0.0
 11
50.72637899999999
 21
-2.724896
 31
0.0
  0
LINE
  5
B78
330
1F
100
AcDbEntity
  8
1
  6
CONTINUOUS
370
50
 62
4
100
AcDbLine
 10
49.99991199999999
 20
-1.75
 30
0.0
 11
49.999928
 21
-1.749996
 31
0.0
  0
LINE
  5
B79
330
1F
100
AcDbEntity
  8
1
  6
CONTINUOUS
370
50
 62
4
100
AcDbLine
 10
49.999969
 20
-1.749983
 30
0.0
 11
49.999985
 21
-1.749979
 31
0.0
  0
LINE
  5
B7A
330
1F
100
AcDbEntity
  8
1
  6
CONTINUOUS
370
50
 62
4
100
AcDbLine
 10
43.54496
 20
3.238028
 30
0.0
 11
43.572231
 21
3.244929
 31
0.0
  0
LINE
  5
B7B
330
1F
100
AcDbEntity
  8
1
  6
CONTINUOUS
370
50
 62
4
100
AcDbLine
 10
72.936684
 20
3.086206
 30
0.0
 11
73.355362
 21
3.192467
 31
0.0
  0
LINE
  5
B7C
330
1F
100
AcDbEntity
  8
1
  6
CONTINUOUS
370
50
 62
4
100
AcDbLine
 10
43.956894
 20
-2.635014
 30
0.0
 11
44.485126
 21
-2.499628
 31
0.0
  0
LINE
  5
B7D
330
1F
100
AcDbEntity
  8
1
  6
CONTINUOUS
370
50
 62
4
100
AcDbLine
 10
50.417564
 20
2.084033
 30
0.0
 11
50.427128
 21
2.0865
 31
0.0
  0
LINE
  5
B7E
330
1F
100
AcDbEntity
  8
1
  6
CONTINUOUS
370
50
 62
4
100
AcDbLine
 10
72.673264
 20
2.865223
 30
0.0
 11
73.063026
 21
2.968902
 31
0.0
  0
LINE
  5
B7F
330
1F
100
AcDbEntity
  8
1
  6
CONTINUOUS
370
50
 62
4
100
AcDbLine
 10
49.999928
 20
-1.749996
 30
0.0
 11
49.99994299999999
 21
-1.749992
 31
0.0
  0
LINE
  5
B80
330
1F
100
AcDbEntity
  8
1
  6
CONTINUOUS
370
50
 62
4
100
AcDbLine
 10
49.999985
 20
-1.749979
 30
0.0
 11
50.0
 21
-1.749975
 31
0.0
  0
LINE
  5
B81
330
1F
100
AcDbEntity
  8
1
  6
CONTINUOUS
370
50
 62
4
100
AcDbLine
 10
43.918045
 20
-2.645391
 30
0.0
 11
43.956894
 21
-2.635014
 31
0.0
  0
LINE
  5
B82
330
1F
100
AcDbEntity
  8
1
  6
CONTINUOUS
370
50
 62
4
100
AcDbLine
 10
43.519073
 20
3.231026
 30
0.0
 11
43.54496
 21
3.238028
 31
0.0
  0
LINE
  5
B83
330
1F
100
AcDbEntity
  8
1
  6
CONTINUOUS
370
50
 62
4
100
AcDbLine
 10
79.418015
 20
1.780063
 30
0.0
 11
79.456673
 21
1.790555
 31
0.0
  0
LINE
  5
B84
330
1F
100
AcDbEntity
  8
1
  6
CONTINUOUS
370
50
 62
4
100
AcDbLine
 10
59.893318
 20
2.986887
 30
0.0
 11
60.55658
 21
3.167368
 31
0.0
  0
LINE
  5
B85
330
1F
100
AcDbEntity
  8
1
  6
CONTINUOUS
370
50
 62
4
100
AcDbLine
 10
43.88023
 20
-2.655843
 30
0.0
 11
43.918045
 21
-2.645391
 31
0.0
  0
LINE
  5
B86
330
1F
100
AcDbEntity
  8
1
  6
CONTINUOUS
370
50
 62
4
100
AcDbLine
 10
43.84346
 20
-2.666361
 30
0.0
 11
43.88023
 21
-2.655843
 31
0.0
  0
LINE
  5
B87
330
1F
100
AcDbEntity
  8
1
  6
CONTINUOUS
370
50
 62
4
100
AcDbLine
 10
43.494576
 20
3.223927
 30
0.0
 11
43.519073
 21
3.231026
 31
0.0
  0
LINE
  5
B88
330
1F
100
AcDbEntity
  8
1
  6
CONTINUOUS
370
50
 62
4
100
AcDbLine
 10
72.522125
 20
2.965586
 30
0.0
 11
72.936684
 21
3.086206
 31
0.0
  0
LINE
  5
B89
330
1F
100
AcDbEntity
  8
1
  6
CONTINUOUS
370
50
 62
4
100
AcDbLine
 10
50.519634
 20
-2.780968
 30
0.0
 11
50.623043
 21
-2.750525
 31
0.0
  0
LINE
  5
B8A
330
1F
100
AcDbEntity
  8
1
  6
CONTINUOUS
370
50
 62
4
100
AcDbLine
 10
43.807755
 20
-2.676934
 30
0.0
 11
43.84346
 21
-2.666361
 31
0.0
  0
LINE
  5
B8B
330
1F
100
AcDbEntity
  8
1
  6
CONTINUOUS
370
50
 62
4
100
AcDbLine
 10
72.283546
 20
2.747907
 30
0.0
 11
72.673264
 21
2.865223
 31
0.0
  0
LINE
  5
B8C
330
1F
100
AcDbEntity
  8
1
  6
CONTINUOUS
370
50
 62
4
100
AcDbLine
 10
79.456673
 20
1.790555
 30
0.0
 11
79.495598
 21
1.802396
 31
0.0
  0
LINE
  5
B8D
330
1F
100
AcDbEntity
  8
1
  6
CONTINUOUS
370
50
 62
4
100
AcDbLine
 10
43.773129
 20
-2.687552
 30
0.0
 11
43.807755
 21
-2.676934
 31
0.0
  0
LINE
  5
B8E
330
1F
100
AcDbEntity
  8
1
  6
CONTINUOUS
370
50
 62
4
100
AcDbLine
 10
43.471493
 20
3.216737
 30
0.0
 11
43.494576
 21
3.223927
 31
0.0
  0
LINE
  5
B8F
330
1F
100
AcDbEntity
  8
1
  6
CONTINUOUS
370
50
 62
4
100
AcDbLine
 10
43.739597
 20
-2.698208
 30
0.0
 11
43.773129
 21
-2.687552
 31
0.0
  0
LINE
  5
B90
330
1F
100
AcDbEntity
  8
1
  6
CONTINUOUS
370
50
 62
4
100
AcDbLine
 10
72.107132
 20
2.83081
 30
0.0
 11
72.522125
 21
2.965586
 31
0.0
  0
LINE
  5
B91
330
1F
100
AcDbEntity
  8
1
  6
CONTINUOUS
370
50
 62
4
100
AcDbLine
 10
71.893883
 20
2.621163
 30
0.0
 11
72.283546
 21
2.747907
 31
0.0
  0
LINE
  5
B92
330
1F
100
AcDbEntity
  8
1
  6
CONTINUOUS
370
50
 62
4
100
AcDbLine
 10
59.23545499999999
 20
2.770564
 30
0.0
 11
59.893318
 21
2.986887
 31
0.0
  0
LINE
  5
B93
330
1F
100
AcDbEntity
  8
1
  6
CONTINUOUS
370
50
 62
4
100
AcDbLine
 10
43.707176
 20
-2.708889
 30
0.0
 11
43.739597
 21
-2.698208
 31
0.0
  0
LINE
  5
B94
330
1F
100
AcDbEntity
  8
1
  6
CONTINUOUS
370
50
 62
4
100
AcDbLine
 10
49.99994299999999
 20
-1.749992
 30
0.0
 11
49.999958
 21
-1.749987
 31
0.0
  0
LINE
  5
B95
330
1F
100
AcDbEntity
  8
1
  6
CONTINUOUS
370
50
 62
4
100
AcDbLine
 10
43.449375
 20
3.209302
 30
0.0
 11
43.471493
 21
3.216737
 31
0.0
  0
LINE
  5
B96
330
1F
100
AcDbEntity
  8
1
  6
CONTINUOUS
370
50
 62
4
100
AcDbLine
 10
50.416054
 20
-2.81615
 30
0.0
 11
50.519634
 21
-2.780968
 31
0.0
  0
LINE
  5
B97
330
1F
100
AcDbEntity
  8
1
  6
CONTINUOUS
370
50
 62
4
100
AcDbLine
 10
43.675884
 20
-2.719588
 30
0.0
 11
43.707176
 21
-2.708889
 31
0.0
  0
LINE
  5
B98
330
1F
100
AcDbEntity
  8
1
  6
CONTINUOUS
370
50
 62
4
100
AcDbLine
 10
79.495598
 20
1.802396
 30
0.0
 11
79.534309
 21
1.815704
 31
0.0
  0
LINE
  5
B99
330
1F
100
AcDbEntity
  8
1
  6
CONTINUOUS
370
50
 62
4
100
AcDbLine
 10
71.504196
 20
2.484891
 30
0.0
 11
71.893883
 21
2.621163
 31
0.0
  0
LINE
  5
B9A
330
1F
100
AcDbEntity
  8
1
  6
CONTINUOUS
370
50
 62
4
100
AcDbLine
 10
71.687614
 20
2.682147
 30
0.0
 11
72.107132
 21
2.83081
 31
0.0
  0
LINE
  5
B9B
330
1F
100
AcDbEntity
  8
1
  6
CONTINUOUS
370
50
 62
4
100
AcDbLine
 10
43.645733
 20
-2.730294
 30
0.0
 11
43.675884
 21
-2.719588
 31
0.0
  0
LINE
  5
B9C
330
1F
100
AcDbEntity
  8
1
  6
CONTINUOUS
370
50
 62
4
100
AcDbLine
 10
49.999958
 20
-1.749987
 30
0.0
 11
49.999969
 21
-1.749983
 31
0.0
  0
LINE
  5
B9D
330
1F
100
AcDbEntity
  8
1
  6
CONTINUOUS
370
50
 62
4
100
AcDbLine
 10
43.427582
 20
3.201337
 30
0.0
 11
43.449375
 21
3.209302
 31
0.0
  0
LINE
  5
B9E
330
1F
100
AcDbEntity
  8
1
  6
CONTINUOUS
370
50
 62
4
100
AcDbLine
 10
43.616741
 20
-2.740998
 30
0.0
 11
43.645733
 21
-2.730294
 31
0.0
  0
LINE
  5
B9F
330
1F
100
AcDbEntity
  8
1
  6
CONTINUOUS
370
50
 62
4
100
AcDbLine
 10
58.569992
 20
2.519647
 30
0.0
 11
59.23545499999999
 21
2.770564
 31
0.0
  0
LINE
  5
BA0
330
1F
100
AcDbEntity
  8
1
  6
CONTINUOUS
370
50
 62
4
100
AcDbLine
 10
71.265877
 20
2.520341
 30
0.0
 11
71.687614
 21
2.682147
 31
0.0
  0
LINE
  5
BA1
330
1F
100
AcDbEntity
  8
1
  6
CONTINUOUS
370
50
 62
4
100
AcDbLine
 10
50.31229399999999
 20
-2.855999
 30
0.0
 11
50.416054
 21
-2.81615
 31
0.0
  0
LINE
  5
BA2
330
1F
100
AcDbEntity
  8
1
  6
CONTINUOUS
370
50
 62
4
100
AcDbLine
 10
43.588924
 20
-2.75169
 30
0.0
 11
43.616741
 21
-2.740998
 31
0.0
  0
LINE
  5
BA3
330
1F
100
AcDbEntity
  8
1
  6
CONTINUOUS
370
50
 62
4
100
AcDbLine
 10
79.534309
 20
1.815704
 30
0.0
 11
79.572136
 21
1.83055
 31
0.0
  0
LINE
  5
BA4
330
1F
100
AcDbEntity
  8
1
  6
CONTINUOUS
370
50
 62
4
100
AcDbLine
 10
43.562298
 20
-2.76236
 30
0.0
 11
43.588924
 21
-2.75169
 31
0.0
  0
LINE
  5
BA5
330
1F
100
AcDbEntity
  8
1
  6
CONTINUOUS
370
50
 62
4
100
AcDbLine
 10
43.406456
 20
3.192854
 30
0.0
 11
43.427582
 21
3.201337
 31
0.0
  0
LINE
  5
BA6
330
1F
100
AcDbEntity
  8
1
  6
CONTINUOUS
370
50
 62
4
100
AcDbLine
 10
43.536877
 20
-2.772998
 30
0.0
 11
43.562298
 21
-2.76236
 31
0.0
  0
LINE
  5
BA7
330
1F
100
AcDbEntity
  8
1
  6
CONTINUOUS
370
50
 62
4
100
AcDbLine
 10
50.208351
 20
-2.900466
 30
0.0
 11
50.31229399999999
 21
-2.855999
 31
0.0
  0
LINE
  5
BA8
330
1F
100
AcDbEntity
  8
1
  6
CONTINUOUS
370
50
 62
4
100
AcDbLine
 10
43.512676
 20
-2.783596
 30
0.0
 11
43.536877
 21
-2.772998
 31
0.0
  0
LINE
  5
BA9
330
1F
100
AcDbEntity
  8
1
  6
CONTINUOUS
370
50
 62
4
100
AcDbLine
 10
43.386349
 20
3.183867
 30
0.0
 11
43.406456
 21
3.192854
 31
0.0
  0
LINE
  5
BAA
330
1F
100
AcDbEntity
  8
1
  6
CONTINUOUS
370
50
 62
4
100
AcDbLine
 10
79.572136
 20
1.83055
 30
0.0
 11
79.608398
 21
1.847001
 31
0.0
  0
LINE
  5
BAB
330
1F
100
AcDbEntity
  8
1
  6
CONTINUOUS
370
50
 62
4
100
AcDbLine
 10
43.489716
 20
-2.794143
 30
0.0
 11
43.512676
 21
-2.783596
 31
0.0
  0
LINE
  5
BAC
330
1F
100
AcDbEntity
  8
1
  6
CONTINUOUS
370
50
 62
4
100
AcDbLine
 10
50.10424399999999
 20
-2.949527
 30
0.0
 11
50.208351
 21
-2.900466
 31
0.0
  0
LINE
  5
BAD
330
1F
100
AcDbEntity
  8
1
  6
CONTINUOUS
370
50
 62
4
100
AcDbLine
 10
43.46801
 20
-2.804629
 30
0.0
 11
43.489716
 21
-2.794143
 31
0.0
  0
LINE
  5
BAE
330
1F
100
AcDbEntity
  8
1
  6
CONTINUOUS
370
50
 62
4
100
AcDbLine
 10
43.367619
 20
3.174394
 30
0.0
 11
43.386349
 21
3.183867
 31
0.0
  0
LINE
  5
BAF
330
1F
100
AcDbEntity
  8
1
  6
CONTINUOUS
370
50
 62
4
100
AcDbLine
 10
43.446877
 20
-2.815412
 30
0.0
 11
43.46801
 21
-2.804629
 31
0.0
  0
LINE
  5
BB0
330
1F
100
AcDbEntity
  8
1
  6
CONTINUOUS
370
50
 62
4
100
AcDbLine
 10
50.0
 20
-3.003184
 30
0.0
 11
50.10424399999999
 21
-2.949527
 31
0.0
  0
LINE
  5
BB1
330
1F
100
AcDbEntity
  8
1
  6
CONTINUOUS
370
50
 62
4
100
AcDbLine
 10
79.608398
 20
1.847001
 30
0.0
 11
79.64244099999999
 21
1.865137
 31
0.0
  0
LINE
  5
BB2
330
1F
100
AcDbEntity
  8
1
  6
CONTINUOUS
370
50
 62
4
100
AcDbLine
 10
43.427074
 20
-2.826135
 30
0.0
 11
43.446877
 21
-2.815412
 31
0.0
  0
LINE
  5
BB3
330
1F
100
AcDbEntity
  8
1
  6
CONTINUOUS
370
50
 62
4
100
AcDbLine
 10
40.0
 20
-4.99995
 30
0.0
 11
42.597988
 21
-3.5
 31
0.0
  0
LINE
  5
BB4
330
1F
100
AcDbEntity
  8
1
  6
CONTINUOUS
370
50
 62
4
100
AcDbLine
 10
43.407883
 20
-2.837243
 30
0.0
 11
43.427074
 21
-2.826135
 31
0.0
  0
LINE
  5
BB5
330
1F
100
AcDbEntity
  8
1
  6
CONTINUOUS
370
50
 62
4
100
AcDbLine
 10
79.523727
 20
-0.284687
 30
0.0
 11
79.80000299999999
 21
-0.124118
 31
0.0
  0
LINE
  5
BB6
330
1F
100
AcDbEntity
  8
1
  6
CONTINUOUS
370
50
 62
4
100
AcDbLine
 10
43.350624
 20
3.164449
 30
0.0
 11
43.367619
 21
3.174394
 31
0.0
  0
LINE
  5
BB7
330
1F
100
AcDbEntity
  8
1
  6
CONTINUOUS
370
50
 62
4
100
AcDbLine
 10
79.523727
 20
-0.284687
 30
0.0
 11
79.80000299999999
 21
-0.119548
 31
0.0
  0
LINE
  5
BB8
330
1F
100
AcDbEntity
  8
1
  6
CONTINUOUS
370
50
 62
4
100
AcDbLine
 10
43.389309
 20
-2.84885
 30
0.0
 11
43.407883
 21
-2.837243
 31
0.0
  0
LINE
  5
BB9
330
1F
100
AcDbEntity
  8
1
  6
CONTINUOUS
370
50
 62
4
100
AcDbLine
 10
79.64244099999999
 20
1.865137
 30
0.0
 11
79.674416
 21
1.885638
 31
0.0
  0
LINE
  5
BBA
330
1F
100
AcDbEntity
  8
1
  6
CONTINUOUS
370
50
 62
4
100
AcDbLine
 10
43.371704
 20
-2.860896
 30
0.0
 11
43.389309
 21
-2.84885
 31
0.0
  0
LINE
  5
BBB
330
1F
100
AcDbEntity
  8
1
  6
CONTINUOUS
370
50
 62
4
100
AcDbLine
 10
43.335529
 20
3.153899
 30
0.0
 11
43.350624
 21
3.164449
 31
0.0
  0
LINE
  5
BBC
330
1F
100
AcDbEntity
  8
1
  6
CONTINUOUS
370
50
 62
4
100
AcDbLine
 10
43.355412
 20
-2.873322
 30
0.0
 11
43.371704
 21
-2.860896
 31
0.0
  0
LINE
  5
BBD
330
1F
100
AcDbEntity
  8
1
  6
CONTINUOUS
370
50
 62
4
100
AcDbLine
 10
79.674416
 20
1.885638
 30
0.0
 11
79.703392
 21
1.908918
 31
0.0
  0
LINE
  5
BBE
330
1F
100
AcDbEntity
  8
1
  6
CONTINUOUS
370
50
 62
4
100
AcDbLine
 10
43.340775
 20
-2.886067
 30
0.0
 11
43.355412
 21
-2.873322
 31
0.0
  0
LINE
  5
BBF
330
1F
100
AcDbEntity
  8
1
  6
CONTINUOUS
370
50
 62
4
100
AcDbLine
 10
43.322716
 20
3.142626
 30
0.0
 11
43.335529
 21
3.153899
 31
0.0
  0
LINE
  5
BC0
330
1F
100
AcDbEntity
  8
1
  6
CONTINUOUS
370
50
 62
4
100
AcDbLine
 10
43.328049
 20
-2.899186
 30
0.0
 11
43.340775
 21
-2.886067
 31
0.0
  0
LINE
  5
BC1
330
1F
100
AcDbEntity
  8
1
  6
CONTINUOUS
370
50
 62
4
100
AcDbLine
 10
79.703392
 20
1.908918
 30
0.0
 11
79.72773
 21
1.93504
 31
0.0
  0
LINE
  5
BC2
330
1F
100
AcDbEntity
  8
1
  6
CONTINUOUS
370
50
 62
4
100
AcDbLine
 10
43.312904
 20
3.130707
 30
0.0
 11
43.322716
 21
3.142626
 31
0.0
  0
LINE
  5
BC3
330
1F
100
AcDbEntity
  8
1
  6
CONTINUOUS
370
50
 62
4
100
AcDbLine
 10
43.317543
 20
-2.912804
 30
0.0
 11
43.328049
 21
-2.899186
 31
0.0
  0
LINE
  5
BC4
330
1F
100
AcDbEntity
  8
1
  6
CONTINUOUS
370
50
 62
4
100
AcDbLine
 10
79.72773
 20
1.93504
 30
0.0
 11
79.74574299999999
 21
1.964063
 31
0.0
  0
LINE
  5
BC5
330
1F
100
AcDbEntity
  8
1
  6
CONTINUOUS
370
50
 62
4
100
AcDbLine
 10
43.309887
 20
-2.926799
 30
0.0
 11
43.317543
 21
-2.912804
 31
0.0
  0
LINE
  5
BC6
330
1F
100
AcDbEntity
  8
1
  6
CONTINUOUS
370
50
 62
4
100
AcDbLine
 10
49.99991199999999
 20
-0.432405
 30
0.0
 11
49.999928
 21
-0.432375
 31
0.0
  0
LINE
  5
BC7
330
1F
100
AcDbEntity
  8
1
  6
CONTINUOUS
370
50
 62
4
100
AcDbLine
 10
49.999969
 20
-0.432286
 30
0.0
 11
49.999985
 21
-0.432256
 31
0.0
  0
LINE
  5
BC8
330
1F
100
AcDbEntity
  8
1
  6
CONTINUOUS
370
50
 62
4
100
AcDbLine
 10
49.99994299999999
 20
-0.432345
 30
0.0
 11
49.999958
 21
-0.432316
 31
0.0
  0
LINE
  5
BC9
330
1F
100
AcDbEntity
  8
1
  6
CONTINUOUS
370
50
 62
4
100
AcDbLine
 10
49.999928
 20
-0.432375
 30
0.0
 11
49.99994299999999
 21
-0.432345
 31
0.0
  0
LINE
  5
BCA
330
1F
100
AcDbEntity
  8
1
  6
CONTINUOUS
370
50
 62
4
100
AcDbLine
 10
49.999985
 20
-0.432256
 30
0.0
 11
50.0
 21
-0.432226
 31
0.0
  0
LINE
  5
BCB
330
1F
100
AcDbEntity
  8
1
  6
CONTINUOUS
370
50
 62
4
100
AcDbLine
 10
43.306835
 20
3.118258
 30
0.0
 11
43.312904
 21
3.130707
 31
0.0
  0
LINE
  5
BCC
330
1F
100
AcDbEntity
  8
1
  6
CONTINUOUS
370
50
 62
4
100
AcDbLine
 10
49.999958
 20
-0.432316
 30
0.0
 11
49.999969
 21
-0.432286
 31
0.0
  0
LINE
  5
BCD
330
1F
100
AcDbEntity
  8
1
  6
CONTINUOUS
370
50
 62
4
100
AcDbLine
 10
79.74574299999999
 20
1.964063
 30
0.0
 11
79.755562
 21
1.995517
 31
0.0
  0
LINE
  5
BCE
330
1F
100
AcDbEntity
  8
1
  6
CONTINUOUS
370
50
 62
4
100
AcDbLine
 10
43.305725
 20
-2.940973
 30
0.0
 11
43.309887
 21
-2.926799
 31
0.0
  0
LINE
  5
BCF
330
1F
100
AcDbEntity
  8
1
  6
CONTINUOUS
370
50
 62
4
100
AcDbLine
 10
43.30519899999999
 20
3.105437
 30
0.0
 11
43.306835
 21
3.118258
 31
0.0
  0
LINE
  5
BD0
330
1F
100
AcDbEntity
  8
1
  6
CONTINUOUS
370
50
 62
4
100
AcDbLine
 10
78.781357
 20
1.618255
 30
0.0
 11
78.78776599999999
 21
1.688486
 31
0.0
  0
LINE
  5
BD1
330
1F
100
AcDbEntity
  8
1
  6
CONTINUOUS
370
50
 62
4
100
AcDbLine
 10
78.778419
 20
1.543104
 30
0.0
 11
78.781357
 21
1.618255
 31
0.0
  0
LINE
  5
BD2
330
1F
100
AcDbEntity
  8
1
  6
CONTINUOUS
370
50
 62
4
100
AcDbLine
 10
79.755562
 20
1.995517
 30
0.0
 11
79.755951
 21
2.02781
 31
0.0
  0
LINE
  5
BD3
330
1F
100
AcDbEntity
  8
1
  6
CONTINUOUS
370
50
 62
4
100
AcDbLine
 10
43.305626
 20
-2.95506
 30
0.0
 11
43.305725
 21
-2.940973
 31
0.0
  0
LINE
  5
BD4
330
1F
100
AcDbEntity
  8
1
  6
CONTINUOUS
370
50
 62
4
100
AcDbLine
 10
40.0
 20
-4.99995
 30
0.0
 11
40.0
 21
4.99995
 31
0.0
  0
LINE
  5
BD5
330
1F
100
AcDbEntity
  8
1
  6
CONTINUOUS
370
50
 62
4
100
AcDbLine
 10
42.597988
 20
-3.5
 30
0.0
 11
42.597988
 21
3.5
 31
0.0
  0
LINE
  5
BD6
330
1F
100
AcDbEntity
  8
1
  6
CONTINUOUS
370
50
 62
4
100
AcDbLine
 10
49.99991199999999
 20
-1.75
 30
0.0
 11
49.99991199999999
 21
-0.432405
 31
0.0
  0
LINE
  5
BD7
330
1F
100
AcDbEntity
  8
1
  6
CONTINUOUS
370
50
 62
4
100
AcDbLine
 10
50.0
 20
-3.003184
 30
0.0
 11
50.0
 21
3.5
 31
0.0
  0
LINE
  5
BD8
330
1F
100
AcDbEntity
  8
1
  6
CONTINUOUS
370
50
 62
4
100
AcDbLine
 10
79.80000299999999
 20
-1.441455
 30
0.0
 11
79.80000299999999
 21
1.710965
 31
0.0
  0
LINE
  5
BD9
330
1F
100
AcDbEntity
  8
1
  6
CONTINUOUS
370
50
 62
4
100
AcDbLine
 10
79.972313
 20
-3.038742
 30
0.0
 11
79.972313
 21
-1.756638
 31
0.0
  0
LINE
  5
BDA
330
1F
100
AcDbEntity
  8
1
  6
CONTINUOUS
370
50
 62
4
100
AcDbLine
 10
80.0
 20
-3.183328
 30
0.0
 11
80.0
 21
-1.909997
 31
0.0
  0
LINE
  5
BDB
330
1F
100
AcDbEntity
  8
1
  6
CONTINUOUS
370
50
 62
4
100
AcDbLine
 10
80.0
 20
1.710931
 30
0.0
 11
80.0
 21
2.851552
 31
0.0
  0
LINE
  5
BDC
330
1F
100
AcDbEntity
  8
1
  6
CONTINUOUS
370
50
 62
4
100
AcDbLine
 10
80.0
 20
0.199066
 30
0.0
 11
80.0
 21
0.331776
 31
0.0
  0
ARC
  5
BDD
330
1F
100
AcDbEntity
  8
1
  6
CONTINUOUS
370
50
 62
4
100
AcDbCircle
 10
50.0
 20
-15.974356
 30
0.0
 40
12.971172
100
AcDbArc
 50
90.0
 51
103.5174210680349
  0
ARC
  5
BDE
330
1F
100
AcDbEntity
  8
1
  6
CONTINUOUS
370
50
 62
4
100
AcDbCircle
 10
50.0
 20
-15.974356
 30
0.0
 40
14.559331
100
AcDbArc
 50
112.240160453535
 51
117.1039388007648
  0
ELLIPSE
  5
BDF
330
1F
100
AcDbEntity
  8
1
  6
CONTINUOUS
370
50
 62
4
100
AcDbEllipse
 10
50.0
 20
9.982178
 30
0.0
 11
14.644356
 21
0.0
 31
0.0
210
0.0
220
0.0
230
1.0
 40
0.4999999999999999
 41
4.2870191854743
 42
4.71238898038469
  0
ELLIPSE
  5
BE0
330
1F
100
AcDbEntity
  8
1
  6
CONTINUOUS
370
50
 62
4
100
AcDbEllipse
 10
80.0
 20
0.0
 30
0.0
 11
-0.07685239216403517
 21
2.099990985648193
 31
0.0
210
0.0
220
0.0
230
1.0
 40
0.0794670037860326
 41
2.558741049067192
 42
2.71002076688312
  0
ELLIPSE
  5
BE1
330
1F
100
AcDbEntity
  8
1
  6
CONTINUOUS
370
50
 62
4
100
AcDbEllipse
 10
80.0
 20
0.0
 30
0.0
 11
0.1829112691200479
 21
2.099998976559487
 31
0.0
210
0.0
220
0.0
230
1.0
 40
0.0082309755498144
 41
1.476576536741246
 42
1.627857740816986
  0
ELLIPSE
  5
BE2
330
1F
100
AcDbEntity
  8
1
  6
CONTINUOUS
370
50
 62
4
100
AcDbEllipse
 10
80.0
 20
0.0
 30
0.0
 11
-1.075277030531389
 21
2.07993698421601
 31
0.0
210
0.0
220
0.0
230
0.9999999999999999
 40
0.2693158222723414
 41
0.4802627582520905
 42
1.569897287897743
  0
ELLIPSE
  5
BE3
330
1F
100
AcDbEntity
  8
1
  6
CONTINUOUS
370
50
 62
4
100
AcDbEllipse
 10
80.0
 20
0.0
 30
0.0
 11
-1.075308984431367
 21
2.079940008048835
 31
0.0
210
0.0
220
0.0
230
1.0
 40
0.2692855964398033
 41
0.4984066230338315
 42
1.575105979886763
  0
ELLIPSE
  5
BE4
330
1F
100
AcDbEntity
  8
1
  6
CONTINUOUS
370
50
 62
4
100
AcDbEllipse
 10
80.0
 20
0.0
 30
0.0
 11
-0.1280873207192099
 21
3.499984988262802
 31
0.0
210
0.0
220
0.0
230
1.0
 40
0.0794672006931073
 41
2.619476142806493
 42
2.710021708326732
  0
ELLIPSE
  5
BE5
330
1F
100
AcDbEntity
  8
1
  6
CONTINUOUS
370
50
 62
4
100
AcDbEllipse
 10
80.0
 20
0.0
 30
0.0
 11
-0.1784567318894902
 21
3.499977013670422
 31
0.0
210
0.0
220
0.0
230
1.0
 40
0.0710956026569492
 41
5.661025410023934
 42
5.751571054230336
  0
ELLIPSE
  5
BE6
330
1F
100
AcDbEntity
  8
1
  6
CONTINUOUS
370
50
 62
4
100
AcDbEllipse
 10
80.08749999999999
 20
0.0
 30
0.0
 11
-0.3551774492852572
 21
2.096868923898014
 31
0.0
210
0.0
220
0.0
230
0.9999999999999998
 40
0.3227679191375891
 41
1.65881747515148
 42
2.507032415489667
  0
ELLIPSE
  5
BE7
330
1F
100
AcDbEntity
  8
1
  6
CONTINUOUS
370
50
 62
4
100
AcDbEllipse
 10
80.08749999999999
 20
0.0
 30
0.0
 11
0.7616505603264726
 21
2.099871796762452
 31
0.0
210
0.0
220
0.0
230
1.0
 40
0.0304942491697962
 41
1.638200392695438
 42
1.872795479585747
  0
ELLIPSE
  5
BE8
330
1F
100
AcDbEntity
  8
1
  6
CONTINUOUS
370
50
 62
4
100
AcDbEllipse
 10
80.08749999999999
 20
0.0
 30
0.0
 11
-0.5919623149988313
 21
3.49478094664404
 31
0.0
210
0.0
220
0.0
230
0.9999999999999999
 40
0.3227678497917628
 41
2.430706844815306
 42
2.567766297506052
  0
ELLIPSE
  5
BE9
330
1F
100
AcDbEntity
  8
1
  6
CONTINUOUS
370
50
 62
4
100
AcDbEllipse
 10
80.08749999999999
 20
0.0
 30
0.0
 11
-0.8045642983453832
 21
3.492596931272346
 31
0.0
210
0.0
220
0.0
230
1.0
 40
0.2827887340229486
 41
5.690144213605934
 42
5.827203676487098
  0
LINE
  5
BEA
330
1F
100
AcDbEntity
  8
CUT
  6
CONTINUOUS
370
25
 62
1
100
AcDbLine
 10
50.0
 20
2.1
 30
0.0
 11
80.0
 21
2.1
 31
0.0
  0
LINE
  5
BEB
330
1F
100
AcDbEntity
  8
CUT
  6
CONTINUOUS
370
25
 62
1
100
AcDbLine
 10
80.0
 20
2.1
 30
0.0
 11
80.0
 21
3.5
 31
0.0
  0
LINE
  5
BEC
330
1F
100
AcDbEntity
  8
CUT
  6
CONTINUOUS
370
25
 62
1
100
AcDbLine
 10
80.0
 20
3.5
 30
0.0
 11
50.0
 21
3.5
 31
0.0
  0
LINE
  5
BED
330
1F
100
AcDbEntity
  8
CUT
  6
CONTINUOUS
370
25
 62
1
100
AcDbLine
 10
50.0
 20
3.5
 30
0.0
 11
50.0
 21
2.1
 31
0.0
  0
LINE
  5
BEE
330
1F
100
AcDbEntity
  8
NOCUT
  6
CONTINUOUS
370
25
 62
7
100
AcDbLine
 10
40.0
 20
0.0
 30
0.0
 11
79.8
 21
0.0
 31
0.0
  0
LINE
  5
BEF
330
1F
100
AcDbEntity
  8
NOCUT
  6
CONTINUOUS
370
25
 62
7
100
AcDbLine
 10
79.8
 20
0.0
 30
0.0
 11
79.8
 21
2.1
 31
0.0
  0
LINE
  5
BF0
330
1F
100
AcDbEntity
  8
NOCUT
  6
CONTINUOUS
370
25
 62
7
100
AcDbLine
 10
79.8
 20
2.1
 30
0.0
 11
50.0
 21
2.1
 31
0.0
  0
LINE
  5
BF1
330
1F
100
AcDbEntity
  8
NOCUT
  6
CONTINUOUS
370
25
 62
7
100
AcDbLine
 10
50.0
 20
2.1
 30
0.0
 11
50.0
 21
3.49995
 31
0.0
  0
LINE
  5
BF2
330
1F
100
AcDbEntity
  8
NOCUT
  6
CONTINUOUS
370
25
 62
7
100
AcDbLine
 10
50.0
 20
3.49995
 30
0.0
 11
49.99991339745962
 21
3.5
 31
0.0
  0
LINE
  5
BF3
330
1F
100
AcDbEntity
  8
NOCUT
  6
CONTINUOUS
370
25
 62
7
100
AcDbLine
 10
49.99991339745962
 20
3.5
 30
0.0
 11
42.59798960881294
 21
3.5
 31
0.0
  0
LINE
  5
BF4
330
1F
100
AcDbEntity
  8
NOCUT
  6
CONTINUOUS
370
25
 62
7
100
AcDbLine
 10
42.59798960881294
 20
3.5
 30
0.0
 11
40.0
 21
4.99995
 31
0.0
  0
LINE
  5
BF5
330
1F
100
AcDbEntity
  8
NOCUT
  6
CONTINUOUS
370
25
 62
7
100
AcDbLine
 10
40.0
 20
4.99995
 30
0.0
 11
40.0
 21
0.0
 31
0.0
  0
LINE
  5
BF6
330
1F
100
AcDbEntity
  8
SK1
  6
CONTINUOUS
370
50
 62
4
100
AcDbLine
 10
40.0
 20
5.0
 30
0.0
 11
1.0
 21
5.0
 31
0.0
  0
LINE
  5
BF7
330
1F
100
AcDbEntity
  8
SK1
  6
CONTINUOUS
370
50
 62
4
100
AcDbLine
 10
1.0
 20
5.0
 30
0.0
 11
0.0
 21
4.422649730810375
 31
0.0
  0
LINE
  5
BF8
330
1F
100
AcDbEntity
  8
SK1
  6
CONTINUOUS
370
50
 62
4
100
AcDbLine
 10
0.0
 20
4.422649730810375
 30
0.0
 11
0.0
 21
-4.422649730810375
 31
0.0
  0
LINE
  5
BF9
330
1F
100
AcDbEntity
  8
SK1
  6
CONTINUOUS
370
50
 62
4
100
AcDbLine
 10
0.0
 20
-4.422649730810375
 30
0.0
 11
1.0
 21
-5.0
 31
0.0
  0
LINE
  5
BFA
330
1F
100
AcDbEntity
  8
SK1
  6
CONTINUOUS
370
50
 62
4
100
AcDbLine
 10
1.0
 20
-5.0
 30
0.0
 11
40.0
 21
-5.0
 31
0.0
  0
LINE
  5
BFB
330
1F
100
AcDbEntity
  8
SK1
  6
CONTINUOUS
370
50
 62
4
100
AcDbLine
 10
16.5
 20
-3.666060555964672
 30
0.0
 11
16.5
 21
3.666060555964672
 31
0.0
  0
LINE
  5
BFC
330
1F
100
AcDbEntity
  8
SK1
  6
CONTINUOUS
370
50
 62
4
100
AcDbLine
 10
16.5
 20
3.666060555964672
 30
0.0
 11
23.5
 21
3.666060555964672
 31
0.0
  0
LINE
  5
BFD
330
1F
100
AcDbEntity
  8
SK1
  6
CONTINUOUS
370
50
 62
4
100
AcDbLine
 10
23.5
 20
3.666060555964672
 30
0.0
 11
23.5
 21
-3.666060555964672
 31
0.0
  0
LINE
  5
BFE
330
1F
100
AcDbEntity
  8
SK1
  6
CONTINUOUS
370
50
 62
4
100
AcDbLine
 10
23.5
 20
-3.666060555964672
 30
0.0
 11
16.5
 21
-3.666060555964672
 31
0.0
  0
ARC
  5
BFF
330
1F
100
AcDbEntity
  8
SK1
  6
CONTINUOUS
370
50
 62
4
100
AcDbCircle
 10
19.9
 20
0.0
 30
0.0
 40
5.000000000000002
100
AcDbArc
 50
132.8436430435964
 51
227.1563569564036
  0
ARC
  5
C00
330
1F
100
AcDbEntity
  8
SK1
  6
CONTINUOUS
370
50
 62
4
100
AcDbCircle
 10
20.1
 20
0.0
 30
0.0
 40
5.000000000000002
100
AcDbArc
 50
312.8436430435963
 51
47.15635695640365
  0
LINE
  5
C01
330
1F
100
AcDbEntity
  8
SK2
  6
CONTINUOUS
370
25
 62
7
100
AcDbLine
 10
0.0
 20
4.076239569999999
 30
0.0
 11
0.0
 21
16.00001
 31
0.0
  0
LINE
  5
C02
330
1F
100
AcDbEntity
  8
SK2
  6
CONTINUOUS
370
25
 62
7
100
AcDbLine
 10
40.0
 20
16.00001
 30
0.0
 11
40.0
 21
5.0
 31
0.0
  0
LINE
  5
C03
330
1F
100
AcDbEntity
  8
SK2
  6
CONTINUOUS
370
25
 62
7
100
AcDbLine
 10
0.0
 20
15.00001
 30
0.0
 11
40.0
 21
15.00001
 31
0.0
  0
LINE
  5
C04
330
1F
100
AcDbEntity
  8
SK2
  6
CONTINUOUS
370
25
 62
7
100
AcDbLine
 10
0.0
 20
15.00001
 30
0.0
 11
5.0
 21
16.00001
 31
0.0
  0
LINE
  5
C05
330
1F
100
AcDbEntity
  8
SK2
  6
CONTINUOUS
370
25
 62
7
100
AcDbLine
 10
5.0
 20
16.00001
 30
0.0
 11
5.0
 21
14.00001
 31
0.0
  0
LINE
  5
C06
330
1F
100
AcDbEntity
  8
SK2
  6
CONTINUOUS
370
25
 62
7
100
AcDbLine
 10
5.0
 20
14.00001
 30
0.0
 11
0.0
 21
15.00001
 31
0.0
  0
LINE
  5
C07
330
1F
100
AcDbEntity
  8
SK2
  6
CONTINUOUS
370
25
 62
7
100
AcDbLine
 10
4.821148357846937
 20
14.03578032843061
 30
0.0
 11
5.0
 21
14.21463197058367
 31
0.0
  0
LINE
  5
C08
330
1F
100
AcDbEntity
  8
SK2
  6
CONTINUOUS
370
25
 62
7
100
AcDbLine
 10
4.46759496725366
 20
14.10649100654928
 30
0.0
 11
5.0
 21
14.63889603929561
 31
0.0
  0
LINE
  5
C09
330
1F
100
AcDbEntity
  8
SK2
  6
CONTINUOUS
370
25
 62
7
100
AcDbLine
 10
4.114041576660377
 20
14.17720168466792
 30
0.0
 11
5.0
 21
15.06316010800754
 31
0.0
  0
LINE
  5
C0A
330
1F
100
AcDbEntity
  8
SK2
  6
CONTINUOUS
370
25
 62
7
100
AcDbLine
 10
3.760488186067107
 20
14.24791236278658
 30
0.0
 11
5.0
 21
15.48742417671946
 31
0.0
  0
LINE
  5
C0B
330
1F
100
AcDbEntity
  8
SK2
  6
CONTINUOUS
370
25
 62
7
100
AcDbLine
 10
3.406934795473838
 20
14.31862304090524
 30
0.0
 11
5.0
 21
15.9116882454314
 31
0.0
  0
LINE
  5
C0C
330
1F
100
AcDbEntity
  8
SK2
  6
CONTINUOUS
370
25
 62
7
100
AcDbLine
 10
3.053381404880554
 20
14.38933371902389
 30
0.0
 11
4.580072107320838
 21
15.91602442146417
 31
0.0
  0
LINE
  5
C0D
330
1F
100
AcDbEntity
  8
SK2
  6
CONTINUOUS
370
25
 62
7
100
AcDbLine
 10
2.699828014287284
 20
14.46004439714255
 30
0.0
 11
4.049742021430923
 21
15.80995840428618
 31
0.0
  0
LINE
  5
C0E
330
1F
100
AcDbEntity
  8
SK2
  6
CONTINUOUS
370
25
 62
7
100
AcDbLine
 10
2.346274623694008
 20
14.5307550752612
 30
0.0
 11
3.519411935541001
 21
15.7038923871082
 31
0.0
  0
LINE
  5
C0F
330
1F
100
AcDbEntity
  8
SK2
  6
CONTINUOUS
370
25
 62
7
100
AcDbLine
 10
1.992721233100724
 20
14.60146575337986
 30
0.0
 11
2.989081849651086
 21
15.59782636993022
 31
0.0
  0
LINE
  5
C10
330
1F
100
AcDbEntity
  8
SK2
  6
CONTINUOUS
370
25
 62
7
100
AcDbLine
 10
1.639167842507455
 20
14.67217643149851
 30
0.0
 11
2.458751763761178
 21
15.49176035275223
 31
0.0
  0
LINE
  5
C11
330
1F
100
AcDbEntity
  8
SK2
  6
CONTINUOUS
370
25
 62
7
100
AcDbLine
 10
1.285614451914178
 20
14.74288710961717
 30
0.0
 11
1.928421677871256
 21
15.38569433557424
 31
0.0
  0
LINE
  5
C12
330
1F
100
AcDbEntity
  8
SK2
  6
CONTINUOUS
370
25
 62
7
100
AcDbLine
 10
0.9320610613209013
 20
14.81359778773582
 30
0.0
 11
1.398091591981348
 21
15.27962831839627
 31
0.0
  0
LINE
  5
C13
330
1F
100
AcDbEntity
  8
SK2
  6
CONTINUOUS
370
25
 62
7
100
AcDbLine
 10
0.5785076707276318
 20
14.88430846585448
 30
0.0
 11
0.8677615060914334
 21
15.17356230121828
 31
0.0
  0
LINE
  5
C14
330
1F
100
AcDbEntity
  8
SK2
  6
CONTINUOUS
370
25
 62
7
100
AcDbLine
 10
0.224954280134348
 20
14.95501914397313
 30
0.0
 11
0.3374314202015114
 21
15.0674962840403
 31
0.0
  0
LINE
  5
C15
330
1F
100
AcDbEntity
  8
SK2
  6
CONTINUOUS
370
25
 62
7
100
AcDbLine
 10
0.0402901191755163
 20
15.0080680238351
 30
0.0
 11
0.060435178763278
 21
14.98792296424734
 31
0.0
  0
LINE
  5
C16
330
1F
100
AcDbEntity
  8
SK2
  6
CONTINUOUS
370
25
 62
7
100
AcDbLine
 10
0.3938435097687858
 20
15.07877870195377
 30
0.0
 11
0.5907652646531929
 21
14.88185694706936
 31
0.0
  0
LINE
  5
C17
330
1F
100
AcDbEntity
  8
SK2
  6
CONTINUOUS
370
25
 62
7
100
AcDbLine
 10
0.7473969003620695
 20
15.14948938007241
 30
0.0
 11
1.121095350543108
 21
14.77579092989138
 31
0.0
  0
LINE
  5
C18
330
1F
100
AcDbEntity
  8
SK2
  6
CONTINUOUS
370
25
 62
7
100
AcDbLine
 10
1.100950290955346
 20
15.22020005819107
 30
0.0
 11
1.651425436433023
 21
14.66972491271339
 31
0.0
  0
LINE
  5
C19
330
1F
100
AcDbEntity
  8
SK2
  6
CONTINUOUS
370
25
 62
7
100
AcDbLine
 10
1.454503681548623
 20
15.29091073630972
 30
0.0
 11
2.181755522322938
 21
14.56365889553541
 31
0.0
  0
LINE
  5
C1A
330
1F
100
AcDbEntity
  8
SK2
  6
CONTINUOUS
370
25
 62
7
100
AcDbLine
 10
1.808057072141892
 20
15.36162141442838
 30
0.0
 11
2.712085608212853
 21
14.45759287835742
 31
0.0
  0
LINE
  5
C1B
330
1F
100
AcDbEntity
  8
SK2
  6
CONTINUOUS
370
25
 62
7
100
AcDbLine
 10
2.161610462735176
 20
15.43233209254703
 30
0.0
 11
3.242415694102768
 21
14.35152686117944
 31
0.0
  0
LINE
  5
C1C
330
1F
100
AcDbEntity
  8
SK2
  6
CONTINUOUS
370
25
 62
7
100
AcDbLine
 10
2.515163853328453
 20
15.50304277066569
 30
0.0
 11
3.772745779992682
 21
14.24546084400146
 31
0.0
  0
LINE
  5
C1D
330
1F
100
AcDbEntity
  8
SK2
  6
CONTINUOUS
370
25
 62
7
100
AcDbLine
 10
2.868717243921722
 20
15.57375344878435
 30
0.0
 11
4.303075865882597
 21
14.13939482682347
 31
0.0
  0
LINE
  5
C1E
330
1F
100
AcDbEntity
  8
SK2
  6
CONTINUOUS
370
25
 62
7
100
AcDbLine
 10
3.222270634514999
 20
15.644464126903
 30
0.0
 11
4.833405951772498
 21
14.0333288096455
 31
0.0
  0
LINE
  5
C1F
330
1F
100
AcDbEntity
  8
SK2
  6
CONTINUOUS
370
25
 62
7
100
AcDbLine
 10
3.575824025108282
 20
15.71517480502165
 30
0.0
 11
5.0
 21
14.29099883012993
 31
0.0
  0
LINE
  5
C20
330
1F
100
AcDbEntity
  8
SK2
  6
CONTINUOUS
370
25
 62
7
100
AcDbLine
 10
3.929377415701552
 20
15.78588548314031
 30
0.0
 11
5.0
 21
14.71526289884186
 31
0.0
  0
LINE
  5
C21
330
1F
100
AcDbEntity
  8
SK2
  6
CONTINUOUS
370
25
 62
7
100
AcDbLine
 10
4.282930806294821
 20
15.85659616125897
 30
0.0
 11
5.0
 21
15.13952696755379
 31
0.0
  0
LINE
  5
C22
330
1F
100
AcDbEntity
  8
SK2
  6
CONTINUOUS
370
25
 62
7
100
AcDbLine
 10
4.636484196888091
 20
15.92730683937762
 30
0.0
 11
5.0
 21
15.56379103626571
 31
0.0
  0
LINE
  5
C23
330
1F
100
AcDbEntity
  8
SK2
  6
CONTINUOUS
370
25
 62
7
100
AcDbLine
 10
4.990037587481368
 20
15.99801751749628
 30
0.0
 11
5.0
 21
15.98805510497764
 31
0.0
  0
LINE
  5
C24
330
1F
100
AcDbEntity
  8
SK2
  6
CONTINUOUS
370
25
 62
7
100
AcDbLine
 10
40.0
 20
15.00001
 30
0.0
 11
35.0
 21
14.00001
 31
0.0
  0
LINE
  5
C25
330
1F
100
AcDbEntity
  8
SK2
  6
CONTINUOUS
370
25
 62
7
100
AcDbLine
 10
35.0
 20
14.00001
 30
0.0
 11
35.0
 21
16.00001
 31
0.0
  0
LINE
  5
C26
330
1F
100
AcDbEntity
  8
SK2
  6
CONTINUOUS
370
25
 62
7
100
AcDbLine
 10
35.0
 20
16.00001
 30
0.0
 11
40.0
 21
15.00001
 31
0.0
  0
LINE
  5
C27
330
1F
100
AcDbEntity
  8
SK2
  6
CONTINUOUS
370
25
 62
7
100
AcDbLine
 10
39.65812940796322
 20
14.93163588159264
 30
0.0
 11
39.77208627197548
 21
15.0455927456049
 31
0.0
  0
LINE
  5
C28
330
1F
100
AcDbEntity
  8
SK2
  6
CONTINUOUS
370
25
 62
7
100
AcDbLine
 10
39.12779932207331
 20
14.82556986441466
 30
0.0
 11
39.41853288138221
 21
15.11630342372356
 31
0.0
  0
LINE
  5
C29
330
1F
100
AcDbEntity
  8
SK2
  6
CONTINUOUS
370
25
 62
7
100
AcDbLine
 10
38.5974692361834
 20
14.71950384723668
 30
0.0
 11
39.06497949078894
 21
15.18701410184221
 31
0.0
  0
LINE
  5
C2A
330
1F
100
AcDbEntity
  8
SK2
  6
CONTINUOUS
370
25
 62
7
100
AcDbLine
 10
38.06713915029349
 20
14.6134378300587
 30
0.0
 11
38.71142610019566
 21
15.25772477996087
 31
0.0
  0
LINE
  5
C2B
330
1F
100
AcDbEntity
  8
SK2
  6
CONTINUOUS
370
25
 62
7
100
AcDbLine
 10
37.53680906440358
 20
14.50737181288072
 30
0.0
 11
38.35787270960239
 21
15.32843545807952
 31
0.0
  0
LINE
  5
C2C
330
1F
100
AcDbEntity
  8
SK2
  6
CONTINUOUS
370
25
 62
7
100
AcDbLine
 10
37.00647897851367
 20
14.40130579570273
 30
0.0
 11
38.00431931900911
 21
15.39914613619818
 31
0.0
  0
LINE
  5
C2D
330
1F
100
AcDbEntity
  8
SK2
  6
CONTINUOUS
370
25
 62
7
100
AcDbLine
 10
36.47614889262376
 20
14.29523977852475
 30
0.0
 11
37.65076592841584
 21
15.46985681431683
 31
0.0
  0
LINE
  5
C2E
330
1F
100
AcDbEntity
  8
SK2
  6
CONTINUOUS
370
25
 62
7
100
AcDbLine
 10
35.94581880673385
 20
14.18917376134677
 30
0.0
 11
37.29721253782257
 21
15.54056749243549
 31
0.0
  0
LINE
  5
C2F
330
1F
100
AcDbEntity
  8
SK2
  6
CONTINUOUS
370
25
 62
7
100
AcDbLine
 10
35.41548872084394
 20
14.08310774416879
 30
0.0
 11
36.94365914722929
 21
15.61127817055414
 31
0.0
  0
LINE
  5
C30
330
1F
100
AcDbEntity
  8
SK2
  6
CONTINUOUS
370
25
 62
7
100
AcDbLine
 10
35.0
 20
14.09188309203677
 30
0.0
 11
36.59010575663602
 21
15.68198884867279
 31
0.0
  0
LINE
  5
C31
330
1F
100
AcDbEntity
  8
SK2
  6
CONTINUOUS
370
25
 62
7
100
AcDbLine
 10
35.0
 20
14.5161471607487
 30
0.0
 11
36.23655236604274
 21
15.75269952679145
 31
0.0
  0
LINE
  5
C32
330
1F
100
AcDbEntity
  8
SK2
  6
CONTINUOUS
370
25
 62
7
100
AcDbLine
 10
35.0
 20
14.94041122946063
 30
0.0
 11
35.88299897544947
 21
15.8234102049101
 31
0.0
  0
LINE
  5
C33
330
1F
100
AcDbEntity
  8
SK2
  6
CONTINUOUS
370
25
 62
7
100
AcDbLine
 10
35.0
 20
15.36467529817256
 30
0.0
 11
35.52944558485621
 21
15.89412088302876
 31
0.0
  0
LINE
  5
C34
330
1F
100
AcDbEntity
  8
SK2
  6
CONTINUOUS
370
25
 62
7
100
AcDbLine
 10
35.0
 20
15.78893936688448
 30
0.0
 11
35.17589219426293
 21
15.96483156114741
 31
0.0
  0
LINE
  5
C35
330
1F
100
AcDbEntity
  8
SK2
  6
CONTINUOUS
370
25
 62
7
100
AcDbLine
 10
35.0
 20
14.3338095116624
 30
0.0
 11
35.27816625971867
 21
14.05564325194373
 31
0.0
  0
LINE
  5
C36
330
1F
100
AcDbEntity
  8
SK2
  6
CONTINUOUS
370
25
 62
7
100
AcDbLine
 10
35.0
 20
14.75807358037433
 30
0.0
 11
35.63171965031194
 21
14.12635393006239
 31
0.0
  0
LINE
  5
C37
330
1F
100
AcDbEntity
  8
SK2
  6
CONTINUOUS
370
25
 62
7
100
AcDbLine
 10
35.0
 20
15.18233764908626
 30
0.0
 11
35.98527304090521
 21
14.19706460818104
 31
0.0
  0
LINE
  5
C38
330
1F
100
AcDbEntity
  8
SK2
  6
CONTINUOUS
370
25
 62
7
100
AcDbLine
 10
35.0
 20
15.60660171779818
 30
0.0
 11
36.33882643149849
 21
14.2677752862997
 31
0.0
  0
LINE
  5
C39
330
1F
100
AcDbEntity
  8
SK2
  6
CONTINUOUS
370
25
 62
7
100
AcDbLine
 10
35.03856973313764
 20
15.99229605337247
 30
0.0
 11
36.69237982209176
 21
14.33848596441835
 31
0.0
  0
LINE
  5
C3A
330
1F
100
AcDbEntity
  8
SK2
  6
CONTINUOUS
370
25
 62
7
100
AcDbLine
 10
35.56889981902755
 20
15.88623003619449
 30
0.0
 11
37.04593321268504
 21
14.40919664253701
 31
0.0
  0
LINE
  5
C3B
330
1F
100
AcDbEntity
  8
SK2
  6
CONTINUOUS
370
25
 62
7
100
AcDbLine
 10
36.09922990491746
 20
15.78016401901651
 30
0.0
 11
37.39948660327831
 21
14.47990732065566
 31
0.0
  0
LINE
  5
C3C
330
1F
100
AcDbEntity
  8
SK2
  6
CONTINUOUS
370
25
 62
7
100
AcDbLine
 10
36.62955999080737
 20
15.67409800183852
 30
0.0
 11
37.75303999387158
 21
14.55061799877432
 31
0.0
  0
LINE
  5
C3D
330
1F
100
AcDbEntity
  8
SK2
  6
CONTINUOUS
370
25
 62
7
100
AcDbLine
 10
37.15989007669728
 20
15.56803198466054
 30
0.0
 11
38.10659338446486
 21
14.62132867689297
 31
0.0
  0
LINE
  5
C3E
330
1F
100
AcDbEntity
  8
SK2
  6
CONTINUOUS
370
25
 62
7
100
AcDbLine
 10
37.69022016258719
 20
15.46196596748256
 30
0.0
 11
38.46014677505813
 21
14.69203935501162
 31
0.0
  0
LINE
  5
C3F
330
1F
100
AcDbEntity
  8
SK2
  6
CONTINUOUS
370
25
 62
7
100
AcDbLine
 10
38.2205502484771
 20
15.35589995030458
 30
0.0
 11
38.8137001656514
 21
14.76275003313028
 31
0.0
  0
LINE
  5
C40
330
1F
100
AcDbEntity
  8
SK2
  6
CONTINUOUS
370
25
 62
7
100
AcDbLine
 10
38.75088033436701
 20
15.2498339331266
 30
0.0
 11
39.16725355624467
 21
14.83346071124894
 31
0.0
  0
LINE
  5
C41
330
1F
100
AcDbEntity
  8
SK2
  6
CONTINUOUS
370
25
 62
7
100
AcDbLine
 10
39.28121042025693
 20
15.14376791594862
 30
0.0
 11
39.52080694683795
 21
14.90417138936759
 31
0.0
  0
LINE
  5
C42
330
1F
100
AcDbEntity
  8
SK2
  6
CONTINUOUS
370
25
 62
7
100
AcDbLine
 10
39.81154050614683
 20
15.03770189877063
 30
0.0
 11
39.87436033743123
 21
14.97488206748625
 31
0.0
  0
TEXT
  5
C43
330
1F
100
AcDbEntity
  8
SK2
  6
CONTINUOUS
370
25
 62
7
100
AcDbText
 10
17.375
 20
16.00001
 30
0.0
 40
3.5
  1
40
 72
     1
 11
20.0
 21
16.00001
 31
0.0
100
AcDbText
  0
LINE
  5
C44
330
1F
100
AcDbEntity
  8
SK2
  6
CONTINUOUS
370
25
 62
7
100
AcDbLine
 10
-10.0000002
 20
-5.000001
 30
0.0
 11
-11.00000000000009
 21
-5.000001
 31
0.0
  0
LINE
  5
C45
330
1F
100
AcDbEntity
  8
SK2
  6
CONTINUOUS
370
25
 62
7
100
AcDbLine
 10
0.0
 20
-5.000001
 30
0.0
 11
-9.999999800000001
 21
-5.000001
 31
0.0
  0
LINE
  5
C46
330
1F
100
AcDbEntity
  8
SK2
  6
CONTINUOUS
370
25
 62
7
100
AcDbLine
 10
-11.0
 20
5.0
 30
0.0
 11
0.0
 21
5.0
 31
0.0
  0
LINE
  5
C47
330
1F
100
AcDbEntity
  8
SK2
  6
CONTINUOUS
370
25
 62
7
100
AcDbLine
 10
-10.0
 20
-23.475
 30
0.0
 11
-10.0
 21
15.0
 31
0.0
  0
LINE
  5
C48
330
1F
100
AcDbEntity
  8
SK2
  6
CONTINUOUS
370
25
 62
7
100
AcDbLine
 10
-10.0
 20
-5.0
 30
0.0
 11
-9.0
 21
-10.0
 31
0.0
  0
LINE
  5
C49
330
1F
100
AcDbEntity
  8
SK2
  6
CONTINUOUS
370
25
 62
7
100
AcDbLine
 10
-9.0
 20
-10.0
 30
0.0
 11
-11.0
 21
-10.0
 31
0.0
  0
LINE
  5
C4A
330
1F
100
AcDbEntity
  8
SK2
  6
CONTINUOUS
370
25
 62
7
100
AcDbLine
 10
-11.0
 20
-10.0
 30
0.0
 11
-10.0
 21
-5.0
 31
0.0
  0
LINE
  5
C4B
330
1F
100
AcDbEntity
  8
SK2
  6
CONTINUOUS
370
25
 62
7
100
AcDbLine
 10
-9.03229432149736
 20
-10.0
 30
0.0
 11
-9.005382386916231
 21
-9.973088065418871
 31
0.0
  0
LINE
  5
C4C
330
1F
100
AcDbEntity
  8
SK2
  6
CONTINUOUS
370
25
 62
7
100
AcDbLine
 10
-9.456558390209295
 20
-10.0
 30
0.0
 11
-9.076093065034883
 21
-9.619534674825587
 31
0.0
  0
LINE
  5
C4D
330
1F
100
AcDbEntity
  8
SK2
  6
CONTINUOUS
370
25
 62
7
100
AcDbLine
 10
-9.88082245892123
 20
-10.0
 30
0.0
 11
-9.146803743153534
 21
-9.265981284232303
 31
0.0
  0
LINE
  5
C4E
330
1F
100
AcDbEntity
  8
SK2
  6
CONTINUOUS
370
25
 62
7
100
AcDbLine
 10
-10.30508652763316
 20
-10.0
 30
0.0
 11
-9.217514421272192
 21
-8.912427893639034
 31
0.0
  0
LINE
  5
C4F
330
1F
100
AcDbEntity
  8
SK2
  6
CONTINUOUS
370
25
 62
7
100
AcDbLine
 10
-10.72935059634509
 20
-10.0
 30
0.0
 11
-9.288225099390843
 21
-8.558874503045757
 31
0.0
  0
LINE
  5
C50
330
1F
100
AcDbEntity
  8
SK2
  6
CONTINUOUS
370
25
 62
7
100
AcDbLine
 10
-10.96159633373574
 20
-9.807981668678721
 30
0.0
 11
-9.358935777509508
 21
-8.205321112452488
 31
0.0
  0
LINE
  5
C51
330
1F
100
AcDbEntity
  8
SK2
  6
CONTINUOUS
370
25
 62
7
100
AcDbLine
 10
-10.85553031655776
 20
-9.277651582788806
 30
0.0
 11
-9.42964645562816
 21
-7.851767721859204
 31
0.0
  0
LINE
  5
C52
330
1F
100
AcDbEntity
  8
SK2
  6
CONTINUOUS
370
25
 62
7
100
AcDbLine
 10
-10.74946429937977
 20
-8.747321496898891
 30
0.0
 11
-9.50035713374681
 21
-7.498214331265928
 31
0.0
  0
LINE
  5
C53
330
1F
100
AcDbEntity
  8
SK2
  6
CONTINUOUS
370
25
 62
7
100
AcDbLine
 10
-10.64339828220179
 20
-8.216991411008976
 30
0.0
 11
-9.571067811865476
 21
-7.144660940672658
 31
0.0
  0
LINE
  5
C54
330
1F
100
AcDbEntity
  8
SK2
  6
CONTINUOUS
370
25
 62
7
100
AcDbLine
 10
-10.53733226502381
 20
-7.686661325119069
 30
0.0
 11
-9.641778489984127
 21
-6.791107550079381
 31
0.0
  0
LINE
  5
C55
330
1F
100
AcDbEntity
  8
SK2
  6
CONTINUOUS
370
25
 62
7
100
AcDbLine
 10
-10.43126624784583
 20
-7.156331239229161
 30
0.0
 11
-9.712489168102785
 21
-6.437554159486112
 31
0.0
  0
LINE
  5
C56
330
1F
100
AcDbEntity
  8
SK2
  6
CONTINUOUS
370
25
 62
7
100
AcDbLine
 10
-10.32520023066785
 20
-6.626001153339246
 30
0.0
 11
-9.783199846221436
 21
-6.084000768892828
 31
0.0
  0
LINE
  5
C57
330
1F
100
AcDbEntity
  8
SK2
  6
CONTINUOUS
370
25
 62
7
100
AcDbLine
 10
-10.21913421348987
 20
-6.095671067449324
 30
0.0
 11
-9.853910524340087
 21
-5.730447378299544
 31
0.0
  0
LINE
  5
C58
330
1F
100
AcDbEntity
  8
SK2
  6
CONTINUOUS
370
25
 62
7
100
AcDbLine
 10
-10.11306819631189
 20
-5.565340981559416
 30
0.0
 11
-9.924621202458745
 21
-5.376893987706275
 31
0.0
  0
LINE
  5
C59
330
1F
100
AcDbEntity
  8
SK2
  6
CONTINUOUS
370
25
 62
7
100
AcDbLine
 10
-10.00700217913391
 20
-5.035010895669508
 30
0.0
 11
-9.995331880577396
 21
-5.023340597112998
 31
0.0
  0
LINE
  5
C5A
330
1F
100
AcDbEntity
  8
SK2
  6
CONTINUOUS
370
25
 62
7
100
AcDbLine
 10
-10.9310453818872
 20
-9.655226909436024
 30
0.0
 11
-10.58627229132323
 21
-10.0
 31
0.0
  0
LINE
  5
C5B
330
1F
100
AcDbEntity
  8
SK2
  6
CONTINUOUS
370
25
 62
7
100
AcDbLine
 10
-10.86033470376855
 20
-9.30167351884274
 30
0.0
 11
-10.16200822261129
 21
-10.0
 31
0.0
  0
LINE
  5
C5C
330
1F
100
AcDbEntity
  8
SK2
  6
CONTINUOUS
370
25
 62
7
100
AcDbLine
 10
-10.78962402564989
 20
-8.948120128249471
 30
0.0
 11
-9.737744153899364
 21
-10.0
 31
0.0
  0
LINE
  5
C5D
330
1F
100
AcDbEntity
  8
SK2
  6
CONTINUOUS
370
25
 62
7
100
AcDbLine
 10
-10.71891334753124
 20
-8.594566737656187
 30
0.0
 11
-9.313480085187429
 21
-10.0
 31
0.0
  0
LINE
  5
C5E
330
1F
100
AcDbEntity
  8
SK2
  6
CONTINUOUS
370
25
 62
7
100
AcDbLine
 10
-10.64820266941259
 20
-8.24101334706291
 30
0.0
 11
-9.027695995881125
 21
-9.861520020594376
 31
0.0
  0
LINE
  5
C5F
330
1F
100
AcDbEntity
  8
SK2
  6
CONTINUOUS
370
25
 62
7
100
AcDbLine
 10
-10.57749199129393
 20
-7.887459956469634
 30
0.0
 11
-9.133762013059112
 21
-9.331189934704454
 31
0.0
  0
LINE
  5
C60
330
1F
100
AcDbEntity
  8
SK2
  6
CONTINUOUS
370
25
 62
7
100
AcDbLine
 10
-10.50678131317528
 20
-7.533906565876357
 30
0.0
 11
-9.239828030237092
 21
-8.800859848814547
 31
0.0
  0
LINE
  5
C61
330
1F
100
AcDbEntity
  8
SK2
  6
CONTINUOUS
370
25
 62
7
100
AcDbLine
 10
-10.43607063505662
 20
-7.180353175283088
 30
0.0
 11
-9.34589404741508
 21
-8.270529762924625
 31
0.0
  0
LINE
  5
C62
330
1F
100
AcDbEntity
  8
SK2
  6
CONTINUOUS
370
25
 62
7
100
AcDbLine
 10
-10.36535995693797
 20
-6.826799784689804
 30
0.0
 11
-9.45196006459306
 21
-7.74019967703471
 31
0.0
  0
LINE
  5
C63
330
1F
100
AcDbEntity
  8
SK2
  6
CONTINUOUS
370
25
 62
7
100
AcDbLine
 10
-10.29464927881931
 20
-6.473246394096535
 30
0.0
 11
-9.558026081771047
 21
-7.209869591144795
 31
0.0
  0
LINE
  5
C64
330
1F
100
AcDbEntity
  8
SK2
  6
CONTINUOUS
370
25
 62
7
100
AcDbLine
 10
-10.22393860070065
 20
-6.119693003503258
 30
0.0
 11
-9.664092098949027
 21
-6.67953950525488
 31
0.0
  0
LINE
  5
C65
330
1F
100
AcDbEntity
  8
SK2
  6
CONTINUOUS
370
25
 62
7
100
AcDbLine
 10
-10.153227922582
 20
-5.766139612909981
 30
0.0
 11
-9.770158116127007
 21
-6.149209419364972
 31
0.0
  0
LINE
  5
C66
330
1F
100
AcDbEntity
  8
SK2
  6
CONTINUOUS
370
25
 62
7
100
AcDbLine
 10
-10.08251724446333
 20
-5.412586222316712
 30
0.0
 11
-9.876224133304994
 21
-5.61887933347505
 31
0.0
  0
LINE
  5
C67
330
1F
100
AcDbEntity
  8
SK2
  6
CONTINUOUS
370
25
 62
7
100
AcDbLine
 10
-10.01180656634468
 20
-5.059032831723435
 30
0.0
 11
-9.982290150482974
 21
-5.088549247585142
 31
0.0
  0
LINE
  5
C68
330
1F
100
AcDbEntity
  8
SK2
  6
CONTINUOUS
370
25
 62
7
100
AcDbLine
 10
-10.0
 20
5.0
 30
0.0
 11
-11.0
 21
10.0
 31
0.0
  0
LINE
  5
C69
330
1F
100
AcDbEntity
  8
SK2
  6
CONTINUOUS
370
25
 62
7
100
AcDbLine
 10
-11.0
 20
10.0
 30
0.0
 11
-9.0
 21
10.0
 31
0.0
  0
LINE
  5
C6A
330
1F
100
AcDbEntity
  8
SK2
  6
CONTINUOUS
370
25
 62
7
100
AcDbLine
 10
-9.0
 20
10.0
 30
0.0
 11
-10.0
 21
5.0
 31
0.0
  0
LINE
  5
C6B
330
1F
100
AcDbEntity
  8
SK2
  6
CONTINUOUS
370
25
 62
7
100
AcDbLine
 10
-10.02572148875845
 20
5.128607443792241
 30
0.0
 11
-9.961417766862333
 21
5.192911165688358
 31
0.0
  0
LINE
  5
C6C
330
1F
100
AcDbEntity
  8
SK2
  6
CONTINUOUS
370
25
 62
7
100
AcDbLine
 10
-10.0964321668771
 20
5.482160834385517
 30
0.0
 11
-9.855351749684345
 21
5.723241251578273
 31
0.0
  0
LINE
  5
C6D
330
1F
100
AcDbEntity
  8
SK2
  6
CONTINUOUS
370
25
 62
7
100
AcDbLine
 10
-10.16714284499576
 20
5.835714224978794
 30
0.0
 11
-9.749285732506365
 21
6.253571337468188
 31
0.0
  0
LINE
  5
C6E
330
1F
100
AcDbEntity
  8
SK2
  6
CONTINUOUS
370
25
 62
7
100
AcDbLine
 10
-10.23785352311441
 20
6.189267615572071
 30
0.0
 11
-9.643219715328385
 21
6.783901423358095
 31
0.0
  0
LINE
  5
C6F
330
1F
100
AcDbEntity
  8
SK2
  6
CONTINUOUS
370
25
 62
7
100
AcDbLine
 10
-10.30856420123306
 20
6.542821006165354
 30
0.0
 11
-9.537153698150398
 21
7.314231509248017
 31
0.0
  0
LINE
  5
C70
330
1F
100
AcDbEntity
  8
SK2
  6
CONTINUOUS
370
25
 62
7
100
AcDbLine
 10
-10.37927487935173
 20
6.896374396758624
 30
0.0
 11
-9.431087680972404
 21
7.844561595137947
 31
0.0
  0
LINE
  5
C71
330
1F
100
AcDbEntity
  8
SK2
  6
CONTINUOUS
370
25
 62
7
100
AcDbLine
 10
-10.44998555747038
 20
7.249927787351901
 30
0.0
 11
-9.325021663794423
 21
8.374891681027862
 31
0.0
  0
LINE
  5
C72
330
1F
100
AcDbEntity
  8
SK2
  6
CONTINUOUS
370
25
 62
7
100
AcDbLine
 10
-10.52069623558904
 20
7.603481177945177
 30
0.0
 11
-9.218955646616436
 21
8.905221766917784
 31
0.0
  0
LINE
  5
C73
330
1F
100
AcDbEntity
  8
SK2
  6
CONTINUOUS
370
25
 62
7
100
AcDbLine
 10
-10.59140691370769
 20
7.957034568538454
 30
0.0
 11
-9.112889629438456
 21
9.435551852807684
 31
0.0
  0
LINE
  5
C74
330
1F
100
AcDbEntity
  8
SK2
  6
CONTINUOUS
370
25
 62
7
100
AcDbLine
 10
-10.66211759182634
 20
8.310587959131738
 30
0.0
 11
-9.006823612260476
 21
9.9658819386976
 31
0.0
  0
LINE
  5
C75
330
1F
100
AcDbEntity
  8
SK2
  6
CONTINUOUS
370
25
 62
7
100
AcDbLine
 10
-10.732828269945
 20
8.664141349725007
 30
0.0
 11
-9.396969619670003
 21
10.0
 31
0.0
  0
LINE
  5
C76
330
1F
100
AcDbEntity
  8
SK2
  6
CONTINUOUS
370
25
 62
7
100
AcDbLine
 10
-10.80353894806365
 20
9.01769474031829
 30
0.0
 11
-9.821233688381938
 21
10.0
 31
0.0
  0
LINE
  5
C77
330
1F
100
AcDbEntity
  8
SK2
  6
CONTINUOUS
370
25
 62
7
100
AcDbLine
 10
-10.87424962618232
 20
9.371248130911553
 30
0.0
 11
-10.24549775709387
 21
10.0
 31
0.0
  0
LINE
  5
C78
330
1F
100
AcDbEntity
  8
SK2
  6
CONTINUOUS
370
25
 62
7
100
AcDbLine
 10
-10.94496030430097
 20
9.724801521504837
 30
0.0
 11
-10.66976182580581
 21
10.0
 31
0.0
  0
LINE
  5
C79
330
1F
100
AcDbEntity
  8
SK2
  6
CONTINUOUS
370
25
 62
7
100
AcDbLine
 10
-10.10325336029579
 20
5.516266801478942
 30
0.0
 11
-9.931164426469472
 21
5.344177867652625
 31
0.0
  0
LINE
  5
C7A
330
1F
100
AcDbEntity
  8
SK2
  6
CONTINUOUS
370
25
 62
7
100
AcDbLine
 10
-10.20931937747377
 20
6.04659688736885
 30
0.0
 11
-9.860453748350821
 21
5.697731258245902
 31
0.0
  0
LINE
  5
C7B
330
1F
100
AcDbEntity
  8
SK2
  6
CONTINUOUS
370
25
 62
7
100
AcDbLine
 10
-10.31538539465176
 20
6.576926973258772
 30
0.0
 11
-9.78974307023217
 21
6.051284648839193
 31
0.0
  0
LINE
  5
C7C
330
1F
100
AcDbEntity
  8
SK2
  6
CONTINUOUS
370
25
 62
7
100
AcDbLine
 10
-10.42145141182974
 20
7.107257059148679
 30
0.0
 11
-9.719032392113505
 21
6.404838039432455
 31
0.0
  0
LINE
  5
C7D
330
1F
100
AcDbEntity
  8
SK2
  6
CONTINUOUS
370
25
 62
7
100
AcDbLine
 10
-10.52751742900772
 20
7.637587145038601
 30
0.0
 11
-9.648321713994854
 21
6.758391430025739
 31
0.0
  0
LINE
  5
C7E
330
1F
100
AcDbEntity
  8
SK2
  6
CONTINUOUS
370
25
 62
7
100
AcDbLine
 10
-10.6335834461857
 20
8.167917230928516
 30
0.0
 11
-9.577611035876195
 21
7.111944820619009
 31
0.0
  0
LINE
  5
C7F
330
1F
100
AcDbEntity
  8
SK2
  6
CONTINUOUS
370
25
 62
7
100
AcDbLine
 10
-10.73964946336368
 20
8.698247316818424
 30
0.0
 11
-9.506900357757544
 21
7.465498211212285
 31
0.0
  0
LINE
  5
C80
330
1F
100
AcDbEntity
  8
SK2
  6
CONTINUOUS
370
25
 62
7
100
AcDbLine
 10
-10.84571548054167
 20
9.228577402708332
 30
0.0
 11
-9.436189679638893
 21
7.819051601805562
 31
0.0
  0
LINE
  5
C81
330
1F
100
AcDbEntity
  8
SK2
  6
CONTINUOUS
370
25
 62
7
100
AcDbLine
 10
-10.95178149771965
 20
9.758907488598247
 30
0.0
 11
-9.365479001520228
 21
8.172604992398831
 31
0.0
  0
LINE
  5
C82
330
1F
100
AcDbEntity
  8
SK2
  6
CONTINUOUS
370
25
 62
7
100
AcDbLine
 10
-10.76860994040947
 20
10.0
 30
0.0
 11
-9.294768323401577
 21
8.526158382992108
 31
0.0
  0
LINE
  5
C83
330
1F
100
AcDbEntity
  8
SK2
  6
CONTINUOUS
370
25
 62
7
100
AcDbLine
 10
-10.34434587169753
 20
10.0
 30
0.0
 11
-9.224057645282919
 21
8.879711773585385
 31
0.0
  0
LINE
  5
C84
330
1F
100
AcDbEntity
  8
SK2
  6
CONTINUOUS
370
25
 62
7
100
AcDbLine
 10
-9.920081802985607
 20
10.0
 30
0.0
 11
-9.153346967164268
 21
9.233265164178661
 31
0.0
  0
LINE
  5
C85
330
1F
100
AcDbEntity
  8
SK2
  6
CONTINUOUS
370
25
 62
7
100
AcDbLine
 10
-9.495817734273672
 20
10.0
 30
0.0
 11
-9.08263628904561
 21
9.586818554771938
 31
0.0
  0
LINE
  5
C86
330
1F
100
AcDbEntity
  8
SK2
  6
CONTINUOUS
370
25
 62
7
100
AcDbLine
 10
-9.071553665561744
 20
10.0
 30
0.0
 11
-9.011925610926959
 21
9.940371945365214
 31
0.0
  0
TEXT
  5
C87
330
1F
100
AcDbEntity
  8
SK2
  6
CONTINUOUS
370
25
 62
7
100
AcDbText
 10
-11.0
 20
-16.77916666666667
 30
0.0
 40
3.5
  1
10
 50
90.00000000000001
 72
     1
 11
-11.0
 21
-14.7375
 31
0.0
100
AcDbText
  0
CIRCLE
  5
C88
330
1F
100
AcDbEntity
  8
SK2
  6
CONTINUOUS
370
25
 62
7
100
AcDbCircle
 10
-12.53125
 20
-20.80125
 30
0.0
 40
1.53125
  0
LINE
  5
C89
330
1F
100
AcDbEntity
  8
SK2
  6
CONTINUOUS
370
25
 62
7
100
AcDbLine
 10
-11.0
 20
-22.3325
 30
0.0
 11
-14.0625
 21
-19.27
 31
0.0
  0
LINE
  5
C8A
330
1F
100
AcDbEntity
  8
2
  6
CONTINUOUS
370
25
 62
7
100
AcDbLine
 10
80.0
 20
-3.5
 30
0.0
 11
97.7375
 21
-3.5
 31
0.0
  0
LINE
  5
C8B
330
1F
100
AcDbEntity
  8
2
  6
CONTINUOUS
370
25
 62
7
100
AcDbLine
 10
97.7375
 20
3.5
 30
0.0
 11
80.0
 21
3.5
 31
0.0
  0
LINE
  5
C8C
330
1F
100
AcDbEntity
  8
2
  6
CONTINUOUS
370
25
 62
7
100
AcDbLine
 10
96.7375
 20
-18.60625
 30
0.0
 11
96.7375
 21
13.5
 31
0.0
  0
LINE
  5
C8D
330
1F
100
AcDbEntity
  8
2
  6
CONTINUOUS
370
25
 62
7
100
AcDbLine
 10
96.7375
 20
-3.5
 30
0.0
 11
97.7375
 21
-8.5
 31
0.0
  0
LINE
  5
C8E
330
1F
100
AcDbEntity
  8
2
  6
CONTINUOUS
370
25
 62
7
100
AcDbLine
 10
97.7375
 20
-8.5
 30
0.0
 11
95.7375
 21
-8.5
 31
0.0
  0
LINE
  5
C8F
330
1F
100
AcDbEntity
  8
2
  6
CONTINUOUS
370
25
 62
7
100
AcDbLine
 10
95.7375
 20
-8.5
 30
0.0
 11
96.7375
 21
-3.5
 31
0.0
  0
LINE
  5
C90
330
1F
100
AcDbEntity
  8
2
  6
CONTINUOUS
370
25
 62
7
100
AcDbLine
 10
97.47010346678009
 20
-8.5
 30
0.0
 11
97.69293391113001
 21
-8.277169555650076
 31
0.0
  0
LINE
  5
C91
330
1F
100
AcDbEntity
  8
2
  6
CONTINUOUS
370
25
 62
7
100
AcDbLine
 10
97.04583939806815
 20
-8.5
 30
0.0
 11
97.62222323301137
 21
-7.923616165056792
 31
0.0
  0
LINE
  5
C92
330
1F
100
AcDbEntity
  8
2
  6
CONTINUOUS
370
25
 62
7
100
AcDbLine
 10
96.62157532935622
 20
-8.5
 30
0.0
 11
97.5515125548927
 21
-7.570062774463516
 31
0.0
  0
LINE
  5
C93
330
1F
100
AcDbEntity
  8
2
  6
CONTINUOUS
370
25
 62
7
100
AcDbLine
 10
96.19731126064428
 20
-8.5
 30
0.0
 11
97.48080187677405
 21
-7.216509383870232
 31
0.0
  0
LINE
  5
C94
330
1F
100
AcDbEntity
  8
2
  6
CONTINUOUS
370
25
 62
7
100
AcDbLine
 10
95.77304719193236
 20
-8.5
 30
0.0
 11
97.41009119865541
 21
-6.862955993276948
 31
0.0
  0
LINE
  5
C95
330
1F
100
AcDbEntity
  8
2
  6
CONTINUOUS
370
25
 62
7
100
AcDbLine
 10
95.8346792191949
 20
-8.014103904025532
 30
0.0
 11
97.33938052053674
 21
-6.509402602683679
 31
0.0
  0
LINE
  5
C96
330
1F
100
AcDbEntity
  8
2
  6
CONTINUOUS
370
25
 62
7
100
AcDbLine
 10
95.94074523637288
 20
-7.483773818135624
 30
0.0
 11
97.26866984241809
 21
-6.155849212090402
 31
0.0
  0
LINE
  5
C97
330
1F
100
AcDbEntity
  8
2
  6
CONTINUOUS
370
25
 62
7
100
AcDbLine
 10
96.04681125355086
 20
-6.953443732245702
 30
0.0
 11
97.19795916429942
 21
-5.802295821497147
 31
0.0
  0
LINE
  5
C98
330
1F
100
AcDbEntity
  8
2
  6
CONTINUOUS
370
25
 62
7
100
AcDbLine
 10
96.15287727072885
 20
-6.423113646355795
 30
0.0
 11
97.12724848618078
 21
-5.44874243090387
 31
0.0
  0
LINE
  5
C99
330
1F
100
AcDbEntity
  8
2
  6
CONTINUOUS
370
25
 62
7
100
AcDbLine
 10
96.25894328790683
 20
-5.892783560465872
 30
0.0
 11
97.0565378080621
 21
-5.095189040310593
 31
0.0
  0
LINE
  5
C9A
330
1F
100
AcDbEntity
  8
2
  6
CONTINUOUS
370
25
 62
7
100
AcDbLine
 10
96.36500930508481
 20
-5.362453474575965
 30
0.0
 11
96.98582712994346
 21
-4.741635649717317
 31
0.0
  0
LINE
  5
C9B
330
1F
100
AcDbEntity
  8
2
  6
CONTINUOUS
370
25
 62
7
100
AcDbLine
 10
96.47107532226279
 20
-4.83212338868605
 30
0.0
 11
96.91511645182482
 21
-4.388082259124033
 31
0.0
  0
LINE
  5
C9C
330
1F
100
AcDbEntity
  8
2
  6
CONTINUOUS
370
25
 62
7
100
AcDbLine
 10
96.57714133944077
 20
-4.301793302796135
 30
0.0
 11
96.84440577370614
 21
-4.034528868530764
 31
0.0
  0
LINE
  5
C9D
330
1F
100
AcDbEntity
  8
2
  6
CONTINUOUS
370
25
 62
7
100
AcDbLine
 10
96.68320735661877
 20
-3.77146321690622
 30
0.0
 11
96.7736950955875
 21
-3.680975477937487
 31
0.0
  0
LINE
  5
C9E
330
1F
100
AcDbEntity
  8
2
  6
CONTINUOUS
370
25
 62
7
100
AcDbLine
 10
95.78417928262266
 20
-8.266603586886717
 30
0.0
 11
96.01757569573593
 21
-8.5
 31
0.0
  0
LINE
  5
C9F
330
1F
100
AcDbEntity
  8
2
  6
CONTINUOUS
370
25
 62
7
100
AcDbLine
 10
95.8548899607413
 20
-7.91305019629344
 30
0.0
 11
96.44183976444786
 21
-8.5
 31
0.0
  0
LINE
  5
CA0
330
1F
100
AcDbEntity
  8
2
  6
CONTINUOUS
370
25
 62
7
100
AcDbLine
 10
95.92560063885998
 20
-7.559496805700171
 30
0.0
 11
96.8661038331598
 21
-8.5
 31
0.0
  0
LINE
  5
CA1
330
1F
100
AcDbEntity
  8
2
  6
CONTINUOUS
370
25
 62
7
100
AcDbLine
 10
95.99631131697862
 20
-7.205943415106901
 30
0.0
 11
97.29036790187172
 21
-8.5
 31
0.0
  0
LINE
  5
CA2
330
1F
100
AcDbEntity
  8
2
  6
CONTINUOUS
370
25
 62
7
100
AcDbLine
 10
96.06702199509726
 20
-6.852390024513618
 30
0.0
 11
97.71463197058365
 21
-8.5
 31
0.0
  0
LINE
  5
CA3
330
1F
100
AcDbEntity
  8
2
  6
CONTINUOUS
370
25
 62
7
100
AcDbLine
 10
96.13773267321594
 20
-6.498836633920348
 30
0.0
 11
97.63715099017611
 21
-7.998254950880529
 31
0.0
  0
LINE
  5
CA4
330
1F
100
AcDbEntity
  8
2
  6
CONTINUOUS
370
25
 62
7
100
AcDbLine
 10
96.20844335133458
 20
-6.145283243327071
 30
0.0
 11
97.53108497299812
 21
-7.467924864990607
 31
0.0
  0
LINE
  5
CA5
330
1F
100
AcDbEntity
  8
2
  6
CONTINUOUS
370
25
 62
7
100
AcDbLine
 10
96.27915402945325
 20
-5.791729852733802
 30
0.0
 11
97.42501895582014
 21
-6.937594779100692
 31
0.0
  0
LINE
  5
CA6
330
1F
100
AcDbEntity
  8
2
  6
CONTINUOUS
370
25
 62
7
100
AcDbLine
 10
96.3498647075719
 20
-5.438176462140518
 30
0.0
 11
97.31895293864216
 21
-6.407264693210777
 31
0.0
  0
LINE
  5
CA7
330
1F
100
AcDbEntity
  8
2
  6
CONTINUOUS
370
25
 62
7
100
AcDbLine
 10
96.42057538569054
 20
-5.084623071547234
 30
0.0
 11
97.21288692146418
 21
-5.876934607320862
 31
0.0
  0
LINE
  5
CA8
330
1F
100
AcDbEntity
  8
2
  6
CONTINUOUS
370
25
 62
7
100
AcDbLine
 10
96.49128606380921
 20
-4.731069680953972
 30
0.0
 11
97.1068209042862
 21
-5.346604521430947
 31
0.0
  0
LINE
  5
CA9
330
1F
100
AcDbEntity
  8
2
  6
CONTINUOUS
370
25
 62
7
100
AcDbLine
 10
96.56199674192786
 20
-4.377516290360688
 30
0.0
 11
97.0007548871082
 21
-4.816274435541025
 31
0.0
  0
LINE
  5
CAA
330
1F
100
AcDbEntity
  8
2
  6
CONTINUOUS
370
25
 62
7
100
AcDbLine
 10
96.63270742004653
 20
-4.023962899767419
 30
0.0
 11
96.89468886993022
 21
-4.285944349651118
 31
0.0
  0
LINE
  5
CAB
330
1F
100
AcDbEntity
  8
2
  6
CONTINUOUS
370
25
 62
7
100
AcDbLine
 10
96.70341809816517
 20
-3.670409509174135
 30
0.0
 11
96.78862285275224
 21
-3.755614263761203
 31
0.0
  0
LINE
  5
CAC
330
1F
100
AcDbEntity
  8
2
  6
CONTINUOUS
370
25
 62
7
100
AcDbLine
 10
96.7375
 20
3.5
 30
0.0
 11
95.7375
 21
8.5
 31
0.0
  0
LINE
  5
CAD
330
1F
100
AcDbEntity
  8
2
  6
CONTINUOUS
370
25
 62
7
100
AcDbLine
 10
95.7375
 20
8.5
 30
0.0
 11
97.7375
 21
8.5
 31
0.0
  0
LINE
  5
CAE
330
1F
100
AcDbEntity
  8
2
  6
CONTINUOUS
370
25
 62
7
100
AcDbLine
 10
97.7375
 20
8.5
 30
0.0
 11
96.7375
 21
3.5
 31
0.0
  0
LINE
  5
CAF
330
1F
100
AcDbEntity
  8
2
  6
CONTINUOUS
370
25
 62
7
100
AcDbLine
 10
96.6980782088817
 20
3.697108955591489
 30
0.0
 11
96.79663268667746
 21
3.795663433387247
 31
0.0
  0
LINE
  5
CB0
330
1F
100
AcDbEntity
  8
2
  6
CONTINUOUS
370
25
 62
7
100
AcDbLine
 10
96.62736753076305
 20
4.050662346184772
 30
0.0
 11
96.90269870385544
 21
4.325993519277162
 31
0.0
  0
LINE
  5
CB1
330
1F
100
AcDbEntity
  8
2
  6
CONTINUOUS
370
25
 62
7
100
AcDbLine
 10
96.55665685264438
 20
4.404215736778042
 30
0.0
 11
97.00876472103342
 21
4.85632360516707
 31
0.0
  0
LINE
  5
CB2
330
1F
100
AcDbEntity
  8
2
  6
CONTINUOUS
370
25
 62
7
100
AcDbLine
 10
96.48594617452574
 20
4.757769127371333
 30
0.0
 11
97.1148307382114
 21
5.386653691056992
 31
0.0
  0
LINE
  5
CB3
330
1F
100
AcDbEntity
  8
2
  6
CONTINUOUS
370
25
 62
7
100
AcDbLine
 10
96.41523549640709
 20
5.111322517964609
 30
0.0
 11
97.22089675538938
 21
5.9169837769469
 31
0.0
  0
LINE
  5
CB4
330
1F
100
AcDbEntity
  8
2
  6
CONTINUOUS
370
25
 62
7
100
AcDbLine
 10
96.34452481828842
 20
5.464875908557886
 30
0.0
 11
97.32696277256736
 21
6.447313862836815
 31
0.0
  0
LINE
  5
CB5
330
1F
100
AcDbEntity
  8
2
  6
CONTINUOUS
370
25
 62
7
100
AcDbLine
 10
96.27381414016978
 20
5.818429299151163
 30
0.0
 11
97.43302878974534
 21
6.977643948726723
 31
0.0
  0
LINE
  5
CB6
330
1F
100
AcDbEntity
  8
2
  6
CONTINUOUS
370
25
 62
7
100
AcDbLine
 10
96.2031034620511
 20
6.171982689744432
 30
0.0
 11
97.53909480692333
 21
7.507974034616652
 31
0.0
  0
LINE
  5
CB7
330
1F
100
AcDbEntity
  8
2
  6
CONTINUOUS
370
25
 62
7
100
AcDbLine
 10
96.13239278393246
 20
6.525536080337709
 30
0.0
 11
97.64516082410131
 21
8.03830412050656
 31
0.0
  0
LINE
  5
CB8
330
1F
100
AcDbEntity
  8
2
  6
CONTINUOUS
370
25
 62
7
100
AcDbLine
 10
96.06168210581382
 20
6.879089470930992
 30
0.0
 11
97.68259263488281
 21
8.5
 31
0.0
  0
LINE
  5
CB9
330
1F
100
AcDbEntity
  8
2
  6
CONTINUOUS
370
25
 62
7
100
AcDbLine
 10
95.99097142769514
 20
7.232642861524269
 30
0.0
 11
97.25832856617089
 21
8.5
 31
0.0
  0
LINE
  5
CBA
330
1F
100
AcDbEntity
  8
2
  6
CONTINUOUS
370
25
 62
7
100
AcDbLine
 10
95.9202607495765
 20
7.586196252117546
 30
0.0
 11
96.83406449745895
 21
8.5
 31
0.0
  0
LINE
  5
CBB
330
1F
100
AcDbEntity
  8
2
  6
CONTINUOUS
370
25
 62
7
100
AcDbLine
 10
95.84955007145783
 20
7.939749642710808
 30
0.0
 11
96.40980042874702
 21
8.5
 31
0.0
  0
LINE
  5
CBC
330
1F
100
AcDbEntity
  8
2
  6
CONTINUOUS
370
25
 62
7
100
AcDbLine
 10
95.77883939333918
 20
8.293303033304085
 30
0.0
 11
95.9855363600351
 21
8.5
 31
0.0
  0
LINE
  5
CBD
330
1F
100
AcDbEntity
  8
2
  6
CONTINUOUS
370
25
 62
7
100
AcDbLine
 10
96.73550056072654
 20
3.509997196367294
 30
0.0
 11
96.73883295951563
 21
3.506664797578189
 31
0.0
  0
LINE
  5
CBE
330
1F
100
AcDbEntity
  8
2
  6
CONTINUOUS
370
25
 62
7
100
AcDbLine
 10
96.62943454354856
 20
4.040327282257209
 30
0.0
 11
96.80954363763429
 21
3.860218188171473
 31
0.0
  0
LINE
  5
CBF
330
1F
100
AcDbEntity
  8
2
  6
CONTINUOUS
370
25
 62
7
100
AcDbLine
 10
96.52336852637058
 20
4.570657368147124
 30
0.0
 11
96.88025431575295
 21
4.213771578764742
 31
0.0
  0
LINE
  5
CC0
330
1F
100
AcDbEntity
  8
2
  6
CONTINUOUS
370
25
 62
7
100
AcDbLine
 10
96.41730250919258
 20
5.100987454037039
 30
0.0
 11
96.9509649938716
 21
4.567324969358026
 31
0.0
  0
LINE
  5
CC1
330
1F
100
AcDbEntity
  8
2
  6
CONTINUOUS
370
25
 62
7
100
AcDbLine
 10
96.31123649201461
 20
5.631317539926947
 30
0.0
 11
97.02167567199025
 21
4.920878359951303
 31
0.0
  0
LINE
  5
CC2
330
1F
100
AcDbEntity
  8
2
  6
CONTINUOUS
370
25
 62
7
100
AcDbLine
 10
96.20517047483662
 20
6.161647625816869
 30
0.0
 11
97.09238635010891
 21
5.274431750544572
 31
0.0
  0
LINE
  5
CC3
330
1F
100
AcDbEntity
  8
2
  6
CONTINUOUS
370
25
 62
7
100
AcDbLine
 10
96.09910445765864
 20
6.691977711706777
 30
0.0
 11
97.16309702822757
 21
5.627985141137849
 31
0.0
  0
LINE
  5
CC4
330
1F
100
AcDbEntity
  8
2
  6
CONTINUOUS
370
25
 62
7
100
AcDbLine
 10
95.99303844048066
 20
7.222307797596685
 30
0.0
 11
97.23380770634623
 21
5.981538531731125
 31
0.0
  0
LINE
  5
CC5
330
1F
100
AcDbEntity
  8
2
  6
CONTINUOUS
370
25
 62
7
100
AcDbLine
 10
95.8869724233027
 20
7.752637883486592
 30
0.0
 11
97.30451838446487
 21
6.335091922324402
 31
0.0
  0
LINE
  5
CC6
330
1F
100
AcDbEntity
  8
2
  6
CONTINUOUS
370
25
 62
7
100
AcDbLine
 10
95.7809064061247
 20
8.2829679693765
 30
0.0
 11
97.37522906258353
 21
6.688645312917679
 31
0.0
  0
LINE
  5
CC7
330
1F
100
AcDbEntity
  8
2
  6
CONTINUOUS
370
25
 62
7
100
AcDbLine
 10
95.98813844421315
 20
8.5
 30
0.0
 11
97.44593974070219
 21
7.042198703510948
 31
0.0
  0
LINE
  5
CC8
330
1F
100
AcDbEntity
  8
2
  6
CONTINUOUS
370
25
 62
7
100
AcDbLine
 10
96.41240251292507
 20
8.5
 30
0.0
 11
97.51665041882083
 21
7.395752094104239
 31
0.0
  0
LINE
  5
CC9
330
1F
100
AcDbEntity
  8
2
  6
CONTINUOUS
370
25
 62
7
100
AcDbLine
 10
96.83666658163702
 20
8.5
 30
0.0
 11
97.5873610969395
 21
7.749305484697508
 31
0.0
  0
LINE
  5
CCA
330
1F
100
AcDbEntity
  8
2
  6
CONTINUOUS
370
25
 62
7
100
AcDbLine
 10
97.26093065034894
 20
8.5
 30
0.0
 11
97.65807177505815
 21
8.102858875290778
 31
0.0
  0
LINE
  5
CCB
330
1F
100
AcDbEntity
  8
2
  6
CONTINUOUS
370
25
 62
7
100
AcDbLine
 10
97.68519471906086
 20
8.5
 30
0.0
 11
97.72878245317682
 21
8.456412265884047
 31
0.0
  0
TEXT
  5
CCC
330
1F
100
AcDbEntity
  8
2
  6
CONTINUOUS
370
25
 62
7
100
AcDbText
 10
95.7375
 20
-12.71979166666667
 30
0.0
 40
3.5
  1
7
 50
90.00000000000001
 72
     1
 11
95.7375
 21
-11.553125
 31
0.0
100
AcDbText
  0
CIRCLE
  5
CCD
330
1F
100
AcDbEntity
  8
2
  6
CONTINUOUS
370
25
 62
7
100
AcDbCircle
 10
94.20625
 20
-15.963125
 30
0.0
 40
1.53125
  0
LINE
  5
CCE
330
1F
100
AcDbEntity
  8
2
  6
CONTINUOUS
370
25
 62
7
100
AcDbLine
 10
95.7375
 20
-17.494375
 30
0.0
 11
92.675
 21
-14.431875
 31
0.0
  0
LINE
  5
CCF
330
1F
100
AcDbEntity
  8
SK2
  6
CONTINUOUS
370
25
 62
7
100
AcDbLine
 10
0.0
 20
0.0
 30
0.0
 11
0.0
 21
23.00001
 31
0.0
  0
LINE
  5
CD0
330
1F
100
AcDbEntity
  8
SK2
  6
CONTINUOUS
370
25
 62
7
100
AcDbLine
 10
80.0
 20
23.00001
 30
0.0
 11
80.0
 21
3.5
 31
0.0
  0
LINE
  5
CD1
330
1F
100
AcDbEntity
  8
SK2
  6
CONTINUOUS
370
25
 62
7
100
AcDbLine
 10
0.0
 20
22.00001
 30
0.0
 11
80.0
 21
22.00001
 31
0.0
  0
LINE
  5
CD2
330
1F
100
AcDbEntity
  8
SK2
  6
CONTINUOUS
370
25
 62
7
100
AcDbLine
 10
0.0
 20
22.00001
 30
0.0
 11
5.0
 21
23.00001
 31
0.0
  0
LINE
  5
CD3
330
1F
100
AcDbEntity
  8
SK2
  6
CONTINUOUS
370
25
 62
7
100
AcDbLine
 10
5.0
 20
23.00001
 30
0.0
 11
5.0
 21
21.00001
 31
0.0
  0
LINE
  5
CD4
330
1F
100
AcDbEntity
  8
SK2
  6
CONTINUOUS
370
25
 62
7
100
AcDbLine
 10
5.0
 20
21.00001
 30
0.0
 11
0.0
 21
22.00001
 31
0.0
  0
LINE
  5
CD5
330
1F
100
AcDbEntity
  8
SK2
  6
CONTINUOUS
370
25
 62
7
100
AcDbLine
 10
4.997627441687868
 20
21.00048451166243
 30
0.0
 11
5.0
 21
21.00285706997456
 31
0.0
  0
LINE
  5
CD6
330
1F
100
AcDbEntity
  8
SK2
  6
CONTINUOUS
370
25
 62
7
100
AcDbLine
 10
4.644074051094591
 20
21.07119518978109
 30
0.0
 11
5.0
 21
21.42712113868649
 31
0.0
  0
LINE
  5
CD7
330
1F
100
AcDbEntity
  8
SK2
  6
CONTINUOUS
370
25
 62
7
100
AcDbLine
 10
4.290520660501322
 20
21.14190586789974
 30
0.0
 11
5.0
 21
21.85138520739842
 31
0.0
  0
LINE
  5
CD8
330
1F
100
AcDbEntity
  8
SK2
  6
CONTINUOUS
370
25
 62
7
100
AcDbLine
 10
3.936967269908038
 20
21.2126165460184
 30
0.0
 11
5.0
 21
22.27564927611035
 31
0.0
  0
LINE
  5
CD9
330
1F
100
AcDbEntity
  8
SK2
  6
CONTINUOUS
370
25
 62
7
100
AcDbLine
 10
3.583413879314769
 20
21.28332722413705
 30
0.0
 11
5.0
 21
22.69991334482227
 31
0.0
  0
LINE
  5
CDA
330
1F
100
AcDbEntity
  8
SK2
  6
CONTINUOUS
370
25
 62
7
100
AcDbLine
 10
3.229860488721492
 20
21.3540379022557
 30
0.0
 11
4.844790733082242
 21
22.96896814661645
 31
0.0
  0
LINE
  5
CDB
330
1F
100
AcDbEntity
  8
SK2
  6
CONTINUOUS
370
25
 62
7
100
AcDbLine
 10
2.876307098128216
 20
21.42474858037436
 30
0.0
 11
4.31446064719232
 21
22.86290212943846
 31
0.0
  0
LINE
  5
CDC
330
1F
100
AcDbEntity
  8
SK2
  6
CONTINUOUS
370
25
 62
7
100
AcDbLine
 10
2.522753707534932
 20
21.49545925849301
 30
0.0
 11
3.784130561302405
 21
22.75683611226048
 31
0.0
  0
LINE
  5
CDD
330
1F
100
AcDbEntity
  8
SK2
  6
CONTINUOUS
370
25
 62
7
100
AcDbLine
 10
2.169200316941669
 20
21.56616993661167
 30
0.0
 11
3.253800475412497
 21
22.6507700950825
 31
0.0
  0
LINE
  5
CDE
330
1F
100
AcDbEntity
  8
SK2
  6
CONTINUOUS
370
25
 62
7
100
AcDbLine
 10
1.815646926348386
 20
21.63688061473032
 30
0.0
 11
2.723470389522575
 21
22.54470407790451
 31
0.0
  0
LINE
  5
CDF
330
1F
100
AcDbEntity
  8
SK2
  6
CONTINUOUS
370
25
 62
7
100
AcDbLine
 10
1.462093535755116
 20
21.70759129284898
 30
0.0
 11
2.193140303632674
 21
22.43863806072653
 31
0.0
  0
LINE
  5
CE0
330
1F
100
AcDbEntity
  8
SK2
  6
CONTINUOUS
370
25
 62
7
100
AcDbLine
 10
1.10854014516184
 20
21.77830197096764
 30
0.0
 11
1.662810217742752
 21
22.33257204354855
 31
0.0
  0
LINE
  5
CE1
330
1F
100
AcDbEntity
  8
SK2
  6
CONTINUOUS
370
25
 62
7
100
AcDbLine
 10
0.7549867545685558
 20
21.84901264908629
 30
0.0
 11
1.13248013185283
 21
22.22650602637056
 31
0.0
  0
LINE
  5
CE2
330
1F
100
AcDbEntity
  8
SK2
  6
CONTINUOUS
370
25
 62
7
100
AcDbLine
 10
0.4014333639752792
 20
21.91972332720494
 30
0.0
 11
0.6021500459629152
 21
22.12044000919258
 31
0.0
  0
LINE
  5
CE3
330
1F
100
AcDbEntity
  8
SK2
  6
CONTINUOUS
370
25
 62
7
100
AcDbLine
 10
0.0478799733820097
 20
21.9904340053236
 30
0.0
 11
0.0718199600730074
 21
22.0143739920146
 31
0.0
  0
LINE
  5
CE4
330
1F
100
AcDbEntity
  8
SK2
  6
CONTINUOUS
370
25
 62
7
100
AcDbLine
 10
0.2167692030164758
 20
22.04336384060329
 30
0.0
 11
0.3251538045247031
 21
21.93497923909506
 31
0.0
  0
LINE
  5
CE5
330
1F
100
AcDbEntity
  8
SK2
  6
CONTINUOUS
370
25
 62
7
100
AcDbLine
 10
0.5703225936097525
 20
22.11407451872195
 30
0.0
 11
0.855483890414618
 21
21.82891322191708
 31
0.0
  0
LINE
  5
CE6
330
1F
100
AcDbEntity
  8
SK2
  6
CONTINUOUS
370
25
 62
7
100
AcDbLine
 10
0.923875984203022
 20
22.18478519684061
 30
0.0
 11
1.385813976304533
 21
21.7228472047391
 31
0.0
  0
LINE
  5
CE7
330
1F
100
AcDbEntity
  8
SK2
  6
CONTINUOUS
370
25
 62
7
100
AcDbLine
 10
1.277429374796299
 20
22.25549587495926
 30
0.0
 11
1.916144062194448
 21
21.61678118756111
 31
0.0
  0
LINE
  5
CE8
330
1F
100
AcDbEntity
  8
SK2
  6
CONTINUOUS
370
25
 62
7
100
AcDbLine
 10
1.630982765389582
 20
22.32620655307791
 30
0.0
 11
2.446474148084363
 21
21.51071517038313
 31
0.0
  0
LINE
  5
CE9
330
1F
100
AcDbEntity
  8
SK2
  6
CONTINUOUS
370
25
 62
7
100
AcDbLine
 10
1.984536155982852
 20
22.39691723119657
 30
0.0
 11
2.976804233974278
 21
21.40464915320515
 31
0.0
  0
LINE
  5
CEA
330
1F
100
AcDbEntity
  8
SK2
  6
CONTINUOUS
370
25
 62
7
100
AcDbLine
 10
2.338089546576128
 20
22.46762790931523
 30
0.0
 11
3.507134319864193
 21
21.29858313602716
 31
0.0
  0
LINE
  5
CEB
330
1F
100
AcDbEntity
  8
SK2
  6
CONTINUOUS
370
25
 62
7
100
AcDbLine
 10
2.691642937169405
 20
22.53833858743388
 30
0.0
 11
4.037464405754108
 21
21.19251711884918
 31
0.0
  0
LINE
  5
CEC
330
1F
100
AcDbEntity
  8
SK2
  6
CONTINUOUS
370
25
 62
7
100
AcDbLine
 10
3.045196327762689
 20
22.60904926555253
 30
0.0
 11
4.567794491644023
 21
21.08645110167119
 31
0.0
  0
LINE
  5
CED
330
1F
100
AcDbEntity
  8
SK2
  6
CONTINUOUS
370
25
 62
7
100
AcDbLine
 10
3.398749718355958
 20
22.67975994367119
 30
0.0
 11
5.0
 21
21.07850966202715
 31
0.0
  0
LINE
  5
CEE
330
1F
100
AcDbEntity
  8
SK2
  6
CONTINUOUS
370
25
 62
7
100
AcDbLine
 10
3.752303108949235
 20
22.75047062178984
 30
0.0
 11
5.0
 21
21.50277373073907
 31
0.0
  0
LINE
  5
CEF
330
1F
100
AcDbEntity
  8
SK2
  6
CONTINUOUS
370
25
 62
7
100
AcDbLine
 10
4.105856499542504
 20
22.8211812999085
 30
0.0
 11
5.0
 21
21.927037799451
 31
0.0
  0
LINE
  5
CF0
330
1F
100
AcDbEntity
  8
SK2
  6
CONTINUOUS
370
25
 62
7
100
AcDbLine
 10
4.459409890135774
 20
22.89189197802715
 30
0.0
 11
5.0
 21
22.35130186816293
 31
0.0
  0
LINE
  5
CF1
330
1F
100
AcDbEntity
  8
SK2
  6
CONTINUOUS
370
25
 62
7
100
AcDbLine
 10
4.812963280729051
 20
22.96260265614581
 30
0.0
 11
5.0
 21
22.77556593687486
 31
0.0
  0
LINE
  5
CF2
330
1F
100
AcDbEntity
  8
SK2
  6
CONTINUOUS
370
25
 62
7
100
AcDbLine
 10
80.0
 20
22.00001
 30
0.0
 11
75.0
 21
21.00001
 31
0.0
  0
LINE
  5
CF3
330
1F
100
AcDbEntity
  8
SK2
  6
CONTINUOUS
370
25
 62
7
100
AcDbLine
 10
75.0
 20
21.00001
 30
0.0
 11
75.0
 21
23.00001
 31
0.0
  0
LINE
  5
CF4
330
1F
100
AcDbEntity
  8
SK2
  6
CONTINUOUS
370
25
 62
7
100
AcDbLine
 10
75.0
 20
23.00001
 30
0.0
 11
80.0
 21
22.00001
 31
0.0
  0
LINE
  5
CF5
330
1F
100
AcDbEntity
  8
SK2
  6
CONTINUOUS
370
25
 62
7
100
AcDbLine
 10
79.67484619547528
 20
21.93497923909506
 30
0.0
 11
79.78323079698353
 21
22.04336384060329
 31
0.0
  0
LINE
  5
CF6
330
1F
100
AcDbEntity
  8
SK2
  6
CONTINUOUS
370
25
 62
7
100
AcDbLine
 10
79.14451610958538
 20
21.82891322191708
 30
0.0
 11
79.42967740639025
 21
22.11407451872195
 31
0.0
  0
LINE
  5
CF7
330
1F
100
AcDbEntity
  8
SK2
  6
CONTINUOUS
370
25
 62
7
100
AcDbLine
 10
78.61418602369547
 20
21.7228472047391
 30
0.0
 11
79.07612401579698
 21
22.18478519684061
 31
0.0
  0
LINE
  5
CF8
330
1F
100
AcDbEntity
  8
SK2
  6
CONTINUOUS
370
25
 62
7
100
AcDbLine
 10
78.08385593780555
 20
21.61678118756111
 30
0.0
 11
78.7225706252037
 21
22.25549587495926
 31
0.0
  0
LINE
  5
CF9
330
1F
100
AcDbEntity
  8
SK2
  6
CONTINUOUS
370
25
 62
7
100
AcDbLine
 10
77.55352585191564
 20
21.51071517038313
 30
0.0
 11
78.36901723461042
 21
22.32620655307791
 31
0.0
  0
LINE
  5
CFA
330
1F
100
AcDbEntity
  8
SK2
  6
CONTINUOUS
370
25
 62
7
100
AcDbLine
 10
77.02319576602572
 20
21.40464915320515
 30
0.0
 11
78.01546384401715
 21
22.39691723119656
 31
0.0
  0
LINE
  5
CFB
330
1F
100
AcDbEntity
  8
SK2
  6
CONTINUOUS
370
25
 62
7
100
AcDbLine
 10
76.49286568013581
 20
21.29858313602716
 30
0.0
 11
77.66191045342387
 21
22.46762790931523
 31
0.0
  0
LINE
  5
CFC
330
1F
100
AcDbEntity
  8
SK2
  6
CONTINUOUS
370
25
 62
7
100
AcDbLine
 10
75.96253559424589
 20
21.19251711884918
 30
0.0
 11
77.3083570628306
 21
22.53833858743387
 31
0.0
  0
LINE
  5
CFD
330
1F
100
AcDbEntity
  8
SK2
  6
CONTINUOUS
370
25
 62
7
100
AcDbLine
 10
75.43220550835598
 20
21.08645110167119
 30
0.0
 11
76.95480367223732
 21
22.60904926555253
 31
0.0
  0
LINE
  5
CFE
330
1F
100
AcDbEntity
  8
SK2
  6
CONTINUOUS
370
25
 62
7
100
AcDbLine
 10
75.0
 20
21.07850966202715
 30
0.0
 11
76.60125028164404
 21
22.67975994367119
 31
0.0
  0
LINE
  5
CFF
330
1F
100
AcDbEntity
  8
SK2
  6
CONTINUOUS
370
25
 62
7
100
AcDbLine
 10
75.0
 20
21.50277373073908
 30
0.0
 11
76.24769689105077
 21
22.75047062178985
 31
0.0
  0
LINE
  5
D00
330
1F
100
AcDbEntity
  8
SK2
  6
CONTINUOUS
370
25
 62
7
100
AcDbLine
 10
75.0
 20
21.927037799451
 30
0.0
 11
75.89414350045749
 21
22.8211812999085
 31
0.0
  0
LINE
  5
D01
330
1F
100
AcDbEntity
  8
SK2
  6
CONTINUOUS
370
25
 62
7
100
AcDbLine
 10
75.0
 20
22.35130186816293
 30
0.0
 11
75.54059010986423
 21
22.89189197802716
 31
0.0
  0
LINE
  5
D02
330
1F
100
AcDbEntity
  8
SK2
  6
CONTINUOUS
370
25
 62
7
100
AcDbLine
 10
75.0
 20
22.77556593687486
 30
0.0
 11
75.18703671927095
 21
22.96260265614581
 31
0.0
  0
LINE
  5
D03
330
1F
100
AcDbEntity
  8
SK2
  6
CONTINUOUS
370
25
 62
7
100
AcDbLine
 10
75.0
 20
21.00285706997456
 30
0.0
 11
75.00237255831213
 21
21.00048451166243
 31
0.0
  0
LINE
  5
D04
330
1F
100
AcDbEntity
  8
SK2
  6
CONTINUOUS
370
25
 62
7
100
AcDbLine
 10
75.0
 20
21.42712113868648
 30
0.0
 11
75.3559259489054
 21
21.07119518978109
 31
0.0
  0
LINE
  5
D05
330
1F
100
AcDbEntity
  8
SK2
  6
CONTINUOUS
370
25
 62
7
100
AcDbLine
 10
75.0
 20
21.85138520739842
 30
0.0
 11
75.70947933949867
 21
21.14190586789974
 31
0.0
  0
LINE
  5
D06
330
1F
100
AcDbEntity
  8
SK2
  6
CONTINUOUS
370
25
 62
7
100
AcDbLine
 10
75.0
 20
22.27564927611034
 30
0.0
 11
76.06303273009196
 21
21.21261654601839
 31
0.0
  0
LINE
  5
D07
330
1F
100
AcDbEntity
  8
SK2
  6
CONTINUOUS
370
25
 62
7
100
AcDbLine
 10
75.0
 20
22.69991334482227
 30
0.0
 11
76.41658612068522
 21
21.28332722413705
 31
0.0
  0
LINE
  5
D08
330
1F
100
AcDbEntity
  8
SK2
  6
CONTINUOUS
370
25
 62
7
100
AcDbLine
 10
75.15520926691775
 20
22.96896814661645
 30
0.0
 11
76.7701395112785
 21
21.3540379022557
 31
0.0
  0
LINE
  5
D09
330
1F
100
AcDbEntity
  8
SK2
  6
CONTINUOUS
370
25
 62
7
100
AcDbLine
 10
75.68553935280767
 20
22.86290212943847
 30
0.0
 11
77.12369290187178
 21
21.42474858037436
 31
0.0
  0
LINE
  5
D0A
330
1F
100
AcDbEntity
  8
SK2
  6
CONTINUOUS
370
25
 62
7
100
AcDbLine
 10
76.21586943869758
 20
22.75683611226048
 30
0.0
 11
77.47724629246505
 21
21.49545925849301
 31
0.0
  0
LINE
  5
D0B
330
1F
100
AcDbEntity
  8
SK2
  6
CONTINUOUS
370
25
 62
7
100
AcDbLine
 10
76.74619952458751
 20
22.65077009508249
 30
0.0
 11
77.83079968305833
 21
21.56616993661167
 31
0.0
  0
LINE
  5
D0C
330
1F
100
AcDbEntity
  8
SK2
  6
CONTINUOUS
370
25
 62
7
100
AcDbLine
 10
77.27652961047741
 20
22.54470407790451
 30
0.0
 11
78.18435307365161
 21
21.63688061473032
 31
0.0
  0
LINE
  5
D0D
330
1F
100
AcDbEntity
  8
SK2
  6
CONTINUOUS
370
25
 62
7
100
AcDbLine
 10
77.80685969636733
 20
22.43863806072653
 30
0.0
 11
78.53790646424488
 21
21.70759129284898
 31
0.0
  0
LINE
  5
D0E
330
1F
100
AcDbEntity
  8
SK2
  6
CONTINUOUS
370
25
 62
7
100
AcDbLine
 10
78.33718978225725
 20
22.33257204354855
 30
0.0
 11
78.89145985483816
 21
21.77830197096764
 31
0.0
  0
LINE
  5
D0F
330
1F
100
AcDbEntity
  8
SK2
  6
CONTINUOUS
370
25
 62
7
100
AcDbLine
 10
78.86751986814718
 20
22.22650602637056
 30
0.0
 11
79.24501324543144
 21
21.84901264908629
 31
0.0
  0
LINE
  5
D10
330
1F
100
AcDbEntity
  8
SK2
  6
CONTINUOUS
370
25
 62
7
100
AcDbLine
 10
79.39784995403707
 20
22.12044000919258
 30
0.0
 11
79.59856663602471
 21
21.91972332720495
 31
0.0
  0
LINE
  5
D11
330
1F
100
AcDbEntity
  8
SK2
  6
CONTINUOUS
370
25
 62
7
100
AcDbLine
 10
79.928180039927
 20
22.0143739920146
 30
0.0
 11
79.95212002661799
 21
21.99043400532361
 31
0.0
  0
TEXT
  5
D12
330
1F
100
AcDbEntity
  8
SK2
  6
CONTINUOUS
370
25
 62
7
100
AcDbText
 10
37.375
 20
23.00001
 30
0.0
 40
3.5
  1
80
 72
     1
 11
40.0
 21
23.00001
 31
0.0
100
AcDbText
  0
LINE
  5
D13
330
1F
100
AcDbEntity
  8
2
  6
CONTINUOUS
370
25
 62
7
100
AcDbLine
 10
40.0
 20
0.0
 30
0.0
 11
40.0
 21
16.00001
 31
0.0
  0
LINE
  5
D14
330
1F
100
AcDbEntity
  8
2
  6
CONTINUOUS
370
25
 62
7
100
AcDbLine
 10
80.0
 20
16.00001
 30
0.0
 11
80.0
 21
3.5
 31
0.0
  0
LINE
  5
D15
330
1F
100
AcDbEntity
  8
2
  6
CONTINUOUS
370
25
 62
7
100
AcDbLine
 10
40.0
 20
15.00001
 30
0.0
 11
80.0
 21
15.00001
 31
0.0
  0
LINE
  5
D16
330
1F
100
AcDbEntity
  8
2
  6
CONTINUOUS
370
25
 62
7
100
AcDbLine
 10
40.0
 20
15.00001
 30
0.0
 11
45.0
 21
16.00001
 31
0.0
  0
LINE
  5
D17
330
1F
100
AcDbEntity
  8
2
  6
CONTINUOUS
370
25
 62
7
100
AcDbLine
 10
45.0
 20
16.00001
 30
0.0
 11
45.0
 21
14.00001
 31
0.0
  0
LINE
  5
D18
330
1F
100
AcDbEntity
  8
2
  6
CONTINUOUS
370
25
 62
7
100
AcDbLine
 10
45.0
 20
14.00001
 30
0.0
 11
40.0
 21
15.00001
 31
0.0
  0
LINE
  5
D19
330
1F
100
AcDbEntity
  8
2
  6
CONTINUOUS
370
25
 62
7
100
AcDbLine
 10
44.72183374028131
 20
14.05564325194374
 30
0.0
 11
45.0
 21
14.33380951166242
 31
0.0
  0
LINE
  5
D1A
330
1F
100
AcDbEntity
  8
2
  6
CONTINUOUS
370
25
 62
7
100
AcDbLine
 10
44.36828034968804
 20
14.12635393006239
 30
0.0
 11
45.0
 21
14.75807358037435
 31
0.0
  0
LINE
  5
D1B
330
1F
100
AcDbEntity
  8
2
  6
CONTINUOUS
370
25
 62
7
100
AcDbLine
 10
44.01472695909477
 20
14.19706460818105
 30
0.0
 11
45.0
 21
15.18233764908628
 31
0.0
  0
LINE
  5
D1C
330
1F
100
AcDbEntity
  8
2
  6
CONTINUOUS
370
25
 62
7
100
AcDbLine
 10
43.66117356850149
 20
14.2677752862997
 30
0.0
 11
45.0
 21
15.60660171779821
 31
0.0
  0
LINE
  5
D1D
330
1F
100
AcDbEntity
  8
2
  6
CONTINUOUS
370
25
 62
7
100
AcDbLine
 10
43.30762017790822
 20
14.33848596441836
 30
0.0
 11
44.96143026686233
 21
15.99229605337247
 31
0.0
  0
LINE
  5
D1E
330
1F
100
AcDbEntity
  8
2
  6
CONTINUOUS
370
25
 62
7
100
AcDbLine
 10
42.95406678731494
 20
14.40919664253701
 30
0.0
 11
44.43110018097242
 21
15.88623003619448
 31
0.0
  0
LINE
  5
D1F
330
1F
100
AcDbEntity
  8
2
  6
CONTINUOUS
370
25
 62
7
100
AcDbLine
 10
42.60051339672167
 20
14.47990732065566
 30
0.0
 11
43.90077009508251
 21
15.7801640190165
 31
0.0
  0
LINE
  5
D20
330
1F
100
AcDbEntity
  8
2
  6
CONTINUOUS
370
25
 62
7
100
AcDbLine
 10
42.2469600061284
 20
14.55061799877432
 30
0.0
 11
43.3704400091926
 21
15.67409800183852
 31
0.0
  0
LINE
  5
D21
330
1F
100
AcDbEntity
  8
2
  6
CONTINUOUS
370
25
 62
7
100
AcDbLine
 10
41.89340661553513
 20
14.62132867689297
 30
0.0
 11
42.84010992330269
 21
15.56803198466054
 31
0.0
  0
LINE
  5
D22
330
1F
100
AcDbEntity
  8
2
  6
CONTINUOUS
370
25
 62
7
100
AcDbLine
 10
41.53985322494185
 20
14.69203935501163
 30
0.0
 11
42.30977983741278
 21
15.46196596748256
 31
0.0
  0
LINE
  5
D23
330
1F
100
AcDbEntity
  8
2
  6
CONTINUOUS
370
25
 62
7
100
AcDbLine
 10
41.18629983434858
 20
14.76275003313028
 30
0.0
 11
41.77944975152287
 21
15.35589995030457
 31
0.0
  0
LINE
  5
D24
330
1F
100
AcDbEntity
  8
2
  6
CONTINUOUS
370
25
 62
7
100
AcDbLine
 10
40.8327464437553
 20
14.83346071124894
 30
0.0
 11
41.24911966563296
 21
15.24983393312659
 31
0.0
  0
LINE
  5
D25
330
1F
100
AcDbEntity
  8
2
  6
CONTINUOUS
370
25
 62
7
100
AcDbLine
 10
40.47919305316203
 20
14.90417138936759
 30
0.0
 11
40.71878957974305
 21
15.14376791594861
 31
0.0
  0
LINE
  5
D26
330
1F
100
AcDbEntity
  8
2
  6
CONTINUOUS
370
25
 62
7
100
AcDbLine
 10
40.12563966256876
 20
14.97488206748625
 30
0.0
 11
40.18845949385314
 21
15.03770189877063
 31
0.0
  0
LINE
  5
D27
330
1F
100
AcDbEntity
  8
2
  6
CONTINUOUS
370
25
 62
7
100
AcDbLine
 10
40.2279137280245
 20
15.0455927456049
 30
0.0
 11
40.34187059203676
 21
14.93163588159265
 31
0.0
  0
LINE
  5
D28
330
1F
100
AcDbEntity
  8
2
  6
CONTINUOUS
370
25
 62
7
100
AcDbLine
 10
40.58146711861778
 20
15.11630342372356
 30
0.0
 11
40.87220067792667
 21
14.82556986441467
 31
0.0
  0
LINE
  5
D29
330
1F
100
AcDbEntity
  8
2
  6
CONTINUOUS
370
25
 62
7
100
AcDbLine
 10
40.93502050921105
 20
15.18701410184221
 30
0.0
 11
41.40253076381658
 21
14.71950384723668
 31
0.0
  0
LINE
  5
D2A
330
1F
100
AcDbEntity
  8
2
  6
CONTINUOUS
370
25
 62
7
100
AcDbLine
 10
41.28857389980433
 20
15.25772477996086
 30
0.0
 11
41.93286084970649
 21
14.6134378300587
 31
0.0
  0
LINE
  5
D2B
330
1F
100
AcDbEntity
  8
2
  6
CONTINUOUS
370
25
 62
7
100
AcDbLine
 10
41.6421272903976
 20
15.32843545807952
 30
0.0
 11
42.46319093559639
 21
14.50737181288072
 31
0.0
  0
LINE
  5
D2C
330
1F
100
AcDbEntity
  8
2
  6
CONTINUOUS
370
25
 62
7
100
AcDbLine
 10
41.99568068099087
 20
15.39914613619817
 30
0.0
 11
42.99352102148631
 21
14.40130579570274
 31
0.0
  0
LINE
  5
D2D
330
1F
100
AcDbEntity
  8
2
  6
CONTINUOUS
370
25
 62
7
100
AcDbLine
 10
42.34923407158414
 20
15.46985681431683
 30
0.0
 11
43.52385110737622
 21
14.29523977852476
 31
0.0
  0
LINE
  5
D2E
330
1F
100
AcDbEntity
  8
2
  6
CONTINUOUS
370
25
 62
7
100
AcDbLine
 10
42.70278746217742
 20
15.54056749243548
 30
0.0
 11
44.05418119326612
 21
14.18917376134677
 31
0.0
  0
LINE
  5
D2F
330
1F
100
AcDbEntity
  8
2
  6
CONTINUOUS
370
25
 62
7
100
AcDbLine
 10
43.05634085277069
 20
15.61127817055414
 30
0.0
 11
44.58451127915604
 21
14.08310774416879
 31
0.0
  0
LINE
  5
D30
330
1F
100
AcDbEntity
  8
2
  6
CONTINUOUS
370
25
 62
7
100
AcDbLine
 10
43.40989424336396
 20
15.68198884867279
 30
0.0
 11
45.0
 21
14.09188309203676
 31
0.0
  0
LINE
  5
D31
330
1F
100
AcDbEntity
  8
2
  6
CONTINUOUS
370
25
 62
7
100
AcDbLine
 10
43.76344763395723
 20
15.75269952679145
 30
0.0
 11
45.0
 21
14.51614716074869
 31
0.0
  0
LINE
  5
D32
330
1F
100
AcDbEntity
  8
2
  6
CONTINUOUS
370
25
 62
7
100
AcDbLine
 10
44.11700102455051
 20
15.8234102049101
 30
0.0
 11
45.0
 21
14.94041122946061
 31
0.0
  0
LINE
  5
D33
330
1F
100
AcDbEntity
  8
2
  6
CONTINUOUS
370
25
 62
7
100
AcDbLine
 10
44.47055441514378
 20
15.89412088302876
 30
0.0
 11
45.0
 21
15.36467529817254
 31
0.0
  0
LINE
  5
D34
330
1F
100
AcDbEntity
  8
2
  6
CONTINUOUS
370
25
 62
7
100
AcDbLine
 10
44.82410780573706
 20
15.96483156114741
 30
0.0
 11
45.0
 21
15.78893936688447
 31
0.0
  0
LINE
  5
D35
330
1F
100
AcDbEntity
  8
2
  6
CONTINUOUS
370
25
 62
7
100
AcDbLine
 10
80.0
 20
15.00001
 30
0.0
 11
75.0
 21
14.00001
 31
0.0
  0
LINE
  5
D36
330
1F
100
AcDbEntity
  8
2
  6
CONTINUOUS
370
25
 62
7
100
AcDbLine
 10
75.0
 20
14.00001
 30
0.0
 11
75.0
 21
16.00001
 31
0.0
  0
LINE
  5
D37
330
1F
100
AcDbEntity
  8
2
  6
CONTINUOUS
370
25
 62
7
100
AcDbLine
 10
75.0
 20
16.00001
 30
0.0
 11
80.0
 21
15.00001
 31
0.0
  0
LINE
  5
D38
330
1F
100
AcDbEntity
  8
2
  6
CONTINUOUS
370
25
 62
7
100
AcDbLine
 10
79.93956482123681
 20
14.98792296424736
 30
0.0
 11
79.95970988082453
 21
15.00806802383509
 31
0.0
  0
LINE
  5
D39
330
1F
100
AcDbEntity
  8
2
  6
CONTINUOUS
370
25
 62
7
100
AcDbLine
 10
79.4092347353469
 20
14.88185694706938
 30
0.0
 11
79.60615649023126
 21
15.07877870195374
 31
0.0
  0
LINE
  5
D3A
330
1F
100
AcDbEntity
  8
2
  6
CONTINUOUS
370
25
 62
7
100
AcDbLine
 10
78.87890464945698
 20
14.7757909298914
 30
0.0
 11
79.25260309963798
 21
15.1494893800724
 31
0.0
  0
LINE
  5
D3B
330
1F
100
AcDbEntity
  8
2
  6
CONTINUOUS
370
25
 62
7
100
AcDbLine
 10
78.34857456356707
 20
14.66972491271342
 30
0.0
 11
78.8990497090447
 21
15.22020005819106
 31
0.0
  0
LINE
  5
D3C
330
1F
100
AcDbEntity
  8
2
  6
CONTINUOUS
370
25
 62
7
100
AcDbLine
 10
77.81824447767715
 20
14.56365889553543
 30
0.0
 11
78.54549631845143
 21
15.2909107363097
 31
0.0
  0
LINE
  5
D3D
330
1F
100
AcDbEntity
  8
2
  6
CONTINUOUS
370
25
 62
7
100
AcDbLine
 10
77.28791439178724
 20
14.45759287835745
 30
0.0
 11
78.19194292785815
 21
15.36162141442837
 31
0.0
  0
LINE
  5
D3E
330
1F
100
AcDbEntity
  8
2
  6
CONTINUOUS
370
25
 62
7
100
AcDbLine
 10
76.75758430589732
 20
14.35152686117947
 30
0.0
 11
77.83838953726487
 21
15.43233209254702
 31
0.0
  0
LINE
  5
D3F
330
1F
100
AcDbEntity
  8
2
  6
CONTINUOUS
370
25
 62
7
100
AcDbLine
 10
76.22725422000741
 20
14.24546084400148
 30
0.0
 11
77.4848361466716
 21
15.50304277066568
 31
0.0
  0
LINE
  5
D40
330
1F
100
AcDbEntity
  8
2
  6
CONTINUOUS
370
25
 62
7
100
AcDbLine
 10
75.6969241341175
 20
14.1393948268235
 30
0.0
 11
77.13128275607832
 21
15.57375344878432
 31
0.0
  0
LINE
  5
D41
330
1F
100
AcDbEntity
  8
2
  6
CONTINUOUS
370
25
 62
7
100
AcDbLine
 10
75.16659404822758
 20
14.03332880964551
 30
0.0
 11
76.77772936548504
 21
15.64446412690299
 31
0.0
  0
LINE
  5
D42
330
1F
100
AcDbEntity
  8
2
  6
CONTINUOUS
370
25
 62
7
100
AcDbLine
 10
75.0
 20
14.29099883012986
 30
0.0
 11
76.42417597489178
 21
15.71517480502164
 31
0.0
  0
LINE
  5
D43
330
1F
100
AcDbEntity
  8
2
  6
CONTINUOUS
370
25
 62
7
100
AcDbLine
 10
75.0
 20
14.71526289884179
 30
0.0
 11
76.0706225842985
 21
15.78588548314029
 31
0.0
  0
LINE
  5
D44
330
1F
100
AcDbEntity
  8
2
  6
CONTINUOUS
370
25
 62
7
100
AcDbLine
 10
75.0
 20
15.13952696755372
 30
0.0
 11
75.71706919370524
 21
15.85659616125895
 31
0.0
  0
LINE
  5
D45
330
1F
100
AcDbEntity
  8
2
  6
CONTINUOUS
370
25
 62
7
100
AcDbLine
 10
75.0
 20
15.56379103626564
 30
0.0
 11
75.36351580311197
 21
15.92730683937761
 31
0.0
  0
LINE
  5
D46
330
1F
100
AcDbEntity
  8
2
  6
CONTINUOUS
370
25
 62
7
100
AcDbLine
 10
75.0
 20
15.98805510497758
 30
0.0
 11
75.00996241251869
 21
15.99801751749627
 31
0.0
  0
LINE
  5
D47
330
1F
100
AcDbEntity
  8
2
  6
CONTINUOUS
370
25
 62
7
100
AcDbLine
 10
75.0
 20
14.2146319705837
 30
0.0
 11
75.17885164215309
 21
14.03578032843062
 31
0.0
  0
LINE
  5
D48
330
1F
100
AcDbEntity
  8
2
  6
CONTINUOUS
370
25
 62
7
100
AcDbLine
 10
75.0
 20
14.63889603929562
 30
0.0
 11
75.53240503274635
 21
14.10649100654928
 31
0.0
  0
LINE
  5
D49
330
1F
100
AcDbEntity
  8
2
  6
CONTINUOUS
370
25
 62
7
100
AcDbLine
 10
75.0
 20
15.06316010800756
 30
0.0
 11
75.88595842333963
 21
14.17720168466793
 31
0.0
  0
LINE
  5
D4A
330
1F
100
AcDbEntity
  8
2
  6
CONTINUOUS
370
25
 62
7
100
AcDbLine
 10
75.0
 20
15.48742417671948
 30
0.0
 11
76.23951181393289
 21
14.24791236278659
 31
0.0
  0
LINE
  5
D4B
330
1F
100
AcDbEntity
  8
2
  6
CONTINUOUS
370
25
 62
7
100
AcDbLine
 10
75.0
 20
15.91168824543141
 30
0.0
 11
76.59306520452618
 21
14.31862304090524
 31
0.0
  0
LINE
  5
D4C
330
1F
100
AcDbEntity
  8
2
  6
CONTINUOUS
370
25
 62
7
100
AcDbLine
 10
75.41992789267918
 20
15.91602442146417
 30
0.0
 11
76.94661859511946
 21
14.3893337190239
 31
0.0
  0
LINE
  5
D4D
330
1F
100
AcDbEntity
  8
2
  6
CONTINUOUS
370
25
 62
7
100
AcDbLine
 10
75.9502579785691
 20
15.80995840428618
 30
0.0
 11
77.30017198571275
 21
14.46004439714254
 31
0.0
  0
LINE
  5
D4E
330
1F
100
AcDbEntity
  8
2
  6
CONTINUOUS
370
25
 62
7
100
AcDbLine
 10
76.480588064459
 20
15.7038923871082
 30
0.0
 11
77.653725376306
 21
14.5307550752612
 31
0.0
  0
LINE
  5
D4F
330
1F
100
AcDbEntity
  8
2
  6
CONTINUOUS
370
25
 62
7
100
AcDbLine
 10
77.01091815034891
 20
15.59782636993022
 30
0.0
 11
78.00727876689929
 21
14.60146575337986
 31
0.0
  0
LINE
  5
D50
330
1F
100
AcDbEntity
  8
2
  6
CONTINUOUS
370
25
 62
7
100
AcDbLine
 10
77.54124823623883
 20
15.49176035275223
 30
0.0
 11
78.36083215749255
 21
14.67217643149851
 31
0.0
  0
LINE
  5
D51
330
1F
100
AcDbEntity
  8
2
  6
CONTINUOUS
370
25
 62
7
100
AcDbLine
 10
78.07157832212876
 20
15.38569433557425
 30
0.0
 11
78.71438554808583
 21
14.74288710961717
 31
0.0
  0
LINE
  5
D52
330
1F
100
AcDbEntity
  8
2
  6
CONTINUOUS
370
25
 62
7
100
AcDbLine
 10
78.60190840801867
 20
15.27962831839627
 30
0.0
 11
79.06793893867912
 21
14.81359778773582
 31
0.0
  0
LINE
  5
D53
330
1F
100
AcDbEntity
  8
2
  6
CONTINUOUS
370
25
 62
7
100
AcDbLine
 10
79.13223849390859
 20
15.17356230121828
 30
0.0
 11
79.4214923292724
 21
14.88430846585447
 31
0.0
  0
LINE
  5
D54
330
1F
100
AcDbEntity
  8
2
  6
CONTINUOUS
370
25
 62
7
100
AcDbLine
 10
79.6625685797985
 20
15.0674962840403
 30
0.0
 11
79.77504571986566
 21
14.95501914397314
 31
0.0
  0
TEXT
  5
D55
330
1F
100
AcDbEntity
  8
2
  6
CONTINUOUS
370
25
 62
7
100
AcDbText
 10
57.375
 20
16.00001
 30
0.0
 40
3.5
  1
40
 72
     1
 11
60.0
 21
16.00001
 31
0.0
100
AcDbText
  0
LINE
  5
D56
330
1F
100
AcDbEntity
  8
2
  6
CONTINUOUS
370
25
 62
7
100
AcDbLine
 10
50.0
 20
-3.5
 30
0.0
 11
50.0
 21
-23.00001
 31
0.0
  0
LINE
  5
D57
330
1F
100
AcDbEntity
  8
2
  6
CONTINUOUS
370
25
 62
7
100
AcDbLine
 10
80.0
 20
-23.00001
 30
0.0
 11
80.0
 21
-3.5
 31
0.0
  0
LINE
  5
D58
330
1F
100
AcDbEntity
  8
2
  6
CONTINUOUS
370
25
 62
7
100
AcDbLine
 10
50.0
 20
-22.00001
 30
0.0
 11
80.0
 21
-22.00001
 31
0.0
  0
LINE
  5
D59
330
1F
100
AcDbEntity
  8
2
  6
CONTINUOUS
370
25
 62
7
100
AcDbLine
 10
50.0
 20
-22.00001
 30
0.0
 11
55.0
 21
-21.00001
 31
0.0
  0
LINE
  5
D5A
330
1F
100
AcDbEntity
  8
2
  6
CONTINUOUS
370
25
 62
7
100
AcDbLine
 10
55.0
 20
-21.00001
 30
0.0
 11
55.0
 21
-23.00001
 31
0.0
  0
LINE
  5
D5B
330
1F
100
AcDbEntity
  8
2
  6
CONTINUOUS
370
25
 62
7
100
AcDbLine
 10
55.0
 20
-23.00001
 30
0.0
 11
50.0
 21
-22.00001
 31
0.0
  0
LINE
  5
D5C
330
1F
100
AcDbEntity
  8
2
  6
CONTINUOUS
370
25
 62
7
100
AcDbLine
 10
54.93400505873273
 20
-22.98681101174655
 30
0.0
 11
55.0
 21
-22.92081607047928
 31
0.0
  0
LINE
  5
D5D
330
1F
100
AcDbEntity
  8
2
  6
CONTINUOUS
370
25
 62
7
100
AcDbLine
 10
54.58045166813945
 20
-22.91610033362789
 30
0.0
 11
55.0
 21
-22.49655200176734
 31
0.0
  0
LINE
  5
D5E
330
1F
100
AcDbEntity
  8
2
  6
CONTINUOUS
370
25
 62
7
100
AcDbLine
 10
54.22689827754618
 20
-22.84538965550924
 30
0.0
 11
55.0
 21
-22.07228793305542
 31
0.0
  0
LINE
  5
D5F
330
1F
100
AcDbEntity
  8
2
  6
CONTINUOUS
370
25
 62
7
100
AcDbLine
 10
53.8733448869529
 20
-22.77467897739058
 30
0.0
 11
55.0
 21
-21.64802386434349
 31
0.0
  0
LINE
  5
D60
330
1F
100
AcDbEntity
  8
2
  6
CONTINUOUS
370
25
 62
7
100
AcDbLine
 10
53.51979149635963
 20
-22.70396829927193
 30
0.0
 11
55.0
 21
-21.22375979563157
 31
0.0
  0
LINE
  5
D61
330
1F
100
AcDbEntity
  8
2
  6
CONTINUOUS
370
25
 62
7
100
AcDbLine
 10
53.16623810576635
 20
-22.63325762115327
 30
0.0
 11
54.74935715864954
 21
-21.05013856827009
 31
0.0
  0
LINE
  5
D62
330
1F
100
AcDbEntity
  8
2
  6
CONTINUOUS
370
25
 62
7
100
AcDbLine
 10
52.81268471517309
 20
-22.56254694303462
 30
0.0
 11
54.21902707275964
 21
-21.15620458544807
 31
0.0
  0
LINE
  5
D63
330
1F
100
AcDbEntity
  8
2
  6
CONTINUOUS
370
25
 62
7
100
AcDbLine
 10
52.45913132457981
 20
-22.49183626491596
 30
0.0
 11
53.68869698686972
 21
-21.26227060262605
 31
0.0
  0
LINE
  5
D64
330
1F
100
AcDbEntity
  8
2
  6
CONTINUOUS
370
25
 62
7
100
AcDbLine
 10
52.10557793398654
 20
-22.42112558679731
 30
0.0
 11
53.15836690097981
 21
-21.36833661980404
 31
0.0
  0
LINE
  5
D65
330
1F
100
AcDbEntity
  8
2
  6
CONTINUOUS
370
25
 62
7
100
AcDbLine
 10
51.75202454339327
 20
-22.35041490867865
 30
0.0
 11
52.62803681508991
 21
-21.47440263698202
 31
0.0
  0
LINE
  5
D66
330
1F
100
AcDbEntity
  8
2
  6
CONTINUOUS
370
25
 62
7
100
AcDbLine
 10
51.39847115279999
 20
-22.27970423056
 30
0.0
 11
52.0977067292
 21
-21.58046865416
 31
0.0
  0
LINE
  5
D67
330
1F
100
AcDbEntity
  8
2
  6
CONTINUOUS
370
25
 62
7
100
AcDbLine
 10
51.04491776220672
 20
-22.20899355244135
 30
0.0
 11
51.56737664331008
 21
-21.68653467133798
 31
0.0
  0
LINE
  5
D68
330
1F
100
AcDbEntity
  8
2
  6
CONTINUOUS
370
25
 62
7
100
AcDbLine
 10
50.69136437161345
 20
-22.13828287432269
 30
0.0
 11
51.03704655742018
 21
-21.79260068851596
 31
0.0
  0
LINE
  5
D69
330
1F
100
AcDbEntity
  8
2
  6
CONTINUOUS
370
25
 62
7
100
AcDbLine
 10
50.33781098102018
 20
-22.06757219620404
 30
0.0
 11
50.50671647153027
 21
-21.89866670569395
 31
0.0
  0
LINE
  5
D6A
330
1F
100
AcDbEntity
  8
2
  6
CONTINUOUS
370
25
 62
7
100
AcDbLine
 10
50.26700506804391
 20
-21.94660898639122
 30
0.0
 11
50.40050760206586
 21
-22.08011152041317
 31
0.0
  0
LINE
  5
D6B
330
1F
100
AcDbEntity
  8
2
  6
CONTINUOUS
370
25
 62
7
100
AcDbLine
 10
50.62055845863718
 20
-21.87589830827256
 30
0.0
 11
50.93083768795577
 21
-22.18617753759115
 31
0.0
  0
LINE
  5
D6C
330
1F
100
AcDbEntity
  8
2
  6
CONTINUOUS
370
25
 62
7
100
AcDbLine
 10
50.97411184923045
 20
-21.80518763015391
 30
0.0
 11
51.46116777384567
 21
-22.29224355476914
 31
0.0
  0
LINE
  5
D6D
330
1F
100
AcDbEntity
  8
2
  6
CONTINUOUS
370
25
 62
7
100
AcDbLine
 10
51.32766523982372
 20
-21.73447695203525
 30
0.0
 11
51.99149785973559
 21
-22.39830957194712
 31
0.0
  0
LINE
  5
D6E
330
1F
100
AcDbEntity
  8
2
  6
CONTINUOUS
370
25
 62
7
100
AcDbLine
 10
51.681218630417
 20
-21.6637662739166
 30
0.0
 11
52.5218279456255
 21
-22.5043755891251
 31
0.0
  0
LINE
  5
D6F
330
1F
100
AcDbEntity
  8
2
  6
CONTINUOUS
370
25
 62
7
100
AcDbLine
 10
52.03477202101027
 20
-21.59305559579795
 30
0.0
 11
53.0521580315154
 21
-22.61044160630308
 31
0.0
  0
LINE
  5
D70
330
1F
100
AcDbEntity
  8
2
  6
CONTINUOUS
370
25
 62
7
100
AcDbLine
 10
52.38832541160355
 20
-21.52234491767929
 30
0.0
 11
53.58248811740532
 21
-22.71650762348106
 31
0.0
  0
LINE
  5
D71
330
1F
100
AcDbEntity
  8
2
  6
CONTINUOUS
370
25
 62
7
100
AcDbLine
 10
52.74187880219682
 20
-21.45163423956064
 30
0.0
 11
54.11281820329523
 21
-22.82257364065904
 31
0.0
  0
LINE
  5
D72
330
1F
100
AcDbEntity
  8
2
  6
CONTINUOUS
370
25
 62
7
100
AcDbLine
 10
53.09543219279009
 20
-21.38092356144198
 30
0.0
 11
54.64314828918513
 21
-22.92863965783703
 31
0.0
  0
LINE
  5
D73
330
1F
100
AcDbEntity
  8
2
  6
CONTINUOUS
370
25
 62
7
100
AcDbLine
 10
53.44898558338336
 20
-21.31021288332332
 30
0.0
 11
55.0
 21
-22.86122729993996
 31
0.0
  0
LINE
  5
D74
330
1F
100
AcDbEntity
  8
2
  6
CONTINUOUS
370
25
 62
7
100
AcDbLine
 10
53.80253897397664
 20
-21.23950220520467
 30
0.0
 11
55.0
 21
-22.43696323122803
 31
0.0
  0
LINE
  5
D75
330
1F
100
AcDbEntity
  8
2
  6
CONTINUOUS
370
25
 62
7
100
AcDbLine
 10
54.15609236456991
 20
-21.16879152708601
 30
0.0
 11
55.0
 21
-22.01269916251611
 31
0.0
  0
LINE
  5
D76
330
1F
100
AcDbEntity
  8
2
  6
CONTINUOUS
370
25
 62
7
100
AcDbLine
 10
54.50964575516318
 20
-21.09808084896736
 30
0.0
 11
55.0
 21
-21.58843509380418
 31
0.0
  0
LINE
  5
D77
330
1F
100
AcDbEntity
  8
2
  6
CONTINUOUS
370
25
 62
7
100
AcDbLine
 10
54.86319914575645
 20
-21.02737017084871
 30
0.0
 11
55.0
 21
-21.16417102509225
 31
0.0
  0
LINE
  5
D78
330
1F
100
AcDbEntity
  8
2
  6
CONTINUOUS
370
25
 62
7
100
AcDbLine
 10
80.0
 20
-22.00001
 30
0.0
 11
75.0
 21
-23.00001
 31
0.0
  0
LINE
  5
D79
330
1F
100
AcDbEntity
  8
2
  6
CONTINUOUS
370
25
 62
7
100
AcDbLine
 10
75.0
 20
-23.00001
 30
0.0
 11
75.0
 21
-21.00001
 31
0.0
  0
LINE
  5
D7A
330
1F
100
AcDbEntity
  8
2
  6
CONTINUOUS
370
25
 62
7
100
AcDbLine
 10
75.0
 20
-21.00001
 30
0.0
 11
80.0
 21
-22.00001
 31
0.0
  0
LINE
  5
D7B
330
1F
100
AcDbEntity
  8
2
  6
CONTINUOUS
370
25
 62
7
100
AcDbLine
 10
79.52054226292458
 20
-22.09590154741508
 30
0.0
 11
79.68036150861639
 21
-21.93608230172327
 31
0.0
  0
LINE
  5
D7C
330
1F
100
AcDbEntity
  8
2
  6
CONTINUOUS
370
25
 62
7
100
AcDbLine
 10
78.99021217703466
 20
-22.20196756459307
 30
0.0
 11
79.32680811802311
 21
-21.86537162360462
 31
0.0
  0
LINE
  5
D7D
330
1F
100
AcDbEntity
  8
2
  6
CONTINUOUS
370
25
 62
7
100
AcDbLine
 10
78.45988209114475
 20
-22.30803358177105
 30
0.0
 11
78.97325472742983
 21
-21.79466094548597
 31
0.0
  0
LINE
  5
D7E
330
1F
100
AcDbEntity
  8
2
  6
CONTINUOUS
370
25
 62
7
100
AcDbLine
 10
77.92955200525483
 20
-22.41409959894904
 30
0.0
 11
78.61970133683656
 21
-21.72395026736731
 31
0.0
  0
LINE
  5
D7F
330
1F
100
AcDbEntity
  8
2
  6
CONTINUOUS
370
25
 62
7
100
AcDbLine
 10
77.39922191936492
 20
-22.52016561612702
 30
0.0
 11
78.2661479462433
 21
-21.65323958924865
 31
0.0
  0
LINE
  5
D80
330
1F
100
AcDbEntity
  8
2
  6
CONTINUOUS
370
25
 62
7
100
AcDbLine
 10
76.86889183347502
 20
-22.626231633305
 30
0.0
 11
77.91259455565
 21
-21.58252891113001
 31
0.0
  0
LINE
  5
D81
330
1F
100
AcDbEntity
  8
2
  6
CONTINUOUS
370
25
 62
7
100
AcDbLine
 10
76.33856174758509
 20
-22.73229765048298
 30
0.0
 11
77.55904116505673
 21
-21.51181823301135
 31
0.0
  0
LINE
  5
D82
330
1F
100
AcDbEntity
  8
2
  6
CONTINUOUS
370
25
 62
7
100
AcDbLine
 10
75.80823166169517
 20
-22.83836366766096
 30
0.0
 11
77.20548777446345
 21
-21.44110755489269
 31
0.0
  0
LINE
  5
D83
330
1F
100
AcDbEntity
  8
2
  6
CONTINUOUS
370
25
 62
7
100
AcDbLine
 10
75.27790157580527
 20
-22.94442968483894
 30
0.0
 11
76.85193438387019
 21
-21.37039687677403
 31
0.0
  0
LINE
  5
D84
330
1F
100
AcDbEntity
  8
2
  6
CONTINUOUS
370
25
 62
7
100
AcDbLine
 10
75.0
 20
-22.79806719193229
 30
0.0
 11
76.49838099327691
 21
-21.29968619865538
 31
0.0
  0
LINE
  5
D85
330
1F
100
AcDbEntity
  8
2
  6
CONTINUOUS
370
25
 62
7
100
AcDbLine
 10
75.0
 20
-22.37380312322036
 30
0.0
 11
76.14482760268362
 21
-21.22897552053673
 31
0.0
  0
LINE
  5
D86
330
1F
100
AcDbEntity
  8
2
  6
CONTINUOUS
370
25
 62
7
100
AcDbLine
 10
75.0
 20
-21.94953905450843
 30
0.0
 11
75.79127421209034
 21
-21.15826484241808
 31
0.0
  0
LINE
  5
D87
330
1F
100
AcDbEntity
  8
2
  6
CONTINUOUS
370
25
 62
7
100
AcDbLine
 10
75.0
 20
-21.52527498579651
 30
0.0
 11
75.4377208214971
 21
-21.08755416429941
 31
0.0
  0
LINE
  5
D88
330
1F
100
AcDbEntity
  8
2
  6
CONTINUOUS
370
25
 62
7
100
AcDbLine
 10
75.0
 20
-21.10101091708457
 30
0.0
 11
75.0841674309038
 21
-21.01684348618076
 31
0.0
  0
LINE
  5
D89
330
1F
100
AcDbEntity
  8
2
  6
CONTINUOUS
370
25
 62
7
100
AcDbLine
 10
75.0
 20
-22.69634200735408
 30
0.0
 11
75.25305666053828
 21
-22.94939866789234
 31
0.0
  0
LINE
  5
D8A
330
1F
100
AcDbEntity
  8
2
  6
CONTINUOUS
370
25
 62
7
100
AcDbLine
 10
75.0
 20
-22.27207793864214
 30
0.0
 11
75.60661005113155
 21
-22.87868798977369
 31
0.0
  0
LINE
  5
D8B
330
1F
100
AcDbEntity
  8
2
  6
CONTINUOUS
370
25
 62
7
100
AcDbLine
 10
75.0
 20
-21.84781386993022
 30
0.0
 11
75.96016344172483
 21
-22.80797731165503
 31
0.0
  0
LINE
  5
D8C
330
1F
100
AcDbEntity
  8
2
  6
CONTINUOUS
370
25
 62
7
100
AcDbLine
 10
75.0
 20
-21.42354980121829
 30
0.0
 11
76.3137168323181
 21
-22.73726663353637
 31
0.0
  0
LINE
  5
D8D
330
1F
100
AcDbEntity
  8
2
  6
CONTINUOUS
370
25
 62
7
100
AcDbLine
 10
75.00090533436705
 20
-21.00019106687342
 30
0.0
 11
76.66727022291137
 21
-22.66655595541772
 31
0.0
  0
LINE
  5
D8E
330
1F
100
AcDbEntity
  8
2
  6
CONTINUOUS
370
25
 62
7
100
AcDbLine
 10
75.53123542025696
 20
-21.1062570840514
 30
0.0
 11
77.02082361350465
 21
-22.59584527729907
 31
0.0
  0
LINE
  5
D8F
330
1F
100
AcDbEntity
  8
2
  6
CONTINUOUS
370
25
 62
7
100
AcDbLine
 10
76.06156550614688
 20
-21.21232310122938
 30
0.0
 11
77.37437700409792
 21
-22.52513459918042
 31
0.0
  0
LINE
  5
D90
330
1F
100
AcDbEntity
  8
2
  6
CONTINUOUS
370
25
 62
7
100
AcDbLine
 10
76.59189559203679
 20
-21.31838911840736
 30
0.0
 11
77.72793039469121
 21
-22.45442392106176
 31
0.0
  0
LINE
  5
D91
330
1F
100
AcDbEntity
  8
2
  6
CONTINUOUS
370
25
 62
7
100
AcDbLine
 10
77.12222567792672
 20
-21.42445513558535
 30
0.0
 11
78.08148378528448
 21
-22.3837132429431
 31
0.0
  0
LINE
  5
D92
330
1F
100
AcDbEntity
  8
2
  6
CONTINUOUS
370
25
 62
7
100
AcDbLine
 10
77.65255576381664
 20
-21.53052115276333
 30
0.0
 11
78.43503717587775
 21
-22.31300256482444
 31
0.0
  0
LINE
  5
D93
330
1F
100
AcDbEntity
  8
2
  6
CONTINUOUS
370
25
 62
7
100
AcDbLine
 10
78.18288584970655
 20
-21.63658716994131
 30
0.0
 11
78.78859056647103
 21
-22.24229188670579
 31
0.0
  0
LINE
  5
D94
330
1F
100
AcDbEntity
  8
2
  6
CONTINUOUS
370
25
 62
7
100
AcDbLine
 10
78.71321593559647
 20
-21.74265318711929
 30
0.0
 11
79.14214395706432
 21
-22.17158120858714
 31
0.0
  0
LINE
  5
D95
330
1F
100
AcDbEntity
  8
2
  6
CONTINUOUS
370
25
 62
7
100
AcDbLine
 10
79.24354602148637
 20
-21.84871920429728
 30
0.0
 11
79.49569734765758
 21
-22.10087053046848
 31
0.0
  0
LINE
  5
D96
330
1F
100
AcDbEntity
  8
2
  6
CONTINUOUS
370
25
 62
7
100
AcDbLine
 10
79.7738761073763
 20
-21.95478522147526
 30
0.0
 11
79.84925073825086
 21
-22.03015985234983
 31
0.0
  0
TEXT
  5
D97
330
1F
100
AcDbEntity
  8
2
  6
CONTINUOUS
370
25
 62
7
100
AcDbText
 10
62.375
 20
-21.00001
 30
0.0
 40
3.5
  1
30
 72
     1
 11
65.0
 21
-21.00001
 31
0.0
100
AcDbText
  0
LINE
  5
D98
330
1F
100
AcDbEntity
  8
4
  6
LONGDASH_DASH
370
25
 62
2
100
AcDbLine
 10
40.0
 20
0.0
 30
0.0
 11
80.0
 21
0.0
 31
0.0
  0
LINE
  5
D99
330
1F
100
AcDbEntity
  8
SK4
  6
LONGDASH_DASH
370
25
 62
2
100
AcDbLine
 10
-5.0
 20
0.0
 30
0.0
 11
85.0
 21
0.0
 31
0.0
  0
LINE
  5
D9A
330
1F
100
AcDbEntity
  8
1
  6
CONTINUOUS
370
50
 62
4
100
AcDbLine
 10
40.0
 20
0.0
 30
0.0
 11
43.0625
 21
0.0
 31
0.0
  0
LINE
  5
D9B
330
1F
100
AcDbEntity
  8
1
  6
CONTINUOUS
370
50
 62
4
100
AcDbLine
 10
40.0
 20
0.0
 30
0.0
 11
40.0
 21
3.0625
 31
0.0
  0
ARC
  5
D9C
330
1F
100
AcDbEntity
  8
1
  6
CONTINUOUS
370
50
 62
4
100
AcDbCircle
 10
40.0
 20
0.0
 30
0.0
 40
3.0625
100
AcDbArc
 50
0.0
 51
90.0
  0
LINE
  5
D9D
330
1F
100
AcDbEntity
  8
1
  6
CONTINUOUS
370
50
 62
4
100
AcDbLine
 10
40.0
 20
0.0
 30
0.0
 11
36.9375
 21
0.0
 31
0.0
  0
ARC
  5
D9E
330
1F
100
AcDbEntity
  8
1
  6
CONTINUOUS
370
50
 62
4
100
AcDbCircle
 10
40.0
 20
0.0
 30
0.0
 40
3.0625
100
AcDbArc
 50
180.0
 51
270.0
  0
LINE
  5
D9F
330
1F
100
AcDbEntity
  8
1
  6
CONTINUOUS
370
50
 62
4
100
AcDbLine
 10
40.0
 20
-3.0625
 30
0.0
 11
40.0
 21
0.0
 31
0.0
  0
ARC
  5
DA0
330
1F
100
AcDbEntity
  8
1
  6
CONTINUOUS
370
50
 62
4
100
AcDbCircle
 10
40.0
 20
0.0
 30
0.0
 40
3.0625
100
AcDbArc
 50
270.0
 51
0.0
  0
ARC
  5
DA1
330
1F
100
AcDbEntity
  8
1
  6
CONTINUOUS
370
50
 62
4
100
AcDbCircle
 10
40.0
 20
0.0
 30
0.0
 40
3.0625
100
AcDbArc
 50
90.0
 51
180.0
  0
LINE
  5
DA2
330
1F
100
AcDbEntity
  8
INFTOTAL
  6
CONTINUOUS
370
18
 62
9
100
AcDbLine
 10
-26.400011
 20
-39.60001100000001
 30
0.0
 11
122.100011
 21
-39.60001100000001
 31
0.0
  0
LINE
  5
DA3
330
1F
100
AcDbEntity
  8
INFTOTAL
  6
CONTINUOUS
370
18
 62
9
100
AcDbLine
 10
122.100011
 20
-39.60001100000001
 30
0.0
 11
122.100011
 21
39.60001100000001
 31
0.0
  0
LINE
  5
DA4
330
1F
100
AcDbEntity
  8
INFTOTAL
  6
CONTINUOUS
370
18
 62
9
100
AcDbLine
 10
122.100011
 20
39.60001100000001
 30
0.0
 11
-26.40001099999999
 21
39.60001100000001
 31
0.0
  0
LINE
  5
DA5
330
1F
100
AcDbEntity
  8
INFTOTAL
  6
CONTINUOUS
370
18
 62
9
100
AcDbLine
 10
-26.40001099999999
 20
39.60001100000001
 30
0.0
 11
-26.40001099999999
 21
-39.60001100000001
 31
0.0
  0
ARC
  5
DA6
330
1F
100
AcDbEntity
  8
SK6
  6
CONTINUOUS
370
25
 62
5
100
AcDbCircle
 10
160.7613910083765
 20
-32.34525475338786
 30
0.0
 40
2.76048912849221
100
AcDbArc
 50
338.9379403434233
 51
90.44457437511392
  0
LINE
  5
DA7
330
1F
100
AcDbEntity
  8
SK6
  6
CONTINUOUS
370
25
 62
5
100
AcDbLine
 10
160.7399717969598
 20
-29.58484872421281
 30
0.0
 11
160.7399717969598
 21
-30.68790735613463
 31
0.0
  0
ARC
  5
DA8
330
1F
100
AcDbEntity
  8
SK6
  6
CONTINUOUS
370
25
 62
5
100
AcDbCircle
 10
160.7505180293692
 20
-32.36524824566821
 30
0.0
 40
1.677374043771779
100
AcDbArc
 50
243.4214706017868
 51
90.3602408122618
  0
ARC
  5
DA9
330
1F
100
AcDbEntity
  8
SK6
  6
CONTINUOUS
370
25
 62
5
100
AcDbCircle
 10
163.2727688968496
 20
-31.93384099215561
 30
0.0
 40
3.80021703002276
100
AcDbArc
 50
210.5483731288539
 51
236.9780169366798
  0
LINE
  5
DAA
330
1F
100
AcDbEntity
  8
SK6
  6
CONTINUOUS
370
25
 62
5
100
AcDbLine
 10
161.2017996851249
 20
-35.12017681867535
 30
0.0
 11
165.3437399674267
 21
-35.12017681867535
 31
0.0
  0
ARC
  5
DAB
330
1F
100
AcDbEntity
  8
SK6
  6
CONTINUOUS
370
25
 62
5
100
AcDbCircle
 10
163.2727708387726
 20
-31.9338410937346
 30
0.0
 40
3.800216899582462
100
AcDbArc
 50
303.0219828477958
 51
326.3732153033478
  0
LINE
  5
DAC
330
1F
100
AcDbEntity
  8
SK6
  6
CONTINUOUS
370
25
 62
5
100
AcDbLine
 10
166.4370687513572
 20
-34.0383284907709
 30
0.0
 11
163.0797707057546
 21
-34.0383284907709
 31
0.0
  0
LINE
  5
DAD
330
1F
100
AcDbEntity
  8
SK6
  6
CONTINUOUS
370
25
 62
5
100
AcDbLine
 10
163.0797707057546
 20
-34.0383284907709
 30
0.0
 11
166.9996300977199
 21
-32.67692729641693
 31
0.0
  0
ARC
  5
DAE
330
1F
100
AcDbEntity
  8
SK6
  6
CONTINUOUS
370
25
 62
5
100
AcDbCircle
 10
163.2727715615721
 20
-31.9338416048594
 30
0.0
 40
3.800217216614737
100
AcDbArc
 50
348.7238644184696
 51
53.4691051260886
  0
LINE
  5
DAF
330
1F
100
AcDbEntity
  8
SK6
  6
CONTINUOUS
370
25
 62
5
100
AcDbLine
 10
165.5348742453855
 20
-28.88023024429967
 30
0.0
 11
163.3374594788274
 21
-33.33731873507057
 31
0.0
  0
LINE
  5
DB0
330
1F
100
AcDbEntity
  8
0
  6
cc_dim_arrow
 62
     4
100
AcDbLine
 10
39.95118560777957
 20
0.0
 30
0.0
 11
40.0
 21
-0.0488143922204269
 31
0.0
  0
LINE
  5
DB1
330
1F
100
AcDbEntity
  8
0
  6
cc_dim_arrow
 62
     4
100
AcDbLine
 10
36.9399251315243
 20
-0.0771689363588064
 30
0.0
 11
37.0170940678831
 21
0.0
 31
0.0
  0
LINE
  5
DB2
330
1F
100
AcDbEntity
  8
0
  6
cc_dim_arrow
 62
     4
100
AcDbLine
 10
40.0
 20
2.982905932116899
 30
0.0
 11
40.07716893635881
 21
3.060074868475706
 31
0.0
  0
LINE
  5
DB3
330
1F
100
AcDbEntity
  8
0
  6
cc_dim_arrow
 62
     4
100
AcDbLine
 10
40.0
 20
0.384288511256333
 30
0.0
 11
40.38428851125634
 21
0.0
 31
0.0
  0
LINE
  5
DB4
330
1F
100
AcDbEntity
  8
0
  6
cc_dim_arrow
 62
     4
100
AcDbLine
 10
39.61004945918235
 20
-3.037382353898634
 30
0.0
 11
40.0
 21
-2.647431813080986
 31
0.0
  0
LINE
  5
DB5
330
1F
100
AcDbEntity
  8
0
  6
cc_dim_arrow
 62
     4
100
AcDbLine
 10
42.64743181308098
 20
0.0
 30
0.0
 11
43.03738235389864
 21
0.3899505408176478
 31
0.0
  0
LINE
  5
DB6
330
1F
100
AcDbEntity
  8
0
  6
cc_dim_arrow
 62
     4
100
AcDbLine
 10
36.97596630639492
 20
-0.4742306649649457
 30
0.0
 11
37.45019697135987
 21
0.0
 31
0.0
  0
LINE
  5
DB7
330
1F
100
AcDbEntity
  8
0
  6
cc_dim_arrow
 62
     4
100
AcDbLine
 10
40.0
 20
2.549803028640136
 30
0.0
 11
40.47423066496494
 21
3.024033693605082
 31
0.0
  0
LINE
  5
DB8
330
1F
100
AcDbEntity
  8
0
  6
cc_dim_arrow
 62
     4
100
AcDbLine
 10
39.51808270430281
 20
0.0
 30
0.0
 11
40.0
 21
-0.4819172956971869
 31
0.0
  0
LINE
  5
DB9
330
1F
100
AcDbEntity
  8
0
  6
cc_dim_arrow
 62
     4
100
AcDbLine
 10
41.82018752194426
 20
2.462027120602918
 30
0.0
 11
42.46202712060292
 21
1.820187521944262
 31
0.0
  0
LINE
  5
DBA
330
1F
100
AcDbEntity
  8
0
  6
cc_dim_arrow
 62
     4
100
AcDbLine
 10
39.24627896481093
 20
-2.968049944793296
 30
0.0
 11
40.0
 21
-2.214328909604226
 31
0.0
  0
LINE
  5
DBB
330
1F
100
AcDbEntity
  8
0
  6
cc_dim_arrow
 62
     4
100
AcDbLine
 10
42.21432890960423
 20
0.0
 30
0.0
 11
42.96804994479329
 21
0.75372103518907
 31
0.0
  0
LINE
  5
DBC
330
1F
100
AcDbEntity
  8
0
  6
cc_dim_arrow
 62
     4
100
AcDbLine
 10
40.0
 20
0.8173914147330921
 30
0.0
 11
40.81739141473309
 21
0.0
 31
0.0
  0
LINE
  5
DBD
330
1F
100
AcDbEntity
  8
0
  6
cc_dim_arrow
 62
     4
100
AcDbLine
 10
37.05351879196703
 20
-0.8297810828695971
 30
0.0
 11
37.88329987483662
 21
0.0
 31
0.0
  0
LINE
  5
DBE
330
1F
100
AcDbEntity
  8
0
  6
cc_dim_arrow
 62
     4
100
AcDbLine
 10
40.0
 20
2.116700125163375
 30
0.0
 11
40.82978108286959
 21
2.946481208032972
 31
0.0
  0
LINE
  5
DBF
330
1F
100
AcDbEntity
  8
0
  6
cc_dim_arrow
 62
     4
100
AcDbLine
 10
39.08497980082605
 20
0.0
 30
0.0
 11
40.0
 21
-0.915020199173946
 31
0.0
  0
LINE
  5
DC0
330
1F
100
AcDbEntity
  8
0
  6
cc_dim_arrow
 62
     4
100
AcDbLine
 10
38.9175935311948
 20
-2.863632474932658
 30
0.0
 11
40.0
 21
-1.781226006127464
 31
0.0
  0
LINE
  5
DC1
330
1F
100
AcDbEntity
  8
0
  6
cc_dim_arrow
 62
     4
100
AcDbLine
 10
41.78122600612746
 20
0.0
 30
0.0
 11
42.86363247493266
 21
1.082406468805194
 31
0.0
  0
LINE
  5
DC2
330
1F
100
AcDbEntity
  8
0
  6
cc_dim_arrow
 62
     4
100
AcDbLine
 10
37.16357229520479
 20
-1.152830483108593
 30
0.0
 11
38.31640277831338
 21
0.0
 31
0.0
  0
LINE
  5
DC3
330
1F
100
AcDbEntity
  8
0
  6
cc_dim_arrow
 62
     4
100
AcDbLine
 10
40.0
 20
1.683597221686615
 30
0.0
 11
41.15283048310859
 21
2.836427704795208
 31
0.0
  0
LINE
  5
DC4
330
1F
100
AcDbEntity
  8
0
  6
cc_dim_arrow
 62
     4
100
AcDbLine
 10
40.0
 20
1.250494318209852
 30
0.0
 11
41.25049431820985
 21
0.0
 31
0.0
  0
LINE
  5
DC5
330
1F
100
AcDbEntity
  8
0
  6
cc_dim_arrow
 62
     4
100
AcDbLine
 10
38.65187689734929
 20
0.0
 30
0.0
 11
40.0
 21
-1.348123102650706
 31
0.0
  0
LINE
  5
DC6
330
1F
100
AcDbEntity
  8
0
  6
cc_dim_arrow
 62
     4
100
AcDbLine
 10
38.61724425544239
 20
-2.730878847208312
 30
0.0
 11
40.0
 21
-1.348123102650704
 31
0.0
  0
LINE
  5
DC7
330
1F
100
AcDbEntity
  8
0
  6
cc_dim_arrow
 62
     4
100
AcDbLine
 10
41.3481231026507
 20
0.0
 30
0.0
 11
42.73087884720831
 21
1.382755744557608
 31
0.0
  0
LINE
  5
DC8
330
1F
100
AcDbEntity
  8
0
  6
cc_dim_arrow
 62
     4
100
AcDbLine
 10
37.30207478752006
 20
-1.447430894270086
 30
0.0
 11
38.74950568179015
 21
0.0
 31
0.0
  0
LINE
  5
DC9
330
1F
100
AcDbEntity
  8
0
  6
cc_dim_arrow
 62
     4
100
AcDbLine
 10
40.0
 20
1.250494318209856
 30
0.0
 11
41.44743089427008
 21
2.697925212479942
 31
0.0
  0
LINE
  5
DCA
330
1F
100
AcDbEntity
  8
0
  6
cc_dim_arrow
 62
     4
100
AcDbLine
 10
38.34130924158598
 20
-2.573710957587966
 30
0.0
 11
40.0
 21
-0.9150201991739442
 31
0.0
  0
LINE
  5
DCB
330
1F
100
AcDbEntity
  8
0
  6
cc_dim_arrow
 62
     4
100
AcDbLine
 10
40.91502019917395
 20
0.0
 30
0.0
 11
42.57371095758796
 21
1.658690758414021
 31
0.0
  0
LINE
  5
DCC
330
1F
100
AcDbEntity
  8
0
  6
cc_dim_arrow
 62
     4
100
AcDbLine
 10
40.0
 20
1.683597221686613
 30
0.0
 11
41.68359722168661
 21
0.0
 31
0.0
  0
LINE
  5
DCD
330
1F
100
AcDbEntity
  8
0
  6
cc_dim_arrow
 62
     4
100
AcDbLine
 10
37.46579159130131
 20
-1.71681699396559
 30
0.0
 11
39.18260858526691
 21
0.0
 31
0.0
  0
LINE
  5
DCE
330
1F
100
AcDbEntity
  8
0
  6
cc_dim_arrow
 62
     4
100
AcDbLine
 10
40.0
 20
0.8173914147330956
 30
0.0
 11
41.71681699396559
 21
2.534208408698686
 31
0.0
  0
LINE
  5
DCF
330
1F
100
AcDbEntity
  8
0
  6
cc_dim_arrow
 62
     4
100
AcDbLine
 10
37.13676220163594
 20
-1.08350272514721
 30
0.0
 11
38.91649727485279
 21
-2.863237798364062
 31
0.0
  0
LINE
  5
DD0
330
1F
100
AcDbEntity
  8
0
  6
cc_dim_arrow
 62
     4
100
AcDbLine
 10
38.21877399387253
 20
0.0
 30
0.0
 11
40.0
 21
-1.781226006127466
 31
0.0
  0
LINE
  5
DD1
330
1F
100
AcDbEntity
  8
0
  6
cc_dim_arrow
 62
     4
100
AcDbLine
 10
38.0897498840086
 20
-2.392167411688578
 30
0.0
 11
40.0
 21
-0.4819172956971842
 31
0.0
  0
LINE
  5
DD2
330
1F
100
AcDbEntity
  8
0
  6
cc_dim_arrow
 62
     4
100
AcDbLine
 10
40.48191729569719
 20
0.0
 30
0.0
 11
42.39216741168858
 21
1.910250115991393
 31
0.0
  0
LINE
  5
DD3
330
1F
100
AcDbEntity
  8
0
  6
cc_dim_arrow
 62
     4
100
AcDbLine
 10
37.65121898530775
 20
-1.964492503435912
 30
0.0
 11
39.61571148874366
 21
0.0
 31
0.0
  0
LINE
  5
DD4
330
1F
100
AcDbEntity
  8
0
  6
cc_dim_arrow
 62
     4
100
AcDbLine
 10
40.0
 20
0.3842885112563357
 30
0.0
 11
41.96449250343591
 21
2.348781014692249
 31
0.0
  0
LINE
  5
DD5
330
1F
100
AcDbEntity
  8
0
  6
cc_dim_arrow
 62
     4
100
AcDbLine
 10
40.93246213409626
 20
2.916649604974163
 30
0.0
 11
42.91664960497416
 21
0.9324621340962582
 31
0.0
  0
LINE
  5
DD6
330
1F
100
AcDbEntity
  8
0
  6
cc_dim_arrow
 62
     4
100
AcDbLine
 10
40.0
 20
2.116700125163374
 30
0.0
 11
42.11670012516338
 21
0.0
 31
0.0
  0
LINE
  5
DD7
330
1F
100
AcDbEntity
  8
0
  6
cc_dim_arrow
 62
     4
100
AcDbLine
 10
37.85996122941787
 20
-2.188853162802553
 30
0.0
 11
40.0
 21
-0.0488143922204243
 31
0.0
  0
LINE
  5
DD8
330
1F
100
AcDbEntity
  8
0
  6
cc_dim_arrow
 62
     4
100
AcDbLine
 10
40.04881439222042
 20
0.0
 30
0.0
 11
42.18885316280255
 21
2.140038770582128
 31
0.0
  0
LINE
  5
DD9
330
1F
100
AcDbEntity
  8
0
  6
cc_dim_arrow
 62
     4
100
AcDbLine
 10
37.78567109039577
 20
0.0
 30
0.0
 11
40.0
 21
-2.214328909604225
 31
0.0
  0
LINE
  5
DDA
330
1F
100
AcDbEntity
  8
0
  6
cc_dim_arrow
 62
     4
100
AcDbLine
 10
36.97885941523187
 20
-0.4924970352663824
 30
0.0
 11
39.50750296473362
 21
-3.021140584768129
 31
0.0
  0
LINE
  5
DDB
330
1F
100
AcDbEntity
  8
0
  6
cc_dim_arrow
 62
     4
100
AcDbLine
 10
40.0
 20
2.549803028640134
 30
0.0
 11
42.54980302864013
 21
0.0
 31
0.0
  0
LINE
  5
DDC
330
1F
100
AcDbEntity
  8
0
  6
cc_dim_arrow
 62
     4
100
AcDbLine
 10
37.35256818691901
 20
0.0
 30
0.0
 11
40.0
 21
-2.647431813080986
 31
0.0
  0
LINE
  5
DDD
330
1F
100
AcDbEntity
  8
0
  6
cc_dim_arrow
 62
     4
100
AcDbLine
 10
40.37701286789481
 20
3.038995967698841
 30
0.0
 11
43.03899596769884
 21
0.3770128678948184
 31
0.0
  0
LINE
  5
DDE
330
1F
100
AcDbEntity
  8
0
  6
cc_dim_arrow
 62
     4
100
AcDbLine
 10
40.0
 20
2.982905932116894
 30
0.0
 11
42.9829059321169
 21
0.0
 31
0.0
  0
LINE
  5
DDF
330
1F
100
AcDbEntity
  8
0
  6
cc_dim_arrow
 62
     4
100
AcDbLine
 10
36.93808515297358
 20
-0.018619869531336
 30
0.0
 11
39.98138013046866
 21
-3.061914847026416
 31
0.0
  0
ENDSEC
  0
SECTION
  2
OBJECTS
  0
DICTIONARY
  5
C
330
0
100
AcDbDictionary
281
     1
  3
ACAD_GROUP
350
D
  3
ACAD_LAYOUT
350
1A
  3
ACAD_MATERIAL
350
3B
  3
ACAD_MLEADERSTYLE
350
DE2
  3
ACAD_MLINESTYLE
350
17
  3
ACAD_PLOTSETTINGS
350
19
  3
ACAD_PLOTSTYLENAME
350
E
  3
ACAD_SCALELIST
350
564
  3
ACAD_VISUALSTYLE
350
2A
  3
AcDbVariableDictionary
350
DE0
  0
DICTIONARY
  5
D
102
{ACAD_REACTORS
330
C
102
}
330
C
100
AcDbDictionary
281
     1
  0
DICTIONARY
  5
1A
102
{ACAD_REACTORS
330
C
102
}
330
C
100
AcDbDictionary
281
     1
  3
Layout1
350
1E
  3
Layout2
350
26
  3
Model
350
22
  0
DICTIONARY
  5
3B
102
{ACAD_REACTORS
330
C
102
}
330
C
100
AcDbDictionary
281
     1
  3
ByBlock
350
3D
  3
ByLayer
350
3C
  3
Global
350
3E
  0
DICTIONARY
  5
DE2
102
{ACAD_REACTORS
330
C
102
}
330
C
100
AcDbDictionary
281
     1
  0
DICTIONARY
  5
17
102
{ACAD_REACTORS
330
C
102
}
330
C
100
AcDbDictionary
281
     1
  3
Standard
350
18
  0
DICTIONARY
  5
19
102
{ACAD_REACTORS
330
C
102
}
330
C
100
AcDbDictionary
281
     1
  0
ACDBDICTIONARYWDFLT
  5
E
102
{ACAD_REACTORS
330
C
102
}
330
C
100
AcDbDictionary
281
     1
  3
Normal
350
F
100
AcDbDictionaryWithDefault
340
F
  0
DICTIONARY
  5
564
102
{ACAD_REACTORS
330
C
102
}
330
C
100
AcDbDictionary
281
     1
  3
A0
350
565
  3
A1
350
566
  3
A2
350
567
  3
A3
350
568
  3
A4
350
569
  3
A5
350
56A
  3
A6
350
56B
  3
A7
350
56C
  3
A8
350
56D
  3
A9
350
56E
  3
B0
350
56F
  3
B1
350
570
  3
B2
350
571
  3
B3
350
572
  3
B4
350
573
  3
B5
350
574
  3
B6
350
575
  3
B7
350
576
  3
B8
350
577
  3
B9
350
578
  3
C0
350
579
  3
C1
350
57A
  3
C2
350
57B
  3
C3
350
57C
  3
C4
350
57D
  3
C5
350
57E
  3
C6
350
57F
  3
C7
350
580
  3
C8
350
581
  3
C9
350
582
  3
D0
350
583
  3
D1
350
584
  3
D2
350
585
  0
DICTIONARY
  5
2A
102
{ACAD_REACTORS
330
C
102
}
330
C
100
AcDbDictionary
281
     1
  3
2dWireframe
350
2F
  3
3D Hidden
350
31
  3
3dWireframe
350
30
  3
Basic
350
32
  3
Brighten
350
36
  3
ColorChange
350
3A
  3
Conceptual
350
34
  3
Dim
350
35
  3
Facepattern
350
39
  3
Flat
350
2B
  3
FlatWithEdges
350
2C
  3
Gouraud
350
2D
  3
GouraudWithEdges
350
2E
  3
Linepattern
350
38
  3
Realistic
350
33
  3
Thicken
350
37
  0
DICTIONARY
  5
DE0
102
{ACAD_REACTORS
330
C
102
}
330
C
100
AcDbDictionary
281
     1
  3
CANNOSCALE
350
DE5
  3
DIMASSOC
350
DE6
  3
HIDETEXT
350
DE7
  3
PSOLHEIGHT
350
DE4
  3
PSOLWIDTH
350
DE3
  0
LAYOUT
  5
1E
102
{ACAD_REACTORS
330
1A
102
}
330
1A
100
AcDbPlotSettings
  1

  2
none_device
  4

  6

 40
0.0
 41
0.0
 42
0.0
 43
0.0
 44
0.0
 45
0.0
 46
0.0
 47
0.0
 48
0.0
 49
0.0
140
0.0
141
0.0
142
1.0
143
1.0
 70
   688
 72
     0
 73
     0
 74
     5
  7

 75
    16
147
1.0
148
0.0
149
0.0
100
AcDbLayout
  1
Layout1
 70
     1
 71
     1
 10
0.0
 20
0.0
 11
420.0
 21
297.0
 12
0.0
 22
0.0
 32
0.0
 14
1.000000000000000E+20
 24
1.000000000000000E+20
 34
1.000000000000000E+20
 15
-1.000000000000000E+20
 25
-1.000000000000000E+20
 35
-1.000000000000000E+20
146
0.0
 13
0.0
 23
0.0
 33
0.0
 16
1.0
 26
0.0
 36
0.0
 17
0.0
 27
1.0
 37
0.0
 76
     0
330
1B
  0
LAYOUT
  5
26
102
{ACAD_REACTORS
330
1A
102
}
330
1A
100
AcDbPlotSettings
  1

  2
none_device
  4

  6

 40
0.0
 41
0.0
 42
0.0
 43
0.0
 44
0.0
 45
0.0
 46
0.0
 47
0.0
 48
0.0
 49
0.0
140
0.0
141
0.0
142
1.0
143
1.0
 70
   688
 72
     0
 73
     0
 74
     5
  7

 75
    16
147
1.0
148
0.0
149
0.0
100
AcDbLayout
  1
Layout2
 70
     1
 71
     2
 10
0.0
 20
0.0
 11
0.0
 21
0.0
 12
0.0
 22
0.0
 32
0.0
 14
0.0
 24
0.0
 34
0.0
 15
0.0
 25
0.0
 35
0.0
146
0.0
 13
0.0
 23
0.0
 33
0.0
 16
1.0
 26
0.0
 36
0.0
 17
0.0
 27
1.0
 37
0.0
 76
     0
330
23
  0
LAYOUT
  5
22
102
{ACAD_REACTORS
330
1A
102
}
330
1A
100
AcDbPlotSettings
  1

  2
none_device
  4

  6

 40
0.0
 41
0.0
 42
0.0
 43
0.0
 44
0.0
 45
0.0
 46
0.0
 47
0.0
 48
0.0
 49
0.0
140
0.0
141
0.0
142
1.0
143
1.0
 70
  1712
 72
     0
 73
     0
 74
     0
  7

 75
     0
147
1.0
148
0.0
149
0.0
100
AcDbLayout
  1
Model
 70
     1
 71
     0
 10
0.0
 20
0.0
 11
420.0
 21
297.0
 12
0.0
 22
0.0
 32
0.0
 14
0.0
 24
0.0
 34
0.0
 15
25.0
 25
35.0
 35
0.0
146
0.0
 13
0.0
 23
0.0
 33
0.0
 16
1.0
 26
0.0
 36
0.0
 17
0.0
 27
1.0
 37
0.0
 76
     0
330
1F
331
29
  0
MATERIAL
  5
3D
102
{ACAD_REACTORS
330
3B
102
}
102
{ACAD_XDICTIONARY
360
E0A
102
}
330
3B
100
AcDbMaterial
  1
ByBlock
  0
MATERIAL
  5
3C
102
{ACAD_REACTORS
330
3B
102
}
102
{ACAD_XDICTIONARY
360
E08
102
}
330
3B
100
AcDbMaterial
  1
ByLayer
  0
MATERIAL
  5
3E
102
{ACAD_REACTORS
330
3B
102
}
102
{ACAD_XDICTIONARY
360
E0C
102
}
330
3B
100
AcDbMaterial
  1
Global
  0
MLINESTYLE
  5
18
102
{ACAD_REACTORS
330
17
102
}
330
17
100
AcDbMlineStyle
  2
Standard
 70
     0
  3

 62
   256
 51
90.0
 52
90.0
 71
     2
 49
0.5
 62
   256
  6
BYLAYER
 49
-0.5
 62
   256
  6
BYLAYER
  0
ACDBPLACEHOLDER
  5
F
102
{ACAD_REACTORS
330
E
102
}
330
E
  0
SCALE
  5
565
102
{ACAD_REACTORS
330
564
102
}
330
564
100
AcDbScale
 70
     0
300
1:1
140
1.0
141
1.0
290
     1
  0
SCALE
  5
566
102
{ACAD_REACTORS
330
564
102
}
330
564
100
AcDbScale
 70
     0
300
1:2
140
1.0
141
2.0
290
     0
  0
SCALE
  5
567
102
{ACAD_REACTORS
330
564
102
}
330
564
100
AcDbScale
 70
     0
300
1:4
140
1.0
141
4.0
290
     0
  0
SCALE
  5
568
102
{ACAD_REACTORS
330
564
102
}
330
564
100
AcDbScale
 70
     0
300
1:5
140
1.0
141
5.0
290
     0
  0
SCALE
  5
569
102
{ACAD_REACTORS
330
564
102
}
330
564
100
AcDbScale
 70
     0
300
1:8
140
1.0
141
8.0
290
     0
  0
SCALE
  5
56A
102
{ACAD_REACTORS
330
564
102
}
330
564
100
AcDbScale
 70
     0
300
1:10
140
1.0
141
10.0
290
     0
  0
SCALE
  5
56B
102
{ACAD_REACTORS
330
564
102
}
330
564
100
AcDbScale
 70
     0
300
1:16
140
1.0
141
16.0
290
     0
  0
SCALE
  5
56C
102
{ACAD_REACTORS
330
564
102
}
330
564
100
AcDbScale
 70
     0
300
1:20
140
1.0
141
20.0
290
     0
  0
SCALE
  5
56D
102
{ACAD_REACTORS
330
564
102
}
330
564
100
AcDbScale
 70
     0
300
1:30
140
1.0
141
30.0
290
     0
  0
SCALE
  5
56E
102
{ACAD_REACTORS
330
564
102
}
330
564
100
AcDbScale
 70
     0
300
1:40
140
1.0
141
40.0
290
     0
  0
SCALE
  5
56F
102
{ACAD_REACTORS
330
564
102
}
330
564
100
AcDbScale
 70
     0
300
1:50
140
1.0
141
50.0
290
     0
  0
SCALE
  5
570
102
{ACAD_REACTORS
330
564
102
}
330
564
100
AcDbScale
 70
     0
300
1:100
140
1.0
141
100.0
290
     0
  0
SCALE
  5
571
102
{ACAD_REACTORS
330
564
102
}
330
564
100
AcDbScale
 70
     0
300
2:1
140
2.0
141
1.0
290
     0
  0
SCALE
  5
572
102
{ACAD_REACTORS
330
564
102
}
330
564
100
AcDbScale
 70
     0
300
4:1
140
4.0
141
1.0
290
     0
  0
SCALE
  5
573
102
{ACAD_REACTORS
330
564
102
}
330
564
100
AcDbScale
 70
     0
300
8:1
140
8.0
141
1.0
290
     0
  0
SCALE
  5
574
102
{ACAD_REACTORS
330
564
102
}
330
564
100
AcDbScale
 70
     0
300
10:1
140
10.0
141
1.0
290
     0
  0
SCALE
  5
575
102
{ACAD_REACTORS
330
564
102
}
330
564
100
AcDbScale
 70
     0
300
100:1
140
100.0
141
1.0
290
     0
  0
SCALE
  5
576
102
{ACAD_REACTORS
330
564
102
}
330
564
100
AcDbScale
 70
     0
300
1/128" = 1'-0"
140
0.0078125
141
12.0
290
     0
  0
SCALE
  5
577
102
{ACAD_REACTORS
330
564
102
}
330
564
100
AcDbScale
 70
     0
300
1/64" = 1'-0"
140
0.015625
141
12.0
290
     0
  0
SCALE
  5
578
102
{ACAD_REACTORS
330
564
102
}
330
564
100
AcDbScale
 70
     0
300
1/32" = 1'-0"
140
0.03125
141
12.0
290
     0
  0
SCALE
  5
579
102
{ACAD_REACTORS
330
564
102
}
330
564
100
AcDbScale
 70
     0
300
1/16" = 1'-0"
140
0.0625
141
12.0
290
     0
  0
SCALE
  5
57A
102
{ACAD_REACTORS
330
564
102
}
330
564
100
AcDbScale
 70
     0
300
3/32" = 1'-0"
140
0.09375
141
12.0
290
     0
  0
SCALE
  5
57B
102
{ACAD_REACTORS
330
564
102
}
330
564
100
AcDbScale
 70
     0
300
1/8" = 1'-0"
140
0.125
141
12.0
290
     0
  0
SCALE
  5
57C
102
{ACAD_REACTORS
330
564
102
}
330
564
100
AcDbScale
 70
     0
300
3/16" = 1'-0"
140
0.1875
141
12.0
290
     0
  0
SCALE
  5
57D
102
{ACAD_REACTORS
330
564
102
}
330
564
100
AcDbScale
 70
     0
300
1/4" = 1'-0"
140
0.25
141
12.0
290
     0
  0
SCALE
  5
57E
102
{ACAD_REACTORS
330
564
102
}
330
564
100
AcDbScale
 70
     0
300
3/8" = 1'-0"
140
0.375
141
12.0
290
     0
  0
SCALE
  5
57F
102
{ACAD_REACTORS
330
564
102
}
330
564
100
AcDbScale
 70
     0
300
1/2" = 1'-0"
140
0.5
141
12.0
290
     0
  0
SCALE
  5
580
102
{ACAD_REACTORS
330
564
102
}
330
564
100
AcDbScale
 70
     0
300
3/4" = 1'-0"
140
0.75
141
12.0
290
     0
  0
SCALE
  5
581
102
{ACAD_REACTORS
330
564
102
}
330
564
100
AcDbScale
 70
     0
300
1" = 1'-0"
140
1.0
141
12.0
290
     0
  0
SCALE
  5
582
102
{ACAD_REACTORS
330
564
102
}
330
564
100
AcDbScale
 70
     0
300
1-1/2" = 1'-0"
140
1.5
141
12.0
290
     0
  0
SCALE
  5
583
102
{ACAD_REACTORS
330
564
102
}
330
564
100
AcDbScale
 70
     0
300
3" = 1'-0"
140
3.0
141
12.0
290
     0
  0
SCALE
  5
584
102
{ACAD_REACTORS
330
564
102
}
330
564
100
AcDbScale
 70
     0
300
6" = 1'-0"
140
6.0
141
12.0
290
     0
  0
SCALE
  5
585
102
{ACAD_REACTORS
330
564
102
}
330
564
100
AcDbScale
 70
     0
300
1'-0" = 1'-0"
140
12.0
141
12.0
290
     0
  0
VISUALSTYLE
  5
2F
102
{ACAD_REACTORS
330
2A
102
}
102
{ACAD_XDICTIONARY
360
DF0
102
}
330
2A
100
AcDbVisualStyle
  2
2dWireframe
 70
     4
 71
     0
 72
     2
 73
     0
 90
        0
 40
-0.6
 41
-30.0
 62
     5
 63
     7
 74
     1
 91
        4
 64
     7
 65
   257
 75
     1
175
     1
 42
1.0
 92
        0
 66
   257
 43
1.0
 76
     1
 77
     6
 78
     2
 67
     7
 79
     5
170
     0
171
     0
290
     0
174
     0
 93
        1
 44
0.0
173
     0
291
     0
 45
0.0
1001
ACAD
1000
AcDbSavedByObjectVersion
1070
     0
  0
VISUALSTYLE
  5
31
102
{ACAD_REACTORS
330
2A
102
}
102
{ACAD_XDICTIONARY
360
DF4
102
}
330
2A
100
AcDbVisualStyle
  2
3D Hidden
 70
     6
 71
     1
 72
     2
 73
     2
 90
        0
 40
-0.6
 41
-30.0
 62
     5
 63
     7
 74
     2
 91
        2
 64
     7
 65
   257
 75
     2
175
     1
 42
40.0
 92
        0
 66
   257
 43
1.0
 76
     1
 77
     6
 78
     2
 67
     7
 79
     3
170
     0
171
     0
290
     0
174
     0
 93
        1
 44
0.0
173
     0
291
     0
 45
0.0
1001
ACAD
1000
AcDbSavedByObjectVersion
1070
     0
  0
VISUALSTYLE
  5
30
102
{ACAD_REACTORS
330
2A
102
}
102
{ACAD_XDICTIONARY
360
DF2
102
}
330
2A
100
AcDbVisualStyle
  2
3dWireframe
 70
     5
 71
     0
 72
     2
 73
     0
 90
        0
 40
-0.6
 41
-30.0
 62
     5
 63
     7
 74
     1
 91
        4
 64
     7
 65
   257
 75
     1
175
     1
 42
1.0
 92
        0
 66
   257
 43
1.0
 76
     1
 77
     6
 78
     2
 67
     7
 79
     5
170
     0
171
     0
290
     0
174
     0
 93
        1
 44
0.0
173
     0
291
     0
 45
0.0
1001
ACAD
1000
AcDbSavedByObjectVersion
1070
     0
  0
VISUALSTYLE
  5
32
102
{ACAD_REACTORS
330
2A
102
}
102
{ACAD_XDICTIONARY
360
DF6
102
}
330
2A
100
AcDbVisualStyle
  2
Basic
 70
     7
 71
     1
 72
     0
 73
     1
 90
        0
 40
-0.6
 41
-30.0
 62
     5
 63
     7
 74
     0
 91
        4
 64
     7
 65
   257
 75
     1
175
     1
 42
1.0
 92
        8
 66
     7
 43
1.0
 76
     1
 77
     6
 78
     2
 67
     7
 79
     5
170
     0
171
     0
290
     0
174
     0
 93
        1
 44
0.0
173
     0
291
     1
 45
0.0
1001
ACAD
1000
AcDbSavedByObjectVersion
1070
     0
  0
VISUALSTYLE
  5
36
102
{ACAD_REACTORS
330
2A
102
}
102
{ACAD_XDICTIONARY
360
DFE
102
}
330
2A
100
AcDbVisualStyle
  2
Brighten
 70
    12
 71
     2
 72
     2
 73
     0
 90
        0
 40
-0.6
 41
-30.0
 62
     5
 63
     7
 74
     1
 91
        4
 64
     7
 65
   257
 75
     1
175
     1
 42
1.0
 92
        8
 66
     7
 43
1.0
 76
     1
 77
     6
 78
     2
 67
     7
 79
     5
170
     0
171
     0
290
     0
174
     0
 93
        1
 44
50.0
173
     0
291
     1
 45
0.0
1001
ACAD
1000
AcDbSavedByObjectVersion
1070
     0
  0
VISUALSTYLE
  5
3A
102
{ACAD_REACTORS
330
2A
102
}
102
{ACAD_XDICTIONARY
360
E06
102
}
330
2A
100
AcDbVisualStyle
  2
ColorChange
 70
    16
 71
     2
 72
     2
 73
     3
 90
        0
 40
-0.6
 41
-30.0
 62
     5
 63
     8
 74
     1
 91
        4
 64
     7
 65
   257
 75
     1
175
     1
 42
1.0
 92
        8
 66
     8
 43
1.0
 76
     1
 77
     6
 78
     2
 67
     7
 79
     5
170
     0
171
     0
290
     0
174
     0
 93
        1
 44
0.0
173
     0
291
     1
 45
0.0
1001
ACAD
1000
AcDbSavedByObjectVersion
1070
     0
  0
VISUALSTYLE
  5
34
102
{ACAD_REACTORS
330
2A
102
}
102
{ACAD_XDICTIONARY
360
DFA
102
}
330
2A
100
AcDbVisualStyle
  2
Conceptual
 70
     9
 71
     3
 72
     2
 73
     0
 90
        0
 40
-0.6
 41
-30.0
 62
     5
 63
     7
 74
     2
 91
        2
 64
     7
 65
   257
 75
     1
175
     1
 42
40.0
 92
        8
 66
     7
 43
1.0
 76
     1
 77
     6
 78
     2
 67
     7
 79
     3
170
     0
171
     0
290
     0
174
     0
 93
        1
 44
0.0
173
     0
291
     0
 45
0.0
1001
ACAD
1000
AcDbSavedByObjectVersion
1070
     0
  0
VISUALSTYLE
  5
35
102
{ACAD_REACTORS
330
2A
102
}
102
{ACAD_XDICTIONARY
360
DFC
102
}
330
2A
100
AcDbVisualStyle
  2
Dim
 70
    11
 71
     2
 72
     2
 73
     0
 90
        0
 40
-0.6
 41
-30.0
 62
     5
 63
     7
 74
     1
 91
        4
 64
     7
 65
   257
 75
     1
175
     1
 42
1.0
 92
        8
 66
     7
 43
1.0
 76
     1
 77
     6
 78
     2
 67
     7
 79
     5
170
     0
171
     0
290
     0
174
     0
 93
        1
 44
-50.0
173
     0
291
     1
 45
0.0
1001
ACAD
1000
AcDbSavedByObjectVersion
1070
     0
  0
VISUALSTYLE
  5
39
102
{ACAD_REACTORS
330
2A
102
}
102
{ACAD_XDICTIONARY
360
E04
102
}
330
2A
100
AcDbVisualStyle
  2
Facepattern
 70
    15
 71
     2
 72
     2
 73
     0
 90
        0
 40
-0.6
 41
-30.0
 62
     5
 63
     7
 74
     1
 91
        4
 64
     7
 65
   257
 75
     1
175
     1
 42
1.0
 92
        8
 66
     7
 43
1.0
 76
     1
 77
     6
 78
     2
 67
     7
 79
     5
170
     0
171
     0
290
     0
174
     0
 93
        1
 44
0.0
173
     0
291
     1
 45
0.0
1001
ACAD
1000
AcDbSavedByObjectVersion
1070
     0
  0
VISUALSTYLE
  5
2B
102
{ACAD_REACTORS
330
2A
102
}
102
{ACAD_XDICTIONARY
360
DE8
102
}
330
2A
100
AcDbVisualStyle
  2
Flat
 70
     0
 71
     2
 72
     1
 73
     1
 90
        2
 40
-0.6
 41
30.0
 62
     5
 63
     7
 74
     0
 91
        4
 64
     7
 65
   257
 75
     1
175
     1
 42
1.0
 92
        8
 66
     7
 43
1.0
 76
     1
 77
     6
 78
     2
 67
     7
 79
     5
170
     0
171
     0
290
     0
174
     0
 93
       13
 44
0.0
173
     0
291
     1
 45
0.0
1001
ACAD
1000
AcDbSavedByObjectVersion
1070
     0
  0
VISUALSTYLE
  5
2C
102
{ACAD_REACTORS
330
2A
102
}
102
{ACAD_XDICTIONARY
360
DEA
102
}
330
2A
100
AcDbVisualStyle
  2
FlatWithEdges
 70
     1
 71
     2
 72
     1
 73
     1
 90
        2
 40
-0.6
 41
30.0
 62
     5
 63
     7
 74
     1
 91
        4
 64
     7
 65
   257
 75
     1
175
     1
 42
1.0
 92
        0
 66
   257
 43
1.0
 76
     1
 77
     6
 78
     2
 67
     7
 79
     5
170
     0
171
     0
290
     0
174
     0
 93
       13
 44
0.0
173
     0
291
     1
 45
0.0
1001
ACAD
1000
AcDbSavedByObjectVersion
1070
     0
  0
VISUALSTYLE
  5
2D
102
{ACAD_REACTORS
330
2A
102
}
102
{ACAD_XDICTIONARY
360
DEC
102
}
330
2A
100
AcDbVisualStyle
  2
Gouraud
 70
     2
 71
     2
 72
     2
 73
     1
 90
        2
 40
-0.6
 41
30.0
 62
     5
 63
     7
 74
     0
 91
        4
 64
     7
 65
   257
 75
     1
175
     1
 42
1.0
 92
        0
 66
     7
 43
1.0
 76
     1
 77
     6
 78
     2
 67
     7
 79
     5
170
     0
171
     0
290
     0
174
     0
 93
       13
 44
0.0
173
     0
291
     1
 45
0.0
1001
ACAD
1000
AcDbSavedByObjectVersion
1070
     0
  0
VISUALSTYLE
  5
2E
102
{ACAD_REACTORS
330
2A
102
}
102
{ACAD_XDICTIONARY
360
DEE
102
}
330
2A
100
AcDbVisualStyle
  2
GouraudWithEdges
 70
     3
 71
     2
 72
     2
 73
     1
 90
        2
 40
-0.6
 41
30.0
 62
     5
 63
     7
 74
     1
 91
        4
 64
     7
 65
   257
 75
     1
175
     1
 42
1.0
 92
        0
 66
   257
 43
1.0
 76
     1
 77
     6
 78
     2
 67
     7
 79
     5
170
     0
171
     0
290
     0
174
     0
 93
       13
 44
0.0
173
     0
291
     1
 45
0.0
1001
ACAD
1000
AcDbSavedByObjectVersion
1070
     0
  0
VISUALSTYLE
  5
38
102
{ACAD_REACTORS
330
2A
102
}
102
{ACAD_XDICTIONARY
360
E02
102
}
330
2A
100
AcDbVisualStyle
  2
Linepattern
 70
    14
 71
     2
 72
     2
 73
     0
 90
        0
 40
-0.6
 41
-30.0
 62
     5
 63
     7
 74
     1
 91
        4
 64
     7
 65
   257
 75
     7
175
     7
 42
1.0
 92
        8
 66
     7
 43
1.0
 76
     1
 77
     6
 78
     2
 67
     7
 79
     5
170
     0
171
     0
290
     0
174
     0
 93
        1
 44
0.0
173
     0
291
     1
 45
0.0
1001
ACAD
1000
AcDbSavedByObjectVersion
1070
     0
  0
VISUALSTYLE
  5
33
102
{ACAD_REACTORS
330
2A
102
}
102
{ACAD_XDICTIONARY
360
DF8
102
}
330
2A
100
AcDbVisualStyle
  2
Realistic
 70
     8
 71
     2
 72
     2
 73
     0
 90
        0
 40
-0.6
 41
-30.0
 62
     5
 63
     7
 74
     1
 91
        0
 64
     7
 65
   257
 75
     1
175
     1
 42
1.0
 92
        8
 66
     8
 43
1.0
 76
     1
 77
     6
 78
     2
 67
     7
 79
     5
170
     0
171
     0
290
     0
174
     0
 93
       13
 44
0.0
173
     0
291
     0
 45
0.0
1001
ACAD
1000
AcDbSavedByObjectVersion
1070
     0
  0
VISUALSTYLE
  5
37
102
{ACAD_REACTORS
330
2A
102
}
102
{ACAD_XDICTIONARY
360
E00
102
}
330
2A
100
AcDbVisualStyle
  2
Thicken
 70
    13
 71
     2
 72
     2
 73
     0
 90
        0
 40
-0.6
 41
-30.0
 62
     5
 63
     7
 74
     1
 91
        4
 64
     7
 65
   257
 75
     1
175
     1
 42
1.0
 92
       12
 66
     7
 43
1.0
 76
     1
 77
     6
 78
     2
 67
     7
 79
     5
170
     0
171
     0
290
     0
174
     0
 93
        1
 44
0.0
173
     0
291
     1
 45
0.0
1001
ACAD
1000
AcDbSavedByObjectVersion
1070
     0
  0
DICTIONARYVAR
  5
DE5
102
{ACAD_REACTORS
330
DE0
102
}
330
DE0
100
DictionaryVariables
280
     0
  1
1:1
  0
DICTIONARYVAR
  5
DE6
102
{ACAD_REACTORS
330
DE0
102
}
330
DE0
100
DictionaryVariables
280
     0
  1
2
  0
DICTIONARYVAR
  5
DE7
102
{ACAD_REACTORS
330
DE0
102
}
330
DE0
100
DictionaryVariables
280
     0
  1
1
  0
DICTIONARYVAR
  5
DE4
102
{ACAD_REACTORS
330
DE0
102
}
330
DE0
100
DictionaryVariables
280
     0
  1
80.000000
  0
DICTIONARYVAR
  5
DE3
102
{ACAD_REACTORS
330
DE0
102
}
330
DE0
100
DictionaryVariables
280
     0
  1
5.000000
  0
DICTIONARY
  5
E0A
330
3D
100
AcDbDictionary
280
     1
281
     1
  3
ACAD_XREC_ROUNDTRIP
360
E0B
  0
DICTIONARY
  5
E08
330
3C
100
AcDbDictionary
280
     1
281
     1
  3
ACAD_XREC_ROUNDTRIP
360
E09
  0
DICTIONARY
  5
E0C
330
3E
100
AcDbDictionary
280
     1
281
     1
  3
ACAD_XREC_ROUNDTRIP
360
E0D
  0
DICTIONARY
  5
DF0
330
2F
100
AcDbDictionary
280
     1
281
     1
  3
ACAD_XREC_ROUNDTRIP
360
DF1
  0
DICTIONARY
  5
DF4
330
31
100
AcDbDictionary
280
     1
281
     1
  3
ACAD_XREC_ROUNDTRIP
360
DF5
  0
DICTIONARY
  5
DF2
330
30
100
AcDbDictionary
280
     1
281
     1
  3
ACAD_XREC_ROUNDTRIP
360
DF3
  0
DICTIONARY
  5
DF6
330
32
100
AcDbDictionary
280
     1
281
     1
  3
ACAD_XREC_ROUNDTRIP
360
DF7
  0
DICTIONARY
  5
DFE
330
36
100
AcDbDictionary
280
     1
281
     1
  3
ACAD_XREC_ROUNDTRIP
360
DFF
  0
DICTIONARY
  5
E06
330
3A
100
AcDbDictionary
280
     1
281
     1
  3
ACAD_XREC_ROUNDTRIP
360
E07
  0
DICTIONARY
  5
DFA
330
34
100
AcDbDictionary
280
     1
281
     1
  3
ACAD_XREC_ROUNDTRIP
360
DFB
  0
DICTIONARY
  5
DFC
330
35
100
AcDbDictionary
280
     1
281
     1
  3
ACAD_XREC_ROUNDTRIP
360
DFD
  0
DICTIONARY
  5
E04
330
39
100
AcDbDictionary
280
     1
281
     1
  3
ACAD_XREC_ROUNDTRIP
360
E05
  0
DICTIONARY
  5
DE8
330
2B
100
AcDbDictionary
280
     1
281
     1
  3
ACAD_XREC_ROUNDTRIP
360
DE9
  0
DICTIONARY
  5
DEA
330
2C
100
AcDbDictionary
280
     1
281
     1
  3
ACAD_XREC_ROUNDTRIP
360
DEB
  0
DICTIONARY
  5
DEC
330
2D
100
AcDbDictionary
280
     1
281
     1
  3
ACAD_XREC_ROUNDTRIP
360
DED
  0
DICTIONARY
  5
DEE
330
2E
100
AcDbDictionary
280
     1
281
     1
  3
ACAD_XREC_ROUNDTRIP
360
DEF
  0
DICTIONARY
  5
E02
330
38
100
AcDbDictionary
280
     1
281
     1
  3
ACAD_XREC_ROUNDTRIP
360
E03
  0
DICTIONARY
  5
DF8
330
33
100
AcDbDictionary
280
     1
281
     1
  3
ACAD_XREC_ROUNDTRIP
360
DF9
  0
DICTIONARY
  5
E00
330
37
100
AcDbDictionary
280
     1
281
     1
  3
ACAD_XREC_ROUNDTRIP
360
E01
  0
XRECORD
  5
E0B
102
{ACAD_REACTORS
330
E0A
102
}
330
E0A
100
AcDbXrecord
280
     1
102
MATERIAL
148
0.0
149
0.0
149
0.0
 93
        0
 94
      127
282
     0
 72
     1
 77
     1
171
     1
175
     1
179
     1
273
     0
  0
XRECORD
  5
E09
102
{ACAD_REACTORS
330
E08
102
}
330
E08
100
AcDbXrecord
280
     1
102
MATERIAL
148
0.0
149
0.0
149
0.0
 93
        0
 94
      127
282
     0
 72
     1
 77
     1
171
     1
175
     1
179
     1
273
     0
  0
XRECORD
  5
E0D
102
{ACAD_REACTORS
330
E0C
102
}
330
E0C
100
AcDbXrecord
280
     1
102
MATERIAL
148
0.0
149
0.0
149
0.0
 93
        0
 94
      127
282
     0
 72
     1
 77
     1
171
     1
175
     1
179
     1
273
     0
  0
XRECORD
  5
DF1
102
{ACAD_REACTORS
330
DF0
102
}
330
DF0
100
AcDbXrecord
280
     1
102
RTVSPropertyOp0
 70
     1
102
RTVSPropertyOp1
 70
     1
102
RTVSPropertyOp2
 70
     1
102
RTVSPropertyOp3
 70
     1
102
RTVSPropertyOp4
 70
     1
102
RTVSPropertyOp5
 70
     1
102
RTVSPropertyOp6
 70
     1
102
RTVSPropertyOp7
 70
     1
102
RTVSPropertyOp8
 70
     1
102
RTVSPropertyOp9
 70
     1
102
RTVSPropertyOp10
 70
     1
102
RTVSPropertyOp11
 70
     1
102
RTVSPropertyOp12
 70
     1
102
RTVSPropertyOp13
 70
     1
102
RTVSPropertyOp14
 70
     1
102
RTVSPropertyOp15
 70
     1
102
RTVSPropertyOp16
 70
     1
102
RTVSPropertyOp17
 70
     1
102
RTVSPropertyOp18
 70
     1
102
RTVSPropertyOp19
 70
     1
102
RTVSPropertyOp20
 70
     1
102
RTVSPropertyOp21
 70
     1
102
RTVSPropertyOp22
 70
     1
102
RTVSPropertyOp23
 70
     1
102
RTVSPropertyOp24
 70
     1
102
RTVSPropertyOp25
 70
     1
102
RTVSPropertyOp26
 70
     1
102
RTVSPropertyOp27
 70
     1
  0
XRECORD
  5
DF5
102
{ACAD_REACTORS
330
DF4
102
}
330
DF4
100
AcDbXrecord
280
     1
102
RTVSPropertyOp0
 70
     1
102
RTVSPropertyOp1
 70
     1
102
RTVSPropertyOp2
 70
     1
102
RTVSPropertyOp3
 70
     1
102
RTVSPropertyOp4
 70
     1
102
RTVSPropertyOp5
 70
     1
102
RTVSPropertyOp6
 70
     1
102
RTVSPropertyOp7
 70
     1
102
RTVSPropertyOp8
 70
     1
102
RTVSPropertyOp9
 70
     1
102
RTVSPropertyOp10
 70
     1
102
RTVSPropertyOp11
 70
     1
102
RTVSPropertyOp12
 70
     1
102
RTVSPropertyOp13
 70
     1
102
RTVSPropertyOp14
 70
     1
102
RTVSPropertyOp15
 70
     1
102
RTVSPropertyOp16
 70
     1
102
RTVSPropertyOp17
 70
     1
102
RTVSPropertyOp18
 70
     1
102
RTVSPropertyOp19
 70
     1
102
RTVSPropertyOp20
 70
     1
102
RTVSPropertyOp21
 70
     1
102
RTVSPropertyOp22
 70
     1
102
RTVSPropertyOp23
 70
     1
102
RTVSPropertyOp24
 70
     1
102
RTVSPropertyOp25
 70
     1
102
RTVSPropertyOp26
 70
     1
102
RTVSPropertyOp27
 70
     1
  0
XRECORD
  5
DF3
102
{ACAD_REACTORS
330
DF2
102
}
330
DF2
100
AcDbXrecord
280
     1
102
RTVSPropertyOp0
 70
     1
102
RTVSPropertyOp1
 70
     1
102
RTVSPropertyOp2
 70
     1
102
RTVSPropertyOp3
 70
     1
102
RTVSPropertyOp4
 70
     1
102
RTVSPropertyOp5
 70
     1
102
RTVSPropertyOp6
 70
     1
102
RTVSPropertyOp7
 70
     1
102
RTVSPropertyOp8
 70
     1
102
RTVSPropertyOp9
 70
     1
102
RTVSPropertyOp10
 70
     1
102
RTVSPropertyOp11
 70
     1
102
RTVSPropertyOp12
 70
     1
102
RTVSPropertyOp13
 70
     1
102
RTVSPropertyOp14
 70
     1
102
RTVSPropertyOp15
 70
     1
102
RTVSPropertyOp16
 70
     1
102
RTVSPropertyOp17
 70
     1
102
RTVSPropertyOp18
 70
     1
102
RTVSPropertyOp19
 70
     1
102
RTVSPropertyOp20
 70
     1
102
RTVSPropertyOp21
 70
     1
102
RTVSPropertyOp22
 70
     1
102
RTVSPropertyOp23
 70
     1
102
RTVSPropertyOp24
 70
     1
102
RTVSPropertyOp25
 70
     1
102
RTVSPropertyOp26
 70
     1
102
RTVSPropertyOp27
 70
     1
  0
XRECORD
  5
DF7
102
{ACAD_REACTORS
330
DF6
102
}
330
DF6
100
AcDbXrecord
280
     1
102
RTVSPropertyOp0
 70
     1
102
RTVSPropertyOp1
 70
     1
102
RTVSPropertyOp2
 70
     1
102
RTVSPropertyOp3
 70
     1
102
RTVSPropertyOp4
 70
     1
102
RTVSPropertyOp5
 70
     1
102
RTVSPropertyOp6
 70
     1
102
RTVSPropertyOp7
 70
     1
102
RTVSPropertyOp8
 70
     1
102
RTVSPropertyOp9
 70
     1
102
RTVSPropertyOp10
 70
     1
102
RTVSPropertyOp11
 70
     1
102
RTVSPropertyOp12
 70
     1
102
RTVSPropertyOp13
 70
     1
102
RTVSPropertyOp14
 70
     1
102
RTVSPropertyOp15
 70
     1
102
RTVSPropertyOp16
 70
     1
102
RTVSPropertyOp17
 70
     1
102
RTVSPropertyOp18
 70
     1
102
RTVSPropertyOp19
 70
     1
102
RTVSPropertyOp20
 70
     1
102
RTVSPropertyOp21
 70
     1
102
RTVSPropertyOp22
 70
     1
102
RTVSPropertyOp23
 70
     1
102
RTVSPropertyOp24
 70
     1
102
RTVSPropertyOp25
 70
     1
102
RTVSPropertyOp26
 70
     1
102
RTVSPropertyOp27
 70
     1
  0
XRECORD
  5
DFF
102
{ACAD_REACTORS
330
DFE
102
}
330
DFE
100
AcDbXrecord
280
     1
102
RTVSPropertyOp0
 70
     1
102
RTVSPropertyOp1
 70
     1
102
RTVSPropertyOp2
 70
     1
102
RTVSPropertyOp3
 70
     1
102
RTVSPropertyOp4
 70
     1
102
RTVSPropertyOp5
 70
     1
102
RTVSPropertyOp6
 70
     1
102
RTVSPropertyOp7
 70
     1
102
RTVSPropertyOp8
 70
     1
102
RTVSPropertyOp9
 70
     1
102
RTVSPropertyOp10
 70
     1
102
RTVSPropertyOp11
 70
     1
102
RTVSPropertyOp12
 70
     1
102
RTVSPropertyOp13
 70
     1
102
RTVSPropertyOp14
 70
     1
102
RTVSPropertyOp15
 70
     1
102
RTVSPropertyOp16
 70
     1
102
RTVSPropertyOp17
 70
     1
102
RTVSPropertyOp18
 70
     1
102
RTVSPropertyOp19
 70
     1
102
RTVSPropertyOp20
 70
     1
102
RTVSPropertyOp21
 70
     1
102
RTVSPropertyOp22
 70
     1
102
RTVSPropertyOp23
 70
     1
102
RTVSPropertyOp24
 70
     1
102
RTVSPropertyOp25
 70
     1
102
RTVSPropertyOp26
 70
     1
102
RTVSPropertyOp27
 70
     1
  0
XRECORD
  5
E07
102
{ACAD_REACTORS
330
E06
102
}
330
E06
100
AcDbXrecord
280
     1
102
RTVSPropertyOp0
 70
     1
102
RTVSPropertyOp1
 70
     1
102
RTVSPropertyOp2
 70
     1
102
RTVSPropertyOp3
 70
     1
102
RTVSPropertyOp4
 70
     1
102
RTVSPropertyOp5
 70
     1
102
RTVSPropertyOp6
 70
     1
102
RTVSPropertyOp7
 70
     1
102
RTVSPropertyOp8
 70
     1
102
RTVSPropertyOp9
 70
     1
102
RTVSPropertyOp10
 70
     1
102
RTVSPropertyOp11
 70
     1
102
RTVSPropertyOp12
 70
     1
102
RTVSPropertyOp13
 70
     1
102
RTVSPropertyOp14
 70
     1
102
RTVSPropertyOp15
 70
     1
102
RTVSPropertyOp16
 70
     1
102
RTVSPropertyOp17
 70
     1
102
RTVSPropertyOp18
 70
     1
102
RTVSPropertyOp19
 70
     1
102
RTVSPropertyOp20
 70
     1
102
RTVSPropertyOp21
 70
     1
102
RTVSPropertyOp22
 70
     1
102
RTVSPropertyOp23
 70
     1
102
RTVSPropertyOp24
 70
     1
102
RTVSPropertyOp25
 70
     1
102
RTVSPropertyOp26
 70
     1
102
RTVSPropertyOp27
 70
     1
  0
XRECORD
  5
DFB
102
{ACAD_REACTORS
330
DFA
102
}
330
DFA
100
AcDbXrecord
280
     1
102
RTVSPropertyOp0
 70
     1
102
RTVSPropertyOp1
 70
     1
102
RTVSPropertyOp2
 70
     1
102
RTVSPropertyOp3
 70
     1
102
RTVSPropertyOp4
 70
     1
102
RTVSPropertyOp5
 70
     1
102
RTVSPropertyOp6
 70
     1
102
RTVSPropertyOp7
 70
     1
102
RTVSPropertyOp8
 70
     1
102
RTVSPropertyOp9
 70
     1
102
RTVSPropertyOp10
 70
     1
102
RTVSPropertyOp11
 70
     1
102
RTVSPropertyOp12
 70
     1
102
RTVSPropertyOp13
 70
     1
102
RTVSPropertyOp14
 70
     1
102
RTVSPropertyOp15
 70
     1
102
RTVSPropertyOp16
 70
     1
102
RTVSPropertyOp17
 70
     1
102
RTVSPropertyOp18
 70
     1
102
RTVSPropertyOp19
 70
     1
102
RTVSPropertyOp20
 70
     1
102
RTVSPropertyOp21
 70
     1
102
RTVSPropertyOp22
 70
     1
102
RTVSPropertyOp23
 70
     1
102
RTVSPropertyOp24
 70
     1
102
RTVSPropertyOp25
 70
     1
102
RTVSPropertyOp26
 70
     1
102
RTVSPropertyOp27
 70
     1
  0
XRECORD
  5
DFD
102
{ACAD_REACTORS
330
DFC
102
}
330
DFC
100
AcDbXrecord
280
     1
102
RTVSPropertyOp0
 70
     1
102
RTVSPropertyOp1
 70
     1
102
RTVSPropertyOp2
 70
     1
102
RTVSPropertyOp3
 70
     1
102
RTVSPropertyOp4
 70
     1
102
RTVSPropertyOp5
 70
     1
102
RTVSPropertyOp6
 70
     1
102
RTVSPropertyOp7
 70
     1
102
RTVSPropertyOp8
 70
     1
102
RTVSPropertyOp9
 70
     1
102
RTVSPropertyOp10
 70
     1
102
RTVSPropertyOp11
 70
     1
102
RTVSPropertyOp12
 70
     1
102
RTVSPropertyOp13
 70
     1
102
RTVSPropertyOp14
 70
     1
102
RTVSPropertyOp15
 70
     1
102
RTVSPropertyOp16
 70
     1
102
RTVSPropertyOp17
 70
     1
102
RTVSPropertyOp18
 70
     1
102
RTVSPropertyOp19
 70
     1
102
RTVSPropertyOp20
 70
     1
102
RTVSPropertyOp21
 70
     1
102
RTVSPropertyOp22
 70
     1
102
RTVSPropertyOp23
 70
     1
102
RTVSPropertyOp24
 70
     1
102
RTVSPropertyOp25
 70
     1
102
RTVSPropertyOp26
 70
     1
102
RTVSPropertyOp27
 70
     1
  0
XRECORD
  5
E05
102
{ACAD_REACTORS
330
E04
102
}
330
E04
100
AcDbXrecord
280
     1
102
RTVSPropertyOp0
 70
     1
102
RTVSPropertyOp1
 70
     1
102
RTVSPropertyOp2
 70
     1
102
RTVSPropertyOp3
 70
     1
102
RTVSPropertyOp4
 70
     1
102
RTVSPropertyOp5
 70
     1
102
RTVSPropertyOp6
 70
     1
102
RTVSPropertyOp7
 70
     1
102
RTVSPropertyOp8
 70
     1
102
RTVSPropertyOp9
 70
     1
102
RTVSPropertyOp10
 70
     1
102
RTVSPropertyOp11
 70
     1
102
RTVSPropertyOp12
 70
     1
102
RTVSPropertyOp13
 70
     1
102
RTVSPropertyOp14
 70
     1
102
RTVSPropertyOp15
 70
     1
102
RTVSPropertyOp16
 70
     1
102
RTVSPropertyOp17
 70
     1
102
RTVSPropertyOp18
 70
     1
102
RTVSPropertyOp19
 70
     1
102
RTVSPropertyOp20
 70
     1
102
RTVSPropertyOp21
 70
     1
102
RTVSPropertyOp22
 70
     1
102
RTVSPropertyOp23
 70
     1
102
RTVSPropertyOp24
 70
     1
102
RTVSPropertyOp25
 70
     1
102
RTVSPropertyOp26
 70
     1
102
RTVSPropertyOp27
 70
     1
  0
XRECORD
  5
DE9
102
{ACAD_REACTORS
330
DE8
102
}
330
DE8
100
AcDbXrecord
280
     1
102
RTVSPropertyOp0
 70
     1
102
RTVSPropertyOp1
 70
     1
102
RTVSPropertyOp2
 70
     1
102
RTVSPropertyOp3
 70
     1
102
RTVSPropertyOp4
 70
     1
102
RTVSPropertyOp5
 70
     1
102
RTVSPropertyOp6
 70
     1
102
RTVSPropertyOp7
 70
     1
102
RTVSPropertyOp8
 70
     1
102
RTVSPropertyOp9
 70
     1
102
RTVSPropertyOp10
 70
     1
102
RTVSPropertyOp11
 70
     1
102
RTVSPropertyOp12
 70
     1
102
RTVSPropertyOp13
 70
     1
102
RTVSPropertyOp14
 70
     1
102
RTVSPropertyOp15
 70
     1
102
RTVSPropertyOp16
 70
     1
102
RTVSPropertyOp17
 70
     1
102
RTVSPropertyOp18
 70
     1
102
RTVSPropertyOp19
 70
     1
102
RTVSPropertyOp20
 70
     1
102
RTVSPropertyOp21
 70
     1
102
RTVSPropertyOp22
 70
     1
102
RTVSPropertyOp23
 70
     1
102
RTVSPropertyOp24
 70
     1
102
RTVSPropertyOp25
 70
     1
102
RTVSPropertyOp26
 70
     1
102
RTVSPropertyOp27
 70
     1
  0
XRECORD
  5
DEB
102
{ACAD_REACTORS
330
DEA
102
}
330
DEA
100
AcDbXrecord
280
     1
102
RTVSPropertyOp0
 70
     1
102
RTVSPropertyOp1
 70
     1
102
RTVSPropertyOp2
 70
     1
102
RTVSPropertyOp3
 70
     1
102
RTVSPropertyOp4
 70
     1
102
RTVSPropertyOp5
 70
     1
102
RTVSPropertyOp6
 70
     1
102
RTVSPropertyOp7
 70
     1
102
RTVSPropertyOp8
 70
     1
102
RTVSPropertyOp9
 70
     1
102
RTVSPropertyOp10
 70
     1
102
RTVSPropertyOp11
 70
     1
102
RTVSPropertyOp12
 70
     1
102
RTVSPropertyOp13
 70
     1
102
RTVSPropertyOp14
 70
     1
102
RTVSPropertyOp15
 70
     1
102
RTVSPropertyOp16
 70
     1
102
RTVSPropertyOp17
 70
     1
102
RTVSPropertyOp18
 70
     1
102
RTVSPropertyOp19
 70
     1
102
RTVSPropertyOp20
 70
     1
102
RTVSPropertyOp21
 70
     1
102
RTVSPropertyOp22
 70
     1
102
RTVSPropertyOp23
 70
     1
102
RTVSPropertyOp24
 70
     1
102
RTVSPropertyOp25
 70
     1
102
RTVSPropertyOp26
 70
     1
102
RTVSPropertyOp27
 70
     1
  0
XRECORD
  5
DED
102
{ACAD_REACTORS
330
DEC
102
}
330
DEC
100
AcDbXrecord
280
     1
102
RTVSPropertyOp0
 70
     1
102
RTVSPropertyOp1
 70
     1
102
RTVSPropertyOp2
 70
     1
102
RTVSPropertyOp3
 70
     1
102
RTVSPropertyOp4
 70
     1
102
RTVSPropertyOp5
 70
     1
102
RTVSPropertyOp6
 70
     1
102
RTVSPropertyOp7
 70
     1
102
RTVSPropertyOp8
 70
     1
102
RTVSPropertyOp9
 70
     1
102
RTVSPropertyOp10
 70
     1
102
RTVSPropertyOp11
 70
     1
102
RTVSPropertyOp12
 70
     1
102
RTVSPropertyOp13
 70
     1
102
RTVSPropertyOp14
 70
     1
102
RTVSPropertyOp15
 70
     1
102
RTVSPropertyOp16
 70
     1
102
RTVSPropertyOp17
 70
     1
102
RTVSPropertyOp18
 70
     1
102
RTVSPropertyOp19
 70
     1
102
RTVSPropertyOp20
 70
     1
102
RTVSPropertyOp21
 70
     1
102
RTVSPropertyOp22
 70
     1
102
RTVSPropertyOp23
 70
     1
102
RTVSPropertyOp24
 70
     1
102
RTVSPropertyOp25
 70
     1
102
RTVSPropertyOp26
 70
     1
102
RTVSPropertyOp27
 70
     1
  0
XRECORD
  5
DEF
102
{ACAD_REACTORS
330
DEE
102
}
330
DEE
100
AcDbXrecord
280
     1
102
RTVSPropertyOp0
 70
     1
102
RTVSPropertyOp1
 70
     1
102
RTVSPropertyOp2
 70
     1
102
RTVSPropertyOp3
 70
     1
102
RTVSPropertyOp4
 70
     1
102
RTVSPropertyOp5
 70
     1
102
RTVSPropertyOp6
 70
     1
102
RTVSPropertyOp7
 70
     1
102
RTVSPropertyOp8
 70
     1
102
RTVSPropertyOp9
 70
     1
102
RTVSPropertyOp10
 70
     1
102
RTVSPropertyOp11
 70
     1
102
RTVSPropertyOp12
 70
     1
102
RTVSPropertyOp13
 70
     1
102
RTVSPropertyOp14
 70
     1
102
RTVSPropertyOp15
 70
     1
102
RTVSPropertyOp16
 70
     1
102
RTVSPropertyOp17
 70
     1
102
RTVSPropertyOp18
 70
     1
102
RTVSPropertyOp19
 70
     1
102
RTVSPropertyOp20
 70
     1
102
RTVSPropertyOp21
 70
     1
102
RTVSPropertyOp22
 70
     1
102
RTVSPropertyOp23
 70
     1
102
RTVSPropertyOp24
 70
     1
102
RTVSPropertyOp25
 70
     1
102
RTVSPropertyOp26
 70
     1
102
RTVSPropertyOp27
 70
     1
  0
XRECORD
  5
E03
102
{ACAD_REACTORS
330
E02
102
}
330
E02
100
AcDbXrecord
280
     1
102
RTVSPropertyOp0
 70
     1
102
RTVSPropertyOp1
 70
     1
102
RTVSPropertyOp2
 70
     1
102
RTVSPropertyOp3
 70
     1
102
RTVSPropertyOp4
 70
     1
102
RTVSPropertyOp5
 70
     1
102
RTVSPropertyOp6
 70
     1
102
RTVSPropertyOp7
 70
     1
102
RTVSPropertyOp8
 70
     1
102
RTVSPropertyOp9
 70
     1
102
RTVSPropertyOp10
 70
     1
102
RTVSPropertyOp11
 70
     1
102
RTVSPropertyOp12
 70
     1
102
RTVSPropertyOp13
 70
     1
102
RTVSPropertyOp14
 70
     1
102
RTVSPropertyOp15
 70
     1
102
RTVSPropertyOp16
 70
     1
102
RTVSPropertyOp17
 70
     1
102
RTVSPropertyOp18
 70
     1
102
RTVSPropertyOp19
 70
     1
102
RTVSPropertyOp20
 70
     1
102
RTVSPropertyOp21
 70
     1
102
RTVSPropertyOp22
 70
     1
102
RTVSPropertyOp23
 70
     1
102
RTVSPropertyOp24
 70
     1
102
RTVSPropertyOp25
 70
     1
102
RTVSPropertyOp26
 70
     1
102
RTVSPropertyOp27
 70
     1
  0
XRECORD
  5
DF9
102
{ACAD_REACTORS
330
DF8
102
}
330
DF8
100
AcDbXrecord
280
     1
102
RTVSPropertyOp0
 70
     1
102
RTVSPropertyOp1
 70
     1
102
RTVSPropertyOp2
 70
     1
102
RTVSPropertyOp3
 70
     1
102
RTVSPropertyOp4
 70
     1
102
RTVSPropertyOp5
 70
     1
102
RTVSPropertyOp6
 70
     1
102
RTVSPropertyOp7
 70
     1
102
RTVSPropertyOp8
 70
     1
102
RTVSPropertyOp9
 70
     1
102
RTVSPropertyOp10
 70
     1
102
RTVSPropertyOp11
 70
     1
102
RTVSPropertyOp12
 70
     1
102
RTVSPropertyOp13
 70
     1
102
RTVSPropertyOp14
 70
     1
102
RTVSPropertyOp15
 70
     1
102
RTVSPropertyOp16
 70
     1
102
RTVSPropertyOp17
 70
     1
102
RTVSPropertyOp18
 70
     1
102
RTVSPropertyOp19
 70
     1
102
RTVSPropertyOp20
 70
     1
102
RTVSPropertyOp21
 70
     1
102
RTVSPropertyOp22
 70
     1
102
RTVSPropertyOp23
 70
     1
102
RTVSPropertyOp24
 70
     1
102
RTVSPropertyOp25
 70
     1
102
RTVSPropertyOp26
 70
     1
102
RTVSPropertyOp27
 70
     1
  0
XRECORD
  5
E01
102
{ACAD_REACTORS
330
E00
102
}
330
E00
100
AcDbXrecord
280
     1
102
RTVSPropertyOp0
 70
     1
102
RTVSPropertyOp1
 70
     1
102
RTVSPropertyOp2
 70
     1
102
RTVSPropertyOp3
 70
     1
102
RTVSPropertyOp4
 70
     1
102
RTVSPropertyOp5
 70
     1
102
RTVSPropertyOp6
 70
     1
102
RTVSPropertyOp7
 70
     1
102
RTVSPropertyOp8
 70
     1
102
RTVSPropertyOp9
 70
     1
102
RTVSPropertyOp10
 70
     1
102
RTVSPropertyOp11
 70
     1
102
RTVSPropertyOp12
 70
     1
102
RTVSPropertyOp13
 70
     1
102
RTVSPropertyOp14
 70
     1
102
RTVSPropertyOp15
 70
     1
102
RTVSPropertyOp16
 70
     1
102
RTVSPropertyOp17
 70
     1
102
RTVSPropertyOp18
 70
     1
102
RTVSPropertyOp19
 70
     1
102
RTVSPropertyOp20
 70
     1
102
RTVSPropertyOp21
 70
     1
102
RTVSPropertyOp22
 70
     1
102
RTVSPropertyOp23
 70
     1
102
RTVSPropertyOp24
 70
     1
102
RTVSPropertyOp25
 70
     1
102
RTVSPropertyOp26
 70
     1
102
RTVSPropertyOp27
 70
     1
  0
ENDSEC
  0
EOF
