  0
SECTION
  2
HEADER
  9
$ACADVER
  1
AC1015
  9
$ACADMAINTVER
 70
     6
  9
$DWGCODEPAGE
  3
ANSI_1252
  9
$INSBASE
 10
0.0
 20
0.0
 30
0.0
  9
$EXTMIN
 10
0.0
 20
0.0
 30
0.0
  9
$EXTMAX
 10
25.0
 20
35.0
 30
0.0
  9
$LIMMIN
 10
0.0
 20
0.0
  9
$LIMMAX
 10
420.0
 20
297.0
  9
$ORTHOMODE
 70
     0
  9
$REGENMODE
 70
     1
  9
$FILLMODE
 70
     1
  9
$QTEXTMODE
 70
     0
  9
$MIRRTEXT
 70
     1
  9
$LTSCALE
 40
4.3
  9
$ATTMODE
 70
     1
  9
$TEXTSIZE
 40
2.5
  9
$TRACEWID
 40
1.0
  9
$TEXTSTYLE
  7
Standard
  9
$CLAYER
  8
0
  9
$CELTYPE
  6
ByLayer
  9
$CECOLOR
 62
   256
  9
$CELTSCALE
 40
1.0
  9
$DISPSILH
 70
     0
  9
$DIMSCALE
 40
1.0
  9
$DIMASZ
 40
2.5
  9
$DIMEXO
 40
0.625
  9
$DIMDLI
 40
3.75
  9
$DIMRND
 40
0.0
  9
$DIMDLE
 40
0.0
  9
$DIMEXE
 40
1.25
  9
$DIMTP
 40
0.0
  9
$DIMTM
 40
0.0
  9
$DIMTXT
 40
2.5
  9
$DIMCEN
 40
2.5
  9
$DIMTSZ
 40
0.0
  9
$DIMTOL
 70
     0
  9
$DIMLIM
 70
     0
  9
$DIMTIH
 70
     0
  9
$DIMTOH
 70
     0
  9
$DIMSE1
 70
     0
  9
$DIMSE2
 70
     0
  9
$DIMTAD
 70
     1
  9
$DIMZIN
 70
     8
  9
$DIMBLK
  1

  9
$DIMASO
 70
     1
  9
$DIMSHO
 70
     1
  9
$DIMPOST
  1

  9
$DIMAPOST
  1

  9
$DIMALT
 70
     0
  9
$DIMALTD
 70
     3
  9
$DIMALTF
 40
0.03937007874016
  9
$DIMLFAC
 40
1.0
  9
$DIMTOFL
 70
     1
  9
$DIMTVP
 40
0.0
  9
$DIMTIX
 70
     0
  9
$DIMSOXD
 70
     0
  9
$DIMSAH
 70
     0
  9
$DIMBLK1
  1

  9
$DIMBLK2
  1

  9
$DIMSTYLE
  2
ISO-25
  9
$DIMCLRD
 70
     0
  9
$DIMCLRE
 70
     0
  9
$DIMCLRT
 70
     0
  9
$DIMTFAC
 40
1.0
  9
$DIMGAP
 40
0.625
  9
$DIMJUST
 70
     0
  9
$DIMSD1
 70
     0
  9
$DIMSD2
 70
     0
  9
$DIMTOLJ
 70
     0
  9
$DIMTZIN
 70
     8
  9
$DIMALTZ
 70
     0
  9
$DIMALTTZ
 70
     0
  9
$DIMUPT
 70
     0
  9
$DIMDEC
 70
     2
  9
$DIMTDEC
 70
     2
  9
$DIMALTU
 70
     2
  9
$DIMALTTD
 70
     3
  9
$DIMTXSTY
  7
Standard
  9
$DIMAUNIT
 70
     0
  9
$DIMADEC
 70
     0
  9
$DIMALTRND
 40
0.0
  9
$DIMAZIN
 70
     0
  9
$DIMDSEP
 70
    44
  9
$DIMATFIT
 70
     3
  9
$DIMFRAC
 70
     0
  9
$DIMLDRBLK
  1

  9
$DIMLUNIT
 70
     2
  9
$DIMLWD
 70
    -2
  9
$DIMLWE
 70
    -2
  9
$DIMTMOVE
 70
     0
  9
$LUNITS
 70
     2
  9
$LUPREC
 70
     4
  9
$SKETCHINC
 40
1.0
  9
$FILLETRAD
 40
10.0
  9
$AUNITS
 70
     0
  9
$AUPREC
 70
     0
  9
$MENU
  1
.
  9
$ELEVATION
 40
0.0
  9
$PELEVATION
 40
0.0
  9
$THICKNESS
 40
0.0
  9
$LIMCHECK
 70
     0
  9
$CHAMFERA
 40
10.0
  9
$CHAMFERB
 40
10.0
  9
$CHAMFERC
 40
20.0
  9
$CHAMFERD
 40
0.0
  9
$SKPOLY
 70
     0
  9
$TDCREATE
 40
2457249.853472222
  9
$TDUCREATE
 40
2457249.770138889
  9
$TDUPDATE
 40
2457249.856944445
  9
$TDUUPDATE
 40
2457249.773611111
  9
$TDINDWG
 40
0.0000000116
  9
$TDUSRTIMER
 40
0.0000000116
  9
$USRTIMER
 70
     1
  9
$ANGBASE
 50
0.0
  9
$ANGDIR
 70
     0
  9
$PDMODE
 70
     0
  9
$PDSIZE
 40
0.0
  9
$PLINEWID
 40
0.0
  9
$SPLFRAME
 70
     0
  9
$SPLINETYPE
 70
     6
  9
$SPLINESEGS
 70
     8
  9
$HANDSEED
  5
5E9
  9
$SURFTAB1
 70
     6
  9
$SURFTAB2
 70
     6
  9
$SURFTYPE
 70
     6
  9
$SURFU
 70
     6
  9
$SURFV
 70
     6
  9
$UCSBASE
  2

  9
$UCSNAME
  2

  9
$UCSORG
 10
0.0
 20
0.0
 30
0.0
  9
$UCSXDIR
 10
1.0
 20
0.0
 30
0.0
  9
$UCSYDIR
 10
0.0
 20
1.0
 30
0.0
  9
$UCSORTHOREF
  2

  9
$UCSORTHOVIEW
 70
     0
  9
$UCSORGTOP
 10
0.0
 20
0.0
 30
0.0
  9
$UCSORGBOTTOM
 10
0.0
 20
0.0
 30
0.0
  9
$UCSORGLEFT
 10
0.0
 20
0.0
 30
0.0
  9
$UCSORGRIGHT
 10
0.0
 20
0.0
 30
0.0
  9
$UCSORGFRONT
 10
0.0
 20
0.0
 30
0.0
  9
$UCSORGBACK
 10
0.0
 20
0.0
 30
0.0
  9
$PUCSBASE
  2

  9
$PUCSNAME
  2

  9
$PUCSORG
 10
0.0
 20
0.0
 30
0.0
  9
$PUCSXDIR
 10
1.0
 20
0.0
 30
0.0
  9
$PUCSYDIR
 10
0.0
 20
1.0
 30
0.0
  9
$PUCSORTHOREF
  2

  9
$PUCSORTHOVIEW
 70
     0
  9
$PUCSORGTOP
 10
0.0
 20
0.0
 30
0.0
  9
$PUCSORGBOTTOM
 10
0.0
 20
0.0
 30
0.0
  9
$PUCSORGLEFT
 10
0.0
 20
0.0
 30
0.0
  9
$PUCSORGRIGHT
 10
0.0
 20
0.0
 30
0.0
  9
$PUCSORGFRONT
 10
0.0
 20
0.0
 30
0.0
  9
$PUCSORGBACK
 10
0.0
 20
0.0
 30
0.0
  9
$USERI1
 70
     0
  9
$USERI2
 70
     0
  9
$USERI3
 70
     0
  9
$USERI4
 70
     0
  9
$USERI5
 70
     0
  9
$USERR1
 40
0.0
  9
$USERR2
 40
0.0
  9
$USERR3
 40
0.0
  9
$USERR4
 40
0.0
  9
$USERR5
 40
0.0
  9
$WORLDVIEW
 70
     1
  9
$SHADEDGE
 70
     3
  9
$SHADEDIF
 70
    70
  9
$TILEMODE
 70
     1
  9
$MAXACTVP
 70
    64
  9
$PINSBASE
 10
0.0
 20
0.0
 30
0.0
  9
$PLIMCHECK
 70
     0
  9
$PEXTMIN
 10
1.000000000000000E+20
 20
1.000000000000000E+20
 30
1.000000000000000E+20
  9
$PEXTMAX
 10
-1.000000000000000E+20
 20
-1.000000000000000E+20
 30
-1.000000000000000E+20
  9
$PLIMMIN
 10
0.0
 20
0.0
  9
$PLIMMAX
 10
420.0
 20
297.0
  9
$UNITMODE
 70
     0
  9
$VISRETAIN
 70
     1
  9
$PLINEGEN
 70
     0
  9
$PSLTSCALE
 70
     1
  9
$TREEDEPTH
 70
  3020
  9
$CMLSTYLE
  2
Standard
  9
$CMLJUST
 70
     0
  9
$CMLSCALE
 40
20.0
  9
$PROXYGRAPHICS
 70
     1
  9
$MEASUREMENT
 70
     1
  9
$CELWEIGHT
370
    -1
  9
$ENDCAPS
280
     0
  9
$JOINSTYLE
280
     0
  9
$LWDISPLAY
290
     0
  9
$INSUNITS
 70
     4
  9
$HYPERLINKBASE
  1

  9
$STYLESHEET
  1

  9
$XEDIT
290
     1
  9
$CEPSNTYPE
380
     0
  9
$PSTYLEMODE
290
     1
  9
$FINGERPRINTGUID
  2
{D35521B4-5A5D-48DA-9532-394F8FB9C7DF}
  9
$VERSIONGUID
  2
{FAEB1C32-E019-11D5-929B-00C0DF256EC4}
  9
$EXTNAMES
290
     1
  9
$PSVPSCALE
 40
0.0
  9
$OLESTARTUP
290
     0
  0
ENDSEC
  0
SECTION
  2
CLASSES
  0
CLASS
  1
ACDBDICTIONARYWDFLT
  2
AcDbDictionaryWithDefault
  3
ObjectDBX Classes
 90
        0
280
     0
281
     0
  0
CLASS
  1
VISUALSTYLE
  2
AcDbVisualStyle
  3
ObjectDBX Classes
 90
     4095
280
     0
281
     0
  0
CLASS
  1
MATERIAL
  2
AcDbMaterial
  3
ObjectDBX Classes
 90
     1153
280
     0
281
     0
  0
CLASS
  1
SCALE
  2
AcDbScale
  3
ObjectDBX Classes
 90
     1153
280
     0
281
     0
  0
CLASS
  1
DICTIONARYVAR
  2
AcDbDictionaryVar
  3
ObjectDBX Classes
 90
        0
280
     0
281
     0
  0
CLASS
  1
ACDBPLACEHOLDER
  2
AcDbPlaceHolder
  3
ObjectDBX Classes
 90
        0
280
     0
281
     0
  0
CLASS
  1
LAYOUT
  2
AcDbLayout
  3
ObjectDBX Classes
 90
        0
280
     0
281
     0
  0
ENDSEC
  0
SECTION
  2
TABLES
  0
TABLE
  2
VPORT
  5
8
330
0
100
AcDbSymbolTable
 70
     1
  0
VPORT
  5
29
330
8
100
AcDbSymbolTableRecord
100
AcDbViewportTableRecord
  2
*Active
 70
     0
 10
0.0
 20
0.0
 11
1.0
 21
1.0
 12
11.26
 22
4.5
 13
0.0
 23
0.0
 14
10.0
 24
10.0
 15
10.0
 25
10.0
 16
0.0
 26
0.0
 36
1.0
 17
0.0
 27
0.0
 37
0.0
 40
9.0
 41
2.503333333333333
 42
50.0
 43
0.0
 44
0.0
 50
0.0
 51
0.0
 71
     0
 72
   100
 73
     1
 74
     3
 75
     0
 76
     0
 77
     0
 78
     0
281
     0
 65
     1
110
0.0
120
0.0
130
0.0
111
1.0
121
0.0
131
0.0
112
0.0
122
1.0
132
0.0
 79
     0
146
0.0
  0
ENDTAB
  0
TABLE
  2
LTYPE
  5
5
330
0
100
AcDbSymbolTable
 70
    11
  0
LTYPE
  5
14
330
5
100
AcDbSymbolTableRecord
100
AcDbLinetypeTableRecord
  2
ByBlock
 70
     0
  3

 72
    65
 73
     0
 40
0.0
  0
LTYPE
  5
15
330
5
100
AcDbSymbolTableRecord
100
AcDbLinetypeTableRecord
  2
ByLayer
 70
     0
  3

 72
    65
 73
     0
 40
0.0
  0
LTYPE
  5
16
330
5
100
AcDbSymbolTableRecord
100
AcDbLinetypeTableRecord
  2
Continuous
 70
     0
  3
Solid line
 72
    65
 73
     0
 40
0.0
  0
LTYPE
  5
45
330
5
100
AcDbSymbolTableRecord
100
AcDbLinetypeTableRecord
  2
phl_thick
 70
     0
  3
THICK
 72
    65
 73
     0
 40
0.0
  0
LTYPE
  5
B6
330
5
100
AcDbSymbolTableRecord
100
AcDbLinetypeTableRecord
  2
ls1
 70
     0
  3
THICK
 72
    65
 73
     0
 40
0.0
  0
LTYPE
  5
BC
330
5
100
AcDbSymbolTableRecord
100
AcDbLinetypeTableRecord
  2
NOCUT
 70
     0
  3
THICK
 72
    65
 73
     0
 40
0.0
  0
LTYPE
  5
C5
330
5
100
AcDbSymbolTableRecord
100
AcDbLinetypeTableRecord
  2
SK1
 70
     0
  3
THICK
 72
    65
 73
     0
 40
0.0
  0
LTYPE
  5
CF
330
5
100
AcDbSymbolTableRecord
100
AcDbLinetypeTableRecord
  2
SK2
 70
     0
  3
THIN
 72
    65
 73
     0
 40
0.0
  0
LTYPE
  5
134
330
5
100
AcDbSymbolTableRecord
100
AcDbLinetypeTableRecord
  2
dim_text
 70
     0
  3
THICK
 72
    65
 73
     0
 40
0.0
  0
LTYPE
  5
17C
330
5
100
AcDbSymbolTableRecord
100
AcDbLinetypeTableRecord
  2
L2
 70
     0
  3
THIN
 72
    65
 73
     0
 40
0.0
  0
LTYPE
  5
2CD
330
5
100
AcDbSymbolTableRecord
100
AcDbLinetypeTableRecord
  2
LONGDASH_DASH
 70
     0
  3
THIN_DASHDOT
 72
    65
 73
     4
 40
0.85
 49
0.4
 74
     0
 49
-0.2
 74
     0
 49
0.05
 74
     0
 49
-0.2
 74
     0
  0
LTYPE
  5
2DA
330
5
100
AcDbSymbolTableRecord
100
AcDbLinetypeTableRecord
  2
INFTOTAL
 70
     0
  3
THIN
 72
    65
 73
     0
 40
0.0
  0
LTYPE
  5
2EA
330
5
100
AcDbSymbolTableRecord
100
AcDbLinetypeTableRecord
  2
cc_dim_arrow
 70
     0
  3
THICK
 72
    65
 73
     0
 40
0.0
  0
ENDTAB
  0
TABLE
  2
LAYER
  5
2
330
0
100
AcDbSymbolTable
 70
    11
  0
LAYER
  5
10
330
2
100
AcDbSymbolTableRecord
100
AcDbLayerTableRecord
  2
0
 70
     0
 62
     7
  6
Continuous
370
    -3
390
F
  0
LAYER
  5
44
330
2
100
AcDbSymbolTableRecord
100
AcDbLayerTableRecord
  2
1
 70
     0
 62
4
  6
CONTINUOUS
370
50
370
    -3
390
F
  0
LAYER
  5
B5
330
2
100
AcDbSymbolTableRecord
100
AcDbLayerTableRecord
  2
CUT
 70
     0
 62
1
  6
CONTINUOUS
370
25
370
    -3
390
F
  0
LAYER
  5
BB
330
2
100
AcDbSymbolTableRecord
100
AcDbLayerTableRecord
  2
NOCUT
 70
     0
 62
7
  6
CONTINUOUS
370
25
370
    -3
390
F
  0
LAYER
  5
C4
330
2
100
AcDbSymbolTableRecord
100
AcDbLayerTableRecord
  2
SK1
 70
     0
 62
4
  6
CONTINUOUS
370
50
370
    -3
390
F
  0
LAYER
  5
CE
330
2
100
AcDbSymbolTableRecord
100
AcDbLayerTableRecord
  2
SK2
 70
     0
 62
7
  6
CONTINUOUS
370
25
370
    -3
390
F
  0
LAYER
  5
17B
330
2
100
AcDbSymbolTableRecord
100
AcDbLayerTableRecord
  2
2
 70
     0
 62
7
  6
CONTINUOUS
370
25
370
    -3
390
F
  0
LAYER
  5
2CC
330
2
100
AcDbSymbolTableRecord
100
AcDbLayerTableRecord
  2
4
 70
     0
 62
2
  6
LONGDASH_DASH
370
25
370
    -3
390
F
  0
LAYER
  5
2CF
330
2
100
AcDbSymbolTableRecord
100
AcDbLayerTableRecord
  2
SK4
 70
     0
 62
2
  6
LONGDASH_DASH
370
25
370
    -3
390
F
  0
LAYER
  5
2D9
330
2
100
AcDbSymbolTableRecord
100
AcDbLayerTableRecord
  2
INFTOTAL
 70
     0
 62
9
  6
CONTINUOUS
370
18
370
    -3
390
F
  0
LAYER
  5
2DF
330
2
100
AcDbSymbolTableRecord
100
AcDbLayerTableRecord
  2
SK6
 70
     0
 62
5
  6
CONTINUOUS
370
25
370
    -3
390
F
  0
ENDTAB
  0
TABLE
  2
STYLE
  5
3
330
0
100
AcDbSymbolTable
 70
     1
  0
STYLE
  5
11
330
3
100
AcDbSymbolTableRecord
100
AcDbTextStyleTableRecord
  2
Standard
 70
     0
 40
0.0
 41
1.0
 50
0.0
 71
     0
 42
2.5
  3
Monospac821 BT
  4

  0
ENDTAB
  0
TABLE
  2
VIEW
  5
6
330
0
100
AcDbSymbolTable
 70
     0
  0
ENDTAB
  0
TABLE
  2
UCS
  5
7
330
0
100
AcDbSymbolTable
 70
     0
  0
ENDTAB
  0
TABLE
  2
APPID
  5
9
330
0
100
AcDbSymbolTable
 70
     2
  0
APPID
  5
12
330
9
100
AcDbSymbolTableRecord
100
AcDbRegAppTableRecord
  2
ACAD
 70
     0
  0
APPID
  5
3F
330
9
100
AcDbSymbolTableRecord
100
AcDbRegAppTableRecord
  2
ccLab
 70
     0
  0
ENDTAB
  0
TABLE
  2
DIMSTYLE
  5
A
330
0
100
AcDbSymbolTable
 70
     1
100
AcDbDimStyleTable
  0
DIMSTYLE
105
27
330
A
100
AcDbSymbolTableRecord
100
AcDbDimStyleTableRecord
  2
ISO-25
 70
     0
 41
2.5
 42
0.625
 43
3.75
 44
1.25
 73
     0
 74
     0
 77
     1
 78
     8
140
2.5
141
2.5
143
0.03937007874016
147
0.625
171
     3
172
     1
271
     2
272
     2
274
     3
278
    44
283
     0
284
     8
340
11
  0
ENDTAB
  0
TABLE
  2
BLOCK_RECORD
  5
1
330
0
100
AcDbSymbolTable
 70
     2
  0
BLOCK_RECORD
  5
1F
330
1
100
AcDbSymbolTableRecord
100
AcDbBlockTableRecord
  2
*Model_Space
340
22
  0
BLOCK_RECORD
  5
1B
330
1
100
AcDbSymbolTableRecord
100
AcDbBlockTableRecord
  2
*Paper_Space
340
1E
  0
BLOCK_RECORD
  5
23
330
1
100
AcDbSymbolTableRecord
100
AcDbBlockTableRecord
  2
*Paper_Space0
340
26
  0
ENDTAB
  0
ENDSEC
  0
SECTION
  2
BLOCKS
  0
BLOCK
  5
20
330
1F
100
AcDbEntity
  8
0
100
AcDbBlockBegin
  2
*Model_Space
 70
     0
 10
0.0
 20
0.0
 30
0.0
  3
*Model_Space
  1

  0
ENDBLK
  5
21
330
1F
100
AcDbEntity
  8
0
100
AcDbBlockEnd
  0
BLOCK
  5
1C
330
1B
100
AcDbEntity
 67
     1
  8
0
100
AcDbBlockBegin
  2
*Paper_Space
 70
     0
 10
0.0
 20
0.0
 30
0.0
  3
*Paper_Space
  1

  0
ENDBLK
  5
1D
330
1B
100
AcDbEntity
 67
     1
  8
0
100
AcDbBlockEnd
  0
BLOCK
  5
24
330
23
100
AcDbEntity
  8
0
100
AcDbBlockBegin
  2
*Paper_Space0
 70
     0
 10
0.0
 20
0.0
 30
0.0
  3
*Paper_Space0
  1

  0
ENDBLK
  5
25
330
23
100
AcDbEntity
  8
0
100
AcDbBlockEnd
  0
ENDSEC
  0
SECTION
  2
ENTITIES
  0
LINE
  5
31A
330
1F
100
AcDbEntity
  8
1
  6
CONTINUOUS
370
50
 62
4
100
AcDbLine
 10
44.510197
 20
0.085614
 30
0.0
 11
44.509987
 21
0.086094
 31
0.0
  0
LINE
  5
31B
330
1F
100
AcDbEntity
  8
1
  6
CONTINUOUS
370
50
 62
4
100
AcDbLine
 10
44.510681
 20
0.085187
 30
0.0
 11
44.510197
 21
0.085614
 31
0.0
  0
LINE
  5
31C
330
1F
100
AcDbEntity
  8
1
  6
CONTINUOUS
370
50
 62
4
100
AcDbLine
 10
44.511375
 20
0.084844
 30
0.0
 11
44.510681
 21
0.085187
 31
0.0
  0
LINE
  5
31D
330
1F
100
AcDbEntity
  8
1
  6
CONTINUOUS
370
50
 62
4
100
AcDbLine
 10
44.649754
 20
0.052068
 30
0.0
 11
44.642208
 21
0.055774
 31
0.0
  0
LINE
  5
31E
330
1F
100
AcDbEntity
  8
1
  6
CONTINUOUS
370
50
 62
4
100
AcDbLine
 10
44.656822
 20
0.048667
 30
0.0
 11
44.649754
 21
0.052068
 31
0.0
  0
LINE
  5
31F
330
1F
100
AcDbEntity
  8
1
  6
CONTINUOUS
370
50
 62
4
100
AcDbLine
 10
44.642208
 20
0.055774
 30
0.0
 11
44.63467
 21
0.059371
 31
0.0
  0
LINE
  5
320
330
1F
100
AcDbEntity
  8
1
  6
CONTINUOUS
370
50
 62
4
100
AcDbLine
 10
44.63467
 20
0.059371
 30
0.0
 11
44.627121
 21
0.062797
 31
0.0
  0
LINE
  5
321
330
1F
100
AcDbEntity
  8
1
  6
CONTINUOUS
370
50
 62
4
100
AcDbLine
 10
44.663418
 20
0.045683
 30
0.0
 11
44.656822
 21
0.048667
 31
0.0
  0
LINE
  5
322
330
1F
100
AcDbEntity
  8
1
  6
CONTINUOUS
370
50
 62
4
100
AcDbLine
 10
44.627121
 20
0.062797
 30
0.0
 11
44.619488
 21
0.066033
 31
0.0
  0
LINE
  5
323
330
1F
100
AcDbEntity
  8
1
  6
CONTINUOUS
370
50
 62
4
100
AcDbLine
 10
44.669666
 20
0.04313
 30
0.0
 11
44.663418
 21
0.045683
 31
0.0
  0
LINE
  5
324
330
1F
100
AcDbEntity
  8
1
  6
CONTINUOUS
370
50
 62
4
100
AcDbLine
 10
44.619488
 20
0.066033
 30
0.0
 11
44.611698
 21
0.069063
 31
0.0
  0
LINE
  5
325
330
1F
100
AcDbEntity
  8
1
  6
CONTINUOUS
370
50
 62
4
100
AcDbLine
 10
44.611698
 20
0.069063
 30
0.0
 11
44.603676
 21
0.071868
 31
0.0
  0
LINE
  5
326
330
1F
100
AcDbEntity
  8
1
  6
CONTINUOUS
370
50
 62
4
100
AcDbLine
 10
44.675716
 20
0.041024
 30
0.0
 11
44.669666
 21
0.04313
 31
0.0
  0
LINE
  5
327
330
1F
100
AcDbEntity
  8
1
  6
CONTINUOUS
370
50
 62
4
100
AcDbLine
 10
44.512196
 20
0.084581
 30
0.0
 11
44.511375
 21
0.084844
 31
0.0
  0
LINE
  5
328
330
1F
100
AcDbEntity
  8
1
  6
CONTINUOUS
370
50
 62
4
100
AcDbLine
 10
44.603676
 20
0.071868
 30
0.0
 11
44.595341
 21
0.07443
 31
0.0
  0
LINE
  5
329
330
1F
100
AcDbEntity
  8
1
  6
CONTINUOUS
370
50
 62
4
100
AcDbLine
 10
44.681698
 20
0.039378
 30
0.0
 11
44.675716
 21
0.041024
 31
0.0
  0
LINE
  5
32A
330
1F
100
AcDbEntity
  8
1
  6
CONTINUOUS
370
50
 62
4
100
AcDbLine
 10
42.141182
 20
0.154096
 30
0.0
 11
35.252361
 21
1.99995
 31
0.0
  0
LINE
  5
32B
330
1F
100
AcDbEntity
  8
1
  6
CONTINUOUS
370
50
 62
4
100
AcDbLine
 10
44.595341
 20
0.07443
 30
0.0
 11
44.586617
 21
0.076733
 31
0.0
  0
LINE
  5
32C
330
1F
100
AcDbEntity
  8
1
  6
CONTINUOUS
370
50
 62
4
100
AcDbLine
 10
44.586617
 20
0.076733
 30
0.0
 11
44.577435
 21
0.078758
 31
0.0
  0
LINE
  5
32D
330
1F
100
AcDbEntity
  8
1
  6
CONTINUOUS
370
50
 62
4
100
AcDbLine
 10
44.513073
 20
0.084388
 30
0.0
 11
44.512196
 21
0.084581
 31
0.0
  0
LINE
  5
32E
330
1F
100
AcDbEntity
  8
1
  6
CONTINUOUS
370
50
 62
4
100
AcDbLine
 10
44.68771
 20
0.038224
 30
0.0
 11
44.681698
 21
0.039378
 31
0.0
  0
LINE
  5
32F
330
1F
100
AcDbEntity
  8
1
  6
CONTINUOUS
370
50
 62
4
100
AcDbLine
 10
44.577435
 20
0.078758
 30
0.0
 11
44.567715
 21
0.080488
 31
0.0
  0
LINE
  5
330
330
1F
100
AcDbEntity
  8
1
  6
CONTINUOUS
370
50
 62
4
100
AcDbLine
 10
44.514004
 20
0.084244
 30
0.0
 11
44.513073
 21
0.084388
 31
0.0
  0
LINE
  5
331
330
1F
100
AcDbEntity
  8
1
  6
CONTINUOUS
370
50
 62
4
100
AcDbLine
 10
44.965359
 20
0.004869
 30
0.0
 11
44.942265
 21
0.008114
 31
0.0
  0
LINE
  5
332
330
1F
100
AcDbEntity
  8
1
  6
CONTINUOUS
370
50
 62
4
100
AcDbLine
 10
44.567715
 20
0.080488
 30
0.0
 11
44.557381
 21
0.081904
 31
0.0
  0
LINE
  5
333
330
1F
100
AcDbEntity
  8
1
  6
CONTINUOUS
370
50
 62
4
100
AcDbLine
 10
44.693798
 20
0.037609
 30
0.0
 11
44.68771
 21
0.038224
 31
0.0
  0
LINE
  5
334
330
1F
100
AcDbEntity
  8
1
  6
CONTINUOUS
370
50
 62
4
100
AcDbLine
 10
44.557381
 20
0.081904
 30
0.0
 11
44.546432
 21
0.082989
 31
0.0
  0
LINE
  5
335
330
1F
100
AcDbEntity
  8
1
  6
CONTINUOUS
370
50
 62
4
100
AcDbLine
 10
44.546432
 20
0.082989
 30
0.0
 11
44.535454
 21
0.083729
 31
0.0
  0
LINE
  5
336
330
1F
100
AcDbEntity
  8
1
  6
CONTINUOUS
370
50
 62
4
100
AcDbLine
 10
44.535454
 20
0.083729
 30
0.0
 11
44.524628
 21
0.084152
 31
0.0
  0
LINE
  5
337
330
1F
100
AcDbEntity
  8
1
  6
CONTINUOUS
370
50
 62
4
100
AcDbLine
 10
44.68589
 20
0.100083
 30
0.0
 11
44.671463
 21
0.100219
 31
0.0
  0
LINE
  5
338
330
1F
100
AcDbEntity
  8
1
  6
CONTINUOUS
370
50
 62
4
100
AcDbLine
 10
44.700001
 20
0.09995
 30
0.0
 11
44.68589
 21
0.100083
 31
0.0
  0
LINE
  5
339
330
1F
100
AcDbEntity
  8
1
  6
CONTINUOUS
370
50
 62
4
100
AcDbLine
 10
44.700001
 20
0.09995
 30
0.0
 11
42.400002
 21
0.120022
 31
0.0
  0
LINE
  5
33A
330
1F
100
AcDbEntity
  8
1
  6
CONTINUOUS
370
50
 62
4
100
AcDbLine
 10
44.524628
 20
0.084152
 30
0.0
 11
44.514004
 21
0.084244
 31
0.0
  0
LINE
  5
33B
330
1F
100
AcDbEntity
  8
1
  6
CONTINUOUS
370
50
 62
4
100
AcDbLine
 10
44.671463
 20
0.100219
 30
0.0
 11
44.656807
 21
0.100332
 31
0.0
  0
LINE
  5
33C
330
1F
100
AcDbEntity
  8
1
  6
CONTINUOUS
370
50
 62
4
100
AcDbLine
 10
44.656807
 20
0.100332
 30
0.0
 11
44.642014
 21
0.100393
 31
0.0
  0
LINE
  5
33D
330
1F
100
AcDbEntity
  8
1
  6
CONTINUOUS
370
50
 62
4
100
AcDbLine
 10
44.700001
 20
0.037588
 30
0.0
 11
44.693798
 21
0.037609
 31
0.0
  0
LINE
  5
33E
330
1F
100
AcDbEntity
  8
1
  6
CONTINUOUS
370
50
 62
4
100
AcDbLine
 10
34.25
 20
-2.0
 30
0.0
 11
35.252361
 21
-2.0
 31
0.0
  0
LINE
  5
33F
330
1F
100
AcDbEntity
  8
1
  6
CONTINUOUS
370
50
 62
4
100
AcDbLine
 10
44.700001
 20
-0.1
 30
0.0
 11
44.966225
 21
-0.1
 31
0.0
  0
LINE
  5
340
330
1F
100
AcDbEntity
  8
1
  6
CONTINUOUS
370
50
 62
4
100
AcDbLine
 10
44.965359
 20
0.004869
 30
0.0
 11
45.0
 21
0.004869
 31
0.0
  0
LINE
  5
341
330
1F
100
AcDbEntity
  8
1
  6
CONTINUOUS
370
50
 62
4
100
AcDbLine
 10
44.942265
 20
0.008114
 30
0.0
 11
45.0
 21
0.008114
 31
0.0
  0
LINE
  5
342
330
1F
100
AcDbEntity
  8
1
  6
CONTINUOUS
370
50
 62
4
100
AcDbLine
 10
44.514004
 20
0.084244
 30
0.0
 11
44.700001
 21
0.084244
 31
0.0
  0
LINE
  5
343
330
1F
100
AcDbEntity
  8
1
  6
CONTINUOUS
370
50
 62
4
100
AcDbLine
 10
44.542248
 20
0.096
 30
0.0
 11
44.700001
 21
0.096
 31
0.0
  0
LINE
  5
344
330
1F
100
AcDbEntity
  8
1
  6
CONTINUOUS
370
50
 62
4
100
AcDbLine
 10
44.700001
 20
0.1
 30
0.0
 11
44.966225
 21
0.1
 31
0.0
  0
LINE
  5
345
330
1F
100
AcDbEntity
  8
1
  6
CONTINUOUS
370
50
 62
4
100
AcDbLine
 10
34.25
 20
2.0
 30
0.0
 11
35.252361
 21
2.0
 31
0.0
  0
LINE
  5
346
330
1F
100
AcDbEntity
  8
1
  6
CONTINUOUS
370
50
 62
4
100
AcDbLine
 10
44.627182
 20
0.100373
 30
0.0
 11
44.642014
 21
0.100393
 31
0.0
  0
LINE
  5
347
330
1F
100
AcDbEntity
  8
1
  6
CONTINUOUS
370
50
 62
4
100
AcDbLine
 10
44.6124
 20
0.100245
 30
0.0
 11
44.627182
 21
0.100373
 31
0.0
  0
LINE
  5
348
330
1F
100
AcDbEntity
  8
1
  6
CONTINUOUS
370
50
 62
4
100
AcDbLine
 10
42.400002
 20
-0.120022
 30
0.0
 11
44.700001
 21
-0.09995
 31
0.0
  0
LINE
  5
349
330
1F
100
AcDbEntity
  8
1
  6
CONTINUOUS
370
50
 62
4
100
AcDbLine
 10
44.597763
 20
0.099963
 30
0.0
 11
44.6124
 21
0.100245
 31
0.0
  0
LINE
  5
34A
330
1F
100
AcDbEntity
  8
1
  6
CONTINUOUS
370
50
 62
4
100
AcDbLine
 10
44.583351
 20
0.099458
 30
0.0
 11
44.597763
 21
0.099963
 31
0.0
  0
LINE
  5
34B
330
1F
100
AcDbEntity
  8
1
  6
CONTINUOUS
370
50
 62
4
100
AcDbLine
 10
44.569241
 20
0.09867
 30
0.0
 11
44.583351
 21
0.099458
 31
0.0
  0
LINE
  5
34C
330
1F
100
AcDbEntity
  8
1
  6
CONTINUOUS
370
50
 62
4
100
AcDbLine
 10
44.998863
 20
0.019597
 30
0.0
 11
44.999146
 21
0.019618
 31
0.0
  0
LINE
  5
34D
330
1F
100
AcDbEntity
  8
1
  6
CONTINUOUS
370
50
 62
4
100
AcDbLine
 10
44.998581
 20
0.019576
 30
0.0
 11
44.998863
 21
0.019597
 31
0.0
  0
LINE
  5
34E
330
1F
100
AcDbEntity
  8
1
  6
CONTINUOUS
370
50
 62
4
100
AcDbLine
 10
44.99942799999999
 20
0.01964
 30
0.0
 11
44.99971
 21
0.019661
 31
0.0
  0
LINE
  5
34F
330
1F
100
AcDbEntity
  8
1
  6
CONTINUOUS
370
50
 62
4
100
AcDbLine
 10
44.998302
 20
0.019555
 30
0.0
 11
44.998581
 21
0.019576
 31
0.0
  0
LINE
  5
350
330
1F
100
AcDbEntity
  8
1
  6
CONTINUOUS
370
50
 62
4
100
AcDbLine
 10
44.99971
 20
0.019661
 30
0.0
 11
44.999996
 21
0.019683
 31
0.0
  0
LINE
  5
351
330
1F
100
AcDbEntity
  8
1
  6
CONTINUOUS
370
50
 62
4
100
AcDbLine
 10
44.999146
 20
0.019618
 30
0.0
 11
44.99942799999999
 21
0.01964
 31
0.0
  0
LINE
  5
352
330
1F
100
AcDbEntity
  8
1
  6
CONTINUOUS
370
50
 62
4
100
AcDbLine
 10
44.555515
 20
0.097536
 30
0.0
 11
44.569241
 21
0.09867
 31
0.0
  0
LINE
  5
353
330
1F
100
AcDbEntity
  8
1
  6
CONTINUOUS
370
50
 62
4
100
AcDbLine
 10
44.542248
 20
0.096
 30
0.0
 11
44.555515
 21
0.097536
 31
0.0
  0
LINE
  5
354
330
1F
100
AcDbEntity
  8
1
  6
CONTINUOUS
370
50
 62
4
100
AcDbLine
 10
44.540878
 20
0.09581
 30
0.0
 11
44.542248
 21
0.096
 31
0.0
  0
LINE
  5
355
330
1F
100
AcDbEntity
  8
1
  6
CONTINUOUS
370
50
 62
4
100
AcDbLine
 10
44.539501
 20
0.095612
 30
0.0
 11
44.540878
 21
0.09581
 31
0.0
  0
LINE
  5
356
330
1F
100
AcDbEntity
  8
1
  6
CONTINUOUS
370
50
 62
4
100
AcDbLine
 10
44.538124
 20
0.095406
 30
0.0
 11
44.539501
 21
0.095612
 31
0.0
  0
LINE
  5
357
330
1F
100
AcDbEntity
  8
1
  6
CONTINUOUS
370
50
 62
4
100
AcDbLine
 10
44.536747
 20
0.095192
 30
0.0
 11
44.538124
 21
0.095406
 31
0.0
  0
LINE
  5
358
330
1F
100
AcDbEntity
  8
1
  6
CONTINUOUS
370
50
 62
4
100
AcDbLine
 10
44.53537
 20
0.094969
 30
0.0
 11
44.536747
 21
0.095192
 31
0.0
  0
LINE
  5
359
330
1F
100
AcDbEntity
  8
1
  6
CONTINUOUS
370
50
 62
4
100
AcDbLine
 10
44.534
 20
0.094738
 30
0.0
 11
44.53537
 21
0.094969
 31
0.0
  0
LINE
  5
35A
330
1F
100
AcDbEntity
  8
1
  6
CONTINUOUS
370
50
 62
4
100
AcDbLine
 10
44.532639
 20
0.094498
 30
0.0
 11
44.534
 21
0.094738
 31
0.0
  0
LINE
  5
35B
330
1F
100
AcDbEntity
  8
1
  6
CONTINUOUS
370
50
 62
4
100
AcDbLine
 10
44.531284
 20
0.094249
 30
0.0
 11
44.532639
 21
0.094498
 31
0.0
  0
LINE
  5
35C
330
1F
100
AcDbEntity
  8
1
  6
CONTINUOUS
370
50
 62
4
100
AcDbLine
 10
44.529942
 20
0.093991
 30
0.0
 11
44.531284
 21
0.094249
 31
0.0
  0
LINE
  5
35D
330
1F
100
AcDbEntity
  8
1
  6
CONTINUOUS
370
50
 62
4
100
AcDbLine
 10
44.52861
 20
0.093725
 30
0.0
 11
44.529942
 21
0.093991
 31
0.0
  0
LINE
  5
35E
330
1F
100
AcDbEntity
  8
1
  6
CONTINUOUS
370
50
 62
4
100
AcDbLine
 10
44.52729799999999
 20
0.093449
 30
0.0
 11
44.52861
 21
0.093725
 31
0.0
  0
LINE
  5
35F
330
1F
100
AcDbEntity
  8
1
  6
CONTINUOUS
370
50
 62
4
100
AcDbLine
 10
44.52600899999999
 20
0.093165
 30
0.0
 11
44.52729799999999
 21
0.093449
 31
0.0
  0
LINE
  5
360
330
1F
100
AcDbEntity
  8
1
  6
CONTINUOUS
370
50
 62
4
100
AcDbLine
 10
44.524761
 20
0.092877
 30
0.0
 11
44.52600899999999
 21
0.093165
 31
0.0
  0
LINE
  5
361
330
1F
100
AcDbEntity
  8
1
  6
CONTINUOUS
370
50
 62
4
100
AcDbLine
 10
44.523563
 20
0.092587
 30
0.0
 11
44.524761
 21
0.092877
 31
0.0
  0
LINE
  5
362
330
1F
100
AcDbEntity
  8
1
  6
CONTINUOUS
370
50
 62
4
100
AcDbLine
 10
44.522419
 20
0.092295
 30
0.0
 11
44.523563
 21
0.092587
 31
0.0
  0
LINE
  5
363
330
1F
100
AcDbEntity
  8
1
  6
CONTINUOUS
370
50
 62
4
100
AcDbLine
 10
44.521324
 20
0.092003
 30
0.0
 11
44.522419
 21
0.092295
 31
0.0
  0
LINE
  5
364
330
1F
100
AcDbEntity
  8
1
  6
CONTINUOUS
370
50
 62
4
100
AcDbLine
 10
35.252361
 20
-1.99995
 30
0.0
 11
42.141182
 21
-0.154096
 31
0.0
  0
LINE
  5
365
330
1F
100
AcDbEntity
  8
1
  6
CONTINUOUS
370
50
 62
4
100
AcDbLine
 10
44.520283
 20
0.091709
 30
0.0
 11
44.521324
 21
0.092003
 31
0.0
  0
LINE
  5
366
330
1F
100
AcDbEntity
  8
1
  6
CONTINUOUS
370
50
 62
4
100
AcDbLine
 10
44.519291
 20
0.091416
 30
0.0
 11
44.520283
 21
0.091709
 31
0.0
  0
LINE
  5
367
330
1F
100
AcDbEntity
  8
1
  6
CONTINUOUS
370
50
 62
4
100
AcDbLine
 10
44.518349
 20
0.091123
 30
0.0
 11
44.519291
 21
0.091416
 31
0.0
  0
LINE
  5
368
330
1F
100
AcDbEntity
  8
1
  6
CONTINUOUS
370
50
 62
4
100
AcDbLine
 10
44.517456
 20
0.09083
 30
0.0
 11
44.518349
 21
0.091123
 31
0.0
  0
LINE
  5
369
330
1F
100
AcDbEntity
  8
1
  6
CONTINUOUS
370
50
 62
4
100
AcDbLine
 10
44.516617
 20
0.090538
 30
0.0
 11
44.517456
 21
0.09083
 31
0.0
  0
LINE
  5
36A
330
1F
100
AcDbEntity
  8
1
  6
CONTINUOUS
370
50
 62
4
100
AcDbLine
 10
44.515831
 20
0.090247
 30
0.0
 11
44.516617
 21
0.090538
 31
0.0
  0
LINE
  5
36B
330
1F
100
AcDbEntity
  8
1
  6
CONTINUOUS
370
50
 62
4
100
AcDbLine
 10
44.515091
 20
0.089958
 30
0.0
 11
44.515831
 21
0.090247
 31
0.0
  0
LINE
  5
36C
330
1F
100
AcDbEntity
  8
1
  6
CONTINUOUS
370
50
 62
4
100
AcDbLine
 10
44.514389
 20
0.089665
 30
0.0
 11
44.515091
 21
0.089958
 31
0.0
  0
LINE
  5
36D
330
1F
100
AcDbEntity
  8
1
  6
CONTINUOUS
370
50
 62
4
100
AcDbLine
 10
44.513687
 20
0.089349
 30
0.0
 11
44.514389
 21
0.089665
 31
0.0
  0
LINE
  5
36E
330
1F
100
AcDbEntity
  8
1
  6
CONTINUOUS
370
50
 62
4
100
AcDbLine
 10
44.512997
 20
0.089013
 30
0.0
 11
44.513687
 21
0.089349
 31
0.0
  0
LINE
  5
36F
330
1F
100
AcDbEntity
  8
1
  6
CONTINUOUS
370
50
 62
4
100
AcDbLine
 10
44.512337
 20
0.088657
 30
0.0
 11
44.512997
 21
0.089013
 31
0.0
  0
LINE
  5
370
330
1F
100
AcDbEntity
  8
1
  6
CONTINUOUS
370
50
 62
4
100
AcDbLine
 10
44.511723
 20
0.088285
 30
0.0
 11
44.512337
 21
0.088657
 31
0.0
  0
LINE
  5
371
330
1F
100
AcDbEntity
  8
1
  6
CONTINUOUS
370
50
 62
4
100
AcDbLine
 10
44.511173
 20
0.0879
 30
0.0
 11
44.511723
 21
0.088285
 31
0.0
  0
LINE
  5
372
330
1F
100
AcDbEntity
  8
1
  6
CONTINUOUS
370
50
 62
4
100
AcDbLine
 10
44.510693
 20
0.087492
 30
0.0
 11
44.511173
 21
0.0879
 31
0.0
  0
LINE
  5
373
330
1F
100
AcDbEntity
  8
1
  6
CONTINUOUS
370
50
 62
4
100
AcDbLine
 10
44.5103
 20
0.08705
 30
0.0
 11
44.510693
 21
0.087492
 31
0.0
  0
LINE
  5
374
330
1F
100
AcDbEntity
  8
1
  6
CONTINUOUS
370
50
 62
4
100
AcDbLine
 10
44.510044
 20
0.086583
 30
0.0
 11
44.5103
 21
0.08705
 31
0.0
  0
LINE
  5
375
330
1F
100
AcDbEntity
  8
1
  6
CONTINUOUS
370
50
 62
4
100
AcDbLine
 10
44.97102
 20
-0.082132
 30
0.0
 11
44.983349
 21
-0.050101
 31
0.0
  0
LINE
  5
376
330
1F
100
AcDbEntity
  8
1
  6
CONTINUOUS
370
50
 62
4
100
AcDbLine
 10
44.509987
 20
0.086094
 30
0.0
 11
44.510044
 21
0.086583
 31
0.0
  0
LINE
  5
377
330
1F
100
AcDbEntity
  8
1
  6
CONTINUOUS
370
50
 62
4
100
AcDbLine
 10
34.25
 20
-2.0
 30
0.0
 11
34.25
 21
2.0
 31
0.0
  0
LINE
  5
378
330
1F
100
AcDbEntity
  8
1
  6
CONTINUOUS
370
50
 62
4
100
AcDbLine
 10
35.252361
 20
-2.0
 30
0.0
 11
35.252361
 21
2.0
 31
0.0
  0
LINE
  5
379
330
1F
100
AcDbEntity
  8
1
  6
CONTINUOUS
370
50
 62
4
100
AcDbLine
 10
42.141182
 20
-0.154096
 30
0.0
 11
42.141182
 21
0.154096
 31
0.0
  0
LINE
  5
37A
330
1F
100
AcDbEntity
  8
1
  6
CONTINUOUS
370
50
 62
4
100
AcDbLine
 10
42.400002
 20
-0.120022
 30
0.0
 11
42.400002
 21
0.120022
 31
0.0
  0
LINE
  5
37B
330
1F
100
AcDbEntity
  8
1
  6
CONTINUOUS
370
50
 62
4
100
AcDbLine
 10
44.700001
 20
-0.1
 30
0.0
 11
44.700001
 21
0.1
 31
0.0
  0
LINE
  5
37C
330
1F
100
AcDbEntity
  8
1
  6
CONTINUOUS
370
50
 62
4
100
AcDbLine
 10
44.99921
 20
-0.017093
 30
0.0
 11
44.99921
 21
-0.013825
 31
0.0
  0
LINE
  5
37D
330
1F
100
AcDbEntity
  8
1
  6
CONTINUOUS
370
50
 62
4
100
AcDbLine
 10
45.0
 20
-0.008114
 30
0.0
 11
45.0
 21
0.019683
 31
0.0
  0
ARC
  5
37E
330
1F
100
AcDbEntity
  8
1
  6
CONTINUOUS
370
50
 62
4
100
AcDbCircle
 10
42.4
 20
-1.120022
 30
0.0
 40
1.0
100
AcDbArc
 50
89.99991257357814
 51
104.9999450563578
  0
ARC
  5
37F
330
1F
100
AcDbEntity
  8
1
  6
CONTINUOUS
370
50
 62
4
100
AcDbCircle
 10
42.4
 20
1.120022
 30
0.0
 40
1.000000000000001
100
AcDbArc
 50
255.0000549436423
 51
270.0000874264219
  0
ELLIPSE
  5
380
330
1F
100
AcDbEntity
  8
1
  6
CONTINUOUS
370
50
 62
4
100
AcDbEllipse
 10
45.0
 20
0.0
 30
0.0
 11
-0.004192354570381695
 21
0.05995197520646174
 31
0.0
210
0.0
220
0.0
230
1.0
 40
0.5735595915069684
 41
1.449478082365698
 42
2.518870543141523
  0
ELLIPSE
  5
381
330
1F
100
AcDbEntity
  8
1
  6
CONTINUOUS
370
50
 62
4
100
AcDbEllipse
 10
45.0
 20
0.0
 30
0.0
 11
0.005232269537351889
 21
0.05999997649573276
 31
0.0
210
0.0
220
0.0
230
1.0
 40
0.0070501652605949
 41
4.480344479954797
 42
4.631718111054773
  0
ELLIPSE
  5
382
330
1F
100
AcDbEntity
  8
1
  6
CONTINUOUS
370
50
 62
4
100
AcDbEllipse
 10
45.0
 20
0.0
 30
0.0
 11
-0.006987259239274132
 21
0.09991998187211194
 31
0.0
210
0.0
220
0.0
230
1.0
 40
0.5735691854889728
 41
1.44947607291831
 42
2.494428712394248
  0
ELLIPSE
  5
383
330
1F
100
AcDbEntity
  8
1
  6
CONTINUOUS
370
50
 62
4
100
AcDbEllipse
 10
45.0
 20
0.0
 30
0.0
 11
0.008720449228921004
 21
0.0999999608262213
 31
0.0
210
0.0
220
0.0
230
0.9999999999999999
 40
0.0070495896431617
 41
4.541128783513628
 42
4.631724668969617
  0
ELLIPSE
  5
384
330
1F
100
AcDbEntity
  8
1
  6
CONTINUOUS
370
50
 62
4
100
AcDbEllipse
 10
45.0
 20
0.0
 30
0.0
 11
-0.008720449228899696
 21
0.09999996082622313
 31
0.0
210
0.0
220
0.0
230
1.0
 40
0.0070495896431617
 41
4.793053291799961
 42
4.883649177256632
  0
ELLIPSE
  5
385
330
1F
100
AcDbEntity
  8
1
  6
CONTINUOUS
370
50
 62
4
100
AcDbEllipse
 10
45.0
 20
0.0
 30
0.0
 11
0.7213590273383232
 21
0.05838566223403483
 31
0.0
210
0.0
220
0.0
230
1.0
 40
0.0191652167517785
 41
1.569245125614897
 42
1.569948438778145
  0
ELLIPSE
  5
386
330
1F
100
AcDbEntity
  8
1
  6
CONTINUOUS
370
50
 62
4
100
AcDbEllipse
 10
45.0025
 20
0.0
 30
0.0
 11
0.02178191258189697
 21
0.0599970317372007
 31
0.0
210
0.0
220
0.0
230
0.9999999999999999
 40
0.0260984265218179
 41
2.56846813004086
 42
4.489336794495165
  0
ELLIPSE
  5
387
330
1F
100
AcDbEntity
  8
1
  6
CONTINUOUS
370
50
 62
4
100
AcDbEllipse
 10
45.0025
 20
0.0
 30
0.0
 11
0.03630346958888706
 21
0.09999582951707944
 31
0.0
210
0.0
220
0.0
230
0.9999999999999999
 40
0.0260992923825806
 41
2.54403440528412
 42
4.550069156587909
  0
ELLIPSE
  5
388
330
1F
100
AcDbEntity
  8
1
  6
CONTINUOUS
370
50
 62
4
100
AcDbEllipse
 10
45.0025
 20
0.0
 30
0.0
 11
-0.03630346958890843
 21
0.09999582951707126
 31
0.0
210
0.0
220
0.0
230
0.9999999999999999
 40
0.0260992923825826
 41
4.874708804181251
 42
6.273464509090005
  0
LINE
  5
389
330
1F
100
AcDbEntity
  8
CUT
  6
CONTINUOUS
370
25
 62
1
100
AcDbLine
 10
44.7
 20
0.06
 30
0.0
 11
45.0
 21
0.06
 31
0.0
  0
LINE
  5
38A
330
1F
100
AcDbEntity
  8
CUT
  6
CONTINUOUS
370
25
 62
1
100
AcDbLine
 10
45.0
 20
0.06
 30
0.0
 11
45.0
 21
0.1
 31
0.0
  0
LINE
  5
38B
330
1F
100
AcDbEntity
  8
CUT
  6
CONTINUOUS
370
25
 62
1
100
AcDbLine
 10
45.0
 20
0.1
 30
0.0
 11
44.7
 21
0.1
 31
0.0
  0
LINE
  5
38C
330
1F
100
AcDbEntity
  8
CUT
  6
CONTINUOUS
370
25
 62
1
100
AcDbLine
 10
44.7
 20
0.1
 30
0.0
 11
44.7
 21
0.06
 31
0.0
  0
LINE
  5
38D
330
1F
100
AcDbEntity
  8
NOCUT
  6
CONTINUOUS
370
25
 62
7
100
AcDbLine
 10
35.25235993
 20
0.0
 30
0.0
 11
44.8
 21
0.0
 31
0.0
  0
LINE
  5
38E
330
1F
100
AcDbEntity
  8
NOCUT
  6
CONTINUOUS
370
25
 62
7
100
AcDbLine
 10
44.8
 20
0.0
 30
0.0
 11
44.8
 21
0.06
 31
0.0
  0
LINE
  5
38F
330
1F
100
AcDbEntity
  8
NOCUT
  6
CONTINUOUS
370
25
 62
7
100
AcDbLine
 10
44.8
 20
0.06
 30
0.0
 11
44.7
 21
0.06
 31
0.0
  0
LINE
  5
390
330
1F
100
AcDbEntity
  8
NOCUT
  6
CONTINUOUS
370
25
 62
7
100
AcDbLine
 10
44.7
 20
0.06
 30
0.0
 11
44.7
 21
0.09995
 31
0.0
  0
LINE
  5
391
330
1F
100
AcDbEntity
  8
NOCUT
  6
CONTINUOUS
370
25
 62
7
100
AcDbLine
 10
44.7
 20
0.09995
 30
0.0
 11
42.4
 21
0.1200217959187452
 31
0.0
  0
ARC
  5
392
330
1F
100
AcDbEntity
  8
NOCUT
  6
CONTINUOUS
370
25
 62
7
100
AcDbCircle
 10
42.4
 20
1.120021795918745
 30
0.0
 40
0.9999999999999998
100
AcDbArc
 50
255.0000000000001
 51
270.0
  0
LINE
  5
393
330
1F
100
AcDbEntity
  8
NOCUT
  6
CONTINUOUS
370
25
 62
7
100
AcDbLine
 10
42.14118095489748
 20
0.154095969629677
 30
0.0
 11
35.25235993019965
 21
1.99995
 31
0.0
  0
LINE
  5
394
330
1F
100
AcDbEntity
  8
SK1
  6
CONTINUOUS
370
50
 62
4
100
AcDbLine
 10
34.25
 20
2.0
 30
0.0
 11
0.2999999999999972
 21
2.0
 31
0.0
  0
LINE
  5
395
330
1F
100
AcDbEntity
  8
SK1
  6
CONTINUOUS
370
50
 62
4
100
AcDbLine
 10
0.2999999999999972
 20
2.0
 30
0.0
 11
0.0
 21
1.7
 31
0.0
  0
LINE
  5
396
330
1F
100
AcDbEntity
  8
SK1
  6
CONTINUOUS
370
50
 62
4
100
AcDbLine
 10
0.0
 20
1.7
 30
0.0
 11
0.0
 21
-1.7
 31
0.0
  0
LINE
  5
397
330
1F
100
AcDbEntity
  8
SK1
  6
CONTINUOUS
370
50
 62
4
100
AcDbLine
 10
0.0
 20
-1.7
 30
0.0
 11
0.2999999999999972
 21
-2.0
 31
0.0
  0
LINE
  5
398
330
1F
100
AcDbEntity
  8
SK1
  6
CONTINUOUS
370
50
 62
4
100
AcDbLine
 10
0.2999999999999972
 20
-2.0
 30
0.0
 11
34.25
 21
-2.0
 31
0.0
  0
LINE
  5
399
330
1F
100
AcDbEntity
  8
NOCUT
  6
CONTINUOUS
370
25
 62
7
100
AcDbLine
 10
34.25
 20
0.0
 30
0.0
 11
34.25
 21
2.0
 31
0.0
  0
LINE
  5
39A
330
1F
100
AcDbEntity
  8
NOCUT
  6
CONTINUOUS
370
25
 62
7
100
AcDbLine
 10
34.25
 20
2.0
 30
0.0
 11
35.25235993
 21
2.0
 31
0.0
  0
LINE
  5
39B
330
1F
100
AcDbEntity
  8
NOCUT
  6
CONTINUOUS
370
25
 62
7
100
AcDbLine
 10
35.25235993
 20
0.0
 30
0.0
 11
34.25
 21
0.0
 31
0.0
  0
LINE
  5
39C
330
1F
100
AcDbEntity
  8
SK2
  6
CONTINUOUS
370
25
 62
7
100
AcDbLine
 10
-10.0000002
 20
-2.000001
 30
0.0
 11
-11.00000000000009
 21
-2.000001
 31
0.0
  0
LINE
  5
39D
330
1F
100
AcDbEntity
  8
SK2
  6
CONTINUOUS
370
25
 62
7
100
AcDbLine
 10
0.0
 20
-2.000001
 30
0.0
 11
-9.999999800000001
 21
-2.000001
 31
0.0
  0
LINE
  5
39E
330
1F
100
AcDbEntity
  8
SK2
  6
CONTINUOUS
370
25
 62
7
100
AcDbLine
 10
-11.0
 20
2.0
 30
0.0
 11
0.0
 21
2.0
 31
0.0
  0
LINE
  5
39F
330
1F
100
AcDbEntity
  8
SK2
  6
CONTINUOUS
370
25
 62
7
100
AcDbLine
 10
-10.0
 20
-17.10625
 30
0.0
 11
-10.0
 21
12.0
 31
0.0
  0
LINE
  5
3A0
330
1F
100
AcDbEntity
  8
SK2
  6
CONTINUOUS
370
25
 62
7
100
AcDbLine
 10
-10.0
 20
-2.0
 30
0.0
 11
-9.0
 21
-7.0
 31
0.0
  0
LINE
  5
3A1
330
1F
100
AcDbEntity
  8
SK2
  6
CONTINUOUS
370
25
 62
7
100
AcDbLine
 10
-9.0
 20
-7.0
 30
0.0
 11
-11.0
 21
-7.0
 31
0.0
  0
LINE
  5
3A2
330
1F
100
AcDbEntity
  8
SK2
  6
CONTINUOUS
370
25
 62
7
100
AcDbLine
 10
-11.0
 20
-7.0
 30
0.0
 11
-10.0
 21
-2.0
 31
0.0
  0
LINE
  5
3A3
330
1F
100
AcDbEntity
  8
SK2
  6
CONTINUOUS
370
25
 62
7
100
AcDbLine
 10
-9.23670990922583
 20
-7.0
 30
0.0
 11
-9.03945165153764
 21
-6.80274174231181
 31
0.0
  0
LINE
  5
3A4
330
1F
100
AcDbEntity
  8
SK2
  6
CONTINUOUS
370
25
 62
7
100
AcDbLine
 10
-9.660973977937765
 20
-7.0
 30
0.0
 11
-9.110162329656298
 21
-6.449188351718533
 31
0.0
  0
LINE
  5
3A5
330
1F
100
AcDbEntity
  8
SK2
  6
CONTINUOUS
370
25
 62
7
100
AcDbLine
 10
-10.0852380466497
 20
-7.0
 30
0.0
 11
-9.180873007774949
 21
-6.095634961125249
 31
0.0
  0
LINE
  5
3A6
330
1F
100
AcDbEntity
  8
SK2
  6
CONTINUOUS
370
25
 62
7
100
AcDbLine
 10
-10.50950211536163
 20
-7.0
 30
0.0
 11
-9.251583685893607
 21
-5.74208157053198
 31
0.0
  0
LINE
  5
3A7
330
1F
100
AcDbEntity
  8
SK2
  6
CONTINUOUS
370
25
 62
7
100
AcDbLine
 10
-10.93376618407356
 20
-7.0
 30
0.0
 11
-9.322294364012258
 21
-5.388528179938696
 31
0.0
  0
LINE
  5
3A8
330
1F
100
AcDbEntity
  8
SK2
  6
CONTINUOUS
370
25
 62
7
100
AcDbLine
 10
-10.91049243680363
 20
-6.552462184018133
 30
0.0
 11
-9.393005042130909
 21
-5.034974789345412
 31
0.0
  0
LINE
  5
3A9
330
1F
100
AcDbEntity
  8
SK2
  6
CONTINUOUS
370
25
 62
7
100
AcDbLine
 10
-10.80442641962564
 20
-6.02213209812821
 30
0.0
 11
-9.463715720249574
 21
-4.681421398752143
 31
0.0
  0
LINE
  5
3AA
330
1F
100
AcDbEntity
  8
SK2
  6
CONTINUOUS
370
25
 62
7
100
AcDbLine
 10
-10.69836040244766
 20
-5.491802012238303
 30
0.0
 11
-9.534426398368225
 21
-4.327868008158866
 31
0.0
  0
LINE
  5
3AB
330
1F
100
AcDbEntity
  8
SK2
  6
CONTINUOUS
370
25
 62
7
100
AcDbLine
 10
-10.59229438526967
 20
-4.961471926348388
 30
0.0
 11
-9.605137076486884
 21
-3.974314617565597
 31
0.0
  0
LINE
  5
3AC
330
1F
100
AcDbEntity
  8
SK2
  6
CONTINUOUS
370
25
 62
7
100
AcDbLine
 10
-10.48622836809169
 20
-4.431141840458473
 30
0.0
 11
-9.675847754605535
 21
-3.620761226972313
 31
0.0
  0
LINE
  5
3AD
330
1F
100
AcDbEntity
  8
SK2
  6
CONTINUOUS
370
25
 62
7
100
AcDbLine
 10
-10.38016235091371
 20
-3.900811754568558
 30
0.0
 11
-9.746558432724186
 21
-3.267207836379029
 31
0.0
  0
LINE
  5
3AE
330
1F
100
AcDbEntity
  8
SK2
  6
CONTINUOUS
370
25
 62
7
100
AcDbLine
 10
-10.27409633373573
 20
-3.37048166867865
 30
0.0
 11
-9.817269110842851
 21
-2.913654445785774
 31
0.0
  0
LINE
  5
3AF
330
1F
100
AcDbEntity
  8
SK2
  6
CONTINUOUS
370
25
 62
7
100
AcDbLine
 10
-10.16803031655774
 20
-2.840151582788728
 30
0.0
 11
-9.887979788961502
 21
-2.56010105519249
 31
0.0
  0
LINE
  5
3B0
330
1F
100
AcDbEntity
  8
SK2
  6
CONTINUOUS
370
25
 62
7
100
AcDbLine
 10
-10.06196429937976
 20
-2.30982149689882
 30
0.0
 11
-9.95869046708016
 21
-2.206547664599221
 31
0.0
  0
LINE
  5
3B1
330
1F
100
AcDbEntity
  8
SK2
  6
CONTINUOUS
370
25
 62
7
100
AcDbLine
 10
-10.95763628904562
 20
-6.788181445228084
 30
0.0
 11
-10.7458177342737
 21
-7.0
 31
0.0
  0
LINE
  5
3B2
330
1F
100
AcDbEntity
  8
SK2
  6
CONTINUOUS
370
25
 62
7
100
AcDbLine
 10
-10.88692561092697
 20
-6.4346280546348
 30
0.0
 11
-10.32155366556177
 21
-7.0
 31
0.0
  0
LINE
  5
3B3
330
1F
100
AcDbEntity
  8
SK2
  6
CONTINUOUS
370
25
 62
7
100
AcDbLine
 10
-10.81621493280831
 20
-6.08107466404153
 30
0.0
 11
-9.897289596849838
 21
-7.0
 31
0.0
  0
LINE
  5
3B4
330
1F
100
AcDbEntity
  8
SK2
  6
CONTINUOUS
370
25
 62
7
100
AcDbLine
 10
-10.74550425468966
 20
-5.727521273448254
 30
0.0
 11
-9.47302552813791
 21
-7.0
 31
0.0
  0
LINE
  5
3B5
330
1F
100
AcDbEntity
  8
SK2
  6
CONTINUOUS
370
25
 62
7
100
AcDbLine
 10
-10.67479357657099
 20
-5.373967882854984
 30
0.0
 11
-9.048761459425975
 21
-7.0
 31
0.0
  0
LINE
  5
3B6
330
1F
100
AcDbEntity
  8
SK2
  6
CONTINUOUS
370
25
 62
7
100
AcDbLine
 10
-10.60408289845234
 20
-5.020414492261708
 30
0.0
 11
-9.093875652321493
 21
-6.530621738392554
 31
0.0
  0
LINE
  5
3B7
330
1F
100
AcDbEntity
  8
SK2
  6
CONTINUOUS
370
25
 62
7
100
AcDbLine
 10
-10.53337222033369
 20
-4.666861101668417
 30
0.0
 11
-9.199941669499474
 21
-6.000291652502632
 31
0.0
  0
LINE
  5
3B8
330
1F
100
AcDbEntity
  8
SK2
  6
CONTINUOUS
370
25
 62
7
100
AcDbLine
 10
-10.46266154221503
 20
-4.31330771107514
 30
0.0
 11
-9.306007686677454
 21
-5.469961566612717
 31
0.0
  0
LINE
  5
3B9
330
1F
100
AcDbEntity
  8
SK2
  6
CONTINUOUS
370
25
 62
7
100
AcDbLine
 10
-10.39195086409638
 20
-3.959754320481863
 30
0.0
 11
-9.412073703855434
 21
-4.939631480722809
 31
0.0
  0
LINE
  5
3BA
330
1F
100
AcDbEntity
  8
SK2
  6
CONTINUOUS
370
25
 62
7
100
AcDbLine
 10
-10.32124018597772
 20
-3.606200929888594
 30
0.0
 11
-9.518139721033421
 21
-4.409301394832895
 31
0.0
  0
LINE
  5
3BB
330
1F
100
AcDbEntity
  8
SK2
  6
CONTINUOUS
370
25
 62
7
100
AcDbLine
 10
-10.25052950785906
 20
-3.252647539295324
 30
0.0
 11
-9.624205738211408
 21
-3.87897130894298
 31
0.0
  0
LINE
  5
3BC
330
1F
100
AcDbEntity
  8
SK2
  6
CONTINUOUS
370
25
 62
7
100
AcDbLine
 10
-10.17981882974041
 20
-2.899094148702048
 30
0.0
 11
-9.730271755389388
 21
-3.348641223053065
 31
0.0
  0
LINE
  5
3BD
330
1F
100
AcDbEntity
  8
SK2
  6
CONTINUOUS
370
25
 62
7
100
AcDbLine
 10
-10.10910815162175
 20
-2.545540758108778
 30
0.0
 11
-9.836337772567376
 21
-2.81831113716315
 31
0.0
  0
LINE
  5
3BE
330
1F
100
AcDbEntity
  8
SK2
  6
CONTINUOUS
370
25
 62
7
100
AcDbLine
 10
-10.0383974735031
 20
-2.191987367515495
 30
0.0
 11
-9.942403789745356
 21
-2.287981051273235
 31
0.0
  0
LINE
  5
3BF
330
1F
100
AcDbEntity
  8
SK2
  6
CONTINUOUS
370
25
 62
7
100
AcDbLine
 10
-10.0
 20
2.0
 30
0.0
 11
-11.0
 21
7.0
 31
0.0
  0
LINE
  5
3C0
330
1F
100
AcDbEntity
  8
SK2
  6
CONTINUOUS
370
25
 62
7
100
AcDbLine
 10
-11.0
 20
7.0
 30
0.0
 11
-9.0
 21
7.0
 31
0.0
  0
LINE
  5
3C1
330
1F
100
AcDbEntity
  8
SK2
  6
CONTINUOUS
370
25
 62
7
100
AcDbLine
 10
-9.0
 20
7.0
 30
0.0
 11
-10.0
 21
2.0
 31
0.0
  0
LINE
  5
3C2
330
1F
100
AcDbEntity
  8
SK2
  6
CONTINUOUS
370
25
 62
7
100
AcDbLine
 10
-10.06984125971869
 20
2.349206298593437
 30
0.0
 11
-9.895238110421971
 21
2.523809447890152
 31
0.0
  0
LINE
  5
3C3
330
1F
100
AcDbEntity
  8
SK2
  6
CONTINUOUS
370
25
 62
7
100
AcDbLine
 10
-10.14055193783734
 20
2.702759689186713
 30
0.0
 11
-9.789172093243991
 21
3.054139533780059
 31
0.0
  0
LINE
  5
3C4
330
1F
100
AcDbEntity
  8
SK2
  6
CONTINUOUS
370
25
 62
7
100
AcDbLine
 10
-10.211262615956
 20
3.056313079779983
 30
0.0
 11
-9.68310607606601
 21
3.584469619669967
 31
0.0
  0
LINE
  5
3C5
330
1F
100
AcDbEntity
  8
SK2
  6
CONTINUOUS
370
25
 62
7
100
AcDbLine
 10
-10.28197329407465
 20
3.409866470373267
 30
0.0
 11
-9.577040058888024
 21
4.114799705559889
 31
0.0
  0
LINE
  5
3C6
330
1F
100
AcDbEntity
  8
SK2
  6
CONTINUOUS
370
25
 62
7
100
AcDbLine
 10
-10.35268397219331
 20
3.763419860966536
 30
0.0
 11
-9.470974041710043
 21
4.645129791449804
 31
0.0
  0
LINE
  5
3C7
330
1F
100
AcDbEntity
  8
SK2
  6
CONTINUOUS
370
25
 62
7
100
AcDbLine
 10
-10.42339465031196
 20
4.11697325155982
 30
0.0
 11
-9.364908024532056
 21
5.175459877339726
 31
0.0
  0
LINE
  5
3C8
330
1F
100
AcDbEntity
  8
SK2
  6
CONTINUOUS
370
25
 62
7
100
AcDbLine
 10
-10.49410532843061
 20
4.470526642153096
 30
0.0
 11
-9.258842007354076
 21
5.705789963229634
 31
0.0
  0
LINE
  5
3C9
330
1F
100
AcDbEntity
  8
SK2
  6
CONTINUOUS
370
25
 62
7
100
AcDbLine
 10
-10.56481600654927
 20
4.824080032746373
 30
0.0
 11
-9.152775990176096
 21
6.236120049119549
 31
0.0
  0
LINE
  5
3CA
330
1F
100
AcDbEntity
  8
SK2
  6
CONTINUOUS
370
25
 62
7
100
AcDbLine
 10
-10.63552668466792
 20
5.177633423339657
 30
0.0
 11
-9.046709972998109
 21
6.766450135009471
 31
0.0
  0
LINE
  5
3CB
330
1F
100
AcDbEntity
  8
SK2
  6
CONTINUOUS
370
25
 62
7
100
AcDbLine
 10
-10.70623736278658
 20
5.531186813932926
 30
0.0
 11
-9.2374241767195
 21
7.0
 31
0.0
  0
LINE
  5
3CC
330
1F
100
AcDbEntity
  8
SK2
  6
CONTINUOUS
370
25
 62
7
100
AcDbLine
 10
-10.77694804090525
 20
5.884740204526196
 30
0.0
 11
-9.661688245431435
 21
7.0
 31
0.0
  0
LINE
  5
3CD
330
1F
100
AcDbEntity
  8
SK2
  6
CONTINUOUS
370
25
 62
7
100
AcDbLine
 10
-10.8476587190239
 20
6.238293595119472
 30
0.0
 11
-10.08595231414336
 21
7.0
 31
0.0
  0
LINE
  5
3CE
330
1F
100
AcDbEntity
  8
SK2
  6
CONTINUOUS
370
25
 62
7
100
AcDbLine
 10
-10.91836939714256
 20
6.591846985712749
 30
0.0
 11
-10.5102163828553
 21
7.0
 31
0.0
  0
LINE
  5
3CF
330
1F
100
AcDbEntity
  8
SK2
  6
CONTINUOUS
370
25
 62
7
100
AcDbLine
 10
-10.98908007526121
 20
6.945400376306019
 30
0.0
 11
-10.93448045156723
 21
7.0
 31
0.0
  0
LINE
  5
3D0
330
1F
100
AcDbEntity
  8
SK2
  6
CONTINUOUS
370
25
 62
7
100
AcDbLine
 10
-10.04829124004991
 20
2.241456200249566
 30
0.0
 11
-9.967805839966722
 21
2.160970800166375
 31
0.0
  0
LINE
  5
3D1
330
1F
100
AcDbEntity
  8
SK2
  6
CONTINUOUS
370
25
 62
7
100
AcDbLine
 10
-10.15435725722789
 20
2.771786286139474
 30
0.0
 11
-9.897095161848071
 21
2.514524190759651
 31
0.0
  0
LINE
  5
3D2
330
1F
100
AcDbEntity
  8
SK2
  6
CONTINUOUS
370
25
 62
7
100
AcDbLine
 10
-10.26042327440587
 20
3.302116372029388
 30
0.0
 11
-9.82638448372942
 21
2.868077581352935
 31
0.0
  0
LINE
  5
3D3
330
1F
100
AcDbEntity
  8
SK2
  6
CONTINUOUS
370
25
 62
7
100
AcDbLine
 10
-10.36648929158386
 20
3.832446457919303
 30
0.0
 11
-9.755673805610762
 21
3.221630971946205
 31
0.0
  0
LINE
  5
3D4
330
1F
100
AcDbEntity
  8
SK2
  6
CONTINUOUS
370
25
 62
7
100
AcDbLine
 10
-10.47255530876184
 20
4.362776543809218
 30
0.0
 11
-9.684963127492097
 21
3.575184362539474
 31
0.0
  0
LINE
  5
3D5
330
1F
100
AcDbEntity
  8
SK2
  6
CONTINUOUS
370
25
 62
7
100
AcDbLine
 10
-10.57862132593983
 20
4.893106629699133
 30
0.0
 11
-9.614252449373446
 21
3.928737753132751
 31
0.0
  0
LINE
  5
3D6
330
1F
100
AcDbEntity
  8
SK2
  6
CONTINUOUS
370
25
 62
7
100
AcDbLine
 10
-10.68468734311781
 20
5.423436715589048
 30
0.0
 11
-9.543541771254795
 21
4.282291143726034
 31
0.0
  0
LINE
  5
3D7
330
1F
100
AcDbEntity
  8
SK2
  6
CONTINUOUS
370
25
 62
7
100
AcDbLine
 10
-10.79075336029579
 20
5.953766801478956
 30
0.0
 11
-9.472831093136136
 21
4.635844534319304
 31
0.0
  0
LINE
  5
3D8
330
1F
100
AcDbEntity
  8
SK2
  6
CONTINUOUS
370
25
 62
7
100
AcDbLine
 10
-10.89681937747378
 20
6.484096887368878
 30
0.0
 11
-9.402120415017478
 21
4.989397924912581
 31
0.0
  0
LINE
  5
3D9
330
1F
100
AcDbEntity
  8
SK2
  6
CONTINUOUS
370
25
 62
7
100
AcDbLine
 10
-10.98845842139297
 20
7.0
 30
0.0
 11
-9.33140973689882
 21
5.34295131550585
 31
0.0
  0
LINE
  5
3DA
330
1F
100
AcDbEntity
  8
SK2
  6
CONTINUOUS
370
25
 62
7
100
AcDbLine
 10
-10.56419435268104
 20
7.0
 30
0.0
 11
-9.260699058780169
 21
5.696504706099134
 31
0.0
  0
LINE
  5
3DB
330
1F
100
AcDbEntity
  8
SK2
  6
CONTINUOUS
370
25
 62
7
100
AcDbLine
 10
-10.13993028396911
 20
7.0
 30
0.0
 11
-9.189988380661525
 21
6.050058096692425
 31
0.0
  0
LINE
  5
3DC
330
1F
100
AcDbEntity
  8
SK2
  6
CONTINUOUS
370
25
 62
7
100
AcDbLine
 10
-9.715666215257166
 20
7.0
 30
0.0
 11
-9.11927770254286
 21
6.403611487285694
 31
0.0
  0
LINE
  5
3DD
330
1F
100
AcDbEntity
  8
SK2
  6
CONTINUOUS
370
25
 62
7
100
AcDbLine
 10
-9.291402146545238
 20
7.0
 30
0.0
 11
-9.048567024424209
 21
6.757164877878971
 31
0.0
  0
TEXT
  5
3DE
330
1F
100
AcDbEntity
  8
SK2
  6
CONTINUOUS
370
25
 62
7
100
AcDbText
 10
-11.0
 20
-11.21979166666667
 30
0.0
 40
3.5
  1
4
 50
90.00000000000001
 72
     1
 11
-11.0
 21
-10.053125
 31
0.0
100
AcDbText
  0
CIRCLE
  5
3DF
330
1F
100
AcDbEntity
  8
SK2
  6
CONTINUOUS
370
25
 62
7
100
AcDbCircle
 10
-12.53125
 20
-14.463125
 30
0.0
 40
1.53125
  0
LINE
  5
3E0
330
1F
100
AcDbEntity
  8
SK2
  6
CONTINUOUS
370
25
 62
7
100
AcDbLine
 10
-11.0
 20
-15.994375
 30
0.0
 11
-14.0625
 21
-12.931875
 31
0.0
  0
LINE
  5
3E1
330
1F
100
AcDbEntity
  8
SK2
  6
CONTINUOUS
370
25
 62
7
100
AcDbLine
 10
0.0
 20
2.0
 30
0.0
 11
0.0
 21
13.00001
 31
0.0
  0
LINE
  5
3E2
330
1F
100
AcDbEntity
  8
SK2
  6
CONTINUOUS
370
25
 62
7
100
AcDbLine
 10
34.25
 20
13.00001
 30
0.0
 11
34.25
 21
2.0
 31
0.0
  0
LINE
  5
3E3
330
1F
100
AcDbEntity
  8
SK2
  6
CONTINUOUS
370
25
 62
7
100
AcDbLine
 10
0.0
 20
12.00001
 30
0.0
 11
34.25
 21
12.00001
 31
0.0
  0
LINE
  5
3E4
330
1F
100
AcDbEntity
  8
SK2
  6
CONTINUOUS
370
25
 62
7
100
AcDbLine
 10
0.0
 20
12.00001
 30
0.0
 11
5.0
 21
13.00001
 31
0.0
  0
LINE
  5
3E5
330
1F
100
AcDbEntity
  8
SK2
  6
CONTINUOUS
370
25
 62
7
100
AcDbLine
 10
5.0
 20
13.00001
 30
0.0
 11
5.0
 21
11.00001
 31
0.0
  0
LINE
  5
3E6
330
1F
100
AcDbEntity
  8
SK2
  6
CONTINUOUS
370
25
 62
7
100
AcDbLine
 10
5.0
 20
11.00001
 30
0.0
 11
0.0
 21
12.00001
 31
0.0
  0
LINE
  5
3E7
330
1F
100
AcDbEntity
  8
SK2
  6
CONTINUOUS
370
25
 62
7
100
AcDbLine
 10
4.954102893639014
 20
11.0091894212722
 30
0.0
 11
5.0
 21
11.05508652763318
 31
0.0
  0
LINE
  5
3E8
330
1F
100
AcDbEntity
  8
SK2
  6
CONTINUOUS
370
25
 62
7
100
AcDbLine
 10
4.600549503045741
 20
11.07990009939085
 30
0.0
 11
5.0
 21
11.47935059634511
 31
0.0
  0
LINE
  5
3E9
330
1F
100
AcDbEntity
  8
SK2
  6
CONTINUOUS
370
25
 62
7
100
AcDbLine
 10
4.246996112452468
 20
11.15061077750951
 30
0.0
 11
5.0
 21
11.90361466505704
 31
0.0
  0
LINE
  5
3EA
330
1F
100
AcDbEntity
  8
SK2
  6
CONTINUOUS
370
25
 62
7
100
AcDbLine
 10
3.893442721859191
 20
11.22132145562816
 30
0.0
 11
5.0
 21
12.32787873376897
 31
0.0
  0
LINE
  5
3EB
330
1F
100
AcDbEntity
  8
SK2
  6
CONTINUOUS
370
25
 62
7
100
AcDbLine
 10
3.539889331265918
 20
11.29203213374682
 30
0.0
 11
5.0
 21
12.7521428024809
 31
0.0
  0
LINE
  5
3EC
330
1F
100
AcDbEntity
  8
SK2
  6
CONTINUOUS
370
25
 62
7
100
AcDbLine
 10
3.186335940672642
 20
11.36274281186547
 30
0.0
 11
4.779503911008966
 21
12.95591078220179
 31
0.0
  0
LINE
  5
3ED
330
1F
100
AcDbEntity
  8
SK2
  6
CONTINUOUS
370
25
 62
7
100
AcDbLine
 10
2.832782550079369
 20
11.43345348998413
 30
0.0
 11
4.249173825119055
 21
12.84984476502381
 31
0.0
  0
LINE
  5
3EE
330
1F
100
AcDbEntity
  8
SK2
  6
CONTINUOUS
370
25
 62
7
100
AcDbLine
 10
2.479229159486088
 20
11.50416416810278
 30
0.0
 11
3.718843739229143
 21
12.74377874784583
 31
0.0
  0
LINE
  5
3EF
330
1F
100
AcDbEntity
  8
SK2
  6
CONTINUOUS
370
25
 62
7
100
AcDbLine
 10
2.125675768892812
 20
11.57487484622143
 30
0.0
 11
3.188513653339232
 21
12.63771273066785
 31
0.0
  0
LINE
  5
3F0
330
1F
100
AcDbEntity
  8
SK2
  6
CONTINUOUS
370
25
 62
7
100
AcDbLine
 10
1.772122378299549
 20
11.6455855243401
 30
0.0
 11
2.658183567449317
 21
12.53164671348986
 31
0.0
  0
LINE
  5
3F1
330
1F
100
AcDbEntity
  8
SK2
  6
CONTINUOUS
370
25
 62
7
100
AcDbLine
 10
1.418568987706266
 20
11.71629620245875
 30
0.0
 11
2.127853481559399
 21
12.42558069631188
 31
0.0
  0
LINE
  5
3F2
330
1F
100
AcDbEntity
  8
SK2
  6
CONTINUOUS
370
25
 62
7
100
AcDbLine
 10
1.065015597112989
 20
11.7870068805774
 30
0.0
 11
1.597523395669491
 21
12.3195146791339
 31
0.0
  0
LINE
  5
3F3
330
1F
100
AcDbEntity
  8
SK2
  6
CONTINUOUS
370
25
 62
7
100
AcDbLine
 10
0.7114622065197125
 20
11.85771755869606
 30
0.0
 11
1.067193309779569
 21
12.21344866195592
 31
0.0
  0
LINE
  5
3F4
330
1F
100
AcDbEntity
  8
SK2
  6
CONTINUOUS
370
25
 62
7
100
AcDbLine
 10
0.357908815926443
 20
11.92842823681472
 30
0.0
 11
0.5368632238896538
 21
12.10738264477793
 31
0.0
  0
LINE
  5
3F5
330
1F
100
AcDbEntity
  8
SK2
  6
CONTINUOUS
370
25
 62
7
100
AcDbLine
 10
0.0043554253331664
 20
11.99913891493338
 30
0.0
 11
0.0065331379997389
 21
12.00131662759995
 31
0.0
  0
LINE
  5
3F6
330
1F
100
AcDbEntity
  8
SK2
  6
CONTINUOUS
370
25
 62
7
100
AcDbLine
 10
0.2106364422824782
 20
12.0421372884565
 30
0.0
 11
0.3159546634237245
 21
11.93681906731525
 31
0.0
  0
LINE
  5
3F7
330
1F
100
AcDbEntity
  8
SK2
  6
CONTINUOUS
370
25
 62
7
100
AcDbLine
 10
0.564189832875762
 20
12.11284796657515
 30
0.0
 11
0.8462847493136394
 21
11.83075305013727
 31
0.0
  0
LINE
  5
3F8
330
1F
100
AcDbEntity
  8
SK2
  6
CONTINUOUS
370
25
 62
7
100
AcDbLine
 10
0.9177432234690315
 20
12.18355864469381
 30
0.0
 11
1.376614835203554
 21
11.72468703295928
 31
0.0
  0
LINE
  5
3F9
330
1F
100
AcDbEntity
  8
SK2
  6
CONTINUOUS
370
25
 62
7
100
AcDbLine
 10
1.271296614062308
 20
12.25426932281246
 30
0.0
 11
1.906944921093469
 21
11.6186210157813
 31
0.0
  0
LINE
  5
3FA
330
1F
100
AcDbEntity
  8
SK2
  6
CONTINUOUS
370
25
 62
7
100
AcDbLine
 10
1.624850004655585
 20
12.32498000093112
 30
0.0
 11
2.437275006983381
 21
11.51255499860332
 31
0.0
  0
LINE
  5
3FB
330
1F
100
AcDbEntity
  8
SK2
  6
CONTINUOUS
370
25
 62
7
100
AcDbLine
 10
1.978403395248854
 20
12.39569067904978
 30
0.0
 11
2.967605092873292
 21
11.40648898142534
 31
0.0
  0
LINE
  5
3FC
330
1F
100
AcDbEntity
  8
SK2
  6
CONTINUOUS
370
25
 62
7
100
AcDbLine
 10
2.331956785842127
 20
12.46640135716843
 30
0.0
 11
3.497935178763196
 21
11.30042296424736
 31
0.0
  0
LINE
  5
3FD
330
1F
100
AcDbEntity
  8
SK2
  6
CONTINUOUS
370
25
 62
7
100
AcDbLine
 10
2.685510176435407
 20
12.53711203528708
 30
0.0
 11
4.028265264653108
 21
11.19435694706938
 31
0.0
  0
LINE
  5
3FE
330
1F
100
AcDbEntity
  8
SK2
  6
CONTINUOUS
370
25
 62
7
100
AcDbLine
 10
3.039063567028677
 20
12.60782271340574
 30
0.0
 11
4.558595350543019
 21
11.08829092989139
 31
0.0
  0
LINE
  5
3FF
330
1F
100
AcDbEntity
  8
SK2
  6
CONTINUOUS
370
25
 62
7
100
AcDbLine
 10
3.392616957621957
 20
12.67853339152439
 30
0.0
 11
5.0
 21
11.07115034914634
 31
0.0
  0
LINE
  5
400
330
1F
100
AcDbEntity
  8
SK2
  6
CONTINUOUS
370
25
 62
7
100
AcDbLine
 10
3.746170348215227
 20
12.74924406964305
 30
0.0
 11
5.0
 21
11.49541441785827
 31
0.0
  0
LINE
  5
401
330
1F
100
AcDbEntity
  8
SK2
  6
CONTINUOUS
370
25
 62
7
100
AcDbLine
 10
4.099723738808507
 20
12.8199547477617
 30
0.0
 11
5.0
 21
11.9196784865702
 31
0.0
  0
LINE
  5
402
330
1F
100
AcDbEntity
  8
SK2
  6
CONTINUOUS
370
25
 62
7
100
AcDbLine
 10
4.453277129401776
 20
12.89066542588036
 30
0.0
 11
5.0
 21
12.34394255528213
 31
0.0
  0
LINE
  5
403
330
1F
100
AcDbEntity
  8
SK2
  6
CONTINUOUS
370
25
 62
7
100
AcDbLine
 10
4.806830519995046
 20
12.96137610399902
 30
0.0
 11
5.0
 21
12.76820662399406
 31
0.0
  0
LINE
  5
404
330
1F
100
AcDbEntity
  8
SK2
  6
CONTINUOUS
370
25
 62
7
100
AcDbLine
 10
34.25
 20
12.00001
 30
0.0
 11
29.25
 21
11.00001
 31
0.0
  0
LINE
  5
405
330
1F
100
AcDbEntity
  8
SK2
  6
CONTINUOUS
370
25
 62
7
100
AcDbLine
 10
29.25
 20
11.00001
 30
0.0
 11
29.25
 21
13.00001
 31
0.0
  0
LINE
  5
406
330
1F
100
AcDbEntity
  8
SK2
  6
CONTINUOUS
370
25
 62
7
100
AcDbLine
 10
29.25
 20
13.00001
 30
0.0
 11
34.25
 21
12.00001
 31
0.0
  0
LINE
  5
407
330
1F
100
AcDbEntity
  8
SK2
  6
CONTINUOUS
370
25
 62
7
100
AcDbLine
 10
33.87044000919259
 20
11.92409800183852
 30
0.0
 11
33.9969600061284
 21
12.05061799877432
 31
0.0
  0
LINE
  5
408
330
1F
100
AcDbEntity
  8
SK2
  6
CONTINUOUS
370
25
 62
7
100
AcDbLine
 10
33.34010992330268
 20
11.81803198466054
 30
0.0
 11
33.64340661553512
 21
12.12132867689298
 31
0.0
  0
LINE
  5
409
330
1F
100
AcDbEntity
  8
SK2
  6
CONTINUOUS
370
25
 62
7
100
AcDbLine
 10
32.80977983741278
 20
11.71196596748256
 30
0.0
 11
33.28985322494185
 21
12.19203935501163
 31
0.0
  0
LINE
  5
40A
330
1F
100
AcDbEntity
  8
SK2
  6
CONTINUOUS
370
25
 62
7
100
AcDbLine
 10
32.27944975152286
 20
11.60589995030457
 30
0.0
 11
32.93629983434857
 21
12.26275003313028
 31
0.0
  0
LINE
  5
40B
330
1F
100
AcDbEntity
  8
SK2
  6
CONTINUOUS
370
25
 62
7
100
AcDbLine
 10
31.74911966563295
 20
11.49983393312659
 30
0.0
 11
32.5827464437553
 21
12.33346071124894
 31
0.0
  0
LINE
  5
40C
330
1F
100
AcDbEntity
  8
SK2
  6
CONTINUOUS
370
25
 62
7
100
AcDbLine
 10
31.21878957974305
 20
11.39376791594861
 30
0.0
 11
32.22919305316203
 21
12.40417138936759
 31
0.0
  0
LINE
  5
40D
330
1F
100
AcDbEntity
  8
SK2
  6
CONTINUOUS
370
25
 62
7
100
AcDbLine
 10
30.68845949385313
 20
11.28770189877063
 30
0.0
 11
31.87563966256876
 21
12.47488206748625
 31
0.0
  0
LINE
  5
40E
330
1F
100
AcDbEntity
  8
SK2
  6
CONTINUOUS
370
25
 62
7
100
AcDbLine
 10
30.15812940796323
 20
11.18163588159264
 30
0.0
 11
31.52208627197548
 21
12.5455927456049
 31
0.0
  0
LINE
  5
40F
330
1F
100
AcDbEntity
  8
SK2
  6
CONTINUOUS
370
25
 62
7
100
AcDbLine
 10
29.62779932207332
 20
11.07556986441466
 30
0.0
 11
31.16853288138221
 21
12.61630342372356
 31
0.0
  0
LINE
  5
410
330
1F
100
AcDbEntity
  8
SK2
  6
CONTINUOUS
370
25
 62
7
100
AcDbLine
 10
29.25
 20
11.12203461105327
 30
0.0
 11
30.81497949078894
 21
12.68701410184221
 31
0.0
  0
LINE
  5
411
330
1F
100
AcDbEntity
  8
SK2
  6
CONTINUOUS
370
25
 62
7
100
AcDbLine
 10
29.25
 20
11.5462986797652
 30
0.0
 11
30.46142610019566
 21
12.75772477996087
 31
0.0
  0
LINE
  5
412
330
1F
100
AcDbEntity
  8
SK2
  6
CONTINUOUS
370
25
 62
7
100
AcDbLine
 10
29.25
 20
11.97056274847713
 30
0.0
 11
30.10787270960239
 21
12.82843545807952
 31
0.0
  0
LINE
  5
413
330
1F
100
AcDbEntity
  8
SK2
  6
CONTINUOUS
370
25
 62
7
100
AcDbLine
 10
29.25
 20
12.39482681718906
 30
0.0
 11
29.75431931900912
 21
12.89914613619818
 31
0.0
  0
LINE
  5
414
330
1F
100
AcDbEntity
  8
SK2
  6
CONTINUOUS
370
25
 62
7
100
AcDbLine
 10
29.25
 20
12.81909088590099
 30
0.0
 11
29.40076592841584
 21
12.96985681431683
 31
0.0
  0
LINE
  5
415
330
1F
100
AcDbEntity
  8
SK2
  6
CONTINUOUS
370
25
 62
7
100
AcDbLine
 10
29.25
 20
11.36396103067893
 30
0.0
 11
29.55329252556577
 21
11.06066850511315
 31
0.0
  0
LINE
  5
416
330
1F
100
AcDbEntity
  8
SK2
  6
CONTINUOUS
370
25
 62
7
100
AcDbLine
 10
29.25
 20
11.78822509939085
 30
0.0
 11
29.90684591615905
 21
11.13137918323181
 31
0.0
  0
LINE
  5
417
330
1F
100
AcDbEntity
  8
SK2
  6
CONTINUOUS
370
25
 62
7
100
AcDbLine
 10
29.25
 20
12.21248916810278
 30
0.0
 11
30.26039930675232
 21
11.20208986135046
 31
0.0
  0
LINE
  5
418
330
1F
100
AcDbEntity
  8
SK2
  6
CONTINUOUS
370
25
 62
7
100
AcDbLine
 10
29.25
 20
12.63675323681471
 30
0.0
 11
30.6139526973456
 21
11.27280053946912
 31
0.0
  0
LINE
  5
419
330
1F
100
AcDbEntity
  8
SK2
  6
CONTINUOUS
370
25
 62
7
100
AcDbLine
 10
29.3262591319083
 20
12.98475817361834
 30
0.0
 11
30.96750608793887
 21
11.34351121758777
 31
0.0
  0
LINE
  5
41A
330
1F
100
AcDbEntity
  8
SK2
  6
CONTINUOUS
370
25
 62
7
100
AcDbLine
 10
29.85658921779821
 20
12.87869215644036
 30
0.0
 11
31.32105947853214
 21
11.41422189570643
 31
0.0
  0
LINE
  5
41B
330
1F
100
AcDbEntity
  8
SK2
  6
CONTINUOUS
370
25
 62
7
100
AcDbLine
 10
30.38691930368812
 20
12.77262613926238
 30
0.0
 11
31.67461286912541
 21
11.48493257382508
 31
0.0
  0
LINE
  5
41C
330
1F
100
AcDbEntity
  8
SK2
  6
CONTINUOUS
370
25
 62
7
100
AcDbLine
 10
30.91724938957803
 20
12.66656012208439
 30
0.0
 11
32.02816625971869
 21
11.55564325194374
 31
0.0
  0
LINE
  5
41D
330
1F
100
AcDbEntity
  8
SK2
  6
CONTINUOUS
370
25
 62
7
100
AcDbLine
 10
31.44757947546794
 20
12.56049410490641
 30
0.0
 11
32.38171965031196
 21
11.62635393006239
 31
0.0
  0
LINE
  5
41E
330
1F
100
AcDbEntity
  8
SK2
  6
CONTINUOUS
370
25
 62
7
100
AcDbLine
 10
31.97790956135785
 20
12.45442808772843
 30
0.0
 11
32.73527304090524
 21
11.69706460818105
 31
0.0
  0
LINE
  5
41F
330
1F
100
AcDbEntity
  8
SK2
  6
CONTINUOUS
370
25
 62
7
100
AcDbLine
 10
32.50823964724776
 20
12.34836207055045
 30
0.0
 11
33.08882643149851
 21
11.7677752862997
 31
0.0
  0
LINE
  5
420
330
1F
100
AcDbEntity
  8
SK2
  6
CONTINUOUS
370
25
 62
7
100
AcDbLine
 10
33.03856973313768
 20
12.24229605337246
 30
0.0
 11
33.44237982209179
 21
11.83848596441836
 31
0.0
  0
LINE
  5
421
330
1F
100
AcDbEntity
  8
SK2
  6
CONTINUOUS
370
25
 62
7
100
AcDbLine
 10
33.56889981902759
 20
12.13623003619448
 30
0.0
 11
33.79593321268506
 21
11.90919664253701
 31
0.0
  0
LINE
  5
422
330
1F
100
AcDbEntity
  8
SK2
  6
CONTINUOUS
370
25
 62
7
100
AcDbLine
 10
34.0992299049175
 20
12.0301640190165
 30
0.0
 11
34.14948660327833
 21
11.97990732065567
 31
0.0
  0
TEXT
  5
423
330
1F
100
AcDbEntity
  8
SK2
  6
CONTINUOUS
370
25
 62
7
100
AcDbText
 10
10.125
 20
13.00001
 30
0.0
 40
3.5
  1
34.25
 72
     1
 11
17.125
 21
13.00001
 31
0.0
100
AcDbText
  0
LINE
  5
424
330
1F
100
AcDbEntity
  8
2
  6
CONTINUOUS
370
25
 62
7
100
AcDbLine
 10
34.25
 20
-2.00001
 30
0.0
 11
34.25
 21
-13.00001
 31
0.0
  0
LINE
  5
425
330
1F
100
AcDbEntity
  8
2
  6
CONTINUOUS
370
25
 62
7
100
AcDbLine
 10
35.26
 20
-13.00001
 30
0.0
 11
35.26
 21
-2.00001
 31
0.0
  0
LINE
  5
426
330
1F
100
AcDbEntity
  8
2
  6
CONTINUOUS
370
25
 62
7
100
AcDbLine
 10
15.775
 20
-12.00001
 30
0.0
 11
45.26000000000001
 21
-12.00001
 31
0.0
  0
LINE
  5
427
330
1F
100
AcDbEntity
  8
2
  6
CONTINUOUS
370
25
 62
7
100
AcDbLine
 10
34.25
 20
-12.00001
 30
0.0
 11
29.25
 21
-13.00001
 31
0.0
  0
LINE
  5
428
330
1F
100
AcDbEntity
  8
2
  6
CONTINUOUS
370
25
 62
7
100
AcDbLine
 10
29.25
 20
-13.00001
 30
0.0
 11
29.25
 21
-11.00001
 31
0.0
  0
LINE
  5
429
330
1F
100
AcDbEntity
  8
2
  6
CONTINUOUS
370
25
 62
7
100
AcDbLine
 10
29.25
 20
-11.00001
 30
0.0
 11
34.25
 21
-12.00001
 31
0.0
  0
LINE
  5
42A
330
1F
100
AcDbEntity
  8
2
  6
CONTINUOUS
370
25
 62
7
100
AcDbLine
 10
33.84949239793407
 20
-12.08011152041319
 30
0.0
 11
33.98299493195604
 21
-11.94660898639121
 31
0.0
  0
LINE
  5
42B
330
1F
100
AcDbEntity
  8
2
  6
CONTINUOUS
370
25
 62
7
100
AcDbLine
 10
33.31916231204416
 20
-12.18617753759117
 30
0.0
 11
33.62944154136277
 21
-11.87589830827255
 31
0.0
  0
LINE
  5
42C
330
1F
100
AcDbEntity
  8
2
  6
CONTINUOUS
370
25
 62
7
100
AcDbLine
 10
32.78883222615425
 20
-12.29224355476915
 30
0.0
 11
33.2758881507695
 21
-11.8051876301539
 31
0.0
  0
LINE
  5
42D
330
1F
100
AcDbEntity
  8
2
  6
CONTINUOUS
370
25
 62
7
100
AcDbLine
 10
32.25850214026434
 20
-12.39830957194713
 30
0.0
 11
32.92233476017623
 21
-11.73447695203524
 31
0.0
  0
LINE
  5
42E
330
1F
100
AcDbEntity
  8
2
  6
CONTINUOUS
370
25
 62
7
100
AcDbLine
 10
31.72817205437443
 20
-12.50437558912511
 30
0.0
 11
32.56878136958295
 21
-11.66376627391659
 31
0.0
  0
LINE
  5
42F
330
1F
100
AcDbEntity
  8
2
  6
CONTINUOUS
370
25
 62
7
100
AcDbLine
 10
31.19784196848452
 20
-12.61044160630309
 30
0.0
 11
32.21522797898968
 21
-11.59305559579794
 31
0.0
  0
LINE
  5
430
330
1F
100
AcDbEntity
  8
2
  6
CONTINUOUS
370
25
 62
7
100
AcDbLine
 10
30.66751188259461
 20
-12.71650762348108
 30
0.0
 11
31.8616745883964
 21
-11.52234491767928
 31
0.0
  0
LINE
  5
431
330
1F
100
AcDbEntity
  8
2
  6
CONTINUOUS
370
25
 62
7
100
AcDbLine
 10
30.1371817967047
 20
-12.82257364065906
 30
0.0
 11
31.50812119780313
 21
-11.45163423956063
 31
0.0
  0
LINE
  5
432
330
1F
100
AcDbEntity
  8
2
  6
CONTINUOUS
370
25
 62
7
100
AcDbLine
 10
29.60685171081479
 20
-12.92863965783704
 30
0.0
 11
31.15456780720986
 21
-11.38092356144197
 31
0.0
  0
LINE
  5
433
330
1F
100
AcDbEntity
  8
2
  6
CONTINUOUS
370
25
 62
7
100
AcDbLine
 10
29.25
 20
-12.8612272999399
 30
0.0
 11
30.80101441661659
 21
-11.31021288332332
 31
0.0
  0
LINE
  5
434
330
1F
100
AcDbEntity
  8
2
  6
CONTINUOUS
370
25
 62
7
100
AcDbLine
 10
29.25
 20
-12.43696323122797
 30
0.0
 11
30.44746102602331
 21
-11.23950220520466
 31
0.0
  0
LINE
  5
435
330
1F
100
AcDbEntity
  8
2
  6
CONTINUOUS
370
25
 62
7
100
AcDbLine
 10
29.25
 20
-12.01269916251605
 30
0.0
 11
30.09390763543004
 21
-11.16879152708601
 31
0.0
  0
LINE
  5
436
330
1F
100
AcDbEntity
  8
2
  6
CONTINUOUS
370
25
 62
7
100
AcDbLine
 10
29.25
 20
-11.58843509380412
 30
0.0
 11
29.74035424483677
 21
-11.09808084896735
 31
0.0
  0
LINE
  5
437
330
1F
100
AcDbEntity
  8
2
  6
CONTINUOUS
370
25
 62
7
100
AcDbLine
 10
29.25
 20
-11.16417102509219
 30
0.0
 11
29.38680085424349
 21
-11.0273701708487
 31
0.0
  0
LINE
  5
438
330
1F
100
AcDbEntity
  8
2
  6
CONTINUOUS
370
25
 62
7
100
AcDbLine
 10
29.25
 20
-12.8612272999399
 30
0.0
 11
29.36565225005008
 21
-12.97687954998998
 31
0.0
  0
LINE
  5
439
330
1F
100
AcDbEntity
  8
2
  6
CONTINUOUS
370
25
 62
7
100
AcDbLine
 10
29.25
 20
-12.43696323122798
 30
0.0
 11
29.71920564064335
 21
-12.90616887187133
 31
0.0
  0
LINE
  5
43A
330
1F
100
AcDbEntity
  8
2
  6
CONTINUOUS
370
25
 62
7
100
AcDbLine
 10
29.25
 20
-12.01269916251605
 30
0.0
 11
30.07275903123663
 21
-12.83545819375267
 31
0.0
  0
LINE
  5
43B
330
1F
100
AcDbEntity
  8
2
  6
CONTINUOUS
370
25
 62
7
100
AcDbLine
 10
29.25
 20
-11.58843509380412
 30
0.0
 11
30.4263124218299
 21
-12.76474751563402
 31
0.0
  0
LINE
  5
43C
330
1F
100
AcDbEntity
  8
2
  6
CONTINUOUS
370
25
 62
7
100
AcDbLine
 10
29.25
 20
-11.16417102509219
 30
0.0
 11
30.77986581242317
 21
-12.69403683751536
 31
0.0
  0
LINE
  5
43D
330
1F
100
AcDbEntity
  8
2
  6
CONTINUOUS
370
25
 62
7
100
AcDbLine
 10
29.57512880452467
 20
-11.06503576090493
 30
0.0
 11
31.13341920301645
 21
-12.62332615939671
 31
0.0
  0
LINE
  5
43E
330
1F
100
AcDbEntity
  8
2
  6
CONTINUOUS
370
25
 62
7
100
AcDbLine
 10
30.10545889041458
 20
-11.17110177808292
 30
0.0
 11
31.48697259360972
 21
-12.55261548127806
 31
0.0
  0
LINE
  5
43F
330
1F
100
AcDbEntity
  8
2
  6
CONTINUOUS
370
25
 62
7
100
AcDbLine
 10
30.63578897630449
 20
-11.2771677952609
 30
0.0
 11
31.840525984203
 21
-12.4819048031594
 31
0.0
  0
LINE
  5
440
330
1F
100
AcDbEntity
  8
2
  6
CONTINUOUS
370
25
 62
7
100
AcDbLine
 10
31.1661190621944
 20
-11.38323381243888
 30
0.0
 11
32.19407937479627
 21
-12.41119412504075
 31
0.0
  0
LINE
  5
441
330
1F
100
AcDbEntity
  8
2
  6
CONTINUOUS
370
25
 62
7
100
AcDbLine
 10
31.69644914808431
 20
-11.48929982961686
 30
0.0
 11
32.54763276538954
 21
-12.34048344692209
 31
0.0
  0
LINE
  5
442
330
1F
100
AcDbEntity
  8
2
  6
CONTINUOUS
370
25
 62
7
100
AcDbLine
 10
32.22677923397423
 20
-11.59536584679485
 30
0.0
 11
32.90118615598281
 21
-12.26977276880344
 31
0.0
  0
LINE
  5
443
330
1F
100
AcDbEntity
  8
2
  6
CONTINUOUS
370
25
 62
7
100
AcDbLine
 10
32.75710931986413
 20
-11.70143186397283
 30
0.0
 11
33.25473954657609
 21
-12.19906209068478
 31
0.0
  0
LINE
  5
444
330
1F
100
AcDbEntity
  8
2
  6
CONTINUOUS
370
25
 62
7
100
AcDbLine
 10
33.28743940575404
 20
-11.80749788115081
 30
0.0
 11
33.60829293716937
 21
-12.12835141256613
 31
0.0
  0
LINE
  5
445
330
1F
100
AcDbEntity
  8
2
  6
CONTINUOUS
370
25
 62
7
100
AcDbLine
 10
33.81776949164396
 20
-11.91356389832879
 30
0.0
 11
33.96184632776264
 21
-12.05764073444747
 31
0.0
  0
LINE
  5
446
330
1F
100
AcDbEntity
  8
2
  6
CONTINUOUS
370
25
 62
7
100
AcDbLine
 10
35.26
 20
-12.00001
 30
0.0
 11
40.26
 21
-11.00001
 31
0.0
  0
LINE
  5
447
330
1F
100
AcDbEntity
  8
2
  6
CONTINUOUS
370
25
 62
7
100
AcDbLine
 10
40.26
 20
-11.00001
 30
0.0
 11
40.26
 21
-13.00001
 31
0.0
  0
LINE
  5
448
330
1F
100
AcDbEntity
  8
2
  6
CONTINUOUS
370
25
 62
7
100
AcDbLine
 10
40.26
 20
-13.00001
 30
0.0
 11
35.26
 21
-12.00001
 31
0.0
  0
LINE
  5
449
330
1F
100
AcDbEntity
  8
2
  6
CONTINUOUS
370
25
 62
7
100
AcDbLine
 10
39.92535424483676
 20
-12.93308084896735
 30
0.0
 11
40.26
 21
-12.59843509380411
 31
0.0
  0
LINE
  5
44A
330
1F
100
AcDbEntity
  8
2
  6
CONTINUOUS
370
25
 62
7
100
AcDbLine
 10
39.57180085424349
 20
-12.8623701708487
 30
0.0
 11
40.26
 21
-12.17417102509219
 31
0.0
  0
LINE
  5
44B
330
1F
100
AcDbEntity
  8
2
  6
CONTINUOUS
370
25
 62
7
100
AcDbLine
 10
39.21824746365021
 20
-12.79165949273004
 30
0.0
 11
40.26
 21
-11.74990695638026
 31
0.0
  0
LINE
  5
44C
330
1F
100
AcDbEntity
  8
2
  6
CONTINUOUS
370
25
 62
7
100
AcDbLine
 10
38.86469407305694
 20
-12.72094881461139
 30
0.0
 11
40.26
 21
-11.32564288766833
 31
0.0
  0
LINE
  5
44D
330
1F
100
AcDbEntity
  8
2
  6
CONTINUOUS
370
25
 62
7
100
AcDbLine
 10
38.51114068246367
 20
-12.65023813649273
 30
0.0
 11
40.1367110236955
 21
-11.0246677952609
 31
0.0
  0
LINE
  5
44E
330
1F
100
AcDbEntity
  8
2
  6
CONTINUOUS
370
25
 62
7
100
AcDbLine
 10
38.15758729187039
 20
-12.57952745837408
 30
0.0
 11
39.6063809378056
 21
-11.13073381243888
 31
0.0
  0
LINE
  5
44F
330
1F
100
AcDbEntity
  8
2
  6
CONTINUOUS
370
25
 62
7
100
AcDbLine
 10
37.80403390127712
 20
-12.50881678025542
 30
0.0
 11
39.07605085191568
 21
-11.23679982961686
 31
0.0
  0
LINE
  5
450
330
1F
100
AcDbEntity
  8
2
  6
CONTINUOUS
370
25
 62
7
100
AcDbLine
 10
37.45048051068385
 20
-12.43810610213677
 30
0.0
 11
38.54572076602577
 21
-11.34286584679484
 31
0.0
  0
LINE
  5
451
330
1F
100
AcDbEntity
  8
2
  6
CONTINUOUS
370
25
 62
7
100
AcDbLine
 10
37.09692712009058
 20
-12.36739542401811
 30
0.0
 11
38.01539068013587
 21
-11.44893186397283
 31
0.0
  0
LINE
  5
452
330
1F
100
AcDbEntity
  8
2
  6
CONTINUOUS
370
25
 62
7
100
AcDbLine
 10
36.7433737294973
 20
-12.29668474589946
 30
0.0
 11
37.48506059424595
 21
-11.55499788115081
 31
0.0
  0
LINE
  5
453
330
1F
100
AcDbEntity
  8
2
  6
CONTINUOUS
370
25
 62
7
100
AcDbLine
 10
36.38982033890403
 20
-12.2259740677808
 30
0.0
 11
36.95473050835604
 21
-11.66106389832879
 31
0.0
  0
LINE
  5
454
330
1F
100
AcDbEntity
  8
2
  6
CONTINUOUS
370
25
 62
7
100
AcDbLine
 10
36.03626694831075
 20
-12.15526338966215
 30
0.0
 11
36.42440042246614
 21
-11.76712991550677
 31
0.0
  0
LINE
  5
455
330
1F
100
AcDbEntity
  8
2
  6
CONTINUOUS
370
25
 62
7
100
AcDbLine
 10
35.68271355771748
 20
-12.0845527115435
 30
0.0
 11
35.89407033657622
 21
-11.87319593268476
 31
0.0
  0
LINE
  5
456
330
1F
100
AcDbEntity
  8
2
  6
CONTINUOUS
370
25
 62
7
100
AcDbLine
 10
35.32916016712421
 20
-12.01384203342484
 30
0.0
 11
35.36374025068631
 21
-11.97926194986274
 31
0.0
  0
LINE
  5
457
330
1F
100
AcDbEntity
  8
2
  6
CONTINUOUS
370
25
 62
7
100
AcDbLine
 10
35.30801156293079
 20
-11.99040768741384
 30
0.0
 11
35.33201734439619
 21
-12.01441346887924
 31
0.0
  0
LINE
  5
458
330
1F
100
AcDbEntity
  8
2
  6
CONTINUOUS
370
25
 62
7
100
AcDbLine
 10
35.66156495352407
 20
-11.91969700929518
 30
0.0
 11
35.86234743028611
 21
-12.12047948605722
 31
0.0
  0
LINE
  5
459
330
1F
100
AcDbEntity
  8
2
  6
CONTINUOUS
370
25
 62
7
100
AcDbLine
 10
36.01511834411734
 20
-11.84898633117653
 30
0.0
 11
36.39267751617601
 21
-12.2265455032352
 31
0.0
  0
LINE
  5
45A
330
1F
100
AcDbEntity
  8
2
  6
CONTINUOUS
370
25
 62
7
100
AcDbLine
 10
36.36867173471062
 20
-11.77827565305788
 30
0.0
 11
36.92300760206593
 21
-12.33261152041318
 31
0.0
  0
LINE
  5
45B
330
1F
100
AcDbEntity
  8
2
  6
CONTINUOUS
370
25
 62
7
100
AcDbLine
 10
36.72222512530389
 20
-11.70756497493922
 30
0.0
 11
37.45333768795584
 21
-12.43867753759117
 31
0.0
  0
LINE
  5
45C
330
1F
100
AcDbEntity
  8
2
  6
CONTINUOUS
370
25
 62
7
100
AcDbLine
 10
37.07577851589716
 20
-11.63685429682057
 30
0.0
 11
37.98366777384575
 21
-12.54474355476915
 31
0.0
  0
LINE
  5
45D
330
1F
100
AcDbEntity
  8
2
  6
CONTINUOUS
370
25
 62
7
100
AcDbLine
 10
37.42933190649044
 20
-11.56614361870191
 30
0.0
 11
38.51399785973566
 21
-12.65080957194713
 31
0.0
  0
LINE
  5
45E
330
1F
100
AcDbEntity
  8
2
  6
CONTINUOUS
370
25
 62
7
100
AcDbLine
 10
37.78288529708371
 20
-11.49543294058326
 30
0.0
 11
39.04432794562557
 21
-12.75687558912511
 31
0.0
  0
LINE
  5
45F
330
1F
100
AcDbEntity
  8
2
  6
CONTINUOUS
370
25
 62
7
100
AcDbLine
 10
38.13643868767699
 20
-11.4247222624646
 30
0.0
 11
39.57465803151548
 21
-12.8629416063031
 31
0.0
  0
LINE
  5
460
330
1F
100
AcDbEntity
  8
2
  6
CONTINUOUS
370
25
 62
7
100
AcDbLine
 10
38.48999207827026
 20
-11.35401158434595
 30
0.0
 11
40.10498811740539
 21
-12.96900762348108
 31
0.0
  0
LINE
  5
461
330
1F
100
AcDbEntity
  8
2
  6
CONTINUOUS
370
25
 62
7
100
AcDbLine
 10
38.84354546886353
 20
-11.28330090622729
 30
0.0
 11
40.26
 21
-12.69975543736376
 31
0.0
  0
LINE
  5
462
330
1F
100
AcDbEntity
  8
2
  6
CONTINUOUS
370
25
 62
7
100
AcDbLine
 10
39.19709885945681
 20
-11.21259022810864
 30
0.0
 11
40.26
 21
-12.27549136865183
 31
0.0
  0
LINE
  5
463
330
1F
100
AcDbEntity
  8
2
  6
CONTINUOUS
370
25
 62
7
100
AcDbLine
 10
39.55065225005008
 20
-11.14187954998998
 30
0.0
 11
40.26
 21
-11.8512272999399
 31
0.0
  0
LINE
  5
464
330
1F
100
AcDbEntity
  8
2
  6
CONTINUOUS
370
25
 62
7
100
AcDbLine
 10
39.90420564064335
 20
-11.07116887187133
 30
0.0
 11
40.26
 21
-11.42696323122798
 31
0.0
  0
LINE
  5
465
330
1F
100
AcDbEntity
  8
2
  6
CONTINUOUS
370
25
 62
7
100
AcDbLine
 10
40.25775903123662
 20
-11.00045819375267
 30
0.0
 11
40.26
 21
-11.00269916251605
 31
0.0
  0
TEXT
  5
466
330
1F
100
AcDbEntity
  8
2
  6
CONTINUOUS
370
25
 62
7
100
AcDbText
 10
18.72083333333333
 20
-11.00001
 30
0.0
 40
3.5
  1
1.01
 72
     1
 11
22.5125
 21
-11.00001
 31
0.0
100
AcDbText
  0
LINE
  5
467
330
1F
100
AcDbEntity
  8
2
  6
CONTINUOUS
370
25
 62
7
100
AcDbLine
 10
45.0
 20
-0.1
 30
0.0
 11
62.7375
 21
-0.1
 31
0.0
  0
LINE
  5
468
330
1F
100
AcDbEntity
  8
2
  6
CONTINUOUS
370
25
 62
7
100
AcDbLine
 10
62.7375
 20
0.1
 30
0.0
 11
45.0
 21
0.1
 31
0.0
  0
LINE
  5
469
330
1F
100
AcDbEntity
  8
2
  6
CONTINUOUS
370
25
 62
7
100
AcDbLine
 10
61.7375
 20
-21.94375
 30
0.0
 11
61.7375
 21
10.1
 31
0.0
  0
LINE
  5
46A
330
1F
100
AcDbEntity
  8
2
  6
CONTINUOUS
370
25
 62
7
100
AcDbLine
 10
61.7375
 20
-0.0999999999999999
 30
0.0
 11
62.7375
 21
-5.1
 31
0.0
  0
LINE
  5
46B
330
1F
100
AcDbEntity
  8
2
  6
CONTINUOUS
370
25
 62
7
100
AcDbLine
 10
62.7375
 20
-5.1
 30
0.0
 11
60.7375
 21
-5.1
 31
0.0
  0
LINE
  5
46C
330
1F
100
AcDbEntity
  8
2
  6
CONTINUOUS
370
25
 62
7
100
AcDbLine
 10
60.7375
 20
-5.1
 30
0.0
 11
61.7375
 21
-0.0999999999999999
 31
0.0
  0
LINE
  5
46D
330
1F
100
AcDbEntity
  8
2
  6
CONTINUOUS
370
25
 62
7
100
AcDbLine
 10
62.48843675759858
 20
-5.100000000000001
 30
0.0
 11
62.69598945959977
 21
-4.892447297998814
 31
0.0
  0
LINE
  5
46E
330
1F
100
AcDbEntity
  8
2
  6
CONTINUOUS
370
25
 62
7
100
AcDbLine
 10
62.06417268888664
 20
-5.100000000000001
 30
0.0
 11
62.62527878148111
 21
-4.538893907405534
 31
0.0
  0
LINE
  5
46F
330
1F
100
AcDbEntity
  8
2
  6
CONTINUOUS
370
25
 62
7
100
AcDbLine
 10
61.63990862017472
 20
-5.100000000000001
 30
0.0
 11
62.55456810336246
 21
-4.185340516812268
 31
0.0
  0
LINE
  5
470
330
1F
100
AcDbEntity
  8
2
  6
CONTINUOUS
370
25
 62
7
100
AcDbLine
 10
61.21564455146279
 20
-5.100000000000001
 30
0.0
 11
62.4838574252438
 21
-3.831787126218988
 31
0.0
  0
LINE
  5
471
330
1F
100
AcDbEntity
  8
2
  6
CONTINUOUS
370
25
 62
7
100
AcDbLine
 10
60.79138048275085
 20
-5.100000000000001
 30
0.0
 11
62.41314674712514
 21
-3.478233735625711
 31
0.0
  0
LINE
  5
472
330
1F
100
AcDbEntity
  8
2
  6
CONTINUOUS
370
25
 62
7
100
AcDbLine
 10
60.83009589649026
 20
-4.637020517548667
 30
0.0
 11
62.34243606900649
 21
-3.124680345032438
 31
0.0
  0
LINE
  5
473
330
1F
100
AcDbEntity
  8
2
  6
CONTINUOUS
370
25
 62
7
100
AcDbLine
 10
60.93616191366825
 20
-4.106690431658748
 30
0.0
 11
62.27172539088783
 21
-2.771126954439165
 31
0.0
  0
LINE
  5
474
330
1F
100
AcDbEntity
  8
2
  6
CONTINUOUS
370
25
 62
7
100
AcDbLine
 10
61.04222793084623
 20
-3.576360345768837
 30
0.0
 11
62.20101471276918
 21
-2.417573563845881
 31
0.0
  0
LINE
  5
475
330
1F
100
AcDbEntity
  8
2
  6
CONTINUOUS
370
25
 62
7
100
AcDbLine
 10
61.14829394802422
 20
-3.046030259878926
 30
0.0
 11
62.13030403465052
 21
-2.064020173252612
 31
0.0
  0
LINE
  5
476
330
1F
100
AcDbEntity
  8
2
  6
CONTINUOUS
370
25
 62
7
100
AcDbLine
 10
61.2543599652022
 20
-2.515700173989007
 30
0.0
 11
62.05959335653186
 21
-1.710466782659335
 31
0.0
  0
LINE
  5
477
330
1F
100
AcDbEntity
  8
2
  6
CONTINUOUS
370
25
 62
7
100
AcDbLine
 10
61.36042598238018
 20
-1.985370088099099
 30
0.0
 11
61.98888267841321
 21
-1.356913392066062
 31
0.0
  0
LINE
  5
478
330
1F
100
AcDbEntity
  8
2
  6
CONTINUOUS
370
25
 62
7
100
AcDbLine
 10
61.46649199955816
 20
-1.455040002209188
 30
0.0
 11
61.91817200029455
 21
-1.003360001472792
 31
0.0
  0
LINE
  5
479
330
1F
100
AcDbEntity
  8
2
  6
CONTINUOUS
370
25
 62
7
100
AcDbLine
 10
61.57255801673615
 20
-0.9247099163192765
 30
0.0
 11
61.8474613221759
 21
-0.6498066108795157
 31
0.0
  0
LINE
  5
47A
330
1F
100
AcDbEntity
  8
2
  6
CONTINUOUS
370
25
 62
7
100
AcDbLine
 10
61.67862403391413
 20
-0.3943798304293686
 30
0.0
 11
61.77675064405724
 21
-0.2962532202862462
 31
0.0
  0
LINE
  5
47B
330
1F
100
AcDbEntity
  8
2
  6
CONTINUOUS
370
25
 62
7
100
AcDbLine
 10
60.77916125071806
 20
-4.891693746409661
 30
0.0
 11
60.98746750430841
 21
-5.100000000000001
 31
0.0
  0
LINE
  5
47C
330
1F
100
AcDbEntity
  8
2
  6
CONTINUOUS
370
25
 62
7
100
AcDbLine
 10
60.84987192883672
 20
-4.538140355816388
 30
0.0
 11
61.41173157302033
 21
-5.100000000000001
 31
0.0
  0
LINE
  5
47D
330
1F
100
AcDbEntity
  8
2
  6
CONTINUOUS
370
25
 62
7
100
AcDbLine
 10
60.92058260695538
 20
-4.184586965223115
 30
0.0
 11
61.83599564173226
 21
-5.099999999999998
 31
0.0
  0
LINE
  5
47E
330
1F
100
AcDbEntity
  8
2
  6
CONTINUOUS
370
25
 62
7
100
AcDbLine
 10
60.99129328507403
 20
-3.831033574629835
 30
0.0
 11
62.2602597104442
 21
-5.100000000000001
 31
0.0
  0
LINE
  5
47F
330
1F
100
AcDbEntity
  8
2
  6
CONTINUOUS
370
25
 62
7
100
AcDbLine
 10
61.06200396319268
 20
-3.477480184036562
 30
0.0
 11
62.68452377915612
 21
-5.100000000000001
 31
0.0
  0
LINE
  5
480
330
1F
100
AcDbEntity
  8
2
  6
CONTINUOUS
370
25
 62
7
100
AcDbLine
 10
61.13271464131134
 20
-3.123926793443292
 30
0.0
 11
62.64467803803299
 21
-4.63589019016494
 31
0.0
  0
LINE
  5
481
330
1F
100
AcDbEntity
  8
2
  6
CONTINUOUS
370
25
 62
7
100
AcDbLine
 10
61.20342531943
 20
-2.770373402850023
 30
0.0
 11
62.53861202085501
 21
-4.105560104275032
 31
0.0
  0
LINE
  5
482
330
1F
100
AcDbEntity
  8
2
  6
CONTINUOUS
370
25
 62
7
100
AcDbLine
 10
61.27413599754865
 20
-2.416820012256746
 30
0.0
 11
62.43254600367703
 21
-3.57523001838512
 31
0.0
  0
LINE
  5
483
330
1F
100
AcDbEntity
  8
2
  6
CONTINUOUS
370
25
 62
7
100
AcDbLine
 10
61.3448466756673
 20
-2.063266621663473
 30
0.0
 11
62.32647998649905
 21
-3.044899932495213
 31
0.0
  0
LINE
  5
484
330
1F
100
AcDbEntity
  8
2
  6
CONTINUOUS
370
25
 62
7
100
AcDbLine
 10
61.41555735378596
 20
-1.7097132310702
 30
0.0
 11
62.22041396932106
 21
-2.514569846605301
 31
0.0
  0
LINE
  5
485
330
1F
100
AcDbEntity
  8
2
  6
CONTINUOUS
370
25
 62
7
100
AcDbLine
 10
61.48626803190461
 20
-1.356159840476927
 30
0.0
 11
62.11434795214308
 21
-1.98423976071539
 31
0.0
  0
LINE
  5
486
330
1F
100
AcDbEntity
  8
2
  6
CONTINUOUS
370
25
 62
7
100
AcDbLine
 10
61.55697871002327
 20
-1.002606449883647
 30
0.0
 11
62.0082819349651
 21
-1.453909674825471
 31
0.0
  0
LINE
  5
487
330
1F
100
AcDbEntity
  8
2
  6
CONTINUOUS
370
25
 62
7
100
AcDbLine
 10
61.62768938814192
 20
-0.6490530592903738
 30
0.0
 11
61.90221591778712
 21
-0.9235795889355636
 31
0.0
  0
LINE
  5
488
330
1F
100
AcDbEntity
  8
2
  6
CONTINUOUS
370
25
 62
7
100
AcDbLine
 10
61.69840006626058
 20
-0.2954996686971043
 30
0.0
 11
61.79614990060913
 21
-0.3932495030456522
 31
0.0
  0
LINE
  5
489
330
1F
100
AcDbEntity
  8
2
  6
CONTINUOUS
370
25
 62
7
100
AcDbLine
 10
61.7375
 20
0.1000000000000001
 30
0.0
 11
60.7375
 21
5.100000000000001
 31
0.0
  0
LINE
  5
48A
330
1F
100
AcDbEntity
  8
2
  6
CONTINUOUS
370
25
 62
7
100
AcDbLine
 10
60.7375
 20
5.100000000000001
 30
0.0
 11
62.7375
 21
5.100000000000001
 31
0.0
  0
LINE
  5
48B
330
1F
100
AcDbEntity
  8
2
  6
CONTINUOUS
370
25
 62
7
100
AcDbLine
 10
62.7375
 20
5.100000000000001
 30
0.0
 11
61.7375
 21
0.1000000000000001
 31
0.0
  0
LINE
  5
48C
330
1F
100
AcDbEntity
  8
2
  6
CONTINUOUS
370
25
 62
7
100
AcDbLine
 10
61.70309624078631
 20
0.2720187960684477
 30
0.0
 11
61.78910563882054
 21
0.3580281941026797
 31
0.0
  0
LINE
  5
48D
330
1F
100
AcDbEntity
  8
2
  6
CONTINUOUS
370
25
 62
7
100
AcDbLine
 10
61.63238556266765
 20
0.6255721866617243
 30
0.0
 11
61.89517165599852
 21
0.8883582799925946
 31
0.0
  0
LINE
  5
48E
330
1F
100
AcDbEntity
  8
2
  6
CONTINUOUS
370
25
 62
7
100
AcDbLine
 10
61.561674884549
 20
0.9791255772550009
 30
0.0
 11
62.0012376731765
 21
1.418688365882502
 31
0.0
  0
LINE
  5
48F
330
1F
100
AcDbEntity
  8
2
  6
CONTINUOUS
370
25
 62
7
100
AcDbLine
 10
61.49096420643035
 20
1.332678967848274
 30
0.0
 11
62.10730369035448
 21
1.949018451772417
 31
0.0
  0
LINE
  5
490
330
1F
100
AcDbEntity
  8
2
  6
CONTINUOUS
370
25
 62
7
100
AcDbLine
 10
61.42025352831168
 20
1.686232358441551
 30
0.0
 11
62.21336970753246
 21
2.479348537662336
 31
0.0
  0
LINE
  5
491
330
1F
100
AcDbEntity
  8
2
  6
CONTINUOUS
370
25
 62
7
100
AcDbLine
 10
61.34954285019303
 20
2.03978574903482
 30
0.0
 11
62.31943572471045
 21
3.009678623552247
 31
0.0
  0
LINE
  5
492
330
1F
100
AcDbEntity
  8
2
  6
CONTINUOUS
370
25
 62
7
100
AcDbLine
 10
61.27883217207437
 20
2.3933391396281
 30
0.0
 11
62.42550174188844
 21
3.540008709442162
 31
0.0
  0
LINE
  5
493
330
1F
100
AcDbEntity
  8
2
  6
CONTINUOUS
370
25
 62
7
100
AcDbLine
 10
61.20812149395572
 20
2.746892530221373
 30
0.0
 11
62.53156775906642
 21
4.070338795332074
 31
0.0
  0
LINE
  5
494
330
1F
100
AcDbEntity
  8
2
  6
CONTINUOUS
370
25
 62
7
100
AcDbLine
 10
61.13741081583707
 20
3.10044592081465
 30
0.0
 11
62.6376337762444
 21
4.600668881221978
 31
0.0
  0
LINE
  5
495
330
1F
100
AcDbEntity
  8
2
  6
CONTINUOUS
370
25
 62
7
100
AcDbLine
 10
61.06670013771841
 20
3.453999311407919
 30
0.0
 11
62.71270082631049
 21
5.100000000000001
 31
0.0
  0
LINE
  5
496
330
1F
100
AcDbEntity
  8
2
  6
CONTINUOUS
370
25
 62
7
100
AcDbLine
 10
60.99598945959976
 20
3.807552702001193
 30
0.0
 11
62.28843675759856
 21
5.100000000000001
 31
0.0
  0
LINE
  5
497
330
1F
100
AcDbEntity
  8
2
  6
CONTINUOUS
370
25
 62
7
100
AcDbLine
 10
60.9252787814811
 20
4.161106092594466
 30
0.0
 11
61.86417268888664
 21
5.100000000000001
 31
0.0
  0
LINE
  5
498
330
1F
100
AcDbEntity
  8
2
  6
CONTINUOUS
370
25
 62
7
100
AcDbLine
 10
60.85456810336245
 20
4.514659483187739
 30
0.0
 11
61.43990862017471
 21
5.100000000000001
 31
0.0
  0
LINE
  5
499
330
1F
100
AcDbEntity
  8
2
  6
CONTINUOUS
370
25
 62
7
100
AcDbLine
 10
60.7838574252438
 20
4.868212873781015
 30
0.0
 11
61.01564455146278
 21
5.100000000000001
 31
0.0
  0
LINE
  5
49A
330
1F
100
AcDbEntity
  8
2
  6
CONTINUOUS
370
25
 62
7
100
AcDbLine
 10
61.63401786625317
 20
0.6174106687341627
 30
0.0
 11
61.80648808916455
 21
0.4449404458227768
 31
0.0
  0
LINE
  5
49B
330
1F
100
AcDbEntity
  8
2
  6
CONTINUOUS
370
25
 62
7
100
AcDbLine
 10
61.52795184907519
 20
1.147740754624071
 30
0.0
 11
61.8771987672832
 21
0.7984938364160499
 31
0.0
  0
LINE
  5
49C
330
1F
100
AcDbEntity
  8
2
  6
CONTINUOUS
370
25
 62
7
100
AcDbLine
 10
61.4218858318972
 20
1.678070840513989
 30
0.0
 11
61.94790944540186
 21
1.152047227009323
 31
0.0
  0
LINE
  5
49D
330
1F
100
AcDbEntity
  8
2
  6
CONTINUOUS
370
25
 62
7
100
AcDbLine
 10
61.31581981471922
 20
2.208400926403897
 30
0.0
 11
62.01862012352052
 21
1.505600617602596
 31
0.0
  0
LINE
  5
49E
330
1F
100
AcDbEntity
  8
2
  6
CONTINUOUS
370
25
 62
7
100
AcDbLine
 10
61.20975379754124
 20
2.738731012293805
 30
0.0
 11
62.08933080163917
 21
1.859154008195873
 31
0.0
  0
LINE
  5
49F
330
1F
100
AcDbEntity
  8
2
  6
CONTINUOUS
370
25
 62
7
100
AcDbLine
 10
61.10368778036326
 20
3.269061098183716
 30
0.0
 11
62.16004147975783
 21
2.212707398789146
 31
0.0
  0
LINE
  5
4A0
330
1F
100
AcDbEntity
  8
2
  6
CONTINUOUS
370
25
 62
7
100
AcDbLine
 10
60.99762176318527
 20
3.799391184073631
 30
0.0
 11
62.23075215787648
 21
2.566260789382419
 31
0.0
  0
LINE
  5
4A1
330
1F
100
AcDbEntity
  8
2
  6
CONTINUOUS
370
25
 62
7
100
AcDbLine
 10
60.89155574600729
 20
4.329721269963539
 30
0.0
 11
62.30146283599514
 21
2.919814179975695
 31
0.0
  0
LINE
  5
4A2
330
1F
100
AcDbEntity
  8
2
  6
CONTINUOUS
370
25
 62
7
100
AcDbLine
 10
60.7854897288293
 20
4.86005135585345
 30
0.0
 11
62.3721735141138
 21
3.273367570568965
 31
0.0
  0
LINE
  5
4A3
330
1F
100
AcDbEntity
  8
2
  6
CONTINUOUS
370
25
 62
7
100
AcDbLine
 10
60.96980515339469
 20
5.100000000000001
 30
0.0
 11
62.44288419223245
 21
3.626920961162245
 31
0.0
  0
LINE
  5
4A4
330
1F
100
AcDbEntity
  8
2
  6
CONTINUOUS
370
25
 62
7
100
AcDbLine
 10
61.39406922210662
 20
5.100000000000001
 30
0.0
 11
62.51359487035111
 21
3.980474351755515
 31
0.0
  0
LINE
  5
4A5
330
1F
100
AcDbEntity
  8
2
  6
CONTINUOUS
370
25
 62
7
100
AcDbLine
 10
61.81833329081854
 20
5.100000000000001
 30
0.0
 11
62.58430554846976
 21
4.334027742348788
 31
0.0
  0
LINE
  5
4A6
330
1F
100
AcDbEntity
  8
2
  6
CONTINUOUS
370
25
 62
7
100
AcDbLine
 10
62.24259735953048
 20
5.100000000000001
 30
0.0
 11
62.65501622658842
 21
4.687581132942064
 31
0.0
  0
LINE
  5
4A7
330
1F
100
AcDbEntity
  8
2
  6
CONTINUOUS
370
25
 62
7
100
AcDbLine
 10
62.66686142824241
 20
5.100000000000001
 30
0.0
 11
62.72572690470707
 21
5.041134523535341
 31
0.0
  0
TEXT
  5
4A8
330
1F
100
AcDbEntity
  8
2
  6
CONTINUOUS
370
25
 62
7
100
AcDbText
 10
60.7375
 20
-14.73020833333333
 30
0.0
 40
3.5
  1
0.2
 50
90.00000000000001
 72
     1
 11
60.7375
 21
-11.521875
 31
0.0
100
AcDbText
  0
CIRCLE
  5
4A9
330
1F
100
AcDbEntity
  8
2
  6
CONTINUOUS
370
25
 62
7
100
AcDbCircle
 10
59.20625
 20
-19.239375
 30
0.0
 40
1.53125
  0
LINE
  5
4AA
330
1F
100
AcDbEntity
  8
2
  6
CONTINUOUS
370
25
 62
7
100
AcDbLine
 10
60.7375
 20
-20.770625
 30
0.0
 11
57.675
 21
-17.708125
 31
0.0
  0
LINE
  5
4AB
330
1F
100
AcDbEntity
  8
SK2
  6
CONTINUOUS
370
25
 62
7
100
AcDbLine
 10
0.0
 20
0.0
 30
0.0
 11
0.0
 21
20.00001
 31
0.0
  0
LINE
  5
4AC
330
1F
100
AcDbEntity
  8
SK2
  6
CONTINUOUS
370
25
 62
7
100
AcDbLine
 10
45.0
 20
20.00001
 30
0.0
 11
45.0
 21
0.0999999999999979
 31
0.0
  0
LINE
  5
4AD
330
1F
100
AcDbEntity
  8
SK2
  6
CONTINUOUS
370
25
 62
7
100
AcDbLine
 10
0.0
 20
19.00001
 30
0.0
 11
45.0
 21
19.00001
 31
0.0
  0
LINE
  5
4AE
330
1F
100
AcDbEntity
  8
SK2
  6
CONTINUOUS
370
25
 62
7
100
AcDbLine
 10
0.0
 20
19.00001
 30
0.0
 11
5.0
 21
20.00001
 31
0.0
  0
LINE
  5
4AF
330
1F
100
AcDbEntity
  8
SK2
  6
CONTINUOUS
370
25
 62
7
100
AcDbLine
 10
5.0
 20
20.00001
 30
0.0
 11
5.0
 21
18.00001
 31
0.0
  0
LINE
  5
4B0
330
1F
100
AcDbEntity
  8
SK2
  6
CONTINUOUS
370
25
 62
7
100
AcDbLine
 10
5.0
 20
18.00001
 30
0.0
 11
0.0
 21
19.00001
 31
0.0
  0
LINE
  5
4B1
330
1F
100
AcDbEntity
  8
SK2
  6
CONTINUOUS
370
25
 62
7
100
AcDbLine
 10
4.777028586886665
 20
18.04460428262266
 30
0.0
 11
5.0
 21
18.267575695736
 31
0.0
  0
LINE
  5
4B2
330
1F
100
AcDbEntity
  8
SK2
  6
CONTINUOUS
370
25
 62
7
100
AcDbLine
 10
4.423475196293392
 20
18.11531496074132
 30
0.0
 11
5.0
 21
18.69183976444792
 31
0.0
  0
LINE
  5
4B3
330
1F
100
AcDbEntity
  8
SK2
  6
CONTINUOUS
370
25
 62
7
100
AcDbLine
 10
4.069921805700126
 20
18.18602563885998
 30
0.0
 11
5.0
 21
19.11610383315985
 31
0.0
  0
LINE
  5
4B4
330
1F
100
AcDbEntity
  8
SK2
  6
CONTINUOUS
370
25
 62
7
100
AcDbLine
 10
3.716368415106846
 20
18.25673631697863
 30
0.0
 11
5.0
 21
19.54036790187178
 31
0.0
  0
LINE
  5
4B5
330
1F
100
AcDbEntity
  8
SK2
  6
CONTINUOUS
370
25
 62
7
100
AcDbLine
 10
3.362815024513573
 20
18.32744699509729
 30
0.0
 11
5.0
 21
19.96463197058371
 31
0.0
  0
LINE
  5
4B6
330
1F
100
AcDbEntity
  8
SK2
  6
CONTINUOUS
370
25
 62
7
100
AcDbLine
 10
3.009261633920293
 20
18.39815767321594
 30
0.0
 11
4.513892450880448
 21
19.90278849017609
 31
0.0
  0
LINE
  5
4B7
330
1F
100
AcDbEntity
  8
SK2
  6
CONTINUOUS
370
25
 62
7
100
AcDbLine
 10
2.655708243327012
 20
18.46886835133459
 30
0.0
 11
3.983562364990537
 21
19.79672247299811
 31
0.0
  0
LINE
  5
4B8
330
1F
100
AcDbEntity
  8
SK2
  6
CONTINUOUS
370
25
 62
7
100
AcDbLine
 10
2.302154852733743
 20
18.53957902945324
 30
0.0
 11
3.453232279100636
 21
19.69065645582013
 31
0.0
  0
LINE
  5
4B9
330
1F
100
AcDbEntity
  8
SK2
  6
CONTINUOUS
370
25
 62
7
100
AcDbLine
 10
1.948601462140473
 20
18.61028970757192
 30
0.0
 11
2.922902193210703
 21
19.58459043864214
 31
0.0
  0
LINE
  5
4BA
330
1F
100
AcDbEntity
  8
SK2
  6
CONTINUOUS
370
25
 62
7
100
AcDbLine
 10
1.595048071547204
 20
18.68100038569057
 30
0.0
 11
2.392572107320802
 21
19.47852442146416
 31
0.0
  0
LINE
  5
4BB
330
1F
100
AcDbEntity
  8
SK2
  6
CONTINUOUS
370
25
 62
7
100
AcDbLine
 10
1.24149468095392
 20
18.75171106380922
 30
0.0
 11
1.862242021430887
 21
19.37245840428618
 31
0.0
  0
LINE
  5
4BC
330
1F
100
AcDbEntity
  8
SK2
  6
CONTINUOUS
370
25
 62
7
100
AcDbLine
 10
0.8879412903606365
 20
18.82242174192786
 30
0.0
 11
1.331911935540973
 21
19.2663923871082
 31
0.0
  0
LINE
  5
4BD
330
1F
100
AcDbEntity
  8
SK2
  6
CONTINUOUS
370
25
 62
7
100
AcDbLine
 10
0.534387899767367
 20
18.89313242004653
 30
0.0
 11
0.8015818496510505
 21
19.16032636993021
 31
0.0
  0
LINE
  5
4BE
330
1F
100
AcDbEntity
  8
SK2
  6
CONTINUOUS
370
25
 62
7
100
AcDbLine
 10
0.1808345091740975
 20
18.96384309816518
 30
0.0
 11
0.2712517637611427
 21
19.05426035275222
 31
0.0
  0
LINE
  5
4BF
330
1F
100
AcDbEntity
  8
SK2
  6
CONTINUOUS
370
25
 62
7
100
AcDbLine
 10
0.0335621355301967
 20
19.00672242710604
 30
0.0
 11
0.0503432032953057
 21
18.98994135934094
 31
0.0
  0
LINE
  5
4C0
330
1F
100
AcDbEntity
  8
SK2
  6
CONTINUOUS
370
25
 62
7
100
AcDbLine
 10
0.3871155261234804
 20
19.07743310522469
 30
0.0
 11
0.5806732891852207
 21
18.88387534216295
 31
0.0
  0
LINE
  5
4C1
330
1F
100
AcDbEntity
  8
SK2
  6
CONTINUOUS
370
25
 62
7
100
AcDbLine
 10
0.74066891671675
 20
19.14814378334335
 30
0.0
 11
1.111003375075136
 21
18.77780932498497
 31
0.0
  0
LINE
  5
4C2
330
1F
100
AcDbEntity
  8
SK2
  6
CONTINUOUS
370
25
 62
7
100
AcDbLine
 10
1.094222307310027
 20
19.21885446146201
 30
0.0
 11
1.641333460965051
 21
18.67174330780698
 31
0.0
  0
LINE
  5
4C3
330
1F
100
AcDbEntity
  8
SK2
  6
CONTINUOUS
370
25
 62
7
100
AcDbLine
 10
1.447775697903303
 20
19.28956513958066
 30
0.0
 11
2.171663546854965
 21
18.565677290629
 31
0.0
  0
LINE
  5
4C4
330
1F
100
AcDbEntity
  8
SK2
  6
CONTINUOUS
370
25
 62
7
100
AcDbLine
 10
1.80132908849658
 20
19.36027581769931
 30
0.0
 11
2.701993632744866
 21
18.45961127345102
 31
0.0
  0
LINE
  5
4C5
330
1F
100
AcDbEntity
  8
SK2
  6
CONTINUOUS
370
25
 62
7
100
AcDbLine
 10
2.154882479089849
 20
19.43098649581797
 30
0.0
 11
3.232323718634778
 21
18.35354525627304
 31
0.0
  0
LINE
  5
4C6
330
1F
100
AcDbEntity
  8
SK2
  6
CONTINUOUS
370
25
 62
7
100
AcDbLine
 10
2.508435869683122
 20
19.50169717393663
 30
0.0
 11
3.762653804524689
 21
18.24747923909506
 31
0.0
  0
LINE
  5
4C7
330
1F
100
AcDbEntity
  8
SK2
  6
CONTINUOUS
370
25
 62
7
100
AcDbLine
 10
2.861989260276399
 20
19.57240785205528
 30
0.0
 11
4.2929838904146
 21
18.14141322191708
 31
0.0
  0
LINE
  5
4C8
330
1F
100
AcDbEntity
  8
SK2
  6
CONTINUOUS
370
25
 62
7
100
AcDbLine
 10
3.215542650869672
 20
19.64311853017394
 30
0.0
 11
4.823313976304508
 21
18.0353472047391
 31
0.0
  0
LINE
  5
4C9
330
1F
100
AcDbEntity
  8
SK2
  6
CONTINUOUS
370
25
 62
7
100
AcDbLine
 10
3.569096041462949
 20
19.71382920829259
 30
0.0
 11
5.0
 21
18.28292524975553
 31
0.0
  0
LINE
  5
4CA
330
1F
100
AcDbEntity
  8
SK2
  6
CONTINUOUS
370
25
 62
7
100
AcDbLine
 10
3.922649432056225
 20
19.78453988641125
 30
0.0
 11
5.0
 21
18.70718931846746
 31
0.0
  0
LINE
  5
4CB
330
1F
100
AcDbEntity
  8
SK2
  6
CONTINUOUS
370
25
 62
7
100
AcDbLine
 10
4.276202822649495
 20
19.8552505645299
 30
0.0
 11
5.0
 21
19.13145338717939
 31
0.0
  0
LINE
  5
4CC
330
1F
100
AcDbEntity
  8
SK2
  6
CONTINUOUS
370
25
 62
7
100
AcDbLine
 10
4.629756213242771
 20
19.92596124264855
 30
0.0
 11
5.0
 21
19.55571745589133
 31
0.0
  0
LINE
  5
4CD
330
1F
100
AcDbEntity
  8
SK2
  6
CONTINUOUS
370
25
 62
7
100
AcDbLine
 10
4.983309603836044
 20
19.99667192076721
 30
0.0
 11
5.0
 21
19.97998152460325
 31
0.0
  0
LINE
  5
4CE
330
1F
100
AcDbEntity
  8
SK2
  6
CONTINUOUS
370
25
 62
7
100
AcDbLine
 10
45.0
 20
19.00001
 30
0.0
 11
40.0
 21
18.00001
 31
0.0
  0
LINE
  5
4CF
330
1F
100
AcDbEntity
  8
SK2
  6
CONTINUOUS
370
25
 62
7
100
AcDbLine
 10
40.0
 20
18.00001
 30
0.0
 11
40.0
 21
20.00001
 31
0.0
  0
LINE
  5
4D0
330
1F
100
AcDbEntity
  8
SK2
  6
CONTINUOUS
370
25
 62
7
100
AcDbLine
 10
40.0
 20
20.00001
 30
0.0
 11
45.0
 21
19.00001
 31
0.0
  0
LINE
  5
4D1
330
1F
100
AcDbEntity
  8
SK2
  6
CONTINUOUS
370
25
 62
7
100
AcDbLine
 10
44.70591078220184
 20
18.94119215644037
 30
0.0
 11
44.80394052146789
 21
19.03922189570642
 31
0.0
  0
LINE
  5
4D2
330
1F
100
AcDbEntity
  8
SK2
  6
CONTINUOUS
370
25
 62
7
100
AcDbLine
 10
44.17558069631193
 20
18.83512613926239
 30
0.0
 11
44.45038713087462
 21
19.10993257382508
 31
0.0
  0
LINE
  5
4D3
330
1F
100
AcDbEntity
  8
SK2
  6
CONTINUOUS
370
25
 62
7
100
AcDbLine
 10
43.64525061042202
 20
18.72906012208441
 30
0.0
 11
44.09683374028134
 21
19.18064325194373
 31
0.0
  0
LINE
  5
4D4
330
1F
100
AcDbEntity
  8
SK2
  6
CONTINUOUS
370
25
 62
7
100
AcDbLine
 10
43.11492052453211
 20
18.62299410490642
 30
0.0
 11
43.74328034968807
 21
19.25135393006239
 31
0.0
  0
LINE
  5
4D5
330
1F
100
AcDbEntity
  8
SK2
  6
CONTINUOUS
370
25
 62
7
100
AcDbLine
 10
42.58459043864219
 20
18.51692808772844
 30
0.0
 11
43.38972695909479
 21
19.32206460818104
 31
0.0
  0
LINE
  5
4D6
330
1F
100
AcDbEntity
  8
SK2
  6
CONTINUOUS
370
25
 62
7
100
AcDbLine
 10
42.05426035275229
 20
18.41086207055046
 30
0.0
 11
43.03617356850152
 21
19.3927752862997
 31
0.0
  0
LINE
  5
4D7
330
1F
100
AcDbEntity
  8
SK2
  6
CONTINUOUS
370
25
 62
7
100
AcDbLine
 10
41.52393026686238
 20
18.30479605337248
 30
0.0
 11
42.68262017790825
 21
19.46348596441835
 31
0.0
  0
LINE
  5
4D8
330
1F
100
AcDbEntity
  8
SK2
  6
CONTINUOUS
370
25
 62
7
100
AcDbLine
 10
40.99360018097247
 20
18.19873003619449
 30
0.0
 11
42.32906678731498
 21
19.534196642537
 31
0.0
  0
LINE
  5
4D9
330
1F
100
AcDbEntity
  8
SK2
  6
CONTINUOUS
370
25
 62
7
100
AcDbLine
 10
40.46327009508256
 20
18.09266401901651
 30
0.0
 11
41.9755133967217
 21
19.60490732065566
 31
0.0
  0
LINE
  5
4DA
330
1F
100
AcDbEntity
  8
SK2
  6
CONTINUOUS
370
25
 62
7
100
AcDbLine
 10
40.0
 20
18.05365799264588
 30
0.0
 11
41.62196000612843
 21
19.67561799877431
 31
0.0
  0
LINE
  5
4DB
330
1F
100
AcDbEntity
  8
SK2
  6
CONTINUOUS
370
25
 62
7
100
AcDbLine
 10
40.0
 20
18.47792206135781
 30
0.0
 11
41.26840661553516
 21
19.74632867689296
 31
0.0
  0
LINE
  5
4DC
330
1F
100
AcDbEntity
  8
SK2
  6
CONTINUOUS
370
25
 62
7
100
AcDbLine
 10
40.0
 20
18.90218613006974
 30
0.0
 11
40.91485322494189
 21
19.81703935501162
 31
0.0
  0
LINE
  5
4DD
330
1F
100
AcDbEntity
  8
SK2
  6
CONTINUOUS
370
25
 62
7
100
AcDbLine
 10
40.0
 20
19.32645019878167
 30
0.0
 11
40.56129983434861
 21
19.88775003313027
 31
0.0
  0
LINE
  5
4DE
330
1F
100
AcDbEntity
  8
SK2
  6
CONTINUOUS
370
25
 62
7
100
AcDbLine
 10
40.0
 20
19.75071426749359
 30
0.0
 11
40.20774644375534
 21
19.95846071124893
 31
0.0
  0
LINE
  5
4DF
330
1F
100
AcDbEntity
  8
SK2
  6
CONTINUOUS
370
25
 62
7
100
AcDbLine
 10
40.0
 20
18.00878784786798
 30
0.0
 11
40.00731487322332
 21
18.00147297464466
 31
0.0
  0
LINE
  5
4E0
330
1F
100
AcDbEntity
  8
SK2
  6
CONTINUOUS
370
25
 62
7
100
AcDbLine
 10
40.0
 20
18.43305191657991
 30
0.0
 11
40.36086826381658
 21
18.07218365276332
 31
0.0
  0
LINE
  5
4E1
330
1F
100
AcDbEntity
  8
SK2
  6
CONTINUOUS
370
25
 62
7
100
AcDbLine
 10
40.0
 20
18.85731598529183
 30
0.0
 11
40.71442165440986
 21
18.14289433088197
 31
0.0
  0
LINE
  5
4E2
330
1F
100
AcDbEntity
  8
SK2
  6
CONTINUOUS
370
25
 62
7
100
AcDbLine
 10
40.0
 20
19.28158005400376
 30
0.0
 11
41.06797504500313
 21
18.21360500900063
 31
0.0
  0
LINE
  5
4E3
330
1F
100
AcDbEntity
  8
SK2
  6
CONTINUOUS
370
25
 62
7
100
AcDbLine
 10
40.0
 20
19.70584412271569
 30
0.0
 11
41.42152843559641
 21
18.28431568711928
 31
0.0
  0
LINE
  5
4E4
330
1F
100
AcDbEntity
  8
SK2
  6
CONTINUOUS
370
25
 62
7
100
AcDbLine
 10
40.16262273928452
 20
19.96748545214309
 30
0.0
 11
41.77508182618968
 21
18.35502636523794
 31
0.0
  0
LINE
  5
4E5
330
1F
100
AcDbEntity
  8
SK2
  6
CONTINUOUS
370
25
 62
7
100
AcDbLine
 10
40.69295282517443
 20
19.86141943496511
 30
0.0
 11
42.12863521678295
 21
18.42573704335659
 31
0.0
  0
LINE
  5
4E6
330
1F
100
AcDbEntity
  8
SK2
  6
CONTINUOUS
370
25
 62
7
100
AcDbLine
 10
41.22328291106434
 20
19.75535341778713
 30
0.0
 11
42.48218860737622
 21
18.49644772147525
 31
0.0
  0
LINE
  5
4E7
330
1F
100
AcDbEntity
  8
SK2
  6
CONTINUOUS
370
25
 62
7
100
AcDbLine
 10
41.75361299695425
 20
19.64928740060915
 30
0.0
 11
42.8357419979695
 21
18.5671583995939
 31
0.0
  0
LINE
  5
4E8
330
1F
100
AcDbEntity
  8
SK2
  6
CONTINUOUS
370
25
 62
7
100
AcDbLine
 10
42.28394308284416
 20
19.54322138343117
 30
0.0
 11
43.18929538856277
 21
18.63786907771256
 31
0.0
  0
LINE
  5
4E9
330
1F
100
AcDbEntity
  8
SK2
  6
CONTINUOUS
370
25
 62
7
100
AcDbLine
 10
42.81427316873408
 20
19.43715536625318
 30
0.0
 11
43.54284877915605
 21
18.70857975583121
 31
0.0
  0
LINE
  5
4EA
330
1F
100
AcDbEntity
  8
SK2
  6
CONTINUOUS
370
25
 62
7
100
AcDbLine
 10
43.34460325462398
 20
19.3310893490752
 30
0.0
 11
43.89640216974932
 21
18.77929043394986
 31
0.0
  0
LINE
  5
4EB
330
1F
100
AcDbEntity
  8
SK2
  6
CONTINUOUS
370
25
 62
7
100
AcDbLine
 10
43.87493334051389
 20
19.22502333189722
 30
0.0
 11
44.24995556034259
 21
18.85000111206852
 31
0.0
  0
LINE
  5
4EC
330
1F
100
AcDbEntity
  8
SK2
  6
CONTINUOUS
370
25
 62
7
100
AcDbLine
 10
44.40526342640381
 20
19.11895731471924
 30
0.0
 11
44.60350895093586
 21
18.92071179018718
 31
0.0
  0
LINE
  5
4ED
330
1F
100
AcDbEntity
  8
SK2
  6
CONTINUOUS
370
25
 62
7
100
AcDbLine
 10
44.93559351229371
 20
19.01289129754126
 30
0.0
 11
44.95706234152914
 21
18.99142246830583
 31
0.0
  0
TEXT
  5
4EE
330
1F
100
AcDbEntity
  8
SK2
  6
CONTINUOUS
370
25
 62
7
100
AcDbText
 10
19.58333333333333
 20
20.00001
 30
0.0
 40
3.5
  1
45
 72
     1
 11
22.5
 21
20.00001
 31
0.0
100
AcDbText
  0
LINE
  5
4EF
330
1F
100
AcDbEntity
  8
2
  6
CONTINUOUS
370
25
 62
7
100
AcDbLine
 10
34.25
 20
0.0
 30
0.0
 11
34.25
 21
13.00001
 31
0.0
  0
LINE
  5
4F0
330
1F
100
AcDbEntity
  8
2
  6
CONTINUOUS
370
25
 62
7
100
AcDbLine
 10
45.0
 20
13.00001
 30
0.0
 11
45.0
 21
0.0999999999999996
 31
0.0
  0
LINE
  5
4F1
330
1F
100
AcDbEntity
  8
2
  6
CONTINUOUS
370
25
 62
7
100
AcDbLine
 10
66.84375
 20
12.00001
 30
0.0
 11
24.25
 21
12.00001
 31
0.0
  0
LINE
  5
4F2
330
1F
100
AcDbEntity
  8
2
  6
CONTINUOUS
370
25
 62
7
100
AcDbLine
 10
34.25
 20
12.00001
 30
0.0
 11
29.25
 21
11.00001
 31
0.0
  0
LINE
  5
4F3
330
1F
100
AcDbEntity
  8
2
  6
CONTINUOUS
370
25
 62
7
100
AcDbLine
 10
29.25
 20
11.00001
 30
0.0
 11
29.25
 21
13.00001
 31
0.0
  0
LINE
  5
4F4
330
1F
100
AcDbEntity
  8
2
  6
CONTINUOUS
370
25
 62
7
100
AcDbLine
 10
29.25
 20
13.00001
 30
0.0
 11
34.25
 21
12.00001
 31
0.0
  0
LINE
  5
4F5
330
1F
100
AcDbEntity
  8
2
  6
CONTINUOUS
370
25
 62
7
100
AcDbLine
 10
33.87044000919259
 20
11.92409800183852
 30
0.0
 11
33.9969600061284
 21
12.05061799877432
 31
0.0
  0
LINE
  5
4F6
330
1F
100
AcDbEntity
  8
2
  6
CONTINUOUS
370
25
 62
7
100
AcDbLine
 10
33.34010992330268
 20
11.81803198466054
 30
0.0
 11
33.64340661553512
 21
12.12132867689298
 31
0.0
  0
LINE
  5
4F7
330
1F
100
AcDbEntity
  8
2
  6
CONTINUOUS
370
25
 62
7
100
AcDbLine
 10
32.80977983741278
 20
11.71196596748256
 30
0.0
 11
33.28985322494185
 21
12.19203935501163
 31
0.0
  0
LINE
  5
4F8
330
1F
100
AcDbEntity
  8
2
  6
CONTINUOUS
370
25
 62
7
100
AcDbLine
 10
32.27944975152286
 20
11.60589995030457
 30
0.0
 11
32.93629983434857
 21
12.26275003313028
 31
0.0
  0
LINE
  5
4F9
330
1F
100
AcDbEntity
  8
2
  6
CONTINUOUS
370
25
 62
7
100
AcDbLine
 10
31.74911966563295
 20
11.49983393312659
 30
0.0
 11
32.5827464437553
 21
12.33346071124894
 31
0.0
  0
LINE
  5
4FA
330
1F
100
AcDbEntity
  8
2
  6
CONTINUOUS
370
25
 62
7
100
AcDbLine
 10
31.21878957974305
 20
11.39376791594861
 30
0.0
 11
32.22919305316203
 21
12.40417138936759
 31
0.0
  0
LINE
  5
4FB
330
1F
100
AcDbEntity
  8
2
  6
CONTINUOUS
370
25
 62
7
100
AcDbLine
 10
30.68845949385313
 20
11.28770189877063
 30
0.0
 11
31.87563966256876
 21
12.47488206748625
 31
0.0
  0
LINE
  5
4FC
330
1F
100
AcDbEntity
  8
2
  6
CONTINUOUS
370
25
 62
7
100
AcDbLine
 10
30.15812940796323
 20
11.18163588159264
 30
0.0
 11
31.52208627197548
 21
12.5455927456049
 31
0.0
  0
LINE
  5
4FD
330
1F
100
AcDbEntity
  8
2
  6
CONTINUOUS
370
25
 62
7
100
AcDbLine
 10
29.62779932207332
 20
11.07556986441466
 30
0.0
 11
31.16853288138221
 21
12.61630342372356
 31
0.0
  0
LINE
  5
4FE
330
1F
100
AcDbEntity
  8
2
  6
CONTINUOUS
370
25
 62
7
100
AcDbLine
 10
29.25
 20
11.12203461105327
 30
0.0
 11
30.81497949078894
 21
12.68701410184221
 31
0.0
  0
LINE
  5
4FF
330
1F
100
AcDbEntity
  8
2
  6
CONTINUOUS
370
25
 62
7
100
AcDbLine
 10
29.25
 20
11.5462986797652
 30
0.0
 11
30.46142610019566
 21
12.75772477996087
 31
0.0
  0
LINE
  5
500
330
1F
100
AcDbEntity
  8
2
  6
CONTINUOUS
370
25
 62
7
100
AcDbLine
 10
29.25
 20
11.97056274847713
 30
0.0
 11
30.10787270960239
 21
12.82843545807952
 31
0.0
  0
LINE
  5
501
330
1F
100
AcDbEntity
  8
2
  6
CONTINUOUS
370
25
 62
7
100
AcDbLine
 10
29.25
 20
12.39482681718906
 30
0.0
 11
29.75431931900912
 21
12.89914613619818
 31
0.0
  0
LINE
  5
502
330
1F
100
AcDbEntity
  8
2
  6
CONTINUOUS
370
25
 62
7
100
AcDbLine
 10
29.25
 20
12.81909088590099
 30
0.0
 11
29.40076592841584
 21
12.96985681431683
 31
0.0
  0
LINE
  5
503
330
1F
100
AcDbEntity
  8
2
  6
CONTINUOUS
370
25
 62
7
100
AcDbLine
 10
29.25
 20
11.36396103067893
 30
0.0
 11
29.55329252556577
 21
11.06066850511315
 31
0.0
  0
LINE
  5
504
330
1F
100
AcDbEntity
  8
2
  6
CONTINUOUS
370
25
 62
7
100
AcDbLine
 10
29.25
 20
11.78822509939085
 30
0.0
 11
29.90684591615905
 21
11.13137918323181
 31
0.0
  0
LINE
  5
505
330
1F
100
AcDbEntity
  8
2
  6
CONTINUOUS
370
25
 62
7
100
AcDbLine
 10
29.25
 20
12.21248916810278
 30
0.0
 11
30.26039930675232
 21
11.20208986135046
 31
0.0
  0
LINE
  5
506
330
1F
100
AcDbEntity
  8
2
  6
CONTINUOUS
370
25
 62
7
100
AcDbLine
 10
29.25
 20
12.63675323681471
 30
0.0
 11
30.6139526973456
 21
11.27280053946912
 31
0.0
  0
LINE
  5
507
330
1F
100
AcDbEntity
  8
2
  6
CONTINUOUS
370
25
 62
7
100
AcDbLine
 10
29.3262591319083
 20
12.98475817361834
 30
0.0
 11
30.96750608793887
 21
11.34351121758777
 31
0.0
  0
LINE
  5
508
330
1F
100
AcDbEntity
  8
2
  6
CONTINUOUS
370
25
 62
7
100
AcDbLine
 10
29.85658921779821
 20
12.87869215644036
 30
0.0
 11
31.32105947853214
 21
11.41422189570643
 31
0.0
  0
LINE
  5
509
330
1F
100
AcDbEntity
  8
2
  6
CONTINUOUS
370
25
 62
7
100
AcDbLine
 10
30.38691930368812
 20
12.77262613926238
 30
0.0
 11
31.67461286912541
 21
11.48493257382508
 31
0.0
  0
LINE
  5
50A
330
1F
100
AcDbEntity
  8
2
  6
CONTINUOUS
370
25
 62
7
100
AcDbLine
 10
30.91724938957803
 20
12.66656012208439
 30
0.0
 11
32.02816625971869
 21
11.55564325194374
 31
0.0
  0
LINE
  5
50B
330
1F
100
AcDbEntity
  8
2
  6
CONTINUOUS
370
25
 62
7
100
AcDbLine
 10
31.44757947546794
 20
12.56049410490641
 30
0.0
 11
32.38171965031196
 21
11.62635393006239
 31
0.0
  0
LINE
  5
50C
330
1F
100
AcDbEntity
  8
2
  6
CONTINUOUS
370
25
 62
7
100
AcDbLine
 10
31.97790956135785
 20
12.45442808772843
 30
0.0
 11
32.73527304090524
 21
11.69706460818105
 31
0.0
  0
LINE
  5
50D
330
1F
100
AcDbEntity
  8
2
  6
CONTINUOUS
370
25
 62
7
100
AcDbLine
 10
32.50823964724776
 20
12.34836207055045
 30
0.0
 11
33.08882643149851
 21
11.7677752862997
 31
0.0
  0
LINE
  5
50E
330
1F
100
AcDbEntity
  8
2
  6
CONTINUOUS
370
25
 62
7
100
AcDbLine
 10
33.03856973313768
 20
12.24229605337246
 30
0.0
 11
33.44237982209179
 21
11.83848596441836
 31
0.0
  0
LINE
  5
50F
330
1F
100
AcDbEntity
  8
2
  6
CONTINUOUS
370
25
 62
7
100
AcDbLine
 10
33.56889981902759
 20
12.13623003619448
 30
0.0
 11
33.79593321268506
 21
11.90919664253701
 31
0.0
  0
LINE
  5
510
330
1F
100
AcDbEntity
  8
2
  6
CONTINUOUS
370
25
 62
7
100
AcDbLine
 10
34.0992299049175
 20
12.0301640190165
 30
0.0
 11
34.14948660327833
 21
11.97990732065567
 31
0.0
  0
LINE
  5
511
330
1F
100
AcDbEntity
  8
2
  6
CONTINUOUS
370
25
 62
7
100
AcDbLine
 10
45.0
 20
12.00001
 30
0.0
 11
50.0
 21
13.00001
 31
0.0
  0
LINE
  5
512
330
1F
100
AcDbEntity
  8
2
  6
CONTINUOUS
370
25
 62
7
100
AcDbLine
 10
50.0
 20
13.00001
 30
0.0
 11
50.0
 21
11.00001
 31
0.0
  0
LINE
  5
513
330
1F
100
AcDbEntity
  8
2
  6
CONTINUOUS
370
25
 62
7
100
AcDbLine
 10
50.0
 20
11.00001
 30
0.0
 11
45.0
 21
12.00001
 31
0.0
  0
LINE
  5
514
330
1F
100
AcDbEntity
  8
2
  6
CONTINUOUS
370
25
 62
7
100
AcDbLine
 10
49.8028195250081
 20
11.03944609499838
 30
0.0
 11
50.0
 21
11.23662656999029
 31
0.0
  0
LINE
  5
515
330
1F
100
AcDbEntity
  8
2
  6
CONTINUOUS
370
25
 62
7
100
AcDbLine
 10
49.44926613441482
 20
11.11015677311704
 30
0.0
 11
50.0
 21
11.66089063870221
 31
0.0
  0
LINE
  5
516
330
1F
100
AcDbEntity
  8
2
  6
CONTINUOUS
370
25
 62
7
100
AcDbLine
 10
49.09571274382155
 20
11.18086745123569
 30
0.0
 11
50.0
 21
12.08515470741414
 31
0.0
  0
LINE
  5
517
330
1F
100
AcDbEntity
  8
2
  6
CONTINUOUS
370
25
 62
7
100
AcDbLine
 10
48.74215935322827
 20
11.25157812935434
 30
0.0
 11
50.0
 21
12.50941877612607
 31
0.0
  0
LINE
  5
518
330
1F
100
AcDbEntity
  8
2
  6
CONTINUOUS
370
25
 62
7
100
AcDbLine
 10
48.388605962635
 20
11.322288807473
 30
0.0
 11
50.0
 21
12.933682844838
 31
0.0
  0
LINE
  5
519
330
1F
100
AcDbEntity
  8
2
  6
CONTINUOUS
370
25
 62
7
100
AcDbLine
 10
48.03505257204173
 20
11.39299948559165
 30
0.0
 11
49.5525788580626
 21
12.91052577161252
 31
0.0
  0
LINE
  5
51A
330
1F
100
AcDbEntity
  8
2
  6
CONTINUOUS
370
25
 62
7
100
AcDbLine
 10
47.68149918144846
 20
11.46371016371031
 30
0.0
 11
49.02224877217269
 21
12.80445975443454
 31
0.0
  0
LINE
  5
51B
330
1F
100
AcDbEntity
  8
2
  6
CONTINUOUS
370
25
 62
7
100
AcDbLine
 10
47.32794579085518
 20
11.53442084182896
 30
0.0
 11
48.49191868628277
 21
12.69839373725655
 31
0.0
  0
LINE
  5
51C
330
1F
100
AcDbEntity
  8
2
  6
CONTINUOUS
370
25
 62
7
100
AcDbLine
 10
46.97439240026191
 20
11.60513151994762
 30
0.0
 11
47.96158860039287
 21
12.59232772007857
 31
0.0
  0
LINE
  5
51D
330
1F
100
AcDbEntity
  8
2
  6
CONTINUOUS
370
25
 62
7
100
AcDbLine
 10
46.62083900966864
 20
11.67584219806627
 30
0.0
 11
47.43125851450296
 21
12.48626170290059
 31
0.0
  0
LINE
  5
51E
330
1F
100
AcDbEntity
  8
2
  6
CONTINUOUS
370
25
 62
7
100
AcDbLine
 10
46.26728561907537
 20
11.74655287618493
 30
0.0
 11
46.90092842861304
 21
12.38019568572261
 31
0.0
  0
LINE
  5
51F
330
1F
100
AcDbEntity
  8
2
  6
CONTINUOUS
370
25
 62
7
100
AcDbLine
 10
45.91373222848209
 20
11.81726355430358
 30
0.0
 11
46.37059834272313
 21
12.27412966854462
 31
0.0
  0
LINE
  5
520
330
1F
100
AcDbEntity
  8
2
  6
CONTINUOUS
370
25
 62
7
100
AcDbLine
 10
45.56017883788882
 20
11.88797423242224
 30
0.0
 11
45.84026825683323
 21
12.16806365136664
 31
0.0
  0
LINE
  5
521
330
1F
100
AcDbEntity
  8
2
  6
CONTINUOUS
370
25
 62
7
100
AcDbLine
 10
45.20662544729554
 20
11.95868491054089
 30
0.0
 11
45.30993817094331
 21
12.06199763418866
 31
0.0
  0
LINE
  5
522
330
1F
100
AcDbEntity
  8
2
  6
CONTINUOUS
370
25
 62
7
100
AcDbLine
 10
45.13354142537011
 20
12.02671828507402
 30
0.0
 11
45.20031213805517
 21
11.95994757238897
 31
0.0
  0
LINE
  5
523
330
1F
100
AcDbEntity
  8
2
  6
CONTINUOUS
370
25
 62
7
100
AcDbLine
 10
45.48709481596339
 20
12.09742896319268
 30
0.0
 11
45.73064222394508
 21
11.85388155521098
 31
0.0
  0
LINE
  5
524
330
1F
100
AcDbEntity
  8
2
  6
CONTINUOUS
370
25
 62
7
100
AcDbLine
 10
45.84064820655666
 20
12.16813964131133
 30
0.0
 11
46.260972309835
 21
11.747815538033
 31
0.0
  0
LINE
  5
525
330
1F
100
AcDbEntity
  8
2
  6
CONTINUOUS
370
25
 62
7
100
AcDbLine
 10
46.19420159714993
 20
12.23885031942999
 30
0.0
 11
46.79130239572491
 21
11.64174952085502
 31
0.0
  0
LINE
  5
526
330
1F
100
AcDbEntity
  8
2
  6
CONTINUOUS
370
25
 62
7
100
AcDbLine
 10
46.5477549877432
 20
12.30956099754864
 30
0.0
 11
47.32163248161481
 21
11.53568350367704
 31
0.0
  0
LINE
  5
527
330
1F
100
AcDbEntity
  8
2
  6
CONTINUOUS
370
25
 62
7
100
AcDbLine
 10
46.90130837833648
 20
12.3802716756673
 30
0.0
 11
47.85196256750473
 21
11.42961748649905
 31
0.0
  0
LINE
  5
528
330
1F
100
AcDbEntity
  8
2
  6
CONTINUOUS
370
25
 62
7
100
AcDbLine
 10
47.25486176892976
 20
12.45098235378595
 30
0.0
 11
48.38229265339464
 21
11.32355146932107
 31
0.0
  0
LINE
  5
529
330
1F
100
AcDbEntity
  8
2
  6
CONTINUOUS
370
25
 62
7
100
AcDbLine
 10
47.60841515952303
 20
12.52169303190461
 30
0.0
 11
48.91262273928455
 21
11.21748545214309
 31
0.0
  0
LINE
  5
52A
330
1F
100
AcDbEntity
  8
2
  6
CONTINUOUS
370
25
 62
7
100
AcDbLine
 10
47.9619685501163
 20
12.59240371002326
 30
0.0
 11
49.44295282517446
 21
11.11141943496511
 31
0.0
  0
LINE
  5
52B
330
1F
100
AcDbEntity
  8
2
  6
CONTINUOUS
370
25
 62
7
100
AcDbLine
 10
48.31552194070958
 20
12.66311438814191
 30
0.0
 11
49.97328291106437
 21
11.00535341778713
 31
0.0
  0
LINE
  5
52C
330
1F
100
AcDbEntity
  8
2
  6
CONTINUOUS
370
25
 62
7
100
AcDbLine
 10
48.66907533130285
 20
12.73382506626057
 30
0.0
 11
50.0
 21
11.40290039756343
 31
0.0
  0
LINE
  5
52D
330
1F
100
AcDbEntity
  8
2
  6
CONTINUOUS
370
25
 62
7
100
AcDbLine
 10
49.02262872189613
 20
12.80453574437922
 30
0.0
 11
50.0
 21
11.82716446627535
 31
0.0
  0
LINE
  5
52E
330
1F
100
AcDbEntity
  8
2
  6
CONTINUOUS
370
25
 62
7
100
AcDbLine
 10
49.3761821124894
 20
12.87524642249788
 30
0.0
 11
50.0
 21
12.25142853498728
 31
0.0
  0
LINE
  5
52F
330
1F
100
AcDbEntity
  8
2
  6
CONTINUOUS
370
25
 62
7
100
AcDbLine
 10
49.72973550308267
 20
12.94595710061653
 30
0.0
 11
50.0
 21
12.67569260369921
 31
0.0
  0
TEXT
  5
530
330
1F
100
AcDbEntity
  8
2
  6
CONTINUOUS
370
25
 62
7
100
AcDbText
 10
52.296875
 20
13.00001
 30
0.0
 40
3.5
  1
10.75
 72
     1
 11
58.421875
 21
13.00001
 31
0.0
100
AcDbText
  0
LINE
  5
531
330
1F
100
AcDbEntity
  8
2
  6
CONTINUOUS
370
25
 62
7
100
AcDbLine
 10
44.7
 20
-0.1000000000000001
 30
0.0
 11
44.7
 21
-20.00001
 31
0.0
  0
LINE
  5
532
330
1F
100
AcDbEntity
  8
2
  6
CONTINUOUS
370
25
 62
7
100
AcDbLine
 10
45.0
 20
-20.00001
 30
0.0
 11
45.0
 21
-0.1000000000000014
 31
0.0
  0
LINE
  5
533
330
1F
100
AcDbEntity
  8
2
  6
CONTINUOUS
370
25
 62
7
100
AcDbLine
 10
29.59375
 20
-19.00001
 30
0.0
 11
55.0
 21
-19.00001
 31
0.0
  0
LINE
  5
534
330
1F
100
AcDbEntity
  8
2
  6
CONTINUOUS
370
25
 62
7
100
AcDbLine
 10
44.7
 20
-19.00001
 30
0.0
 11
39.7
 21
-20.00001
 31
0.0
  0
LINE
  5
535
330
1F
100
AcDbEntity
  8
2
  6
CONTINUOUS
370
25
 62
7
100
AcDbLine
 10
39.7
 20
-20.00001
 30
0.0
 11
39.7
 21
-18.00001
 31
0.0
  0
LINE
  5
536
330
1F
100
AcDbEntity
  8
2
  6
CONTINUOUS
370
25
 62
7
100
AcDbLine
 10
39.7
 20
-18.00001
 30
0.0
 11
44.7
 21
-19.00001
 31
0.0
  0
LINE
  5
537
330
1F
100
AcDbEntity
  8
2
  6
CONTINUOUS
370
25
 62
7
100
AcDbLine
 10
44.36845887644775
 20
-19.06631822471045
 30
0.0
 11
44.4789725842985
 21
-18.9558045168597
 31
0.0
  0
LINE
  5
538
330
1F
100
AcDbEntity
  8
2
  6
CONTINUOUS
370
25
 62
7
100
AcDbLine
 10
43.83812879055785
 20
-19.17238424188843
 30
0.0
 11
44.12541919370523
 21
-18.88509383874105
 31
0.0
  0
LINE
  5
539
330
1F
100
AcDbEntity
  8
2
  6
CONTINUOUS
370
25
 62
7
100
AcDbLine
 10
43.30779870466794
 20
-19.27845025906642
 30
0.0
 11
43.77186580311196
 21
-18.81438316062239
 31
0.0
  0
LINE
  5
53A
330
1F
100
AcDbEntity
  8
2
  6
CONTINUOUS
370
25
 62
7
100
AcDbLine
 10
42.77746861877803
 20
-19.3845162762444
 30
0.0
 11
43.41831241251869
 21
-18.74367248250374
 31
0.0
  0
LINE
  5
53B
330
1F
100
AcDbEntity
  8
2
  6
CONTINUOUS
370
25
 62
7
100
AcDbLine
 10
42.24713853288812
 20
-19.49058229342238
 30
0.0
 11
43.06475902192541
 21
-18.67296180438509
 31
0.0
  0
LINE
  5
53C
330
1F
100
AcDbEntity
  8
2
  6
CONTINUOUS
370
25
 62
7
100
AcDbLine
 10
41.71680844699821
 20
-19.59664831060036
 30
0.0
 11
42.71120563133213
 21
-18.60225112626643
 31
0.0
  0
LINE
  5
53D
330
1F
100
AcDbEntity
  8
2
  6
CONTINUOUS
370
25
 62
7
100
AcDbLine
 10
41.18647836110829
 20
-19.70271432777835
 30
0.0
 11
42.35765224073887
 21
-18.53154044814778
 31
0.0
  0
LINE
  5
53E
330
1F
100
AcDbEntity
  8
2
  6
CONTINUOUS
370
25
 62
7
100
AcDbLine
 10
40.65614827521838
 20
-19.80878034495633
 30
0.0
 11
42.00409885014559
 21
-18.46082977002912
 31
0.0
  0
LINE
  5
53F
330
1F
100
AcDbEntity
  8
2
  6
CONTINUOUS
370
25
 62
7
100
AcDbLine
 10
40.12581818932848
 20
-19.91484636213431
 30
0.0
 11
41.65054545955232
 21
-18.39011909191047
 31
0.0
  0
LINE
  5
540
330
1F
100
AcDbEntity
  8
2
  6
CONTINUOUS
370
25
 62
7
100
AcDbLine
 10
39.7
 20
-19.91640048275086
 30
0.0
 11
41.29699206895904
 21
-18.31940841379181
 31
0.0
  0
LINE
  5
541
330
1F
100
AcDbEntity
  8
2
  6
CONTINUOUS
370
25
 62
7
100
AcDbLine
 10
39.7
 20
-19.49213641403893
 30
0.0
 11
40.94343867836577
 21
-18.24869773567316
 31
0.0
  0
LINE
  5
542
330
1F
100
AcDbEntity
  8
2
  6
CONTINUOUS
370
25
 62
7
100
AcDbLine
 10
39.7
 20
-19.067872345327
 30
0.0
 11
40.5898852877725
 21
-18.1779870575545
 31
0.0
  0
LINE
  5
543
330
1F
100
AcDbEntity
  8
2
  6
CONTINUOUS
370
25
 62
7
100
AcDbLine
 10
39.7
 20
-18.64360827661508
 30
0.0
 11
40.23633189717923
 21
-18.10727637943585
 31
0.0
  0
LINE
  5
544
330
1F
100
AcDbEntity
  8
2
  6
CONTINUOUS
370
25
 62
7
100
AcDbLine
 10
39.7
 20
-18.21934420790314
 30
0.0
 11
39.88277850658595
 21
-18.03656570131719
 31
0.0
  0
LINE
  5
545
330
1F
100
AcDbEntity
  8
2
  6
CONTINUOUS
370
25
 62
7
100
AcDbLine
 10
39.7
 20
-19.80533984963538
 30
0.0
 11
39.86222512530385
 21
-19.96756497493923
 31
0.0
  0
LINE
  5
546
330
1F
100
AcDbEntity
  8
2
  6
CONTINUOUS
370
25
 62
7
100
AcDbLine
 10
39.7
 20
-19.38107578092345
 30
0.0
 11
40.21577851589713
 21
-19.89685429682058
 31
0.0
  0
LINE
  5
547
330
1F
100
AcDbEntity
  8
2
  6
CONTINUOUS
370
25
 62
7
100
AcDbLine
 10
39.7
 20
-18.95681171221152
 30
0.0
 11
40.5693319064904
 21
-19.82614361870192
 31
0.0
  0
LINE
  5
548
330
1F
100
AcDbEntity
  8
2
  6
CONTINUOUS
370
25
 62
7
100
AcDbLine
 10
39.7
 20
-18.53254764349959
 30
0.0
 11
40.92288529708367
 21
-19.75543294058327
 31
0.0
  0
LINE
  5
549
330
1F
100
AcDbEntity
  8
2
  6
CONTINUOUS
370
25
 62
7
100
AcDbLine
 10
39.7
 20
-18.10828357478767
 30
0.0
 11
41.27643868767694
 21
-19.68472226246461
 31
0.0
  0
LINE
  5
54A
330
1F
100
AcDbEntity
  8
2
  6
CONTINUOUS
370
25
 62
7
100
AcDbLine
 10
40.09498811740533
 20
-18.07900762348107
 30
0.0
 11
41.62999207827022
 21
-19.61401158434596
 31
0.0
  0
LINE
  5
54B
330
1F
100
AcDbEntity
  8
2
  6
CONTINUOUS
370
25
 62
7
100
AcDbLine
 10
40.62531820329524
 20
-18.18507364065905
 30
0.0
 11
41.98354546886349
 21
-19.54330090622731
 31
0.0
  0
LINE
  5
54C
330
1F
100
AcDbEntity
  8
2
  6
CONTINUOUS
370
25
 62
7
100
AcDbLine
 10
41.15564828918514
 20
-18.29113965783703
 30
0.0
 11
42.33709885945677
 21
-19.47259022810865
 31
0.0
  0
LINE
  5
54D
330
1F
100
AcDbEntity
  8
2
  6
CONTINUOUS
370
25
 62
7
100
AcDbLine
 10
41.68597837507506
 20
-18.39720567501502
 30
0.0
 11
42.69065225005004
 21
-19.40187954998999
 31
0.0
  0
LINE
  5
54E
330
1F
100
AcDbEntity
  8
2
  6
CONTINUOUS
370
25
 62
7
100
AcDbLine
 10
42.21630846096497
 20
-18.503271692193
 30
0.0
 11
43.04420564064331
 21
-19.33116887187134
 31
0.0
  0
LINE
  5
54F
330
1F
100
AcDbEntity
  8
2
  6
CONTINUOUS
370
25
 62
7
100
AcDbLine
 10
42.74663854685488
 20
-18.60933770937098
 30
0.0
 11
43.39775903123659
 21
-19.26045819375268
 31
0.0
  0
LINE
  5
550
330
1F
100
AcDbEntity
  8
2
  6
CONTINUOUS
370
25
 62
7
100
AcDbLine
 10
43.27696863274479
 20
-18.71540372654896
 30
0.0
 11
43.75131242182986
 21
-19.18974751563403
 31
0.0
  0
LINE
  5
551
330
1F
100
AcDbEntity
  8
2
  6
CONTINUOUS
370
25
 62
7
100
AcDbLine
 10
43.8072987186347
 20
-18.82146974372694
 30
0.0
 11
44.10486581242313
 21
-19.11903683751537
 31
0.0
  0
LINE
  5
552
330
1F
100
AcDbEntity
  8
2
  6
CONTINUOUS
370
25
 62
7
100
AcDbLine
 10
44.33762880452461
 20
-18.92753576090492
 30
0.0
 11
44.4584192030164
 21
-19.04832615939672
 31
0.0
  0
LINE
  5
553
330
1F
100
AcDbEntity
  8
2
  6
CONTINUOUS
370
25
 62
7
100
AcDbLine
 10
45.0
 20
-19.00001
 30
0.0
 11
50.0
 21
-18.00001
 31
0.0
  0
LINE
  5
554
330
1F
100
AcDbEntity
  8
2
  6
CONTINUOUS
370
25
 62
7
100
AcDbLine
 10
50.0
 20
-18.00001
 30
0.0
 11
50.0
 21
-20.00001
 31
0.0
  0
LINE
  5
555
330
1F
100
AcDbEntity
  8
2
  6
CONTINUOUS
370
25
 62
7
100
AcDbLine
 10
50.0
 20
-20.00001
 30
0.0
 11
45.0
 21
-19.00001
 31
0.0
  0
LINE
  5
556
330
1F
100
AcDbEntity
  8
2
  6
CONTINUOUS
370
25
 62
7
100
AcDbLine
 10
49.82677201169908
 20
-19.96536440233982
 30
0.0
 11
50.0
 21
-19.79213641403891
 31
0.0
  0
LINE
  5
557
330
1F
100
AcDbEntity
  8
2
  6
CONTINUOUS
370
25
 62
7
100
AcDbLine
 10
49.47321862110581
 20
-19.89465372422117
 30
0.0
 11
50.0
 21
-19.36787234532699
 31
0.0
  0
LINE
  5
558
330
1F
100
AcDbEntity
  8
2
  6
CONTINUOUS
370
25
 62
7
100
AcDbLine
 10
49.11966523051254
 20
-19.82394304610251
 30
0.0
 11
50.0
 21
-18.94360827661505
 31
0.0
  0
LINE
  5
559
330
1F
100
AcDbEntity
  8
2
  6
CONTINUOUS
370
25
 62
7
100
AcDbLine
 10
48.76611183991928
 20
-19.75323236798386
 30
0.0
 11
50.0
 21
-18.51934420790313
 31
0.0
  0
LINE
  5
55A
330
1F
100
AcDbEntity
  8
2
  6
CONTINUOUS
370
25
 62
7
100
AcDbLine
 10
48.41255844932599
 20
-19.6825216898652
 30
0.0
 11
50.0
 21
-18.0950801391912
 31
0.0
  0
LINE
  5
55B
330
1F
100
AcDbEntity
  8
2
  6
CONTINUOUS
370
25
 62
7
100
AcDbLine
 10
48.05900505873272
 20
-19.61181101174655
 30
0.0
 11
49.58850758809909
 21
-18.08230848238018
 31
0.0
  0
LINE
  5
55C
330
1F
100
AcDbEntity
  8
2
  6
CONTINUOUS
370
25
 62
7
100
AcDbLine
 10
47.70545166813945
 20
-19.5411003336279
 30
0.0
 11
49.05817750220918
 21
-18.18837449955817
 31
0.0
  0
LINE
  5
55D
330
1F
100
AcDbEntity
  8
2
  6
CONTINUOUS
370
25
 62
7
100
AcDbLine
 10
47.35189827754618
 20
-19.47038965550924
 30
0.0
 11
48.52784741631928
 21
-18.29444051673615
 31
0.0
  0
LINE
  5
55E
330
1F
100
AcDbEntity
  8
2
  6
CONTINUOUS
370
25
 62
7
100
AcDbLine
 10
46.9983448869529
 20
-19.39967897739059
 30
0.0
 11
47.99751733042935
 21
-18.40050653391413
 31
0.0
  0
LINE
  5
55F
330
1F
100
AcDbEntity
  8
2
  6
CONTINUOUS
370
25
 62
7
100
AcDbLine
 10
46.64479149635963
 20
-19.32896829927193
 30
0.0
 11
47.46718724453945
 21
-18.50657255109211
 31
0.0
  0
LINE
  5
560
330
1F
100
AcDbEntity
  8
2
  6
CONTINUOUS
370
25
 62
7
100
AcDbLine
 10
46.29123810576636
 20
-19.25825762115328
 30
0.0
 11
46.93685715864954
 21
-18.61263856827009
 31
0.0
  0
LINE
  5
561
330
1F
100
AcDbEntity
  8
2
  6
CONTINUOUS
370
25
 62
7
100
AcDbLine
 10
45.93768471517308
 20
-19.18754694303462
 30
0.0
 11
46.40652707275963
 21
-18.71870458544808
 31
0.0
  0
LINE
  5
562
330
1F
100
AcDbEntity
  8
2
  6
CONTINUOUS
370
25
 62
7
100
AcDbLine
 10
45.58413132457981
 20
-19.11683626491597
 30
0.0
 11
45.87619698686972
 21
-18.82477060262606
 31
0.0
  0
LINE
  5
563
330
1F
100
AcDbEntity
  8
2
  6
CONTINUOUS
370
25
 62
7
100
AcDbLine
 10
45.23057793398654
 20
-19.04612558679731
 30
0.0
 11
45.34586690097981
 21
-18.93083661980404
 31
0.0
  0
LINE
  5
564
330
1F
100
AcDbEntity
  8
2
  6
CONTINUOUS
370
25
 62
7
100
AcDbLine
 10
45.21002455270444
 20
-18.95800508945911
 30
0.0
 11
45.31503682905667
 21
-19.06301736581134
 31
0.0
  0
LINE
  5
565
330
1F
100
AcDbEntity
  8
2
  6
CONTINUOUS
370
25
 62
7
100
AcDbLine
 10
45.56357794329772
 20
-18.88729441134046
 30
0.0
 11
45.84536691494657
 21
-19.16908338298932
 31
0.0
  0
LINE
  5
566
330
1F
100
AcDbEntity
  8
2
  6
CONTINUOUS
370
25
 62
7
100
AcDbLine
 10
45.91713133389099
 20
-18.8165837332218
 30
0.0
 11
46.37569700083648
 21
-19.2751494001673
 31
0.0
  0
LINE
  5
567
330
1F
100
AcDbEntity
  8
2
  6
CONTINUOUS
370
25
 62
7
100
AcDbLine
 10
46.27068472448425
 20
-18.74587305510315
 30
0.0
 11
46.9060270867264
 21
-19.38121541734528
 31
0.0
  0
LINE
  5
568
330
1F
100
AcDbEntity
  8
2
  6
CONTINUOUS
370
25
 62
7
100
AcDbLine
 10
46.62423811507753
 20
-18.6751623769845
 30
0.0
 11
47.4363571726163
 21
-19.48728143452327
 31
0.0
  0
LINE
  5
569
330
1F
100
AcDbEntity
  8
2
  6
CONTINUOUS
370
25
 62
7
100
AcDbLine
 10
46.97779150567081
 20
-18.60445169886584
 30
0.0
 11
47.96668725850621
 21
-19.59334745170125
 31
0.0
  0
LINE
  5
56A
330
1F
100
AcDbEntity
  8
2
  6
CONTINUOUS
370
25
 62
7
100
AcDbLine
 10
47.33134489626408
 20
-18.53374102074719
 30
0.0
 11
48.49701734439613
 21
-19.69941346887923
 31
0.0
  0
LINE
  5
56B
330
1F
100
AcDbEntity
  8
2
  6
CONTINUOUS
370
25
 62
7
100
AcDbLine
 10
47.68489828685735
 20
-18.46303034262853
 30
0.0
 11
49.02734743028604
 21
-19.80547948605722
 31
0.0
  0
LINE
  5
56C
330
1F
100
AcDbEntity
  8
2
  6
CONTINUOUS
370
25
 62
7
100
AcDbLine
 10
48.03845167745062
 20
-18.39231966450988
 30
0.0
 11
49.55767751617594
 21
-19.9115455032352
 31
0.0
  0
LINE
  5
56D
330
1F
100
AcDbEntity
  8
2
  6
CONTINUOUS
370
25
 62
7
100
AcDbLine
 10
48.3920050680439
 20
-18.32160898639122
 30
0.0
 11
50.0
 21
-19.92960391834732
 31
0.0
  0
LINE
  5
56E
330
1F
100
AcDbEntity
  8
2
  6
CONTINUOUS
370
25
 62
7
100
AcDbLine
 10
48.74555845863717
 20
-18.25089830827257
 30
0.0
 11
50.0
 21
-19.50533984963539
 31
0.0
  0
LINE
  5
56F
330
1F
100
AcDbEntity
  8
2
  6
CONTINUOUS
370
25
 62
7
100
AcDbLine
 10
49.09911184923044
 20
-18.18018763015391
 30
0.0
 11
50.0
 21
-19.08107578092346
 31
0.0
  0
LINE
  5
570
330
1F
100
AcDbEntity
  8
2
  6
CONTINUOUS
370
25
 62
7
100
AcDbLine
 10
49.45266523982372
 20
-18.10947695203525
 30
0.0
 11
50.0
 21
-18.65681171221154
 31
0.0
  0
LINE
  5
571
330
1F
100
AcDbEntity
  8
2
  6
CONTINUOUS
370
25
 62
7
100
AcDbLine
 10
49.80621863041699
 20
-18.0387662739166
 30
0.0
 11
50.0
 21
-18.23254764349961
 31
0.0
  0
TEXT
  5
572
330
1F
100
AcDbEntity
  8
2
  6
CONTINUOUS
370
25
 62
7
100
AcDbText
 10
31.43854166666667
 20
-18.00001
 30
0.0
 40
3.5
  1
0.3
 72
     1
 11
34.646875
 21
-18.00001
 31
0.0
100
AcDbText
  0
LINE
  5
573
330
1F
100
AcDbEntity
  8
4
  6
LONGDASH_DASH
370
25
 62
2
100
AcDbLine
 10
34.25
 20
0.0
 30
0.0
 11
45.0
 21
0.0
 31
0.0
  0
LINE
  5
574
330
1F
100
AcDbEntity
  8
SK4
  6
LONGDASH_DASH
370
25
 62
2
100
AcDbLine
 10
-5.0
 20
0.0
 30
0.0
 11
50.0
 21
0.0
 31
0.0
  0
LINE
  5
575
330
1F
100
AcDbEntity
  8
1
  6
CONTINUOUS
370
50
 62
4
100
AcDbLine
 10
34.25
 20
0.0
 30
0.0
 11
37.3125
 21
0.0
 31
0.0
  0
LINE
  5
576
330
1F
100
AcDbEntity
  8
1
  6
CONTINUOUS
370
50
 62
4
100
AcDbLine
 10
34.25
 20
0.0
 30
0.0
 11
34.25
 21
3.0625
 31
0.0
  0
ARC
  5
577
330
1F
100
AcDbEntity
  8
1
  6
CONTINUOUS
370
50
 62
4
100
AcDbCircle
 10
34.25
 20
0.0
 30
0.0
 40
3.0625
100
AcDbArc
 50
0.0
 51
90.0
  0
LINE
  5
578
330
1F
100
AcDbEntity
  8
1
  6
CONTINUOUS
370
50
 62
4
100
AcDbLine
 10
34.25
 20
0.0
 30
0.0
 11
31.1875
 21
0.0
 31
0.0
  0
ARC
  5
579
330
1F
100
AcDbEntity
  8
1
  6
CONTINUOUS
370
50
 62
4
100
AcDbCircle
 10
34.25
 20
0.0
 30
0.0
 40
3.0625
100
AcDbArc
 50
180.0
 51
270.0
  0
LINE
  5
57A
330
1F
100
AcDbEntity
  8
1
  6
CONTINUOUS
370
50
 62
4
100
AcDbLine
 10
34.25
 20
-3.0625
 30
0.0
 11
34.25
 21
0.0
 31
0.0
  0
ARC
  5
57B
330
1F
100
AcDbEntity
  8
1
  6
CONTINUOUS
370
50
 62
4
100
AcDbCircle
 10
34.25
 20
0.0
 30
0.0
 40
3.0625
100
AcDbArc
 50
270.0
 51
0.0
  0
ARC
  5
57C
330
1F
100
AcDbEntity
  8
1
  6
CONTINUOUS
370
50
 62
4
100
AcDbCircle
 10
34.25
 20
0.0
 30
0.0
 40
3.0625
100
AcDbArc
 50
90.0
 51
180.0
  0
LINE
  5
57D
330
1F
100
AcDbEntity
  8
INFTOTAL
  6
CONTINUOUS
370
18
 62
9
100
AcDbLine
 10
-26.400011
 20
-36.300011
 30
0.0
 11
83.600019646
 21
-36.300011
 31
0.0
  0
LINE
  5
57E
330
1F
100
AcDbEntity
  8
INFTOTAL
  6
CONTINUOUS
370
18
 62
9
100
AcDbLine
 10
83.600019646
 20
-36.300011
 30
0.0
 11
83.600019646
 21
36.300011
 31
0.0
  0
LINE
  5
57F
330
1F
100
AcDbEntity
  8
INFTOTAL
  6
CONTINUOUS
370
18
 62
9
100
AcDbLine
 10
83.600019646
 20
36.300011
 30
0.0
 11
-26.40001100000001
 21
36.300011
 31
0.0
  0
LINE
  5
580
330
1F
100
AcDbEntity
  8
INFTOTAL
  6
CONTINUOUS
370
18
 62
9
100
AcDbLine
 10
-26.40001100000001
 20
36.300011
 30
0.0
 11
-26.40001100000001
 21
-36.300011
 31
0.0
  0
ARC
  5
581
330
1F
100
AcDbEntity
  8
SK6
  6
CONTINUOUS
370
25
 62
5
100
AcDbCircle
 10
90.7614067283765
 20
-26.34525475338786
 30
0.0
 40
2.76048912849221
100
AcDbArc
 50
338.9379403434233
 51
90.44457437511392
  0
LINE
  5
582
330
1F
100
AcDbEntity
  8
SK6
  6
CONTINUOUS
370
25
 62
5
100
AcDbLine
 10
90.73998751695983
 20
-23.58484872421281
 30
0.0
 11
90.73998751695983
 21
-24.68790735613463
 31
0.0
  0
ARC
  5
583
330
1F
100
AcDbEntity
  8
SK6
  6
CONTINUOUS
370
25
 62
5
100
AcDbCircle
 10
90.75053374936917
 20
-26.36524824566821
 30
0.0
 40
1.677374043771792
100
AcDbArc
 50
243.421470601786
 51
90.36024081226131
  0
ARC
  5
584
330
1F
100
AcDbEntity
  8
SK6
  6
CONTINUOUS
370
25
 62
5
100
AcDbCircle
 10
93.27278461684958
 20
-25.93384099215561
 30
0.0
 40
3.80021703002276
100
AcDbArc
 50
210.5483731288539
 51
236.97801693668
  0
LINE
  5
585
330
1F
100
AcDbEntity
  8
SK6
  6
CONTINUOUS
370
25
 62
5
100
AcDbLine
 10
91.20181540512486
 20
-29.12017681867535
 30
0.0
 11
95.34375568742671
 21
-29.12017681867535
 31
0.0
  0
ARC
  5
586
330
1F
100
AcDbEntity
  8
SK6
  6
CONTINUOUS
370
25
 62
5
100
AcDbCircle
 10
93.27278655877257
 20
-25.9338410937346
 30
0.0
 40
3.800216899582472
100
AcDbArc
 50
303.0219828477959
 51
326.3732153033476
  0
LINE
  5
587
330
1F
100
AcDbEntity
  8
SK6
  6
CONTINUOUS
370
25
 62
5
100
AcDbLine
 10
96.43708447135722
 20
-28.0383284907709
 30
0.0
 11
93.0797864257546
 21
-28.0383284907709
 31
0.0
  0
LINE
  5
588
330
1F
100
AcDbEntity
  8
SK6
  6
CONTINUOUS
370
25
 62
5
100
AcDbLine
 10
93.0797864257546
 20
-28.0383284907709
 30
0.0
 11
96.99964581771987
 21
-26.67692729641694
 31
0.0
  0
ARC
  5
589
330
1F
100
AcDbEntity
  8
SK6
  6
CONTINUOUS
370
25
 62
5
100
AcDbCircle
 10
93.2727872815721
 20
-25.9338416048594
 30
0.0
 40
3.800217216614723
100
AcDbArc
 50
348.7238644184696
 51
53.4691051260885
  0
LINE
  5
58A
330
1F
100
AcDbEntity
  8
SK6
  6
CONTINUOUS
370
25
 62
5
100
AcDbLine
 10
95.53488996538545
 20
-22.88023024429967
 30
0.0
 11
93.33747519882736
 21
-27.33731873507057
 31
0.0
  0
LINE
  5
58B
330
1F
100
AcDbEntity
  8
0
  6
cc_dim_arrow
 62
     4
100
AcDbLine
 10
34.20118560777957
 20
0.0
 30
0.0
 11
34.25
 21
-0.0488143922204269
 31
0.0
  0
LINE
  5
58C
330
1F
100
AcDbEntity
  8
0
  6
cc_dim_arrow
 62
     4
100
AcDbLine
 10
31.18992513152429
 20
-0.0771689363588064
 30
0.0
 11
31.2670940678831
 21
0.0
 31
0.0
  0
LINE
  5
58D
330
1F
100
AcDbEntity
  8
0
  6
cc_dim_arrow
 62
     4
100
AcDbLine
 10
34.25
 20
2.982905932116899
 30
0.0
 11
34.32716893635881
 21
3.060074868475706
 31
0.0
  0
LINE
  5
58E
330
1F
100
AcDbEntity
  8
0
  6
cc_dim_arrow
 62
     4
100
AcDbLine
 10
34.25
 20
0.384288511256333
 30
0.0
 11
34.63428851125634
 21
0.0
 31
0.0
  0
LINE
  5
58F
330
1F
100
AcDbEntity
  8
0
  6
cc_dim_arrow
 62
     4
100
AcDbLine
 10
33.86004945918235
 20
-3.037382353898634
 30
0.0
 11
34.25
 21
-2.647431813080986
 31
0.0
  0
LINE
  5
590
330
1F
100
AcDbEntity
  8
0
  6
cc_dim_arrow
 62
     4
100
AcDbLine
 10
36.89743181308098
 20
0.0
 30
0.0
 11
37.28738235389864
 21
0.3899505408176478
 31
0.0
  0
LINE
  5
591
330
1F
100
AcDbEntity
  8
0
  6
cc_dim_arrow
 62
     4
100
AcDbLine
 10
31.22596630639492
 20
-0.4742306649649457
 30
0.0
 11
31.70019697135986
 21
0.0
 31
0.0
  0
LINE
  5
592
330
1F
100
AcDbEntity
  8
0
  6
cc_dim_arrow
 62
     4
100
AcDbLine
 10
34.25
 20
2.549803028640136
 30
0.0
 11
34.72423066496494
 21
3.024033693605082
 31
0.0
  0
LINE
  5
593
330
1F
100
AcDbEntity
  8
0
  6
cc_dim_arrow
 62
     4
100
AcDbLine
 10
33.76808270430281
 20
0.0
 30
0.0
 11
34.25
 21
-0.4819172956971869
 31
0.0
  0
LINE
  5
594
330
1F
100
AcDbEntity
  8
0
  6
cc_dim_arrow
 62
     4
100
AcDbLine
 10
36.07018752194426
 20
2.462027120602918
 30
0.0
 11
36.71202712060292
 21
1.820187521944262
 31
0.0
  0
LINE
  5
595
330
1F
100
AcDbEntity
  8
0
  6
cc_dim_arrow
 62
     4
100
AcDbLine
 10
33.49627896481093
 20
-2.968049944793296
 30
0.0
 11
34.25
 21
-2.214328909604226
 31
0.0
  0
LINE
  5
596
330
1F
100
AcDbEntity
  8
0
  6
cc_dim_arrow
 62
     4
100
AcDbLine
 10
36.46432890960423
 20
0.0
 30
0.0
 11
37.21804994479329
 21
0.75372103518907
 31
0.0
  0
LINE
  5
597
330
1F
100
AcDbEntity
  8
0
  6
cc_dim_arrow
 62
     4
100
AcDbLine
 10
34.25
 20
0.8173914147330921
 30
0.0
 11
35.06739141473309
 21
0.0
 31
0.0
  0
LINE
  5
598
330
1F
100
AcDbEntity
  8
0
  6
cc_dim_arrow
 62
     4
100
AcDbLine
 10
31.30351879196703
 20
-0.8297810828695971
 30
0.0
 11
32.13329987483662
 21
0.0
 31
0.0
  0
LINE
  5
599
330
1F
100
AcDbEntity
  8
0
  6
cc_dim_arrow
 62
     4
100
AcDbLine
 10
34.25
 20
2.116700125163375
 30
0.0
 11
35.07978108286959
 21
2.946481208032972
 31
0.0
  0
LINE
  5
59A
330
1F
100
AcDbEntity
  8
0
  6
cc_dim_arrow
 62
     4
100
AcDbLine
 10
33.33497980082605
 20
0.0
 30
0.0
 11
34.25
 21
-0.915020199173946
 31
0.0
  0
LINE
  5
59B
330
1F
100
AcDbEntity
  8
0
  6
cc_dim_arrow
 62
     4
100
AcDbLine
 10
33.1675935311948
 20
-2.863632474932658
 30
0.0
 11
34.25
 21
-1.781226006127464
 31
0.0
  0
LINE
  5
59C
330
1F
100
AcDbEntity
  8
0
  6
cc_dim_arrow
 62
     4
100
AcDbLine
 10
36.03122600612746
 20
0.0
 30
0.0
 11
37.11363247493266
 21
1.082406468805194
 31
0.0
  0
LINE
  5
59D
330
1F
100
AcDbEntity
  8
0
  6
cc_dim_arrow
 62
     4
100
AcDbLine
 10
31.41357229520479
 20
-1.152830483108593
 30
0.0
 11
32.56640277831338
 21
0.0
 31
0.0
  0
LINE
  5
59E
330
1F
100
AcDbEntity
  8
0
  6
cc_dim_arrow
 62
     4
100
AcDbLine
 10
34.25
 20
1.683597221686615
 30
0.0
 11
35.40283048310859
 21
2.836427704795208
 31
0.0
  0
LINE
  5
59F
330
1F
100
AcDbEntity
  8
0
  6
cc_dim_arrow
 62
     4
100
AcDbLine
 10
34.25
 20
1.250494318209852
 30
0.0
 11
35.50049431820985
 21
0.0
 31
0.0
  0
LINE
  5
5A0
330
1F
100
AcDbEntity
  8
0
  6
cc_dim_arrow
 62
     4
100
AcDbLine
 10
32.90187689734929
 20
0.0
 30
0.0
 11
34.25
 21
-1.348123102650706
 31
0.0
  0
LINE
  5
5A1
330
1F
100
AcDbEntity
  8
0
  6
cc_dim_arrow
 62
     4
100
AcDbLine
 10
32.86724425544239
 20
-2.730878847208312
 30
0.0
 11
34.25
 21
-1.348123102650704
 31
0.0
  0
LINE
  5
5A2
330
1F
100
AcDbEntity
  8
0
  6
cc_dim_arrow
 62
     4
100
AcDbLine
 10
35.5981231026507
 20
0.0
 30
0.0
 11
36.98087884720831
 21
1.382755744557608
 31
0.0
  0
LINE
  5
5A3
330
1F
100
AcDbEntity
  8
0
  6
cc_dim_arrow
 62
     4
100
AcDbLine
 10
31.55207478752006
 20
-1.447430894270086
 30
0.0
 11
32.99950568179015
 21
0.0
 31
0.0
  0
LINE
  5
5A4
330
1F
100
AcDbEntity
  8
0
  6
cc_dim_arrow
 62
     4
100
AcDbLine
 10
34.25
 20
1.250494318209856
 30
0.0
 11
35.69743089427008
 21
2.697925212479942
 31
0.0
  0
LINE
  5
5A5
330
1F
100
AcDbEntity
  8
0
  6
cc_dim_arrow
 62
     4
100
AcDbLine
 10
32.59130924158598
 20
-2.573710957587966
 30
0.0
 11
34.25
 21
-0.9150201991739442
 31
0.0
  0
LINE
  5
5A6
330
1F
100
AcDbEntity
  8
0
  6
cc_dim_arrow
 62
     4
100
AcDbLine
 10
35.16502019917395
 20
0.0
 30
0.0
 11
36.82371095758796
 21
1.658690758414021
 31
0.0
  0
LINE
  5
5A7
330
1F
100
AcDbEntity
  8
0
  6
cc_dim_arrow
 62
     4
100
AcDbLine
 10
34.25
 20
1.683597221686613
 30
0.0
 11
35.93359722168661
 21
0.0
 31
0.0
  0
LINE
  5
5A8
330
1F
100
AcDbEntity
  8
0
  6
cc_dim_arrow
 62
     4
100
AcDbLine
 10
31.71579159130131
 20
-1.71681699396559
 30
0.0
 11
33.43260858526691
 21
0.0
 31
0.0
  0
LINE
  5
5A9
330
1F
100
AcDbEntity
  8
0
  6
cc_dim_arrow
 62
     4
100
AcDbLine
 10
34.25
 20
0.8173914147330956
 30
0.0
 11
35.96681699396559
 21
2.534208408698686
 31
0.0
  0
LINE
  5
5AA
330
1F
100
AcDbEntity
  8
0
  6
cc_dim_arrow
 62
     4
100
AcDbLine
 10
31.38676220163594
 20
-1.08350272514721
 30
0.0
 11
33.16649727485279
 21
-2.863237798364062
 31
0.0
  0
LINE
  5
5AB
330
1F
100
AcDbEntity
  8
0
  6
cc_dim_arrow
 62
     4
100
AcDbLine
 10
32.46877399387253
 20
0.0
 30
0.0
 11
34.25
 21
-1.781226006127466
 31
0.0
  0
LINE
  5
5AC
330
1F
100
AcDbEntity
  8
0
  6
cc_dim_arrow
 62
     4
100
AcDbLine
 10
32.3397498840086
 20
-2.392167411688578
 30
0.0
 11
34.25
 21
-0.4819172956971842
 31
0.0
  0
LINE
  5
5AD
330
1F
100
AcDbEntity
  8
0
  6
cc_dim_arrow
 62
     4
100
AcDbLine
 10
34.73191729569719
 20
0.0
 30
0.0
 11
36.64216741168858
 21
1.910250115991393
 31
0.0
  0
LINE
  5
5AE
330
1F
100
AcDbEntity
  8
0
  6
cc_dim_arrow
 62
     4
100
AcDbLine
 10
31.90121898530775
 20
-1.964492503435912
 30
0.0
 11
33.86571148874366
 21
0.0
 31
0.0
  0
LINE
  5
5AF
330
1F
100
AcDbEntity
  8
0
  6
cc_dim_arrow
 62
     4
100
AcDbLine
 10
34.25
 20
0.3842885112563357
 30
0.0
 11
36.21449250343591
 21
2.348781014692249
 31
0.0
  0
LINE
  5
5B0
330
1F
100
AcDbEntity
  8
0
  6
cc_dim_arrow
 62
     4
100
AcDbLine
 10
35.18246213409626
 20
2.916649604974163
 30
0.0
 11
37.16664960497416
 21
0.9324621340962582
 31
0.0
  0
LINE
  5
5B1
330
1F
100
AcDbEntity
  8
0
  6
cc_dim_arrow
 62
     4
100
AcDbLine
 10
34.25
 20
2.116700125163374
 30
0.0
 11
36.36670012516338
 21
0.0
 31
0.0
  0
LINE
  5
5B2
330
1F
100
AcDbEntity
  8
0
  6
cc_dim_arrow
 62
     4
100
AcDbLine
 10
32.10996122941787
 20
-2.188853162802553
 30
0.0
 11
34.25
 21
-0.0488143922204243
 31
0.0
  0
LINE
  5
5B3
330
1F
100
AcDbEntity
  8
0
  6
cc_dim_arrow
 62
     4
100
AcDbLine
 10
34.29881439222042
 20
0.0
 30
0.0
 11
36.43885316280255
 21
2.140038770582128
 31
0.0
  0
LINE
  5
5B4
330
1F
100
AcDbEntity
  8
0
  6
cc_dim_arrow
 62
     4
100
AcDbLine
 10
32.03567109039577
 20
0.0
 30
0.0
 11
34.25
 21
-2.214328909604225
 31
0.0
  0
LINE
  5
5B5
330
1F
100
AcDbEntity
  8
0
  6
cc_dim_arrow
 62
     4
100
AcDbLine
 10
31.22885941523187
 20
-0.4924970352663824
 30
0.0
 11
33.75750296473362
 21
-3.021140584768129
 31
0.0
  0
LINE
  5
5B6
330
1F
100
AcDbEntity
  8
0
  6
cc_dim_arrow
 62
     4
100
AcDbLine
 10
34.25
 20
2.549803028640134
 30
0.0
 11
36.79980302864013
 21
0.0
 31
0.0
  0
LINE
  5
5B7
330
1F
100
AcDbEntity
  8
0
  6
cc_dim_arrow
 62
     4
100
AcDbLine
 10
31.60256818691901
 20
0.0
 30
0.0
 11
34.25
 21
-2.647431813080986
 31
0.0
  0
LINE
  5
5B8
330
1F
100
AcDbEntity
  8
0
  6
cc_dim_arrow
 62
     4
100
AcDbLine
 10
34.62701286789481
 20
3.038995967698841
 30
0.0
 11
37.28899596769884
 21
0.3770128678948184
 31
0.0
  0
LINE
  5
5B9
330
1F
100
AcDbEntity
  8
0
  6
cc_dim_arrow
 62
     4
100
AcDbLine
 10
34.25
 20
2.982905932116894
 30
0.0
 11
37.2329059321169
 21
0.0
 31
0.0
  0
LINE
  5
5BA
330
1F
100
AcDbEntity
  8
0
  6
cc_dim_arrow
 62
     4
100
AcDbLine
 10
31.18808515297358
 20
-0.018619869531336
 30
0.0
 11
34.23138013046866
 21
-3.061914847026416
 31
0.0
  0
ENDSEC
  0
SECTION
  2
OBJECTS
  0
DICTIONARY
  5
C
330
0
100
AcDbDictionary
281
     1
  3
ACAD_GROUP
350
D
  3
ACAD_LAYOUT
350
1A
  3
ACAD_MATERIAL
350
3B
  3
ACAD_MLEADERSTYLE
350
5BD
  3
ACAD_MLINESTYLE
350
17
  3
ACAD_PLOTSETTINGS
350
19
  3
ACAD_PLOTSTYLENAME
350
E
  3
ACAD_SCALELIST
350
112
  3
ACAD_VISUALSTYLE
350
2A
  3
AcDbVariableDictionary
350
5BB
  0
DICTIONARY
  5
D
102
{ACAD_REACTORS
330
C
102
}
330
C
100
AcDbDictionary
281
     1
  0
DICTIONARY
  5
1A
102
{ACAD_REACTORS
330
C
102
}
330
C
100
AcDbDictionary
281
     1
  3
Layout1
350
1E
  3
Layout2
350
26
  3
Model
350
22
  0
DICTIONARY
  5
3B
102
{ACAD_REACTORS
330
C
102
}
330
C
100
AcDbDictionary
281
     1
  3
ByBlock
350
3D
  3
ByLayer
350
3C
  3
Global
350
3E
  0
DICTIONARY
  5
5BD
102
{ACAD_REACTORS
330
C
102
}
330
C
100
AcDbDictionary
281
     1
  0
DICTIONARY
  5
17
102
{ACAD_REACTORS
330
C
102
}
330
C
100
AcDbDictionary
281
     1
  3
Standard
350
18
  0
DICTIONARY
  5
19
102
{ACAD_REACTORS
330
C
102
}
330
C
100
AcDbDictionary
281
     1
  0
ACDBDICTIONARYWDFLT
  5
E
102
{ACAD_REACTORS
330
C
102
}
330
C
100
AcDbDictionary
281
     1
  3
Normal
350
F
100
AcDbDictionaryWithDefault
340
F
  0
DICTIONARY
  5
112
102
{ACAD_REACTORS
330
C
102
}
330
C
100
AcDbDictionary
281
     1
  3
A0
350
113
  3
A1
350
114
  3
A2
350
115
  3
A3
350
116
  3
A4
350
117
  3
A5
350
118
  3
A6
350
119
  3
A7
350
11A
  3
A8
350
11B
  3
A9
350
11C
  3
B0
350
11D
  3
B1
350
11E
  3
B2
350
11F
  3
B3
350
120
  3
B4
350
121
  3
B5
350
122
  3
B6
350
123
  3
B7
350
124
  3
B8
350
125
  3
B9
350
126
  3
C0
350
127
  3
C1
350
128
  3
C2
350
129
  3
C3
350
12A
  3
C4
350
12B
  3
C5
350
12C
  3
C6
350
12D
  3
C7
350
12E
  3
C8
350
12F
  3
C9
350
130
  3
D0
350
131
  3
D1
350
132
  3
D2
350
133
  0
DICTIONARY
  5
2A
102
{ACAD_REACTORS
330
C
102
}
330
C
100
AcDbDictionary
281
     1
  3
2dWireframe
350
2F
  3
3D Hidden
350
31
  3
3dWireframe
350
30
  3
Basic
350
32
  3
Brighten
350
36
  3
ColorChange
350
3A
  3
Conceptual
350
34
  3
Dim
350
35
  3
Facepattern
350
39
  3
Flat
350
2B
  3
FlatWithEdges
350
2C
  3
Gouraud
350
2D
  3
GouraudWithEdges
350
2E
  3
Linepattern
350
38
  3
Realistic
350
33
  3
Thicken
350
37
  0
DICTIONARY
  5
5BB
102
{ACAD_REACTORS
330
C
102
}
330
C
100
AcDbDictionary
281
     1
  3
CANNOSCALE
350
5C0
  3
DIMASSOC
350
5C1
  3
HIDETEXT
350
5C2
  3
PSOLHEIGHT
350
5BF
  3
PSOLWIDTH
350
5BE
  0
LAYOUT
  5
1E
102
{ACAD_REACTORS
330
1A
102
}
330
1A
100
AcDbPlotSettings
  1

  2
none_device
  4

  6

 40
0.0
 41
0.0
 42
0.0
 43
0.0
 44
0.0
 45
0.0
 46
0.0
 47
0.0
 48
0.0
 49
0.0
140
0.0
141
0.0
142
1.0
143
1.0
 70
   688
 72
     0
 73
     0
 74
     5
  7

 75
    16
147
1.0
148
0.0
149
0.0
100
AcDbLayout
  1
Layout1
 70
     1
 71
     1
 10
0.0
 20
0.0
 11
420.0
 21
297.0
 12
0.0
 22
0.0
 32
0.0
 14
1.000000000000000E+20
 24
1.000000000000000E+20
 34
1.000000000000000E+20
 15
-1.000000000000000E+20
 25
-1.000000000000000E+20
 35
-1.000000000000000E+20
146
0.0
 13
0.0
 23
0.0
 33
0.0
 16
1.0
 26
0.0
 36
0.0
 17
0.0
 27
1.0
 37
0.0
 76
     0
330
1B
  0
LAYOUT
  5
26
102
{ACAD_REACTORS
330
1A
102
}
330
1A
100
AcDbPlotSettings
  1

  2
none_device
  4

  6

 40
0.0
 41
0.0
 42
0.0
 43
0.0
 44
0.0
 45
0.0
 46
0.0
 47
0.0
 48
0.0
 49
0.0
140
0.0
141
0.0
142
1.0
143
1.0
 70
   688
 72
     0
 73
     0
 74
     5
  7

 75
    16
147
1.0
148
0.0
149
0.0
100
AcDbLayout
  1
Layout2
 70
     1
 71
     2
 10
0.0
 20
0.0
 11
0.0
 21
0.0
 12
0.0
 22
0.0
 32
0.0
 14
0.0
 24
0.0
 34
0.0
 15
0.0
 25
0.0
 35
0.0
146
0.0
 13
0.0
 23
0.0
 33
0.0
 16
1.0
 26
0.0
 36
0.0
 17
0.0
 27
1.0
 37
0.0
 76
     0
330
23
  0
LAYOUT
  5
22
102
{ACAD_REACTORS
330
1A
102
}
330
1A
100
AcDbPlotSettings
  1

  2
none_device
  4

  6

 40
0.0
 41
0.0
 42
0.0
 43
0.0
 44
0.0
 45
0.0
 46
0.0
 47
0.0
 48
0.0
 49
0.0
140
0.0
141
0.0
142
1.0
143
1.0
 70
  1712
 72
     0
 73
     0
 74
     0
  7

 75
     0
147
1.0
148
0.0
149
0.0
100
AcDbLayout
  1
Model
 70
     1
 71
     0
 10
0.0
 20
0.0
 11
420.0
 21
297.0
 12
0.0
 22
0.0
 32
0.0
 14
0.0
 24
0.0
 34
0.0
 15
25.0
 25
35.0
 35
0.0
146
0.0
 13
0.0
 23
0.0
 33
0.0
 16
1.0
 26
0.0
 36
0.0
 17
0.0
 27
1.0
 37
0.0
 76
     0
330
1F
331
29
  0
MATERIAL
  5
3D
102
{ACAD_REACTORS
330
3B
102
}
102
{ACAD_XDICTIONARY
360
5E5
102
}
330
3B
100
AcDbMaterial
  1
ByBlock
  0
MATERIAL
  5
3C
102
{ACAD_REACTORS
330
3B
102
}
102
{ACAD_XDICTIONARY
360
5E3
102
}
330
3B
100
AcDbMaterial
  1
ByLayer
  0
MATERIAL
  5
3E
102
{ACAD_REACTORS
330
3B
102
}
102
{ACAD_XDICTIONARY
360
5E7
102
}
330
3B
100
AcDbMaterial
  1
Global
  0
MLINESTYLE
  5
18
102
{ACAD_REACTORS
330
17
102
}
330
17
100
AcDbMlineStyle
  2
Standard
 70
     0
  3

 62
   256
 51
90.0
 52
90.0
 71
     2
 49
0.5
 62
   256
  6
BYLAYER
 49
-0.5
 62
   256
  6
BYLAYER
  0
ACDBPLACEHOLDER
  5
F
102
{ACAD_REACTORS
330
E
102
}
330
E
  0
SCALE
  5
113
102
{ACAD_REACTORS
330
112
102
}
330
112
100
AcDbScale
 70
     0
300
1:1
140
1.0
141
1.0
290
     1
  0
SCALE
  5
114
102
{ACAD_REACTORS
330
112
102
}
330
112
100
AcDbScale
 70
     0
300
1:2
140
1.0
141
2.0
290
     0
  0
SCALE
  5
115
102
{ACAD_REACTORS
330
112
102
}
330
112
100
AcDbScale
 70
     0
300
1:4
140
1.0
141
4.0
290
     0
  0
SCALE
  5
116
102
{ACAD_REACTORS
330
112
102
}
330
112
100
AcDbScale
 70
     0
300
1:5
140
1.0
141
5.0
290
     0
  0
SCALE
  5
117
102
{ACAD_REACTORS
330
112
102
}
330
112
100
AcDbScale
 70
     0
300
1:8
140
1.0
141
8.0
290
     0
  0
SCALE
  5
118
102
{ACAD_REACTORS
330
112
102
}
330
112
100
AcDbScale
 70
     0
300
1:10
140
1.0
141
10.0
290
     0
  0
SCALE
  5
119
102
{ACAD_REACTORS
330
112
102
}
330
112
100
AcDbScale
 70
     0
300
1:16
140
1.0
141
16.0
290
     0
  0
SCALE
  5
11A
102
{ACAD_REACTORS
330
112
102
}
330
112
100
AcDbScale
 70
     0
300
1:20
140
1.0
141
20.0
290
     0
  0
SCALE
  5
11B
102
{ACAD_REACTORS
330
112
102
}
330
112
100
AcDbScale
 70
     0
300
1:30
140
1.0
141
30.0
290
     0
  0
SCALE
  5
11C
102
{ACAD_REACTORS
330
112
102
}
330
112
100
AcDbScale
 70
     0
300
1:40
140
1.0
141
40.0
290
     0
  0
SCALE
  5
11D
102
{ACAD_REACTORS
330
112
102
}
330
112
100
AcDbScale
 70
     0
300
1:50
140
1.0
141
50.0
290
     0
  0
SCALE
  5
11E
102
{ACAD_REACTORS
330
112
102
}
330
112
100
AcDbScale
 70
     0
300
1:100
140
1.0
141
100.0
290
     0
  0
SCALE
  5
11F
102
{ACAD_REACTORS
330
112
102
}
330
112
100
AcDbScale
 70
     0
300
2:1
140
2.0
141
1.0
290
     0
  0
SCALE
  5
120
102
{ACAD_REACTORS
330
112
102
}
330
112
100
AcDbScale
 70
     0
300
4:1
140
4.0
141
1.0
290
     0
  0
SCALE
  5
121
102
{ACAD_REACTORS
330
112
102
}
330
112
100
AcDbScale
 70
     0
300
8:1
140
8.0
141
1.0
290
     0
  0
SCALE
  5
122
102
{ACAD_REACTORS
330
112
102
}
330
112
100
AcDbScale
 70
     0
300
10:1
140
10.0
141
1.0
290
     0
  0
SCALE
  5
123
102
{ACAD_REACTORS
330
112
102
}
330
112
100
AcDbScale
 70
     0
300
100:1
140
100.0
141
1.0
290
     0
  0
SCALE
  5
124
102
{ACAD_REACTORS
330
112
102
}
330
112
100
AcDbScale
 70
     0
300
1/128" = 1'-0"
140
0.0078125
141
12.0
290
     0
  0
SCALE
  5
125
102
{ACAD_REACTORS
330
112
102
}
330
112
100
AcDbScale
 70
     0
300
1/64" = 1'-0"
140
0.015625
141
12.0
290
     0
  0
SCALE
  5
126
102
{ACAD_REACTORS
330
112
102
}
330
112
100
AcDbScale
 70
     0
300
1/32" = 1'-0"
140
0.03125
141
12.0
290
     0
  0
SCALE
  5
127
102
{ACAD_REACTORS
330
112
102
}
330
112
100
AcDbScale
 70
     0
300
1/16" = 1'-0"
140
0.0625
141
12.0
290
     0
  0
SCALE
  5
128
102
{ACAD_REACTORS
330
112
102
}
330
112
100
AcDbScale
 70
     0
300
3/32" = 1'-0"
140
0.09375
141
12.0
290
     0
  0
SCALE
  5
129
102
{ACAD_REACTORS
330
112
102
}
330
112
100
AcDbScale
 70
     0
300
1/8" = 1'-0"
140
0.125
141
12.0
290
     0
  0
SCALE
  5
12A
102
{ACAD_REACTORS
330
112
102
}
330
112
100
AcDbScale
 70
     0
300
3/16" = 1'-0"
140
0.1875
141
12.0
290
     0
  0
SCALE
  5
12B
102
{ACAD_REACTORS
330
112
102
}
330
112
100
AcDbScale
 70
     0
300
1/4" = 1'-0"
140
0.25
141
12.0
290
     0
  0
SCALE
  5
12C
102
{ACAD_REACTORS
330
112
102
}
330
112
100
AcDbScale
 70
     0
300
3/8" = 1'-0"
140
0.375
141
12.0
290
     0
  0
SCALE
  5
12D
102
{ACAD_REACTORS
330
112
102
}
330
112
100
AcDbScale
 70
     0
300
1/2" = 1'-0"
140
0.5
141
12.0
290
     0
  0
SCALE
  5
12E
102
{ACAD_REACTORS
330
112
102
}
330
112
100
AcDbScale
 70
     0
300
3/4" = 1'-0"
140
0.75
141
12.0
290
     0
  0
SCALE
  5
12F
102
{ACAD_REACTORS
330
112
102
}
330
112
100
AcDbScale
 70
     0
300
1" = 1'-0"
140
1.0
141
12.0
290
     0
  0
SCALE
  5
130
102
{ACAD_REACTORS
330
112
102
}
330
112
100
AcDbScale
 70
     0
300
1-1/2" = 1'-0"
140
1.5
141
12.0
290
     0
  0
SCALE
  5
131
102
{ACAD_REACTORS
330
112
102
}
330
112
100
AcDbScale
 70
     0
300
3" = 1'-0"
140
3.0
141
12.0
290
     0
  0
SCALE
  5
132
102
{ACAD_REACTORS
330
112
102
}
330
112
100
AcDbScale
 70
     0
300
6" = 1'-0"
140
6.0
141
12.0
290
     0
  0
SCALE
  5
133
102
{ACAD_REACTORS
330
112
102
}
330
112
100
AcDbScale
 70
     0
300
1'-0" = 1'-0"
140
12.0
141
12.0
290
     0
  0
VISUALSTYLE
  5
2F
102
{ACAD_REACTORS
330
2A
102
}
102
{ACAD_XDICTIONARY
360
5CB
102
}
330
2A
100
AcDbVisualStyle
  2
2dWireframe
 70
     4
 71
     0
 72
     2
 73
     0
 90
        0
 40
-0.6
 41
-30.0
 62
     5
 63
     7
 74
     1
 91
        4
 64
     7
 65
   257
 75
     1
175
     1
 42
1.0
 92
        0
 66
   257
 43
1.0
 76
     1
 77
     6
 78
     2
 67
     7
 79
     5
170
     0
171
     0
290
     0
174
     0
 93
        1
 44
0.0
173
     0
291
     0
 45
0.0
1001
ACAD
1000
AcDbSavedByObjectVersion
1070
     0
  0
VISUALSTYLE
  5
31
102
{ACAD_REACTORS
330
2A
102
}
102
{ACAD_XDICTIONARY
360
5CF
102
}
330
2A
100
AcDbVisualStyle
  2
3D Hidden
 70
     6
 71
     1
 72
     2
 73
     2
 90
        0
 40
-0.6
 41
-30.0
 62
     5
 63
     7
 74
     2
 91
        2
 64
     7
 65
   257
 75
     2
175
     1
 42
40.0
 92
        0
 66
   257
 43
1.0
 76
     1
 77
     6
 78
     2
 67
     7
 79
     3
170
     0
171
     0
290
     0
174
     0
 93
        1
 44
0.0
173
     0
291
     0
 45
0.0
1001
ACAD
1000
AcDbSavedByObjectVersion
1070
     0
  0
VISUALSTYLE
  5
30
102
{ACAD_REACTORS
330
2A
102
}
102
{ACAD_XDICTIONARY
360
5CD
102
}
330
2A
100
AcDbVisualStyle
  2
3dWireframe
 70
     5
 71
     0
 72
     2
 73
     0
 90
        0
 40
-0.6
 41
-30.0
 62
     5
 63
     7
 74
     1
 91
        4
 64
     7
 65
   257
 75
     1
175
     1
 42
1.0
 92
        0
 66
   257
 43
1.0
 76
     1
 77
     6
 78
     2
 67
     7
 79
     5
170
     0
171
     0
290
     0
174
     0
 93
        1
 44
0.0
173
     0
291
     0
 45
0.0
1001
ACAD
1000
AcDbSavedByObjectVersion
1070
     0
  0
VISUALSTYLE
  5
32
102
{ACAD_REACTORS
330
2A
102
}
102
{ACAD_XDICTIONARY
360
5D1
102
}
330
2A
100
AcDbVisualStyle
  2
Basic
 70
     7
 71
     1
 72
     0
 73
     1
 90
        0
 40
-0.6
 41
-30.0
 62
     5
 63
     7
 74
     0
 91
        4
 64
     7
 65
   257
 75
     1
175
     1
 42
1.0
 92
        8
 66
     7
 43
1.0
 76
     1
 77
     6
 78
     2
 67
     7
 79
     5
170
     0
171
     0
290
     0
174
     0
 93
        1
 44
0.0
173
     0
291
     1
 45
0.0
1001
ACAD
1000
AcDbSavedByObjectVersion
1070
     0
  0
VISUALSTYLE
  5
36
102
{ACAD_REACTORS
330
2A
102
}
102
{ACAD_XDICTIONARY
360
5D9
102
}
330
2A
100
AcDbVisualStyle
  2
Brighten
 70
    12
 71
     2
 72
     2
 73
     0
 90
        0
 40
-0.6
 41
-30.0
 62
     5
 63
     7
 74
     1
 91
        4
 64
     7
 65
   257
 75
     1
175
     1
 42
1.0
 92
        8
 66
     7
 43
1.0
 76
     1
 77
     6
 78
     2
 67
     7
 79
     5
170
     0
171
     0
290
     0
174
     0
 93
        1
 44
50.0
173
     0
291
     1
 45
0.0
1001
ACAD
1000
AcDbSavedByObjectVersion
1070
     0
  0
VISUALSTYLE
  5
3A
102
{ACAD_REACTORS
330
2A
102
}
102
{ACAD_XDICTIONARY
360
5E1
102
}
330
2A
100
AcDbVisualStyle
  2
ColorChange
 70
    16
 71
     2
 72
     2
 73
     3
 90
        0
 40
-0.6
 41
-30.0
 62
     5
 63
     8
 74
     1
 91
        4
 64
     7
 65
   257
 75
     1
175
     1
 42
1.0
 92
        8
 66
     8
 43
1.0
 76
     1
 77
     6
 78
     2
 67
     7
 79
     5
170
     0
171
     0
290
     0
174
     0
 93
        1
 44
0.0
173
     0
291
     1
 45
0.0
1001
ACAD
1000
AcDbSavedByObjectVersion
1070
     0
  0
VISUALSTYLE
  5
34
102
{ACAD_REACTORS
330
2A
102
}
102
{ACAD_XDICTIONARY
360
5D5
102
}
330
2A
100
AcDbVisualStyle
  2
Conceptual
 70
     9
 71
     3
 72
     2
 73
     0
 90
        0
 40
-0.6
 41
-30.0
 62
     5
 63
     7
 74
     2
 91
        2
 64
     7
 65
   257
 75
     1
175
     1
 42
40.0
 92
        8
 66
     7
 43
1.0
 76
     1
 77
     6
 78
     2
 67
     7
 79
     3
170
     0
171
     0
290
     0
174
     0
 93
        1
 44
0.0
173
     0
291
     0
 45
0.0
1001
ACAD
1000
AcDbSavedByObjectVersion
1070
     0
  0
VISUALSTYLE
  5
35
102
{ACAD_REACTORS
330
2A
102
}
102
{ACAD_XDICTIONARY
360
5D7
102
}
330
2A
100
AcDbVisualStyle
  2
Dim
 70
    11
 71
     2
 72
     2
 73
     0
 90
        0
 40
-0.6
 41
-30.0
 62
     5
 63
     7
 74
     1
 91
        4
 64
     7
 65
   257
 75
     1
175
     1
 42
1.0
 92
        8
 66
     7
 43
1.0
 76
     1
 77
     6
 78
     2
 67
     7
 79
     5
170
     0
171
     0
290
     0
174
     0
 93
        1
 44
-50.0
173
     0
291
     1
 45
0.0
1001
ACAD
1000
AcDbSavedByObjectVersion
1070
     0
  0
VISUALSTYLE
  5
39
102
{ACAD_REACTORS
330
2A
102
}
102
{ACAD_XDICTIONARY
360
5DF
102
}
330
2A
100
AcDbVisualStyle
  2
Facepattern
 70
    15
 71
     2
 72
     2
 73
     0
 90
        0
 40
-0.6
 41
-30.0
 62
     5
 63
     7
 74
     1
 91
        4
 64
     7
 65
   257
 75
     1
175
     1
 42
1.0
 92
        8
 66
     7
 43
1.0
 76
     1
 77
     6
 78
     2
 67
     7
 79
     5
170
     0
171
     0
290
     0
174
     0
 93
        1
 44
0.0
173
     0
291
     1
 45
0.0
1001
ACAD
1000
AcDbSavedByObjectVersion
1070
     0
  0
VISUALSTYLE
  5
2B
102
{ACAD_REACTORS
330
2A
102
}
102
{ACAD_XDICTIONARY
360
5C3
102
}
330
2A
100
AcDbVisualStyle
  2
Flat
 70
     0
 71
     2
 72
     1
 73
     1
 90
        2
 40
-0.6
 41
30.0
 62
     5
 63
     7
 74
     0
 91
        4
 64
     7
 65
   257
 75
     1
175
     1
 42
1.0
 92
        8
 66
     7
 43
1.0
 76
     1
 77
     6
 78
     2
 67
     7
 79
     5
170
     0
171
     0
290
     0
174
     0
 93
       13
 44
0.0
173
     0
291
     1
 45
0.0
1001
ACAD
1000
AcDbSavedByObjectVersion
1070
     0
  0
VISUALSTYLE
  5
2C
102
{ACAD_REACTORS
330
2A
102
}
102
{ACAD_XDICTIONARY
360
5C5
102
}
330
2A
100
AcDbVisualStyle
  2
FlatWithEdges
 70
     1
 71
     2
 72
     1
 73
     1
 90
        2
 40
-0.6
 41
30.0
 62
     5
 63
     7
 74
     1
 91
        4
 64
     7
 65
   257
 75
     1
175
     1
 42
1.0
 92
        0
 66
   257
 43
1.0
 76
     1
 77
     6
 78
     2
 67
     7
 79
     5
170
     0
171
     0
290
     0
174
     0
 93
       13
 44
0.0
173
     0
291
     1
 45
0.0
1001
ACAD
1000
AcDbSavedByObjectVersion
1070
     0
  0
VISUALSTYLE
  5
2D
102
{ACAD_REACTORS
330
2A
102
}
102
{ACAD_XDICTIONARY
360
5C7
102
}
330
2A
100
AcDbVisualStyle
  2
Gouraud
 70
     2
 71
     2
 72
     2
 73
     1
 90
        2
 40
-0.6
 41
30.0
 62
     5
 63
     7
 74
     0
 91
        4
 64
     7
 65
   257
 75
     1
175
     1
 42
1.0
 92
        0
 66
     7
 43
1.0
 76
     1
 77
     6
 78
     2
 67
     7
 79
     5
170
     0
171
     0
290
     0
174
     0
 93
       13
 44
0.0
173
     0
291
     1
 45
0.0
1001
ACAD
1000
AcDbSavedByObjectVersion
1070
     0
  0
VISUALSTYLE
  5
2E
102
{ACAD_REACTORS
330
2A
102
}
102
{ACAD_XDICTIONARY
360
5C9
102
}
330
2A
100
AcDbVisualStyle
  2
GouraudWithEdges
 70
     3
 71
     2
 72
     2
 73
     1
 90
        2
 40
-0.6
 41
30.0
 62
     5
 63
     7
 74
     1
 91
        4
 64
     7
 65
   257
 75
     1
175
     1
 42
1.0
 92
        0
 66
   257
 43
1.0
 76
     1
 77
     6
 78
     2
 67
     7
 79
     5
170
     0
171
     0
290
     0
174
     0
 93
       13
 44
0.0
173
     0
291
     1
 45
0.0
1001
ACAD
1000
AcDbSavedByObjectVersion
1070
     0
  0
VISUALSTYLE
  5
38
102
{ACAD_REACTORS
330
2A
102
}
102
{ACAD_XDICTIONARY
360
5DD
102
}
330
2A
100
AcDbVisualStyle
  2
Linepattern
 70
    14
 71
     2
 72
     2
 73
     0
 90
        0
 40
-0.6
 41
-30.0
 62
     5
 63
     7
 74
     1
 91
        4
 64
     7
 65
   257
 75
     7
175
     7
 42
1.0
 92
        8
 66
     7
 43
1.0
 76
     1
 77
     6
 78
     2
 67
     7
 79
     5
170
     0
171
     0
290
     0
174
     0
 93
        1
 44
0.0
173
     0
291
     1
 45
0.0
1001
ACAD
1000
AcDbSavedByObjectVersion
1070
     0
  0
VISUALSTYLE
  5
33
102
{ACAD_REACTORS
330
2A
102
}
102
{ACAD_XDICTIONARY
360
5D3
102
}
330
2A
100
AcDbVisualStyle
  2
Realistic
 70
     8
 71
     2
 72
     2
 73
     0
 90
        0
 40
-0.6
 41
-30.0
 62
     5
 63
     7
 74
     1
 91
        0
 64
     7
 65
   257
 75
     1
175
     1
 42
1.0
 92
        8
 66
     8
 43
1.0
 76
     1
 77
     6
 78
     2
 67
     7
 79
     5
170
     0
171
     0
290
     0
174
     0
 93
       13
 44
0.0
173
     0
291
     0
 45
0.0
1001
ACAD
1000
AcDbSavedByObjectVersion
1070
     0
  0
VISUALSTYLE
  5
37
102
{ACAD_REACTORS
330
2A
102
}
102
{ACAD_XDICTIONARY
360
5DB
102
}
330
2A
100
AcDbVisualStyle
  2
Thicken
 70
    13
 71
     2
 72
     2
 73
     0
 90
        0
 40
-0.6
 41
-30.0
 62
     5
 63
     7
 74
     1
 91
        4
 64
     7
 65
   257
 75
     1
175
     1
 42
1.0
 92
       12
 66
     7
 43
1.0
 76
     1
 77
     6
 78
     2
 67
     7
 79
     5
170
     0
171
     0
290
     0
174
     0
 93
        1
 44
0.0
173
     0
291
     1
 45
0.0
1001
ACAD
1000
AcDbSavedByObjectVersion
1070
     0
  0
DICTIONARYVAR
  5
5C0
102
{ACAD_REACTORS
330
5BB
102
}
330
5BB
100
DictionaryVariables
280
     0
  1
1:1
  0
DICTIONARYVAR
  5
5C1
102
{ACAD_REACTORS
330
5BB
102
}
330
5BB
100
DictionaryVariables
280
     0
  1
2
  0
DICTIONARYVAR
  5
5C2
102
{ACAD_REACTORS
330
5BB
102
}
330
5BB
100
DictionaryVariables
280
     0
  1
1
  0
DICTIONARYVAR
  5
5BF
102
{ACAD_REACTORS
330
5BB
102
}
330
5BB
100
DictionaryVariables
280
     0
  1
80.000000
  0
DICTIONARYVAR
  5
5BE
102
{ACAD_REACTORS
330
5BB
102
}
330
5BB
100
DictionaryVariables
280
     0
  1
5.000000
  0
DICTIONARY
  5
5E5
330
3D
100
AcDbDictionary
280
     1
281
     1
  3
ACAD_XREC_ROUNDTRIP
360
5E6
  0
DICTIONARY
  5
5E3
330
3C
100
AcDbDictionary
280
     1
281
     1
  3
ACAD_XREC_ROUNDTRIP
360
5E4
  0
DICTIONARY
  5
5E7
330
3E
100
AcDbDictionary
280
     1
281
     1
  3
ACAD_XREC_ROUNDTRIP
360
5E8
  0
DICTIONARY
  5
5CB
330
2F
100
AcDbDictionary
280
     1
281
     1
  3
ACAD_XREC_ROUNDTRIP
360
5CC
  0
DICTIONARY
  5
5CF
330
31
100
AcDbDictionary
280
     1
281
     1
  3
ACAD_XREC_ROUNDTRIP
360
5D0
  0
DICTIONARY
  5
5CD
330
30
100
AcDbDictionary
280
     1
281
     1
  3
ACAD_XREC_ROUNDTRIP
360
5CE
  0
DICTIONARY
  5
5D1
330
32
100
AcDbDictionary
280
     1
281
     1
  3
ACAD_XREC_ROUNDTRIP
360
5D2
  0
DICTIONARY
  5
5D9
330
36
100
AcDbDictionary
280
     1
281
     1
  3
ACAD_XREC_ROUNDTRIP
360
5DA
  0
DICTIONARY
  5
5E1
330
3A
100
AcDbDictionary
280
     1
281
     1
  3
ACAD_XREC_ROUNDTRIP
360
5E2
  0
DICTIONARY
  5
5D5
330
34
100
AcDbDictionary
280
     1
281
     1
  3
ACAD_XREC_ROUNDTRIP
360
5D6
  0
DICTIONARY
  5
5D7
330
35
100
AcDbDictionary
280
     1
281
     1
  3
ACAD_XREC_ROUNDTRIP
360
5D8
  0
DICTIONARY
  5
5DF
330
39
100
AcDbDictionary
280
     1
281
     1
  3
ACAD_XREC_ROUNDTRIP
360
5E0
  0
DICTIONARY
  5
5C3
330
2B
100
AcDbDictionary
280
     1
281
     1
  3
ACAD_XREC_ROUNDTRIP
360
5C4
  0
DICTIONARY
  5
5C5
330
2C
100
AcDbDictionary
280
     1
281
     1
  3
ACAD_XREC_ROUNDTRIP
360
5C6
  0
DICTIONARY
  5
5C7
330
2D
100
AcDbDictionary
280
     1
281
     1
  3
ACAD_XREC_ROUNDTRIP
360
5C8
  0
DICTIONARY
  5
5C9
330
2E
100
AcDbDictionary
280
     1
281
     1
  3
ACAD_XREC_ROUNDTRIP
360
5CA
  0
DICTIONARY
  5
5DD
330
38
100
AcDbDictionary
280
     1
281
     1
  3
ACAD_XREC_ROUNDTRIP
360
5DE
  0
DICTIONARY
  5
5D3
330
33
100
AcDbDictionary
280
     1
281
     1
  3
ACAD_XREC_ROUNDTRIP
360
5D4
  0
DICTIONARY
  5
5DB
330
37
100
AcDbDictionary
280
     1
281
     1
  3
ACAD_XREC_ROUNDTRIP
360
5DC
  0
XRECORD
  5
5E6
102
{ACAD_REACTORS
330
5E5
102
}
330
5E5
100
AcDbXrecord
280
     1
102
MATERIAL
148
0.0
149
0.0
149
0.0
 93
        0
 94
      127
282
     0
 72
     1
 77
     1
171
     1
175
     1
179
     1
273
     0
  0
XRECORD
  5
5E4
102
{ACAD_REACTORS
330
5E3
102
}
330
5E3
100
AcDbXrecord
280
     1
102
MATERIAL
148
0.0
149
0.0
149
0.0
 93
        0
 94
      127
282
     0
 72
     1
 77
     1
171
     1
175
     1
179
     1
273
     0
  0
XRECORD
  5
5E8
102
{ACAD_REACTORS
330
5E7
102
}
330
5E7
100
AcDbXrecord
280
     1
102
MATERIAL
148
0.0
149
0.0
149
0.0
 93
        0
 94
      127
282
     0
 72
     1
 77
     1
171
     1
175
     1
179
     1
273
     0
  0
XRECORD
  5
5CC
102
{ACAD_REACTORS
330
5CB
102
}
330
5CB
100
AcDbXrecord
280
     1
102
RTVSPropertyOp0
 70
     1
102
RTVSPropertyOp1
 70
     1
102
RTVSPropertyOp2
 70
     1
102
RTVSPropertyOp3
 70
     1
102
RTVSPropertyOp4
 70
     1
102
RTVSPropertyOp5
 70
     1
102
RTVSPropertyOp6
 70
     1
102
RTVSPropertyOp7
 70
     1
102
RTVSPropertyOp8
 70
     1
102
RTVSPropertyOp9
 70
     1
102
RTVSPropertyOp10
 70
     1
102
RTVSPropertyOp11
 70
     1
102
RTVSPropertyOp12
 70
     1
102
RTVSPropertyOp13
 70
     1
102
RTVSPropertyOp14
 70
     1
102
RTVSPropertyOp15
 70
     1
102
RTVSPropertyOp16
 70
     1
102
RTVSPropertyOp17
 70
     1
102
RTVSPropertyOp18
 70
     1
102
RTVSPropertyOp19
 70
     1
102
RTVSPropertyOp20
 70
     1
102
RTVSPropertyOp21
 70
     1
102
RTVSPropertyOp22
 70
     1
102
RTVSPropertyOp23
 70
     1
102
RTVSPropertyOp24
 70
     1
102
RTVSPropertyOp25
 70
     1
102
RTVSPropertyOp26
 70
     1
102
RTVSPropertyOp27
 70
     1
  0
XRECORD
  5
5D0
102
{ACAD_REACTORS
330
5CF
102
}
330
5CF
100
AcDbXrecord
280
     1
102
RTVSPropertyOp0
 70
     1
102
RTVSPropertyOp1
 70
     1
102
RTVSPropertyOp2
 70
     1
102
RTVSPropertyOp3
 70
     1
102
RTVSPropertyOp4
 70
     1
102
RTVSPropertyOp5
 70
     1
102
RTVSPropertyOp6
 70
     1
102
RTVSPropertyOp7
 70
     1
102
RTVSPropertyOp8
 70
     1
102
RTVSPropertyOp9
 70
     1
102
RTVSPropertyOp10
 70
     1
102
RTVSPropertyOp11
 70
     1
102
RTVSPropertyOp12
 70
     1
102
RTVSPropertyOp13
 70
     1
102
RTVSPropertyOp14
 70
     1
102
RTVSPropertyOp15
 70
     1
102
RTVSPropertyOp16
 70
     1
102
RTVSPropertyOp17
 70
     1
102
RTVSPropertyOp18
 70
     1
102
RTVSPropertyOp19
 70
     1
102
RTVSPropertyOp20
 70
     1
102
RTVSPropertyOp21
 70
     1
102
RTVSPropertyOp22
 70
     1
102
RTVSPropertyOp23
 70
     1
102
RTVSPropertyOp24
 70
     1
102
RTVSPropertyOp25
 70
     1
102
RTVSPropertyOp26
 70
     1
102
RTVSPropertyOp27
 70
     1
  0
XRECORD
  5
5CE
102
{ACAD_REACTORS
330
5CD
102
}
330
5CD
100
AcDbXrecord
280
     1
102
RTVSPropertyOp0
 70
     1
102
RTVSPropertyOp1
 70
     1
102
RTVSPropertyOp2
 70
     1
102
RTVSPropertyOp3
 70
     1
102
RTVSPropertyOp4
 70
     1
102
RTVSPropertyOp5
 70
     1
102
RTVSPropertyOp6
 70
     1
102
RTVSPropertyOp7
 70
     1
102
RTVSPropertyOp8
 70
     1
102
RTVSPropertyOp9
 70
     1
102
RTVSPropertyOp10
 70
     1
102
RTVSPropertyOp11
 70
     1
102
RTVSPropertyOp12
 70
     1
102
RTVSPropertyOp13
 70
     1
102
RTVSPropertyOp14
 70
     1
102
RTVSPropertyOp15
 70
     1
102
RTVSPropertyOp16
 70
     1
102
RTVSPropertyOp17
 70
     1
102
RTVSPropertyOp18
 70
     1
102
RTVSPropertyOp19
 70
     1
102
RTVSPropertyOp20
 70
     1
102
RTVSPropertyOp21
 70
     1
102
RTVSPropertyOp22
 70
     1
102
RTVSPropertyOp23
 70
     1
102
RTVSPropertyOp24
 70
     1
102
RTVSPropertyOp25
 70
     1
102
RTVSPropertyOp26
 70
     1
102
RTVSPropertyOp27
 70
     1
  0
XRECORD
  5
5D2
102
{ACAD_REACTORS
330
5D1
102
}
330
5D1
100
AcDbXrecord
280
     1
102
RTVSPropertyOp0
 70
     1
102
RTVSPropertyOp1
 70
     1
102
RTVSPropertyOp2
 70
     1
102
RTVSPropertyOp3
 70
     1
102
RTVSPropertyOp4
 70
     1
102
RTVSPropertyOp5
 70
     1
102
RTVSPropertyOp6
 70
     1
102
RTVSPropertyOp7
 70
     1
102
RTVSPropertyOp8
 70
     1
102
RTVSPropertyOp9
 70
     1
102
RTVSPropertyOp10
 70
     1
102
RTVSPropertyOp11
 70
     1
102
RTVSPropertyOp12
 70
     1
102
RTVSPropertyOp13
 70
     1
102
RTVSPropertyOp14
 70
     1
102
RTVSPropertyOp15
 70
     1
102
RTVSPropertyOp16
 70
     1
102
RTVSPropertyOp17
 70
     1
102
RTVSPropertyOp18
 70
     1
102
RTVSPropertyOp19
 70
     1
102
RTVSPropertyOp20
 70
     1
102
RTVSPropertyOp21
 70
     1
102
RTVSPropertyOp22
 70
     1
102
RTVSPropertyOp23
 70
     1
102
RTVSPropertyOp24
 70
     1
102
RTVSPropertyOp25
 70
     1
102
RTVSPropertyOp26
 70
     1
102
RTVSPropertyOp27
 70
     1
  0
XRECORD
  5
5DA
102
{ACAD_REACTORS
330
5D9
102
}
330
5D9
100
AcDbXrecord
280
     1
102
RTVSPropertyOp0
 70
     1
102
RTVSPropertyOp1
 70
     1
102
RTVSPropertyOp2
 70
     1
102
RTVSPropertyOp3
 70
     1
102
RTVSPropertyOp4
 70
     1
102
RTVSPropertyOp5
 70
     1
102
RTVSPropertyOp6
 70
     1
102
RTVSPropertyOp7
 70
     1
102
RTVSPropertyOp8
 70
     1
102
RTVSPropertyOp9
 70
     1
102
RTVSPropertyOp10
 70
     1
102
RTVSPropertyOp11
 70
     1
102
RTVSPropertyOp12
 70
     1
102
RTVSPropertyOp13
 70
     1
102
RTVSPropertyOp14
 70
     1
102
RTVSPropertyOp15
 70
     1
102
RTVSPropertyOp16
 70
     1
102
RTVSPropertyOp17
 70
     1
102
RTVSPropertyOp18
 70
     1
102
RTVSPropertyOp19
 70
     1
102
RTVSPropertyOp20
 70
     1
102
RTVSPropertyOp21
 70
     1
102
RTVSPropertyOp22
 70
     1
102
RTVSPropertyOp23
 70
     1
102
RTVSPropertyOp24
 70
     1
102
RTVSPropertyOp25
 70
     1
102
RTVSPropertyOp26
 70
     1
102
RTVSPropertyOp27
 70
     1
  0
XRECORD
  5
5E2
102
{ACAD_REACTORS
330
5E1
102
}
330
5E1
100
AcDbXrecord
280
     1
102
RTVSPropertyOp0
 70
     1
102
RTVSPropertyOp1
 70
     1
102
RTVSPropertyOp2
 70
     1
102
RTVSPropertyOp3
 70
     1
102
RTVSPropertyOp4
 70
     1
102
RTVSPropertyOp5
 70
     1
102
RTVSPropertyOp6
 70
     1
102
RTVSPropertyOp7
 70
     1
102
RTVSPropertyOp8
 70
     1
102
RTVSPropertyOp9
 70
     1
102
RTVSPropertyOp10
 70
     1
102
RTVSPropertyOp11
 70
     1
102
RTVSPropertyOp12
 70
     1
102
RTVSPropertyOp13
 70
     1
102
RTVSPropertyOp14
 70
     1
102
RTVSPropertyOp15
 70
     1
102
RTVSPropertyOp16
 70
     1
102
RTVSPropertyOp17
 70
     1
102
RTVSPropertyOp18
 70
     1
102
RTVSPropertyOp19
 70
     1
102
RTVSPropertyOp20
 70
     1
102
RTVSPropertyOp21
 70
     1
102
RTVSPropertyOp22
 70
     1
102
RTVSPropertyOp23
 70
     1
102
RTVSPropertyOp24
 70
     1
102
RTVSPropertyOp25
 70
     1
102
RTVSPropertyOp26
 70
     1
102
RTVSPropertyOp27
 70
     1
  0
XRECORD
  5
5D6
102
{ACAD_REACTORS
330
5D5
102
}
330
5D5
100
AcDbXrecord
280
     1
102
RTVSPropertyOp0
 70
     1
102
RTVSPropertyOp1
 70
     1
102
RTVSPropertyOp2
 70
     1
102
RTVSPropertyOp3
 70
     1
102
RTVSPropertyOp4
 70
     1
102
RTVSPropertyOp5
 70
     1
102
RTVSPropertyOp6
 70
     1
102
RTVSPropertyOp7
 70
     1
102
RTVSPropertyOp8
 70
     1
102
RTVSPropertyOp9
 70
     1
102
RTVSPropertyOp10
 70
     1
102
RTVSPropertyOp11
 70
     1
102
RTVSPropertyOp12
 70
     1
102
RTVSPropertyOp13
 70
     1
102
RTVSPropertyOp14
 70
     1
102
RTVSPropertyOp15
 70
     1
102
RTVSPropertyOp16
 70
     1
102
RTVSPropertyOp17
 70
     1
102
RTVSPropertyOp18
 70
     1
102
RTVSPropertyOp19
 70
     1
102
RTVSPropertyOp20
 70
     1
102
RTVSPropertyOp21
 70
     1
102
RTVSPropertyOp22
 70
     1
102
RTVSPropertyOp23
 70
     1
102
RTVSPropertyOp24
 70
     1
102
RTVSPropertyOp25
 70
     1
102
RTVSPropertyOp26
 70
     1
102
RTVSPropertyOp27
 70
     1
  0
XRECORD
  5
5D8
102
{ACAD_REACTORS
330
5D7
102
}
330
5D7
100
AcDbXrecord
280
     1
102
RTVSPropertyOp0
 70
     1
102
RTVSPropertyOp1
 70
     1
102
RTVSPropertyOp2
 70
     1
102
RTVSPropertyOp3
 70
     1
102
RTVSPropertyOp4
 70
     1
102
RTVSPropertyOp5
 70
     1
102
RTVSPropertyOp6
 70
     1
102
RTVSPropertyOp7
 70
     1
102
RTVSPropertyOp8
 70
     1
102
RTVSPropertyOp9
 70
     1
102
RTVSPropertyOp10
 70
     1
102
RTVSPropertyOp11
 70
     1
102
RTVSPropertyOp12
 70
     1
102
RTVSPropertyOp13
 70
     1
102
RTVSPropertyOp14
 70
     1
102
RTVSPropertyOp15
 70
     1
102
RTVSPropertyOp16
 70
     1
102
RTVSPropertyOp17
 70
     1
102
RTVSPropertyOp18
 70
     1
102
RTVSPropertyOp19
 70
     1
102
RTVSPropertyOp20
 70
     1
102
RTVSPropertyOp21
 70
     1
102
RTVSPropertyOp22
 70
     1
102
RTVSPropertyOp23
 70
     1
102
RTVSPropertyOp24
 70
     1
102
RTVSPropertyOp25
 70
     1
102
RTVSPropertyOp26
 70
     1
102
RTVSPropertyOp27
 70
     1
  0
XRECORD
  5
5E0
102
{ACAD_REACTORS
330
5DF
102
}
330
5DF
100
AcDbXrecord
280
     1
102
RTVSPropertyOp0
 70
     1
102
RTVSPropertyOp1
 70
     1
102
RTVSPropertyOp2
 70
     1
102
RTVSPropertyOp3
 70
     1
102
RTVSPropertyOp4
 70
     1
102
RTVSPropertyOp5
 70
     1
102
RTVSPropertyOp6
 70
     1
102
RTVSPropertyOp7
 70
     1
102
RTVSPropertyOp8
 70
     1
102
RTVSPropertyOp9
 70
     1
102
RTVSPropertyOp10
 70
     1
102
RTVSPropertyOp11
 70
     1
102
RTVSPropertyOp12
 70
     1
102
RTVSPropertyOp13
 70
     1
102
RTVSPropertyOp14
 70
     1
102
RTVSPropertyOp15
 70
     1
102
RTVSPropertyOp16
 70
     1
102
RTVSPropertyOp17
 70
     1
102
RTVSPropertyOp18
 70
     1
102
RTVSPropertyOp19
 70
     1
102
RTVSPropertyOp20
 70
     1
102
RTVSPropertyOp21
 70
     1
102
RTVSPropertyOp22
 70
     1
102
RTVSPropertyOp23
 70
     1
102
RTVSPropertyOp24
 70
     1
102
RTVSPropertyOp25
 70
     1
102
RTVSPropertyOp26
 70
     1
102
RTVSPropertyOp27
 70
     1
  0
XRECORD
  5
5C4
102
{ACAD_REACTORS
330
5C3
102
}
330
5C3
100
AcDbXrecord
280
     1
102
RTVSPropertyOp0
 70
     1
102
RTVSPropertyOp1
 70
     1
102
RTVSPropertyOp2
 70
     1
102
RTVSPropertyOp3
 70
     1
102
RTVSPropertyOp4
 70
     1
102
RTVSPropertyOp5
 70
     1
102
RTVSPropertyOp6
 70
     1
102
RTVSPropertyOp7
 70
     1
102
RTVSPropertyOp8
 70
     1
102
RTVSPropertyOp9
 70
     1
102
RTVSPropertyOp10
 70
     1
102
RTVSPropertyOp11
 70
     1
102
RTVSPropertyOp12
 70
     1
102
RTVSPropertyOp13
 70
     1
102
RTVSPropertyOp14
 70
     1
102
RTVSPropertyOp15
 70
     1
102
RTVSPropertyOp16
 70
     1
102
RTVSPropertyOp17
 70
     1
102
RTVSPropertyOp18
 70
     1
102
RTVSPropertyOp19
 70
     1
102
RTVSPropertyOp20
 70
     1
102
RTVSPropertyOp21
 70
     1
102
RTVSPropertyOp22
 70
     1
102
RTVSPropertyOp23
 70
     1
102
RTVSPropertyOp24
 70
     1
102
RTVSPropertyOp25
 70
     1
102
RTVSPropertyOp26
 70
     1
102
RTVSPropertyOp27
 70
     1
  0
XRECORD
  5
5C6
102
{ACAD_REACTORS
330
5C5
102
}
330
5C5
100
AcDbXrecord
280
     1
102
RTVSPropertyOp0
 70
     1
102
RTVSPropertyOp1
 70
     1
102
RTVSPropertyOp2
 70
     1
102
RTVSPropertyOp3
 70
     1
102
RTVSPropertyOp4
 70
     1
102
RTVSPropertyOp5
 70
     1
102
RTVSPropertyOp6
 70
     1
102
RTVSPropertyOp7
 70
     1
102
RTVSPropertyOp8
 70
     1
102
RTVSPropertyOp9
 70
     1
102
RTVSPropertyOp10
 70
     1
102
RTVSPropertyOp11
 70
     1
102
RTVSPropertyOp12
 70
     1
102
RTVSPropertyOp13
 70
     1
102
RTVSPropertyOp14
 70
     1
102
RTVSPropertyOp15
 70
     1
102
RTVSPropertyOp16
 70
     1
102
RTVSPropertyOp17
 70
     1
102
RTVSPropertyOp18
 70
     1
102
RTVSPropertyOp19
 70
     1
102
RTVSPropertyOp20
 70
     1
102
RTVSPropertyOp21
 70
     1
102
RTVSPropertyOp22
 70
     1
102
RTVSPropertyOp23
 70
     1
102
RTVSPropertyOp24
 70
     1
102
RTVSPropertyOp25
 70
     1
102
RTVSPropertyOp26
 70
     1
102
RTVSPropertyOp27
 70
     1
  0
XRECORD
  5
5C8
102
{ACAD_REACTORS
330
5C7
102
}
330
5C7
100
AcDbXrecord
280
     1
102
RTVSPropertyOp0
 70
     1
102
RTVSPropertyOp1
 70
     1
102
RTVSPropertyOp2
 70
     1
102
RTVSPropertyOp3
 70
     1
102
RTVSPropertyOp4
 70
     1
102
RTVSPropertyOp5
 70
     1
102
RTVSPropertyOp6
 70
     1
102
RTVSPropertyOp7
 70
     1
102
RTVSPropertyOp8
 70
     1
102
RTVSPropertyOp9
 70
     1
102
RTVSPropertyOp10
 70
     1
102
RTVSPropertyOp11
 70
     1
102
RTVSPropertyOp12
 70
     1
102
RTVSPropertyOp13
 70
     1
102
RTVSPropertyOp14
 70
     1
102
RTVSPropertyOp15
 70
     1
102
RTVSPropertyOp16
 70
     1
102
RTVSPropertyOp17
 70
     1
102
RTVSPropertyOp18
 70
     1
102
RTVSPropertyOp19
 70
     1
102
RTVSPropertyOp20
 70
     1
102
RTVSPropertyOp21
 70
     1
102
RTVSPropertyOp22
 70
     1
102
RTVSPropertyOp23
 70
     1
102
RTVSPropertyOp24
 70
     1
102
RTVSPropertyOp25
 70
     1
102
RTVSPropertyOp26
 70
     1
102
RTVSPropertyOp27
 70
     1
  0
XRECORD
  5
5CA
102
{ACAD_REACTORS
330
5C9
102
}
330
5C9
100
AcDbXrecord
280
     1
102
RTVSPropertyOp0
 70
     1
102
RTVSPropertyOp1
 70
     1
102
RTVSPropertyOp2
 70
     1
102
RTVSPropertyOp3
 70
     1
102
RTVSPropertyOp4
 70
     1
102
RTVSPropertyOp5
 70
     1
102
RTVSPropertyOp6
 70
     1
102
RTVSPropertyOp7
 70
     1
102
RTVSPropertyOp8
 70
     1
102
RTVSPropertyOp9
 70
     1
102
RTVSPropertyOp10
 70
     1
102
RTVSPropertyOp11
 70
     1
102
RTVSPropertyOp12
 70
     1
102
RTVSPropertyOp13
 70
     1
102
RTVSPropertyOp14
 70
     1
102
RTVSPropertyOp15
 70
     1
102
RTVSPropertyOp16
 70
     1
102
RTVSPropertyOp17
 70
     1
102
RTVSPropertyOp18
 70
     1
102
RTVSPropertyOp19
 70
     1
102
RTVSPropertyOp20
 70
     1
102
RTVSPropertyOp21
 70
     1
102
RTVSPropertyOp22
 70
     1
102
RTVSPropertyOp23
 70
     1
102
RTVSPropertyOp24
 70
     1
102
RTVSPropertyOp25
 70
     1
102
RTVSPropertyOp26
 70
     1
102
RTVSPropertyOp27
 70
     1
  0
XRECORD
  5
5DE
102
{ACAD_REACTORS
330
5DD
102
}
330
5DD
100
AcDbXrecord
280
     1
102
RTVSPropertyOp0
 70
     1
102
RTVSPropertyOp1
 70
     1
102
RTVSPropertyOp2
 70
     1
102
RTVSPropertyOp3
 70
     1
102
RTVSPropertyOp4
 70
     1
102
RTVSPropertyOp5
 70
     1
102
RTVSPropertyOp6
 70
     1
102
RTVSPropertyOp7
 70
     1
102
RTVSPropertyOp8
 70
     1
102
RTVSPropertyOp9
 70
     1
102
RTVSPropertyOp10
 70
     1
102
RTVSPropertyOp11
 70
     1
102
RTVSPropertyOp12
 70
     1
102
RTVSPropertyOp13
 70
     1
102
RTVSPropertyOp14
 70
     1
102
RTVSPropertyOp15
 70
     1
102
RTVSPropertyOp16
 70
     1
102
RTVSPropertyOp17
 70
     1
102
RTVSPropertyOp18
 70
     1
102
RTVSPropertyOp19
 70
     1
102
RTVSPropertyOp20
 70
     1
102
RTVSPropertyOp21
 70
     1
102
RTVSPropertyOp22
 70
     1
102
RTVSPropertyOp23
 70
     1
102
RTVSPropertyOp24
 70
     1
102
RTVSPropertyOp25
 70
     1
102
RTVSPropertyOp26
 70
     1
102
RTVSPropertyOp27
 70
     1
  0
XRECORD
  5
5D4
102
{ACAD_REACTORS
330
5D3
102
}
330
5D3
100
AcDbXrecord
280
     1
102
RTVSPropertyOp0
 70
     1
102
RTVSPropertyOp1
 70
     1
102
RTVSPropertyOp2
 70
     1
102
RTVSPropertyOp3
 70
     1
102
RTVSPropertyOp4
 70
     1
102
RTVSPropertyOp5
 70
     1
102
RTVSPropertyOp6
 70
     1
102
RTVSPropertyOp7
 70
     1
102
RTVSPropertyOp8
 70
     1
102
RTVSPropertyOp9
 70
     1
102
RTVSPropertyOp10
 70
     1
102
RTVSPropertyOp11
 70
     1
102
RTVSPropertyOp12
 70
     1
102
RTVSPropertyOp13
 70
     1
102
RTVSPropertyOp14
 70
     1
102
RTVSPropertyOp15
 70
     1
102
RTVSPropertyOp16
 70
     1
102
RTVSPropertyOp17
 70
     1
102
RTVSPropertyOp18
 70
     1
102
RTVSPropertyOp19
 70
     1
102
RTVSPropertyOp20
 70
     1
102
RTVSPropertyOp21
 70
     1
102
RTVSPropertyOp22
 70
     1
102
RTVSPropertyOp23
 70
     1
102
RTVSPropertyOp24
 70
     1
102
RTVSPropertyOp25
 70
     1
102
RTVSPropertyOp26
 70
     1
102
RTVSPropertyOp27
 70
     1
  0
XRECORD
  5
5DC
102
{ACAD_REACTORS
330
5DB
102
}
330
5DB
100
AcDbXrecord
280
     1
102
RTVSPropertyOp0
 70
     1
102
RTVSPropertyOp1
 70
     1
102
RTVSPropertyOp2
 70
     1
102
RTVSPropertyOp3
 70
     1
102
RTVSPropertyOp4
 70
     1
102
RTVSPropertyOp5
 70
     1
102
RTVSPropertyOp6
 70
     1
102
RTVSPropertyOp7
 70
     1
102
RTVSPropertyOp8
 70
     1
102
RTVSPropertyOp9
 70
     1
102
RTVSPropertyOp10
 70
     1
102
RTVSPropertyOp11
 70
     1
102
RTVSPropertyOp12
 70
     1
102
RTVSPropertyOp13
 70
     1
102
RTVSPropertyOp14
 70
     1
102
RTVSPropertyOp15
 70
     1
102
RTVSPropertyOp16
 70
     1
102
RTVSPropertyOp17
 70
     1
102
RTVSPropertyOp18
 70
     1
102
RTVSPropertyOp19
 70
     1
102
RTVSPropertyOp20
 70
     1
102
RTVSPropertyOp21
 70
     1
102
RTVSPropertyOp22
 70
     1
102
RTVSPropertyOp23
 70
     1
102
RTVSPropertyOp24
 70
     1
102
RTVSPropertyOp25
 70
     1
102
RTVSPropertyOp26
 70
     1
102
RTVSPropertyOp27
 70
     1
  0
ENDSEC
  0
EOF
