  0
SECTION
  2
HEADER
  9
$ACADVER
  1
AC1015
  9
$ACADMAINTVER
 70
     6
  9
$DWGCODEPAGE
  3
ANSI_1252
  9
$INSBASE
 10
0.0
 20
0.0
 30
0.0
  9
$EXTMIN
 10
0.0
 20
0.0
 30
0.0
  9
$EXTMAX
 10
25.0
 20
35.0
 30
0.0
  9
$LIMMIN
 10
0.0
 20
0.0
  9
$LIMMAX
 10
420.0
 20
297.0
  9
$ORTHOMODE
 70
     0
  9
$REGENMODE
 70
     1
  9
$FILLMODE
 70
     1
  9
$QTEXTMODE
 70
     0
  9
$MIRRTEXT
 70
     1
  9
$LTSCALE
 40
6.45
  9
$ATTMODE
 70
     1
  9
$TEXTSIZE
 40
2.5
  9
$TRACEWID
 40
1.0
  9
$TEXTSTYLE
  7
Standard
  9
$CLAYER
  8
0
  9
$CELTYPE
  6
ByLayer
  9
$CECOLOR
 62
   256
  9
$CELTSCALE
 40
1.0
  9
$DISPSILH
 70
     0
  9
$DIMSCALE
 40
1.0
  9
$DIMASZ
 40
2.5
  9
$DIMEXO
 40
0.625
  9
$DIMDLI
 40
3.75
  9
$DIMRND
 40
0.0
  9
$DIMDLE
 40
0.0
  9
$DIMEXE
 40
1.25
  9
$DIMTP
 40
0.0
  9
$DIMTM
 40
0.0
  9
$DIMTXT
 40
2.5
  9
$DIMCEN
 40
2.5
  9
$DIMTSZ
 40
0.0
  9
$DIMTOL
 70
     0
  9
$DIMLIM
 70
     0
  9
$DIMTIH
 70
     0
  9
$DIMTOH
 70
     0
  9
$DIMSE1
 70
     0
  9
$DIMSE2
 70
     0
  9
$DIMTAD
 70
     1
  9
$DIMZIN
 70
     8
  9
$DIMBLK
  1

  9
$DIMASO
 70
     1
  9
$DIMSHO
 70
     1
  9
$DIMPOST
  1

  9
$DIMAPOST
  1

  9
$DIMALT
 70
     0
  9
$DIMALTD
 70
     3
  9
$DIMALTF
 40
0.03937007874016
  9
$DIMLFAC
 40
1.0
  9
$DIMTOFL
 70
     1
  9
$DIMTVP
 40
0.0
  9
$DIMTIX
 70
     0
  9
$DIMSOXD
 70
     0
  9
$DIMSAH
 70
     0
  9
$DIMBLK1
  1

  9
$DIMBLK2
  1

  9
$DIMSTYLE
  2
ISO-25
  9
$DIMCLRD
 70
     0
  9
$DIMCLRE
 70
     0
  9
$DIMCLRT
 70
     0
  9
$DIMTFAC
 40
1.0
  9
$DIMGAP
 40
0.625
  9
$DIMJUST
 70
     0
  9
$DIMSD1
 70
     0
  9
$DIMSD2
 70
     0
  9
$DIMTOLJ
 70
     0
  9
$DIMTZIN
 70
     8
  9
$DIMALTZ
 70
     0
  9
$DIMALTTZ
 70
     0
  9
$DIMUPT
 70
     0
  9
$DIMDEC
 70
     2
  9
$DIMTDEC
 70
     2
  9
$DIMALTU
 70
     2
  9
$DIMALTTD
 70
     3
  9
$DIMTXSTY
  7
Standard
  9
$DIMAUNIT
 70
     0
  9
$DIMADEC
 70
     0
  9
$DIMALTRND
 40
0.0
  9
$DIMAZIN
 70
     0
  9
$DIMDSEP
 70
    44
  9
$DIMATFIT
 70
     3
  9
$DIMFRAC
 70
     0
  9
$DIMLDRBLK
  1

  9
$DIMLUNIT
 70
     2
  9
$DIMLWD
 70
    -2
  9
$DIMLWE
 70
    -2
  9
$DIMTMOVE
 70
     0
  9
$LUNITS
 70
     2
  9
$LUPREC
 70
     4
  9
$SKETCHINC
 40
1.0
  9
$FILLETRAD
 40
10.0
  9
$AUNITS
 70
     0
  9
$AUPREC
 70
     0
  9
$MENU
  1
.
  9
$ELEVATION
 40
0.0
  9
$PELEVATION
 40
0.0
  9
$THICKNESS
 40
0.0
  9
$LIMCHECK
 70
     0
  9
$CHAMFERA
 40
10.0
  9
$CHAMFERB
 40
10.0
  9
$CHAMFERC
 40
20.0
  9
$CHAMFERD
 40
0.0
  9
$SKPOLY
 70
     0
  9
$TDCREATE
 40
2457287.86875
  9
$TDUCREATE
 40
2457287.785416667
  9
$TDUPDATE
 40
2457287.872222222
  9
$TDUUPDATE
 40
2457287.788888889
  9
$TDINDWG
 40
0.0000000116
  9
$TDUSRTIMER
 40
0.0000000116
  9
$USRTIMER
 70
     1
  9
$ANGBASE
 50
0.0
  9
$ANGDIR
 70
     0
  9
$PDMODE
 70
     0
  9
$PDSIZE
 40
0.0
  9
$PLINEWID
 40
0.0
  9
$SPLFRAME
 70
     0
  9
$SPLINETYPE
 70
     6
  9
$SPLINESEGS
 70
     8
  9
$HANDSEED
  5
D83
  9
$SURFTAB1
 70
     6
  9
$SURFTAB2
 70
     6
  9
$SURFTYPE
 70
     6
  9
$SURFU
 70
     6
  9
$SURFV
 70
     6
  9
$UCSBASE
  2

  9
$UCSNAME
  2

  9
$UCSORG
 10
0.0
 20
0.0
 30
0.0
  9
$UCSXDIR
 10
1.0
 20
0.0
 30
0.0
  9
$UCSYDIR
 10
0.0
 20
1.0
 30
0.0
  9
$UCSORTHOREF
  2

  9
$UCSORTHOVIEW
 70
     0
  9
$UCSORGTOP
 10
0.0
 20
0.0
 30
0.0
  9
$UCSORGBOTTOM
 10
0.0
 20
0.0
 30
0.0
  9
$UCSORGLEFT
 10
0.0
 20
0.0
 30
0.0
  9
$UCSORGRIGHT
 10
0.0
 20
0.0
 30
0.0
  9
$UCSORGFRONT
 10
0.0
 20
0.0
 30
0.0
  9
$UCSORGBACK
 10
0.0
 20
0.0
 30
0.0
  9
$PUCSBASE
  2

  9
$PUCSNAME
  2

  9
$PUCSORG
 10
0.0
 20
0.0
 30
0.0
  9
$PUCSXDIR
 10
1.0
 20
0.0
 30
0.0
  9
$PUCSYDIR
 10
0.0
 20
1.0
 30
0.0
  9
$PUCSORTHOREF
  2

  9
$PUCSORTHOVIEW
 70
     0
  9
$PUCSORGTOP
 10
0.0
 20
0.0
 30
0.0
  9
$PUCSORGBOTTOM
 10
0.0
 20
0.0
 30
0.0
  9
$PUCSORGLEFT
 10
0.0
 20
0.0
 30
0.0
  9
$PUCSORGRIGHT
 10
0.0
 20
0.0
 30
0.0
  9
$PUCSORGFRONT
 10
0.0
 20
0.0
 30
0.0
  9
$PUCSORGBACK
 10
0.0
 20
0.0
 30
0.0
  9
$USERI1
 70
     0
  9
$USERI2
 70
     0
  9
$USERI3
 70
     0
  9
$USERI4
 70
     0
  9
$USERI5
 70
     0
  9
$USERR1
 40
0.0
  9
$USERR2
 40
0.0
  9
$USERR3
 40
0.0
  9
$USERR4
 40
0.0
  9
$USERR5
 40
0.0
  9
$WORLDVIEW
 70
     1
  9
$SHADEDGE
 70
     3
  9
$SHADEDIF
 70
    70
  9
$TILEMODE
 70
     1
  9
$MAXACTVP
 70
    64
  9
$PINSBASE
 10
0.0
 20
0.0
 30
0.0
  9
$PLIMCHECK
 70
     0
  9
$PEXTMIN
 10
1.000000000000000E+20
 20
1.000000000000000E+20
 30
1.000000000000000E+20
  9
$PEXTMAX
 10
-1.000000000000000E+20
 20
-1.000000000000000E+20
 30
-1.000000000000000E+20
  9
$PLIMMIN
 10
0.0
 20
0.0
  9
$PLIMMAX
 10
420.0
 20
297.0
  9
$UNITMODE
 70
     0
  9
$VISRETAIN
 70
     1
  9
$PLINEGEN
 70
     0
  9
$PSLTSCALE
 70
     1
  9
$TREEDEPTH
 70
  3020
  9
$CMLSTYLE
  2
Standard
  9
$CMLJUST
 70
     0
  9
$CMLSCALE
 40
20.0
  9
$PROXYGRAPHICS
 70
     1
  9
$MEASUREMENT
 70
     1
  9
$CELWEIGHT
370
    -1
  9
$ENDCAPS
280
     0
  9
$JOINSTYLE
280
     0
  9
$LWDISPLAY
290
     0
  9
$INSUNITS
 70
     4
  9
$HYPERLINKBASE
  1

  9
$STYLESHEET
  1

  9
$XEDIT
290
     1
  9
$CEPSNTYPE
380
     0
  9
$PSTYLEMODE
290
     1
  9
$FINGERPRINTGUID
  2
{E974814B-1B66-4E6C-938C-DE377EAB2BCF}
  9
$VERSIONGUID
  2
{FAEB1C32-E019-11D5-929B-00C0DF256EC4}
  9
$EXTNAMES
290
     1
  9
$PSVPSCALE
 40
0.0
  9
$OLESTARTUP
290
     0
  0
ENDSEC
  0
SECTION
  2
CLASSES
  0
CLASS
  1
ACDBDICTIONARYWDFLT
  2
AcDbDictionaryWithDefault
  3
ObjectDBX Classes
 90
        0
280
     0
281
     0
  0
CLASS
  1
VISUALSTYLE
  2
AcDbVisualStyle
  3
ObjectDBX Classes
 90
     4095
280
     0
281
     0
  0
CLASS
  1
MATERIAL
  2
AcDbMaterial
  3
ObjectDBX Classes
 90
     1153
280
     0
281
     0
  0
CLASS
  1
SCALE
  2
AcDbScale
  3
ObjectDBX Classes
 90
     1153
280
     0
281
     0
  0
CLASS
  1
DICTIONARYVAR
  2
AcDbDictionaryVar
  3
ObjectDBX Classes
 90
        0
280
     0
281
     0
  0
CLASS
  1
ACDBPLACEHOLDER
  2
AcDbPlaceHolder
  3
ObjectDBX Classes
 90
        0
280
     0
281
     0
  0
CLASS
  1
LAYOUT
  2
AcDbLayout
  3
ObjectDBX Classes
 90
        0
280
     0
281
     0
  0
ENDSEC
  0
SECTION
  2
TABLES
  0
TABLE
  2
VPORT
  5
8
330
0
100
AcDbSymbolTable
 70
     1
  0
VPORT
  5
29
330
8
100
AcDbSymbolTableRecord
100
AcDbViewportTableRecord
  2
*Active
 70
     0
 10
0.0
 20
0.0
 11
1.0
 21
1.0
 12
11.26
 22
4.5
 13
0.0
 23
0.0
 14
10.0
 24
10.0
 15
10.0
 25
10.0
 16
0.0
 26
0.0
 36
1.0
 17
0.0
 27
0.0
 37
0.0
 40
9.0
 41
2.503333333333333
 42
50.0
 43
0.0
 44
0.0
 50
0.0
 51
0.0
 71
     0
 72
   100
 73
     1
 74
     3
 75
     0
 76
     0
 77
     0
 78
     0
281
     0
 65
     1
110
0.0
120
0.0
130
0.0
111
1.0
121
0.0
131
0.0
112
0.0
122
1.0
132
0.0
 79
     0
146
0.0
  0
ENDTAB
  0
TABLE
  2
LTYPE
  5
5
330
0
100
AcDbSymbolTable
 70
     7
  0
LTYPE
  5
14
330
5
100
AcDbSymbolTableRecord
100
AcDbLinetypeTableRecord
  2
ByBlock
 70
     0
  3

 72
    65
 73
     0
 40
0.0
  0
LTYPE
  5
15
330
5
100
AcDbSymbolTableRecord
100
AcDbLinetypeTableRecord
  2
ByLayer
 70
     0
  3

 72
    65
 73
     0
 40
0.0
  0
LTYPE
  5
16
330
5
100
AcDbSymbolTableRecord
100
AcDbLinetypeTableRecord
  2
Continuous
 70
     0
  3
Solid line
 72
    65
 73
     0
 40
0.0
  0
LTYPE
  5
581
330
5
100
AcDbSymbolTableRecord
100
AcDbLinetypeTableRecord
  2
SK2
 70
     0
  3
THIN
 72
    65
 73
     0
 40
0.0
  0
LTYPE
  5
5EA
330
5
100
AcDbSymbolTableRecord
100
AcDbLinetypeTableRecord
  2
SK1
 70
     0
  3
THICK
 72
    65
 73
     0
 40
0.0
  0
LTYPE
  5
5FC
330
5
100
AcDbSymbolTableRecord
100
AcDbLinetypeTableRecord
  2
NOCUT
 70
     0
  3
THICK
 72
    65
 73
     0
 40
0.0
  0
LTYPE
  5
606
330
5
100
AcDbSymbolTableRecord
100
AcDbLinetypeTableRecord
  2
L2
 70
     0
  3
THIN
 72
    65
 73
     0
 40
0.0
  0
LTYPE
  5
6D0
330
5
100
AcDbSymbolTableRecord
100
AcDbLinetypeTableRecord
  2
LONGDASH_DASH
 70
     0
  3
THIN_DASHDOT
 72
    65
 73
     4
 40
0.85
 49
0.4
 74
     0
 49
-0.2
 74
     0
 49
0.05
 74
     0
 49
-0.2
 74
     0
  0
LTYPE
  5
6D6
330
5
100
AcDbSymbolTableRecord
100
AcDbLinetypeTableRecord
  2
INFTOTAL
 70
     0
  3
THIN
 72
    65
 73
     0
 40
0.0
  0
ENDTAB
  0
TABLE
  2
LAYER
  5
2
330
0
100
AcDbSymbolTable
 70
    11
  0
LAYER
  5
10
330
2
100
AcDbSymbolTableRecord
100
AcDbLayerTableRecord
  2
0
 70
     0
 62
     7
  6
Continuous
370
    -3
390
F
  0
LAYER
  5
44
330
2
100
AcDbSymbolTableRecord
100
AcDbLayerTableRecord
  2
1
 70
     0
 62
4
  6
CONTINUOUS
370
50
370
    -3
390
F
  0
LAYER
  5
580
330
2
100
AcDbSymbolTableRecord
100
AcDbLayerTableRecord
  2
SK2
 70
     0
 62
7
  6
CONTINUOUS
370
25
370
    -3
390
F
  0
LAYER
  5
5E9
330
2
100
AcDbSymbolTableRecord
100
AcDbLayerTableRecord
  2
SK1
 70
     0
 62
4
  6
CONTINUOUS
370
50
370
    -3
390
F
  0
LAYER
  5
5F5
330
2
100
AcDbSymbolTableRecord
100
AcDbLayerTableRecord
  2
CUT
 70
     0
 62
1
  6
CONTINUOUS
370
25
370
    -3
390
F
  0
LAYER
  5
5FB
330
2
100
AcDbSymbolTableRecord
100
AcDbLayerTableRecord
  2
NOCUT
 70
     0
 62
7
  6
CONTINUOUS
370
25
370
    -3
390
F
  0
LAYER
  5
605
330
2
100
AcDbSymbolTableRecord
100
AcDbLayerTableRecord
  2
2
 70
     0
 62
7
  6
CONTINUOUS
370
25
370
    -3
390
F
  0
LAYER
  5
6D1
330
2
100
AcDbSymbolTableRecord
100
AcDbLayerTableRecord
  2
4
 70
     0
 62
2
  6
LONGDASH_DASH
370
25
370
    -3
390
F
  0
LAYER
  5
6D3
330
2
100
AcDbSymbolTableRecord
100
AcDbLayerTableRecord
  2
SK4
 70
     0
 62
2
  6
LONGDASH_DASH
370
25
370
    -3
390
F
  0
LAYER
  5
6D5
330
2
100
AcDbSymbolTableRecord
100
AcDbLayerTableRecord
  2
INFTOTAL
 70
     0
 62
9
  6
CONTINUOUS
370
18
370
    -3
390
F
  0
LAYER
  5
6DB
330
2
100
AcDbSymbolTableRecord
100
AcDbLayerTableRecord
  2
SK6
 70
     0
 62
5
  6
CONTINUOUS
370
25
370
    -3
390
F
  0
ENDTAB
  0
TABLE
  2
STYLE
  5
3
330
0
100
AcDbSymbolTable
 70
     1
  0
STYLE
  5
11
330
3
100
AcDbSymbolTableRecord
100
AcDbTextStyleTableRecord
  2
Standard
 70
     0
 40
0.0
 41
1.0
 50
0.0
 71
     0
 42
2.5
  3
Monospac821 BT
  4

  0
ENDTAB
  0
TABLE
  2
VIEW
  5
6
330
0
100
AcDbSymbolTable
 70
     0
  0
ENDTAB
  0
TABLE
  2
UCS
  5
7
330
0
100
AcDbSymbolTable
 70
     0
  0
ENDTAB
  0
TABLE
  2
APPID
  5
9
330
0
100
AcDbSymbolTable
 70
     2
  0
APPID
  5
12
330
9
100
AcDbSymbolTableRecord
100
AcDbRegAppTableRecord
  2
ACAD
 70
     0
  0
APPID
  5
3F
330
9
100
AcDbSymbolTableRecord
100
AcDbRegAppTableRecord
  2
ccLab
 70
     0
  0
ENDTAB
  0
TABLE
  2
DIMSTYLE
  5
A
330
0
100
AcDbSymbolTable
 70
     1
100
AcDbDimStyleTable
  0
DIMSTYLE
105
27
330
A
100
AcDbSymbolTableRecord
100
AcDbDimStyleTableRecord
  2
ISO-25
 70
     0
 41
2.5
 42
0.625
 43
3.75
 44
1.25
 73
     0
 74
     0
 77
     1
 78
     8
140
2.5
141
2.5
143
0.03937007874016
147
0.625
171
     3
172
     1
271
     2
272
     2
274
     3
278
    44
283
     0
284
     8
340
11
  0
ENDTAB
  0
TABLE
  2
BLOCK_RECORD
  5
1
330
0
100
AcDbSymbolTable
 70
     2
  0
BLOCK_RECORD
  5
1F
330
1
100
AcDbSymbolTableRecord
100
AcDbBlockTableRecord
  2
*Model_Space
340
22
  0
BLOCK_RECORD
  5
1B
330
1
100
AcDbSymbolTableRecord
100
AcDbBlockTableRecord
  2
*Paper_Space
340
1E
  0
BLOCK_RECORD
  5
23
330
1
100
AcDbSymbolTableRecord
100
AcDbBlockTableRecord
  2
*Paper_Space0
340
26
  0
ENDTAB
  0
ENDSEC
  0
SECTION
  2
BLOCKS
  0
BLOCK
  5
20
330
1F
100
AcDbEntity
  8
0
100
AcDbBlockBegin
  2
*Model_Space
 70
     0
 10
0.0
 20
0.0
 30
0.0
  3
*Model_Space
  1

  0
ENDBLK
  5
21
330
1F
100
AcDbEntity
  8
0
100
AcDbBlockEnd
  0
BLOCK
  5
1C
330
1B
100
AcDbEntity
 67
     1
  8
0
100
AcDbBlockBegin
  2
*Paper_Space
 70
     0
 10
0.0
 20
0.0
 30
0.0
  3
*Paper_Space
  1

  0
ENDBLK
  5
1D
330
1B
100
AcDbEntity
 67
     1
  8
0
100
AcDbBlockEnd
  0
BLOCK
  5
24
330
23
100
AcDbEntity
  8
0
100
AcDbBlockBegin
  2
*Paper_Space0
 70
     0
 10
0.0
 20
0.0
 30
0.0
  3
*Paper_Space0
  1

  0
ENDBLK
  5
25
330
23
100
AcDbEntity
  8
0
100
AcDbBlockEnd
  0
ENDSEC
  0
SECTION
  2
ENTITIES
  0
LINE
  5
6E5
330
1F
100
AcDbEntity
  8
1
  6
CONTINUOUS
370
50
 62
4
100
AcDbLine
 10
139.972534
 20
2.460797
 30
0.0
 11
139.971695
 21
2.617041
 31
0.0
  0
LINE
  5
6E6
330
1F
100
AcDbEntity
  8
1
  6
CONTINUOUS
370
50
 62
4
100
AcDbLine
 10
139.972046
 20
2.489094
 30
0.0
 11
139.971497
 21
2.588495
 31
0.0
  0
LINE
  5
6E7
330
1F
100
AcDbEntity
  8
1
  6
CONTINUOUS
370
50
 62
4
100
AcDbLine
 10
139.974411
 20
2.390285
 30
0.0
 11
139.972046
 21
2.489094
 31
0.0
  0
LINE
  5
6E8
330
1F
100
AcDbEntity
  8
1
  6
CONTINUOUS
370
50
 62
4
100
AcDbLine
 10
139.977814
 20
2.306163
 30
0.0
 11
139.972534
 21
2.460797
 31
0.0
  0
LINE
  5
6E9
330
1F
100
AcDbEntity
  8
1
  6
CONTINUOUS
370
50
 62
4
100
AcDbLine
 10
139.978485
 20
2.292201
 30
0.0
 11
139.974411
 21
2.390285
 31
0.0
  0
LINE
  5
6EA
330
1F
100
AcDbEntity
  8
1
  6
CONTINUOUS
370
50
 62
4
100
AcDbLine
 10
116.846245
 20
6.837874999999999
 30
0.0
 11
116.839447
 21
6.999822
 31
0.0
  0
LINE
  5
6EB
330
1F
100
AcDbEntity
  8
1
  6
CONTINUOUS
370
50
 62
4
100
AcDbLine
 10
116.84259
 20
-9.374711999999999
 30
0.0
 11
116.838875
 21
-9.296422999999999
 31
0.0
  0
LINE
  5
6EC
330
1F
100
AcDbEntity
  8
1
  6
CONTINUOUS
370
50
 62
4
100
AcDbLine
 10
139.984192
 20
2.194992
 30
0.0
 11
139.978485
 21
2.292201
 31
0.0
  0
LINE
  5
6ED
330
1F
100
AcDbEntity
  8
1
  6
CONTINUOUS
370
50
 62
4
100
AcDbLine
 10
139.987091
 20
2.153636
 30
0.0
 11
139.977814
 21
2.306163
 31
0.0
  0
LINE
  5
6EE
330
1F
100
AcDbEntity
  8
1
  6
CONTINUOUS
370
50
 62
4
100
AcDbLine
 10
139.991394
 20
2.098809
 30
0.0
 11
139.984192
 21
2.194992
 31
0.0
  0
LINE
  5
6EF
330
1F
100
AcDbEntity
  8
1
  6
CONTINUOUS
370
50
 62
4
100
AcDbLine
 10
140.0
 20
2.003803
 30
0.0
 11
139.987091
 21
2.153636
 31
0.0
  0
LINE
  5
6F0
330
1F
100
AcDbEntity
  8
1
  6
CONTINUOUS
370
50
 62
4
100
AcDbLine
 10
140.0
 20
2.003803
 30
0.0
 11
139.991394
 21
2.098809
 31
0.0
  0
LINE
  5
6F1
330
1F
100
AcDbEntity
  8
1
  6
CONTINUOUS
370
50
 62
4
100
AcDbLine
 10
116.860809
 20
6.682512
 30
0.0
 11
116.846245
 21
6.837874999999999
 31
0.0
  0
LINE
  5
6F2
330
1F
100
AcDbEntity
  8
1
  6
CONTINUOUS
370
50
 62
4
100
AcDbLine
 10
116.854408
 20
-9.467569
 30
0.0
 11
116.84259
 21
-9.374711999999999
 31
0.0
  0
LINE
  5
6F3
330
1F
100
AcDbEntity
  8
1
  6
CONTINUOUS
370
50
 62
4
100
AcDbLine
 10
118.521843
 20
6.370496999999999
 30
0.0
 11
118.488907
 21
6.607456
 31
0.0
  0
LINE
  5
6F4
330
1F
100
AcDbEntity
  8
1
  6
CONTINUOUS
370
50
 62
4
100
AcDbLine
 10
138.275864
 20
4.948856
 30
0.0
 11
138.256912
 21
5.077337
 31
0.0
  0
LINE
  5
6F5
330
1F
100
AcDbEntity
  8
1
  6
CONTINUOUS
370
50
 62
4
100
AcDbLine
 10
121.343506
 20
3.820335
 30
0.0
 11
121.302307
 21
4.092407
 31
0.0
  0
LINE
  5
6F6
330
1F
100
AcDbEntity
  8
1
  6
CONTINUOUS
370
50
 62
4
100
AcDbLine
 10
116.883247
 20
6.534343
 30
0.0
 11
116.860809
 21
6.682512
 31
0.0
  0
LINE
  5
6F7
330
1F
100
AcDbEntity
  8
1
  6
CONTINUOUS
370
50
 62
4
100
AcDbLine
 10
124.165901
 20
0.759146
 30
0.0
 11
124.123474
 21
1.038365
 31
0.0
  0
LINE
  5
6F8
330
1F
100
AcDbEntity
  8
1
  6
CONTINUOUS
370
50
 62
4
100
AcDbLine
 10
127.608368
 20
-4.528632
 30
0.0
 11
127.566162
 21
-4.251669
 31
0.0
  0
LINE
  5
6F9
330
1F
100
AcDbEntity
  8
1
  6
CONTINUOUS
370
50
 62
4
100
AcDbLine
 10
124.815041
 20
-1.677849
 30
0.0
 11
124.744156
 21
-1.236617
 31
0.0
  0
LINE
  5
6FA
330
1F
100
AcDbEntity
  8
1
  6
CONTINUOUS
370
50
 62
4
100
AcDbLine
 10
119.130157
 20
4.840063
 30
0.0
 11
119.100121
 21
5.02674
 31
0.0
  0
LINE
  5
6FB
330
1F
100
AcDbEntity
  8
1
  6
CONTINUOUS
370
50
 62
4
100
AcDbLine
 10
138.86499
 20
3.061059
 30
0.0
 11
138.854111
 21
3.127471
 31
0.0
  0
LINE
  5
6FC
330
1F
100
AcDbEntity
  8
1
  6
CONTINUOUS
370
50
 62
4
100
AcDbLine
 10
121.964218
 20
1.663031
 30
0.0
 11
121.922165
 21
1.91841
 31
0.0
  0
LINE
  5
6FD
330
1F
100
AcDbEntity
  8
1
  6
CONTINUOUS
370
50
 62
4
100
AcDbLine
 10
138.256912
 20
5.077337
 30
0.0
 11
138.235443
 21
5.207591
 31
0.0
  0
LINE
  5
6FE
330
1F
100
AcDbEntity
  8
1
  6
CONTINUOUS
370
50
 62
4
100
AcDbLine
 10
126.987907
 20
-2.378227
 30
0.0
 11
126.945457
 21
-2.129138
 31
0.0
  0
LINE
  5
6FF
330
1F
100
AcDbEntity
  8
1
  6
CONTINUOUS
370
50
 62
4
100
AcDbLine
 10
130.430374
 20
-7.0607
 30
0.0
 11
130.388153
 21
-6.817196
 31
0.0
  0
LINE
  5
700
330
1F
100
AcDbEntity
  8
1
  6
CONTINUOUS
370
50
 62
4
100
AcDbLine
 10
118.488907
 20
6.607456
 30
0.0
 11
118.444511
 21
6.858387
 31
0.0
  0
LINE
  5
701
330
1F
100
AcDbEntity
  8
1
  6
CONTINUOUS
370
50
 62
4
100
AcDbLine
 10
138.87677
 20
2.994666
 30
0.0
 11
138.86499
 21
3.061059
 31
0.0
  0
LINE
  5
702
330
1F
100
AcDbEntity
  8
1
  6
CONTINUOUS
370
50
 62
4
100
AcDbLine
 10
138.235443
 20
5.207591
 30
0.0
 11
138.21167
 21
5.339218
 31
0.0
  0
LINE
  5
703
330
1F
100
AcDbEntity
  8
1
  6
CONTINUOUS
370
50
 62
4
100
AcDbLine
 10
121.302307
 20
4.092407
 30
0.0
 11
121.251648
 21
4.369077
 31
0.0
  0
LINE
  5
704
330
1F
100
AcDbEntity
  8
1
  6
CONTINUOUS
370
50
 62
4
100
AcDbLine
 10
135.453903
 20
7.358238
 30
0.0
 11
135.408691
 21
7.602463999999999
 31
0.0
  0
LINE
  5
705
330
1F
100
AcDbEntity
  8
1
  6
CONTINUOUS
370
50
 62
4
100
AcDbLine
 10
127.660667
 20
-4.809241999999999
 30
0.0
 11
127.608368
 21
-4.528632
 31
0.0
  0
LINE
  5
706
330
1F
100
AcDbEntity
  8
1
  6
CONTINUOUS
370
50
 62
4
100
AcDbLine
 10
116.874466
 20
-9.574823
 30
0.0
 11
116.854408
 21
-9.467569
 31
0.0
  0
LINE
  5
707
330
1F
100
AcDbEntity
  8
1
  6
CONTINUOUS
370
50
 62
4
100
AcDbLine
 10
124.123474
 20
1.038365
 30
0.0
 11
124.070839
 21
1.319256
 31
0.0
  0
LINE
  5
708
330
1F
100
AcDbEntity
  8
1
  6
CONTINUOUS
370
50
 62
4
100
AcDbLine
 10
138.88942
 20
2.92833
 30
0.0
 11
138.87677
 21
2.994666
 31
0.0
  0
LINE
  5
709
330
1F
100
AcDbEntity
  8
1
  6
CONTINUOUS
370
50
 62
4
100
AcDbLine
 10
138.21167
 20
5.339218
 30
0.0
 11
138.185791
 21
5.471822
 31
0.0
  0
LINE
  5
70A
330
1F
100
AcDbEntity
  8
1
  6
CONTINUOUS
370
50
 62
4
100
AcDbLine
 10
138.902893
 20
2.862087
 30
0.0
 11
138.88942
 21
2.92833
 31
0.0
  0
LINE
  5
70B
330
1F
100
AcDbEntity
  8
1
  6
CONTINUOUS
370
50
 62
4
100
AcDbLine
 10
122.016388
 20
1.410145
 30
0.0
 11
121.964218
 21
1.663031
 31
0.0
  0
LINE
  5
70C
330
1F
100
AcDbEntity
  8
1
  6
CONTINUOUS
370
50
 62
4
100
AcDbLine
 10
138.185791
 20
5.471822
 30
0.0
 11
138.15799
 21
5.605004999999999
 31
0.0
  0
LINE
  5
70D
330
1F
100
AcDbEntity
  8
1
  6
CONTINUOUS
370
50
 62
4
100
AcDbLine
 10
130.482681
 20
-7.310429
 30
0.0
 11
130.430374
 21
-7.0607
 31
0.0
  0
LINE
  5
70E
330
1F
100
AcDbEntity
  8
1
  6
CONTINUOUS
370
50
 62
4
100
AcDbLine
 10
118.444511
 20
6.858387
 30
0.0
 11
118.389221
 21
7.121690999999999
 31
0.0
  0
LINE
  5
70F
330
1F
100
AcDbEntity
  8
1
  6
CONTINUOUS
370
50
 62
4
100
AcDbLine
 10
121.251648
 20
4.369077
 30
0.0
 11
121.192909
 21
4.647533999999999
 31
0.0
  0
LINE
  5
710
330
1F
100
AcDbEntity
  8
1
  6
CONTINUOUS
370
50
 62
4
100
AcDbLine
 10
124.90979
 20
-2.124853
 30
0.0
 11
124.815041
 21
-1.677849
 31
0.0
  0
LINE
  5
711
330
1F
100
AcDbEntity
  8
1
  6
CONTINUOUS
370
50
 62
4
100
AcDbLine
 10
119.169044
 20
4.656922
 30
0.0
 11
119.130157
 21
4.840063
 31
0.0
  0
LINE
  5
712
330
1F
100
AcDbEntity
  8
1
  6
CONTINUOUS
370
50
 62
4
100
AcDbLine
 10
126.945457
 20
-2.129138
 30
0.0
 11
126.892776
 21
-1.881413
 31
0.0
  0
LINE
  5
713
330
1F
100
AcDbEntity
  8
1
  6
CONTINUOUS
370
50
 62
4
100
AcDbLine
 10
127.722252
 20
-5.095435999999999
 30
0.0
 11
127.660667
 21
-4.809241999999999
 31
0.0
  0
LINE
  5
714
330
1F
100
AcDbEntity
  8
1
  6
CONTINUOUS
370
50
 62
4
100
AcDbLine
 10
138.91716
 20
2.795977
 30
0.0
 11
138.902893
 21
2.862087
 31
0.0
  0
LINE
  5
715
330
1F
100
AcDbEntity
  8
1
  6
CONTINUOUS
370
50
 62
4
100
AcDbLine
 10
116.913704
 20
6.39398
 30
0.0
 11
116.883247
 21
6.534343
 31
0.0
  0
LINE
  5
716
330
1F
100
AcDbEntity
  8
1
  6
CONTINUOUS
370
50
 62
4
100
AcDbLine
 10
124.070839
 20
1.319256
 30
0.0
 11
124.009644
 21
1.599782
 31
0.0
  0
LINE
  5
717
330
1F
100
AcDbEntity
  8
1
  6
CONTINUOUS
370
50
 62
4
100
AcDbLine
 10
129.809906
 20
-5.263959
 30
0.0
 11
129.767471
 21
-5.071483
 31
0.0
  0
LINE
  5
718
330
1F
100
AcDbEntity
  8
1
  6
CONTINUOUS
370
50
 62
4
100
AcDbLine
 10
138.15799
 20
5.605004999999999
 30
0.0
 11
138.128464
 21
5.738369
 31
0.0
  0
LINE
  5
719
330
1F
100
AcDbEntity
  8
1
  6
CONTINUOUS
370
50
 62
4
100
AcDbLine
 10
135.408691
 20
7.602463999999999
 30
0.0
 11
135.352188
 21
7.855637
 31
0.0
  0
LINE
  5
71A
330
1F
100
AcDbEntity
  8
1
  6
CONTINUOUS
370
50
 62
4
100
AcDbLine
 10
138.93219
 20
2.730035
 30
0.0
 11
138.91716
 21
2.795977
 31
0.0
  0
LINE
  5
71B
330
1F
100
AcDbEntity
  8
1
  6
CONTINUOUS
370
50
 62
4
100
AcDbLine
 10
138.128464
 20
5.738369
 30
0.0
 11
138.097427
 21
5.871517
 31
0.0
  0
LINE
  5
71C
330
1F
100
AcDbEntity
  8
1
  6
CONTINUOUS
370
50
 62
4
100
AcDbLine
 10
116.902885
 20
-9.696301
 30
0.0
 11
116.874466
 21
-9.574823
 31
0.0
  0
LINE
  5
71D
330
1F
100
AcDbEntity
  8
1
  6
CONTINUOUS
370
50
 62
4
100
AcDbLine
 10
133.263443
 20
-8.886559
 30
0.0
 11
133.210159
 21
-8.659009
 31
0.0
  0
LINE
  5
71E
330
1F
100
AcDbEntity
  8
1
  6
CONTINUOUS
370
50
 62
4
100
AcDbLine
 10
121.192909
 20
4.647533999999999
 30
0.0
 11
121.127472
 21
4.924966
 31
0.0
  0
LINE
  5
71F
330
1F
100
AcDbEntity
  8
1
  6
CONTINUOUS
370
50
 62
4
100
AcDbLine
 10
136.066681
 20
5.765177
 30
0.0
 11
136.032211
 21
5.910267999999999
 31
0.0
  0
LINE
  5
720
330
1F
100
AcDbEntity
  8
1
  6
CONTINUOUS
370
50
 62
4
100
AcDbLine
 10
138.947922
 20
2.6643
 30
0.0
 11
138.93219
 21
2.730035
 31
0.0
  0
LINE
  5
721
330
1F
100
AcDbEntity
  8
1
  6
CONTINUOUS
370
50
 62
4
100
AcDbLine
 10
118.389221
 20
7.121690999999999
 30
0.0
 11
118.323898
 21
7.394557
 31
0.0
  0
LINE
  5
722
330
1F
100
AcDbEntity
  8
1
  6
CONTINUOUS
370
50
 62
4
100
AcDbLine
 10
130.544281
 20
-7.567603
 30
0.0
 11
130.482681
 21
-7.310429
 31
0.0
  0
LINE
  5
723
330
1F
100
AcDbEntity
  8
1
  6
CONTINUOUS
370
50
 62
4
100
AcDbLine
 10
127.791649
 20
-5.384398
 30
0.0
 11
127.722252
 21
-5.095435999999999
 31
0.0
  0
LINE
  5
724
330
1F
100
AcDbEntity
  8
1
  6
CONTINUOUS
370
50
 62
4
100
AcDbLine
 10
122.077881
 20
1.156892
 30
0.0
 11
122.016388
 21
1.410145
 31
0.0
  0
LINE
  5
725
330
1F
100
AcDbEntity
  8
1
  6
CONTINUOUS
370
50
 62
4
100
AcDbLine
 10
124.009644
 20
1.599782
 30
0.0
 11
123.941635
 21
1.877101
 31
0.0
  0
LINE
  5
726
330
1F
100
AcDbEntity
  8
1
  6
CONTINUOUS
370
50
 62
4
100
AcDbLine
 10
126.892776
 20
-1.881413
 30
0.0
 11
126.831543
 21
-1.636632
 31
0.0
  0
LINE
  5
727
330
1F
100
AcDbEntity
  8
1
  6
CONTINUOUS
370
50
 62
4
100
AcDbLine
 10
125.023262
 20
-2.572538
 30
0.0
 11
124.90979
 21
-2.124853
 31
0.0
  0
LINE
  5
728
330
1F
100
AcDbEntity
  8
1
  6
CONTINUOUS
370
50
 62
4
100
AcDbLine
 10
135.352188
 20
7.855637
 30
0.0
 11
135.286423
 21
8.114061
 31
0.0
  0
LINE
  5
729
330
1F
100
AcDbEntity
  8
1
  6
CONTINUOUS
370
50
 62
4
100
AcDbLine
 10
121.127472
 20
4.924966
 30
0.0
 11
121.055786
 21
5.202329
 31
0.0
  0
LINE
  5
72A
330
1F
100
AcDbEntity
  8
1
  6
CONTINUOUS
370
50
 62
4
100
AcDbLine
 10
119.215302
 20
4.478302999999999
 30
0.0
 11
119.169044
 21
4.656922
 31
0.0
  0
LINE
  5
72B
330
1F
100
AcDbEntity
  8
1
  6
CONTINUOUS
370
50
 62
4
100
AcDbLine
 10
127.867363
 20
-5.673317
 30
0.0
 11
127.791649
 21
-5.384398
 31
0.0
  0
LINE
  5
72C
330
1F
100
AcDbEntity
  8
1
  6
CONTINUOUS
370
50
 62
4
100
AcDbLine
 10
130.613678
 20
-7.829339999999999
 30
0.0
 11
130.544281
 21
-7.567603
 31
0.0
  0
LINE
  5
72D
330
1F
100
AcDbEntity
  8
1
  6
CONTINUOUS
370
50
 62
4
100
AcDbLine
 10
118.323898
 20
7.394557
 30
0.0
 11
118.25016
 21
7.672428999999999
 31
0.0
  0
LINE
  5
72E
330
1F
100
AcDbEntity
  8
1
  6
CONTINUOUS
370
50
 62
4
100
AcDbLine
 10
132.631897
 20
8.982718
 30
0.0
 11
132.562836
 21
9.240938
 31
0.0
  0
LINE
  5
72F
330
1F
100
AcDbEntity
  8
1
  6
CONTINUOUS
370
50
 62
4
100
AcDbLine
 10
123.941635
 20
1.877101
 30
0.0
 11
123.868568
 21
2.14837
 31
0.0
  0
LINE
  5
730
330
1F
100
AcDbEntity
  8
1
  6
CONTINUOUS
370
50
 62
4
100
AcDbLine
 10
116.939713
 20
-9.831614
 30
0.0
 11
116.902885
 21
-9.696301
 31
0.0
  0
LINE
  5
731
330
1F
100
AcDbEntity
  8
1
  6
CONTINUOUS
370
50
 62
4
100
AcDbLine
 10
122.147217
 20
0.90509
 30
0.0
 11
122.077881
 21
1.156892
 31
0.0
  0
LINE
  5
732
330
1F
100
AcDbEntity
  8
1
  6
CONTINUOUS
370
50
 62
4
100
AcDbLine
 10
121.055786
 20
5.202329
 30
0.0
 11
120.977409
 21
5.483643
 31
0.0
  0
LINE
  5
733
330
1F
100
AcDbEntity
  8
1
  6
CONTINUOUS
370
50
 62
4
100
AcDbLine
 10
129.767471
 20
-5.071483
 30
0.0
 11
129.714828
 21
-4.883559
 31
0.0
  0
LINE
  5
734
330
1F
100
AcDbEntity
  8
1
  6
CONTINUOUS
370
50
 62
4
100
AcDbLine
 10
135.286423
 20
8.114061
 30
0.0
 11
135.213425
 21
8.373612
 31
0.0
  0
LINE
  5
735
330
1F
100
AcDbEntity
  8
1
  6
CONTINUOUS
370
50
 62
4
100
AcDbLine
 10
127.947914
 20
-5.959378
 30
0.0
 11
127.867363
 21
-5.673317
 31
0.0
  0
LINE
  5
736
330
1F
100
AcDbEntity
  8
1
  6
CONTINUOUS
370
50
 62
4
100
AcDbLine
 10
126.831543
 20
-1.636632
 30
0.0
 11
126.763535
 21
-1.396828
 31
0.0
  0
LINE
  5
737
330
1F
100
AcDbEntity
  8
1
  6
CONTINUOUS
370
50
 62
4
100
AcDbLine
 10
133.331833
 20
-9.127011
 30
0.0
 11
133.263443
 21
-8.886559
 31
0.0
  0
LINE
  5
738
330
1F
100
AcDbEntity
  8
1
  6
CONTINUOUS
370
50
 62
4
100
AcDbLine
 10
130.689392
 20
-8.09276
 30
0.0
 11
130.613678
 21
-7.829339999999999
 31
0.0
  0
LINE
  5
739
330
1F
100
AcDbEntity
  8
1
  6
CONTINUOUS
370
50
 62
4
100
AcDbLine
 10
125.149696
 20
-3.011411
 30
0.0
 11
125.023262
 21
-2.572538
 31
0.0
  0
LINE
  5
73A
330
1F
100
AcDbEntity
  8
1
  6
CONTINUOUS
370
50
 62
4
100
AcDbLine
 10
118.25016
 20
7.672428999999999
 30
0.0
 11
118.169518
 21
7.952112
 31
0.0
  0
LINE
  5
73B
330
1F
100
AcDbEntity
  8
1
  6
CONTINUOUS
370
50
 62
4
100
AcDbLine
 10
123.868568
 20
2.14837
 30
0.0
 11
123.791626
 21
2.412621
 31
0.0
  0
LINE
  5
73C
330
1F
100
AcDbEntity
  8
1
  6
CONTINUOUS
370
50
 62
4
100
AcDbLine
 10
116.952072
 20
6.262517
 30
0.0
 11
116.913704
 21
6.39398
 31
0.0
  0
LINE
  5
73D
330
1F
100
AcDbEntity
  8
1
  6
CONTINUOUS
370
50
 62
4
100
AcDbLine
 10
136.108032
 20
5.624294
 30
0.0
 11
136.066681
 21
5.765177
 31
0.0
  0
LINE
  5
73E
330
1F
100
AcDbEntity
  8
1
  6
CONTINUOUS
370
50
 62
4
100
AcDbLine
 10
120.977409
 20
5.483643
 30
0.0
 11
120.893074
 21
5.767761
 31
0.0
  0
LINE
  5
73F
330
1F
100
AcDbEntity
  8
1
  6
CONTINUOUS
370
50
 62
4
100
AcDbLine
 10
128.031815
 20
-6.239768
 30
0.0
 11
127.947914
 21
-5.959378
 31
0.0
  0
LINE
  5
740
330
1F
100
AcDbEntity
  8
1
  6
CONTINUOUS
370
50
 62
4
100
AcDbLine
 10
119.267448
 20
4.305194999999999
 30
0.0
 11
119.215302
 21
4.478302999999999
 31
0.0
  0
LINE
  5
741
330
1F
100
AcDbEntity
  8
1
  6
CONTINUOUS
370
50
 62
4
100
AcDbLine
 10
116.984512
 20
-9.979565
 30
0.0
 11
116.939713
 21
-9.831614
 31
0.0
  0
LINE
  5
742
330
1F
100
AcDbEntity
  8
1
  6
CONTINUOUS
370
50
 62
4
100
AcDbLine
 10
122.2229
 20
0.656558
 30
0.0
 11
122.147217
 21
0.90509
 31
0.0
  0
LINE
  5
743
330
1F
100
AcDbEntity
  8
1
  6
CONTINUOUS
370
50
 62
4
100
AcDbLine
 10
135.213425
 20
8.373612
 30
0.0
 11
135.135284
 21
8.630162
 31
0.0
  0
LINE
  5
744
330
1F
100
AcDbEntity
  8
1
  6
CONTINUOUS
370
50
 62
4
100
AcDbLine
 10
130.769928
 20
-8.354982999999999
 30
0.0
 11
130.689392
 21
-8.09276
 31
0.0
  0
LINE
  5
745
330
1F
100
AcDbEntity
  8
1
  6
CONTINUOUS
370
50
 62
4
100
AcDbLine
 10
118.169518
 20
7.952112
 30
0.0
 11
118.083496
 21
8.230440999999999
 31
0.0
  0
LINE
  5
746
330
1F
100
AcDbEntity
  8
1
  6
CONTINUOUS
370
50
 62
4
100
AcDbLine
 10
123.791626
 20
2.412621
 30
0.0
 11
123.708992
 21
2.678327
 31
0.0
  0
LINE
  5
747
330
1F
100
AcDbEntity
  8
1
  6
CONTINUOUS
370
50
 62
4
100
AcDbLine
 10
120.893074
 20
5.767761
 30
0.0
 11
120.803505
 21
6.053471999999999
 31
0.0
  0
LINE
  5
748
330
1F
100
AcDbEntity
  8
1
  6
CONTINUOUS
370
50
 62
4
100
AcDbLine
 10
126.763535
 20
-1.396828
 30
0.0
 11
126.690506
 21
-1.164028
 31
0.0
  0
LINE
  5
749
330
1F
100
AcDbEntity
  8
1
  6
CONTINUOUS
370
50
 62
4
100
AcDbLine
 10
128.117661
 20
-6.511892
 30
0.0
 11
128.031815
 21
-6.239768
 31
0.0
  0
LINE
  5
74A
330
1F
100
AcDbEntity
  8
1
  6
CONTINUOUS
370
50
 62
4
100
AcDbLine
 10
125.283318
 20
-3.431988
 30
0.0
 11
125.149696
 21
-3.011411
 31
0.0
  0
LINE
  5
74B
330
1F
100
AcDbEntity
  8
1
  6
CONTINUOUS
370
50
 62
4
100
AcDbLine
 10
133.413239
 20
-9.378525999999999
 30
0.0
 11
133.331833
 21
-9.127011
 31
0.0
  0
LINE
  5
74C
330
1F
100
AcDbEntity
  8
1
  6
CONTINUOUS
370
50
 62
4
100
AcDbLine
 10
130.853836
 20
-8.613128999999999
 30
0.0
 11
130.769928
 21
-8.354982999999999
 31
0.0
  0
LINE
  5
74D
330
1F
100
AcDbEntity
  8
1
  6
CONTINUOUS
370
50
 62
4
100
AcDbLine
 10
135.135284
 20
8.630162
 30
0.0
 11
135.052353
 21
8.884815999999999
 31
0.0
  0
LINE
  5
74E
330
1F
100
AcDbEntity
  8
1
  6
CONTINUOUS
370
50
 62
4
100
AcDbLine
 10
117.036896
 20
-10.139714
 30
0.0
 11
116.984512
 21
-9.979565
 31
0.0
  0
LINE
  5
74F
330
1F
100
AcDbEntity
  8
1
  6
CONTINUOUS
370
50
 62
4
100
AcDbLine
 10
132.562836
 20
9.240938
 30
0.0
 11
132.471893
 21
9.518035
 31
0.0
  0
LINE
  5
750
330
1F
100
AcDbEntity
  8
1
  6
CONTINUOUS
370
50
 62
4
100
AcDbLine
 10
118.083496
 20
8.230440999999999
 30
0.0
 11
117.993317
 21
8.505092
 31
0.0
  0
LINE
  5
751
330
1F
100
AcDbEntity
  8
1
  6
CONTINUOUS
370
50
 62
4
100
AcDbLine
 10
120.803505
 20
6.053471999999999
 30
0.0
 11
120.709457
 21
6.339563
 31
0.0
  0
LINE
  5
752
330
1F
100
AcDbEntity
  8
1
  6
CONTINUOUS
370
50
 62
4
100
AcDbLine
 10
123.708992
 20
2.678327
 30
0.0
 11
123.620995
 21
2.945775
 31
0.0
  0
LINE
  5
753
330
1F
100
AcDbEntity
  8
1
  6
CONTINUOUS
370
50
 62
4
100
AcDbLine
 10
128.207184
 20
-6.782973999999999
 30
0.0
 11
128.117661
 21
-6.511892
 31
0.0
  0
LINE
  5
754
330
1F
100
AcDbEntity
  8
1
  6
CONTINUOUS
370
50
 62
4
100
AcDbLine
 10
122.303436
 20
0.413113
 30
0.0
 11
122.2229
 21
0.656558
 31
0.0
  0
LINE
  5
755
330
1F
100
AcDbEntity
  8
1
  6
CONTINUOUS
370
50
 62
4
100
AcDbLine
 10
129.714828
 20
-4.883559
 30
0.0
 11
129.653625
 21
-4.700663
 31
0.0
  0
LINE
  5
756
330
1F
100
AcDbEntity
  8
1
  6
CONTINUOUS
370
50
 62
4
100
AcDbLine
 10
119.324005
 20
4.138586
 30
0.0
 11
119.267448
 21
4.305194999999999
 31
0.0
  0
LINE
  5
757
330
1F
100
AcDbEntity
  8
1
  6
CONTINUOUS
370
50
 62
4
100
AcDbLine
 10
126.690506
 20
-1.164028
 30
0.0
 11
126.613594
 21
-0.9384819999999999
 31
0.0
  0
LINE
  5
758
330
1F
100
AcDbEntity
  8
1
  6
CONTINUOUS
370
50
 62
4
100
AcDbLine
 10
130.939667
 20
-8.864521
 30
0.0
 11
130.853836
 21
-8.613128999999999
 31
0.0
  0
LINE
  5
759
330
1F
100
AcDbEntity
  8
1
  6
CONTINUOUS
370
50
 62
4
100
AcDbLine
 10
120.709457
 20
6.339563
 30
0.0
 11
120.611649
 21
6.624821
 31
0.0
  0
LINE
  5
75A
330
1F
100
AcDbEntity
  8
1
  6
CONTINUOUS
370
50
 62
4
100
AcDbLine
 10
125.425003
 20
-3.844288
 30
0.0
 11
125.283318
 21
-3.431988
 31
0.0
  0
LINE
  5
75B
330
1F
100
AcDbEntity
  8
1
  6
CONTINUOUS
370
50
 62
4
100
AcDbLine
 10
128.301239
 20
-7.056643999999999
 30
0.0
 11
128.207184
 21
-6.782973999999999
 31
0.0
  0
LINE
  5
75C
330
1F
100
AcDbEntity
  8
1
  6
CONTINUOUS
370
50
 62
4
100
AcDbLine
 10
135.052353
 20
8.884815999999999
 30
0.0
 11
134.962936
 21
9.144472
 31
0.0
  0
LINE
  5
75D
330
1F
100
AcDbEntity
  8
1
  6
CONTINUOUS
370
50
 62
4
100
AcDbLine
 10
123.620995
 20
2.945775
 30
0.0
 11
123.528419
 21
3.213598
 31
0.0
  0
LINE
  5
75E
330
1F
100
AcDbEntity
  8
1
  6
CONTINUOUS
370
50
 62
4
100
AcDbLine
 10
136.155167
 20
5.488026
 30
0.0
 11
136.108032
 21
5.624294
 31
0.0
  0
LINE
  5
75F
330
1F
100
AcDbEntity
  8
1
  6
CONTINUOUS
370
50
 62
4
100
AcDbLine
 10
117.993317
 20
8.505092
 30
0.0
 11
117.897331
 21
8.782141
 31
0.0
  0
LINE
  5
760
330
1F
100
AcDbEntity
  8
1
  6
CONTINUOUS
370
50
 62
4
100
AcDbLine
 10
117.096504
 20
-10.311731
 30
0.0
 11
117.036896
 21
-10.139714
 31
0.0
  0
LINE
  5
761
330
1F
100
AcDbEntity
  8
1
  6
CONTINUOUS
370
50
 62
4
100
AcDbLine
 10
122.387344
 20
0.176575
 30
0.0
 11
122.303436
 21
0.413113
 31
0.0
  0
LINE
  5
762
330
1F
100
AcDbEntity
  8
1
  6
CONTINUOUS
370
50
 62
4
100
AcDbLine
 10
133.504913
 20
-9.636186
 30
0.0
 11
133.413239
 21
-9.378525999999999
 31
0.0
  0
LINE
  5
763
330
1F
100
AcDbEntity
  8
1
  6
CONTINUOUS
370
50
 62
4
100
AcDbLine
 10
120.611649
 20
6.624821
 30
0.0
 11
120.510826
 21
6.908033
 31
0.0
  0
LINE
  5
764
330
1F
100
AcDbEntity
  8
1
  6
CONTINUOUS
370
50
 62
4
100
AcDbLine
 10
128.399109
 20
-7.331469999999999
 30
0.0
 11
128.301239
 21
-7.056643999999999
 31
0.0
  0
LINE
  5
765
330
1F
100
AcDbEntity
  8
1
  6
CONTINUOUS
370
50
 62
4
100
AcDbLine
 10
131.02919
 20
-9.115685
 30
0.0
 11
130.939667
 21
-8.864521
 31
0.0
  0
LINE
  5
766
330
1F
100
AcDbEntity
  8
1
  6
CONTINUOUS
370
50
 62
4
100
AcDbLine
 10
123.528419
 20
3.213598
 30
0.0
 11
123.432091
 21
3.480428
 31
0.0
  0
LINE
  5
767
330
1F
100
AcDbEntity
  8
1
  6
CONTINUOUS
370
50
 62
4
100
AcDbLine
 10
117.162971
 20
-10.495286
 30
0.0
 11
117.096504
 21
-10.311731
 31
0.0
  0
LINE
  5
768
330
1F
100
AcDbEntity
  8
1
  6
CONTINUOUS
370
50
 62
4
100
AcDbLine
 10
117.897331
 20
8.782141
 30
0.0
 11
117.795601
 21
9.062078
 31
0.0
  0
LINE
  5
769
330
1F
100
AcDbEntity
  8
1
  6
CONTINUOUS
370
50
 62
4
100
AcDbLine
 10
126.613594
 20
-0.9384819999999999
 30
0.0
 11
126.530952
 21
-0.712675
 31
0.0
  0
LINE
  5
76A
330
1F
100
AcDbEntity
  8
1
  6
CONTINUOUS
370
50
 62
4
100
AcDbLine
 10
125.57711
 20
-4.25962
 30
0.0
 11
125.425003
 21
-3.844288
 31
0.0
  0
LINE
  5
76B
330
1F
100
AcDbEntity
  8
1
  6
CONTINUOUS
370
50
 62
4
100
AcDbLine
 10
131.123245
 20
-9.36995
 30
0.0
 11
131.02919
 21
-9.115685
 31
0.0
  0
LINE
  5
76C
330
1F
100
AcDbEntity
  8
1
  6
CONTINUOUS
370
50
 62
4
100
AcDbLine
 10
119.383751
 20
3.978758
 30
0.0
 11
119.324005
 21
4.138586
 31
0.0
  0
LINE
  5
76D
330
1F
100
AcDbEntity
  8
1
  6
CONTINUOUS
370
50
 62
4
100
AcDbLine
 10
132.471893
 20
9.518035
 30
0.0
 11
132.365234
 21
9.803246
 31
0.0
  0
LINE
  5
76E
330
1F
100
AcDbEntity
  8
1
  6
CONTINUOUS
370
50
 62
4
100
AcDbLine
 10
117.235954
 20
-10.690049
 30
0.0
 11
117.162971
 21
-10.495286
 31
0.0
  0
LINE
  5
76F
330
1F
100
AcDbEntity
  8
1
  6
CONTINUOUS
370
50
 62
4
100
AcDbLine
 10
123.432091
 20
3.480428
 30
0.0
 11
123.332802
 21
3.744899
 31
0.0
  0
LINE
  5
770
330
1F
100
AcDbEntity
  8
1
  6
CONTINUOUS
370
50
 62
4
100
AcDbLine
 10
122.473175
 20
-0.05137
 30
0.0
 11
122.387344
 21
0.176575
 31
0.0
  0
LINE
  5
771
330
1F
100
AcDbEntity
  8
1
  6
CONTINUOUS
370
50
 62
4
100
AcDbLine
 10
116.997894
 20
6.1412
 30
0.0
 11
116.952072
 21
6.262517
 31
0.0
  0
LINE
  5
772
330
1F
100
AcDbEntity
  8
1
  6
CONTINUOUS
370
50
 62
4
100
AcDbLine
 10
132.631897
 20
-7.592092
 30
0.0
 11
132.579346
 21
-7.453354
 31
0.0
  0
LINE
  5
773
330
1F
100
AcDbEntity
  8
1
  6
CONTINUOUS
370
50
 62
4
100
AcDbLine
 10
117.795601
 20
9.062078
 30
0.0
 11
117.688942
 21
9.34314
 31
0.0
  0
LINE
  5
774
330
1F
100
AcDbEntity
  8
1
  6
CONTINUOUS
370
50
 62
4
100
AcDbLine
 10
131.221115
 20
-9.625964
 30
0.0
 11
131.123245
 21
-9.36995
 31
0.0
  0
LINE
  5
775
330
1F
100
AcDbEntity
  8
1
  6
CONTINUOUS
370
50
 62
4
100
AcDbLine
 10
133.60408
 20
-9.895071999999999
 30
0.0
 11
133.504913
 21
-9.636186
 31
0.0
  0
LINE
  5
776
330
1F
100
AcDbEntity
  8
1
  6
CONTINUOUS
370
50
 62
4
100
AcDbLine
 10
129.653625
 20
-4.700663
 30
0.0
 11
129.585617
 21
-4.523772999999999
 31
0.0
  0
LINE
  5
777
330
1F
100
AcDbEntity
  8
1
  6
CONTINUOUS
370
50
 62
4
100
AcDbLine
 10
117.315079
 20
-10.895688
 30
0.0
 11
117.235954
 21
-10.690049
 31
0.0
  0
LINE
  5
778
330
1F
100
AcDbEntity
  8
1
  6
CONTINUOUS
370
50
 62
4
100
AcDbLine
 10
126.530952
 20
-0.712675
 30
0.0
 11
126.442963
 21
-0.486408
 31
0.0
  0
LINE
  5
779
330
1F
100
AcDbEntity
  8
1
  6
CONTINUOUS
370
50
 62
4
100
AcDbLine
 10
117.400002
 20
-11.111873
 30
0.0
 11
117.315079
 21
-10.895688
 31
0.0
  0
LINE
  5
77A
330
1F
100
AcDbEntity
  8
1
  6
CONTINUOUS
370
50
 62
4
100
AcDbLine
 10
136.207031
 20
5.356777999999999
 30
0.0
 11
136.155167
 21
5.488026
 31
0.0
  0
LINE
  5
77B
330
1F
100
AcDbEntity
  8
1
  6
CONTINUOUS
370
50
 62
4
100
AcDbLine
 10
122.562737
 20
-0.27717
 30
0.0
 11
122.473175
 21
-0.05137
 31
0.0
  0
LINE
  5
77C
330
1F
100
AcDbEntity
  8
1
  6
CONTINUOUS
370
50
 62
4
100
AcDbLine
 10
117.400002
 20
-11.1125
 30
0.0
 11
116.555626
 21
-9.0
 31
0.0
  0
LINE
  5
77D
330
1F
100
AcDbEntity
  8
1
  6
CONTINUOUS
370
50
 62
4
100
AcDbLine
 10
119.454933
 20
3.80304
 30
0.0
 11
119.383751
 21
3.978758
 31
0.0
  0
LINE
  5
77E
330
1F
100
AcDbEntity
  8
1
  6
CONTINUOUS
370
50
 62
4
100
AcDbLine
 10
133.707977
 20
-10.150267
 30
0.0
 11
133.60408
 21
-9.895071999999999
 31
0.0
  0
LINE
  5
77F
330
1F
100
AcDbEntity
  8
1
  6
CONTINUOUS
370
50
 62
4
100
AcDbLine
 10
126.442963
 20
-0.486408
 30
0.0
 11
126.35041
 21
-0.260749
 31
0.0
  0
LINE
  5
780
330
1F
100
AcDbEntity
  8
1
  6
CONTINUOUS
370
50
 62
4
100
AcDbLine
 10
132.365234
 20
9.803246
 30
0.0
 11
132.24826
 21
10.087369
 31
0.0
  0
LINE
  5
781
330
1F
100
AcDbEntity
  8
1
  6
CONTINUOUS
370
50
 62
4
100
AcDbLine
 10
122.65699
 20
-0.504265
 30
0.0
 11
122.562737
 21
-0.27717
 31
0.0
  0
LINE
  5
782
330
1F
100
AcDbEntity
  8
1
  6
CONTINUOUS
370
50
 62
4
100
AcDbLine
 10
133.815369
 20
-10.400466
 30
0.0
 11
133.707977
 21
-10.150267
 31
0.0
  0
LINE
  5
783
330
1F
100
AcDbEntity
  8
1
  6
CONTINUOUS
370
50
 62
4
100
AcDbLine
 10
129.585617
 20
-4.523772999999999
 30
0.0
 11
129.512573
 21
-4.353867
 31
0.0
  0
LINE
  5
784
330
1F
100
AcDbEntity
  8
1
  6
CONTINUOUS
370
50
 62
4
100
AcDbLine
 10
126.35041
 20
-0.260749
 30
0.0
 11
126.254089
 21
-0.036768
 31
0.0
  0
LINE
  5
785
330
1F
100
AcDbEntity
  8
1
  6
CONTINUOUS
370
50
 62
4
100
AcDbLine
 10
122.755142
 20
-0.731297
 30
0.0
 11
122.65699
 21
-0.504265
 31
0.0
  0
LINE
  5
786
330
1F
100
AcDbEntity
  8
1
  6
CONTINUOUS
370
50
 62
4
100
AcDbLine
 10
119.543541
 20
3.601303
 30
0.0
 11
119.454933
 21
3.80304
 31
0.0
  0
LINE
  5
787
330
1F
100
AcDbEntity
  8
1
  6
CONTINUOUS
370
50
 62
4
100
AcDbLine
 10
136.262497
 20
5.230957999999999
 30
0.0
 11
136.207031
 21
5.356777999999999
 31
0.0
  0
LINE
  5
788
330
1F
100
AcDbEntity
  8
1
  6
CONTINUOUS
370
50
 62
4
100
AcDbLine
 10
133.248398
 20
7.970952
 30
0.0
 11
133.210159
 21
8.057355
 31
0.0
  0
LINE
  5
789
330
1F
100
AcDbEntity
  8
1
  6
CONTINUOUS
370
50
 62
4
100
AcDbLine
 10
132.24826
 20
10.087369
 30
0.0
 11
132.118652
 21
10.37942
 31
0.0
  0
LINE
  5
78A
330
1F
100
AcDbEntity
  8
1
  6
CONTINUOUS
370
50
 62
4
100
AcDbLine
 10
126.254089
 20
-0.036768
 30
0.0
 11
126.154808
 21
0.184467
 31
0.0
  0
LINE
  5
78B
330
1F
100
AcDbEntity
  8
1
  6
CONTINUOUS
370
50
 62
4
100
AcDbLine
 10
132.118652
 20
10.37942
 30
0.0
 11
131.977692
 21
10.678976
 31
0.0
  0
LINE
  5
78C
330
1F
100
AcDbEntity
  8
1
  6
CONTINUOUS
370
50
 62
4
100
AcDbLine
 10
129.512573
 20
-4.353867
 30
0.0
 11
129.435638
 21
-4.190736999999999
 31
0.0
  0
LINE
  5
78D
330
1F
100
AcDbEntity
  8
1
  6
CONTINUOUS
370
50
 62
4
100
AcDbLine
 10
119.65155
 20
3.375134
 30
0.0
 11
119.543541
 21
3.601303
 31
0.0
  0
LINE
  5
78E
330
1F
100
AcDbEntity
  8
1
  6
CONTINUOUS
370
50
 62
4
100
AcDbLine
 10
117.050842
 20
6.030497
 30
0.0
 11
116.997894
 21
6.1412
 31
0.0
  0
LINE
  5
78F
330
1F
100
AcDbEntity
  8
1
  6
CONTINUOUS
370
50
 62
4
100
AcDbLine
 10
129.809921
 20
9.656915
 30
0.0
 11
129.799683
 21
9.678141
 31
0.0
  0
LINE
  5
790
330
1F
100
AcDbEntity
  8
1
  6
CONTINUOUS
370
50
 62
4
100
AcDbLine
 10
136.320526
 20
5.11097
 30
0.0
 11
136.262497
 21
5.230957999999999
 31
0.0
  0
LINE
  5
791
330
1F
100
AcDbEntity
  8
1
  6
CONTINUOUS
370
50
 62
4
100
AcDbLine
 10
131.977692
 20
10.678976
 30
0.0
 11
131.828217
 21
10.981818
 31
0.0
  0
LINE
  5
792
330
1F
100
AcDbEntity
  8
1
  6
CONTINUOUS
370
50
 62
4
100
AcDbLine
 10
129.799683
 20
9.678141
 30
0.0
 11
129.788742
 21
9.700011
 31
0.0
  0
LINE
  5
793
330
1F
100
AcDbEntity
  8
1
  6
CONTINUOUS
370
50
 62
4
100
AcDbLine
 10
129.435638
 20
-4.190736999999999
 30
0.0
 11
129.352997
 21
-4.02872
 31
0.0
  0
LINE
  5
794
330
1F
100
AcDbEntity
  8
1
  6
CONTINUOUS
370
50
 62
4
100
AcDbLine
 10
129.788742
 20
9.700011
 30
0.0
 11
129.777008
 21
9.722672
 31
0.0
  0
LINE
  5
795
330
1F
100
AcDbEntity
  8
1
  6
CONTINUOUS
370
50
 62
4
100
AcDbLine
 10
119.78096
 20
3.126121
 30
0.0
 11
119.65155
 21
3.375134
 31
0.0
  0
LINE
  5
796
330
1F
100
AcDbEntity
  8
1
  6
CONTINUOUS
370
50
 62
4
100
AcDbLine
 10
119.103447
 20
-9.673805999999999
 30
0.0
 11
119.100121
 21
-9.667406999999999
 31
0.0
  0
LINE
  5
797
330
1F
100
AcDbEntity
  8
1
  6
CONTINUOUS
370
50
 62
4
100
AcDbLine
 10
132.579346
 20
-7.453354
 30
0.0
 11
132.51236
 21
-7.324860999999999
 31
0.0
  0
LINE
  5
798
330
1F
100
AcDbEntity
  8
1
  6
CONTINUOUS
370
50
 62
4
100
AcDbLine
 10
136.381454
 20
4.994460999999999
 30
0.0
 11
136.320526
 21
5.11097
 31
0.0
  0
LINE
  5
799
330
1F
100
AcDbEntity
  8
1
  6
CONTINUOUS
370
50
 62
4
100
AcDbLine
 10
119.106949
 20
-9.680387999999999
 30
0.0
 11
119.103447
 21
-9.673805999999999
 31
0.0
  0
LINE
  5
79A
330
1F
100
AcDbEntity
  8
1
  6
CONTINUOUS
370
50
 62
4
100
AcDbLine
 10
129.777008
 20
9.722672
 30
0.0
 11
129.764526
 21
9.746077999999999
 31
0.0
  0
LINE
  5
79B
330
1F
100
AcDbEntity
  8
1
  6
CONTINUOUS
370
50
 62
4
100
AcDbLine
 10
119.110611
 20
-9.687149
 30
0.0
 11
119.106949
 21
-9.680387999999999
 31
0.0
  0
LINE
  5
79C
330
1F
100
AcDbEntity
  8
1
  6
CONTINUOUS
370
50
 62
4
100
AcDbLine
 10
140.0
 20
3.095984
 30
0.0
 11
139.890884
 21
3.296191
 31
0.0
  0
LINE
  5
79D
330
1F
100
AcDbEntity
  8
1
  6
CONTINUOUS
370
50
 62
4
100
AcDbLine
 10
129.352997
 20
-4.02872
 30
0.0
 11
129.264999
 21
-3.867513
 31
0.0
  0
LINE
  5
79E
330
1F
100
AcDbEntity
  8
1
  6
CONTINUOUS
370
50
 62
4
100
AcDbLine
 10
129.764526
 20
9.746077999999999
 30
0.0
 11
129.751328
 21
9.770181
 31
0.0
  0
LINE
  5
79F
330
1F
100
AcDbEntity
  8
1
  6
CONTINUOUS
370
50
 62
4
100
AcDbLine
 10
117.400002
 20
-9.707685
 30
0.0
 11
117.325905
 21
-9.57306
 31
0.0
  0
LINE
  5
7A0
330
1F
100
AcDbEntity
  8
1
  6
CONTINUOUS
370
50
 62
4
100
AcDbLine
 10
119.114433
 20
-9.694083
 30
0.0
 11
119.110611
 21
-9.687149
 31
0.0
  0
LINE
  5
7A1
330
1F
100
AcDbEntity
  8
1
  6
CONTINUOUS
370
50
 62
4
100
AcDbLine
 10
129.751328
 20
9.770181
 30
0.0
 11
129.737457
 21
9.794937
 31
0.0
  0
LINE
  5
7A2
330
1F
100
AcDbEntity
  8
1
  6
CONTINUOUS
370
50
 62
4
100
AcDbLine
 10
119.118416
 20
-9.701184999999999
 30
0.0
 11
119.114433
 21
-9.694083
 31
0.0
  0
LINE
  5
7A3
330
1F
100
AcDbEntity
  8
1
  6
CONTINUOUS
370
50
 62
4
100
AcDbLine
 10
119.932915
 20
-10.858536
 30
0.0
 11
119.876122
 21
-10.7579
 31
0.0
  0
LINE
  5
7A4
330
1F
100
AcDbEntity
  8
1
  6
CONTINUOUS
370
50
 62
4
100
AcDbLine
 10
129.737457
 20
9.794937
 30
0.0
 11
129.723053
 21
9.820444
 31
0.0
  0
LINE
  5
7A5
330
1F
100
AcDbEntity
  8
1
  6
CONTINUOUS
370
50
 62
4
100
AcDbLine
 10
119.932899
 20
2.8573
 30
0.0
 11
119.78096
 21
3.126121
 31
0.0
  0
LINE
  5
7A6
330
1F
100
AcDbEntity
  8
1
  6
CONTINUOUS
370
50
 62
4
100
AcDbLine
 10
119.122559
 20
-9.708452
 30
0.0
 11
119.118416
 21
-9.701184999999999
 31
0.0
  0
LINE
  5
7A7
330
1F
100
AcDbEntity
  8
1
  6
CONTINUOUS
370
50
 62
4
100
AcDbLine
 10
119.876122
 20
-10.7579
 30
0.0
 11
119.818748
 21
-10.657491
 31
0.0
  0
LINE
  5
7A8
330
1F
100
AcDbEntity
  8
1
  6
CONTINUOUS
370
50
 62
4
100
AcDbLine
 10
138.275909
 20
9.67
 30
0.0
 11
138.097748
 21
9.978587
 31
0.0
  0
LINE
  5
7A9
330
1F
100
AcDbEntity
  8
1
  6
CONTINUOUS
370
50
 62
4
100
AcDbLine
 10
136.329742
 20
-10.185554
 30
0.0
 11
136.032089
 21
-9.67
 31
0.0
  0
LINE
  5
7AA
330
1F
100
AcDbEntity
  8
1
  6
CONTINUOUS
370
50
 62
4
100
AcDbLine
 10
122.754913
 20
-11.1125
 30
0.0
 11
121.922089
 21
-9.67
 31
0.0
  0
LINE
  5
7AB
330
1F
100
AcDbEntity
  8
1
  6
CONTINUOUS
370
50
 62
4
100
AcDbLine
 10
121.34391
 20
9.67
 30
0.0
 11
120.511086
 21
11.1125
 31
0.0
  0
LINE
  5
7AC
330
1F
100
AcDbEntity
  8
1
  6
CONTINUOUS
370
50
 62
4
100
AcDbLine
 10
125.576912
 20
-11.1125
 30
0.0
 11
124.744087
 21
-9.67
 31
0.0
  0
LINE
  5
7AD
330
1F
100
AcDbEntity
  8
1
  6
CONTINUOUS
370
50
 62
4
100
AcDbLine
 10
128.398911
 20
-11.1125
 30
0.0
 11
127.566086
 21
-9.67
 31
0.0
  0
LINE
  5
7AE
330
1F
100
AcDbEntity
  8
1
  6
CONTINUOUS
370
50
 62
4
100
AcDbLine
 10
131.220917
 20
-11.1125
 30
0.0
 11
130.388092
 21
-9.67
 31
0.0
  0
LINE
  5
7AF
330
1F
100
AcDbEntity
  8
1
  6
CONTINUOUS
370
50
 62
4
100
AcDbLine
 10
118.521912
 20
9.67
 30
0.0
 11
117.689087
 21
11.1125
 31
0.0
  0
LINE
  5
7B0
330
1F
100
AcDbEntity
  8
1
  6
CONTINUOUS
370
50
 62
4
100
AcDbLine
 10
132.631912
 20
9.67
 30
0.0
 11
131.828522
 21
11.06151
 31
0.0
  0
LINE
  5
7B1
330
1F
100
AcDbEntity
  8
1
  6
CONTINUOUS
370
50
 62
4
100
AcDbLine
 10
124.165916
 20
9.67
 30
0.0
 11
123.333084
 21
11.1125
 31
0.0
  0
LINE
  5
7B2
330
1F
100
AcDbEntity
  8
1
  6
CONTINUOUS
370
50
 62
4
100
AcDbLine
 10
126.987915
 20
9.67
 30
0.0
 11
126.155083
 21
11.1125
 31
0.0
  0
LINE
  5
7B3
330
1F
100
AcDbEntity
  8
1
  6
CONTINUOUS
370
50
 62
4
100
AcDbLine
 10
133.815338
 20
-10.718316
 30
0.0
 11
133.210083
 21
-9.67
 31
0.0
  0
LINE
  5
7B4
330
1F
100
AcDbEntity
  8
1
  6
CONTINUOUS
370
50
 62
4
100
AcDbLine
 10
135.453918
 20
9.67
 30
0.0
 11
134.963135
 21
10.520048
 31
0.0
  0
LINE
  5
7B5
330
1F
100
AcDbEntity
  8
1
  6
CONTINUOUS
370
50
 62
4
100
AcDbLine
 10
129.809921
 20
9.67
 30
0.0
 11
129.723053
 21
9.820444
 31
0.0
  0
LINE
  5
7B6
330
1F
100
AcDbEntity
  8
1
  6
CONTINUOUS
370
50
 62
4
100
AcDbLine
 10
138.94751
 20
-9.831804
 30
0.0
 11
138.85408
 21
-9.67
 31
0.0
  0
LINE
  5
7B7
330
1F
100
AcDbEntity
  8
1
  6
CONTINUOUS
370
50
 62
4
100
AcDbLine
 10
119.126663
 20
-9.71603
 30
0.0
 11
119.100082
 21
-9.67
 31
0.0
  0
LINE
  5
7B8
330
1F
100
AcDbEntity
  8
1
  6
CONTINUOUS
370
50
 62
4
100
AcDbLine
 10
119.126854
 20
-9.715879
 30
0.0
 11
119.122559
 21
-9.708452
 31
0.0
  0
LINE
  5
7B9
330
1F
100
AcDbEntity
  8
1
  6
CONTINUOUS
370
50
 62
4
100
AcDbLine
 10
139.890884
 20
3.296191
 30
0.0
 11
139.767197
 21
3.509977
 31
0.0
  0
LINE
  5
7BA
330
1F
100
AcDbEntity
  8
1
  6
CONTINUOUS
370
50
 62
4
100
AcDbLine
 10
119.818748
 20
-10.657491
 30
0.0
 11
119.761047
 21
-10.557862
 31
0.0
  0
LINE
  5
7BB
330
1F
100
AcDbEntity
  8
1
  6
CONTINUOUS
370
50
 62
4
100
AcDbLine
 10
136.33696
 20
-10.198011
 30
0.0
 11
136.329742
 21
-10.185553
 31
0.0
  0
LINE
  5
7BC
330
1F
100
AcDbEntity
  8
1
  6
CONTINUOUS
370
50
 62
4
100
AcDbLine
 10
129.264999
 20
-3.867513
 30
0.0
 11
129.17244
 21
-3.707794
 31
0.0
  0
LINE
  5
7BD
330
1F
100
AcDbEntity
  8
1
  6
CONTINUOUS
370
50
 62
4
100
AcDbLine
 10
136.344223
 20
-10.210517
 30
0.0
 11
136.33696
 21
-10.198011
 31
0.0
  0
LINE
  5
7BE
330
1F
100
AcDbEntity
  8
1
  6
CONTINUOUS
370
50
 62
4
100
AcDbLine
 10
136.351563
 20
-10.223068
 30
0.0
 11
136.344223
 21
-10.210517
 31
0.0
  0
LINE
  5
7BF
330
1F
100
AcDbEntity
  8
1
  6
CONTINUOUS
370
50
 62
4
100
AcDbLine
 10
136.358948
 20
-10.235663
 30
0.0
 11
136.351563
 21
-10.223068
 31
0.0
  0
LINE
  5
7C0
330
1F
100
AcDbEntity
  8
1
  6
CONTINUOUS
370
50
 62
4
100
AcDbLine
 10
133.295074
 20
7.891539
 30
0.0
 11
133.248398
 21
7.970952
 31
0.0
  0
LINE
  5
7C1
330
1F
100
AcDbEntity
  8
1
  6
CONTINUOUS
370
50
 62
4
100
AcDbLine
 10
119.761047
 20
-10.557862
 30
0.0
 11
119.70327
 21
-10.459588
 31
0.0
  0
LINE
  5
7C2
330
1F
100
AcDbEntity
  8
1
  6
CONTINUOUS
370
50
 62
4
100
AcDbLine
 10
136.366394
 20
-10.248302
 30
0.0
 11
136.358948
 21
-10.235663
 31
0.0
  0
LINE
  5
7C3
330
1F
100
AcDbEntity
  8
1
  6
CONTINUOUS
370
50
 62
4
100
AcDbLine
 10
136.373886
 20
-10.260983
 30
0.0
 11
136.366394
 21
-10.248302
 31
0.0
  0
LINE
  5
7C4
330
1F
100
AcDbEntity
  8
1
  6
CONTINUOUS
370
50
 62
4
100
AcDbLine
 10
136.381454
 20
-10.273706
 30
0.0
 11
136.373886
 21
-10.260983
 31
0.0
  0
LINE
  5
7C5
330
1F
100
AcDbEntity
  8
1
  6
CONTINUOUS
370
50
 62
4
100
AcDbLine
 10
119.70327
 20
-10.459588
 30
0.0
 11
119.64566
 21
-10.363241
 31
0.0
  0
LINE
  5
7C6
330
1F
100
AcDbEntity
  8
1
  6
CONTINUOUS
370
50
 62
4
100
AcDbLine
 10
117.110588
 20
5.930874999999999
 30
0.0
 11
117.050842
 21
6.030497
 31
0.0
  0
LINE
  5
7C7
330
1F
100
AcDbEntity
  8
1
  6
CONTINUOUS
370
50
 62
4
100
AcDbLine
 10
129.722916
 20
9.8203
 30
0.0
 11
129.642944
 21
9.952473
 31
0.0
  0
LINE
  5
7C8
330
1F
100
AcDbEntity
  8
1
  6
CONTINUOUS
370
50
 62
4
100
AcDbLine
 10
117.325905
 20
-9.57306
 30
0.0
 11
117.255173
 21
-9.45668
 31
0.0
  0
LINE
  5
7C9
330
1F
100
AcDbEntity
  8
1
  6
CONTINUOUS
370
50
 62
4
100
AcDbLine
 10
139.767197
 20
3.509977
 30
0.0
 11
139.62941
 21
3.736417
 31
0.0
  0
LINE
  5
7CA
330
1F
100
AcDbEntity
  8
1
  6
CONTINUOUS
370
50
 62
4
100
AcDbLine
 10
119.64566
 20
-10.363241
 30
0.0
 11
119.589989
 21
-10.271817
 31
0.0
  0
LINE
  5
7CB
330
1F
100
AcDbEntity
  8
1
  6
CONTINUOUS
370
50
 62
4
100
AcDbLine
 10
129.17244
 20
-3.707794
 30
0.0
 11
129.076111
 21
-3.550245
 31
0.0
  0
LINE
  5
7CC
330
1F
100
AcDbEntity
  8
1
  6
CONTINUOUS
370
50
 62
4
100
AcDbLine
 10
131.871536
 20
9.107512
 30
0.0
 11
131.828522
 21
9.177508999999999
 31
0.0
  0
LINE
  5
7CD
330
1F
100
AcDbEntity
  8
1
  6
CONTINUOUS
370
50
 62
4
100
AcDbLine
 10
119.182732
 20
-9.805983999999999
 30
0.0
 11
119.126854
 21
-9.715879
 31
0.0
  0
LINE
  5
7CE
330
1F
100
AcDbEntity
  8
1
  6
CONTINUOUS
370
50
 62
4
100
AcDbLine
 10
119.589989
 20
-10.271817
 30
0.0
 11
119.539841
 21
-10.191023
 31
0.0
  0
LINE
  5
7CF
330
1F
100
AcDbEntity
  8
1
  6
CONTINUOUS
370
50
 62
4
100
AcDbLine
 10
131.914429
 20
9.039539
 30
0.0
 11
131.871536
 21
9.107512
 31
0.0
  0
LINE
  5
7D0
330
1F
100
AcDbEntity
  8
1
  6
CONTINUOUS
370
50
 62
4
100
AcDbLine
 10
119.539841
 20
-10.191023
 30
0.0
 11
119.495178
 21
-10.120449
 31
0.0
  0
LINE
  5
7D1
330
1F
100
AcDbEntity
  8
1
  6
CONTINUOUS
370
50
 62
4
100
AcDbLine
 10
139.62941
 20
3.736417
 30
0.0
 11
139.478058
 21
3.974586
 31
0.0
  0
LINE
  5
7D2
330
1F
100
AcDbEntity
  8
1
  6
CONTINUOUS
370
50
 62
4
100
AcDbLine
 10
129.076111
 20
-3.550245
 30
0.0
 11
128.976807
 21
-3.395548
 31
0.0
  0
LINE
  5
7D3
330
1F
100
AcDbEntity
  8
1
  6
CONTINUOUS
370
50
 62
4
100
AcDbLine
 10
119.495178
 20
-10.120449
 30
0.0
 11
119.455818
 21
-10.059425
 31
0.0
  0
LINE
  5
7D4
330
1F
100
AcDbEntity
  8
1
  6
CONTINUOUS
370
50
 62
4
100
AcDbLine
 10
131.95755
 20
8.973104
 30
0.0
 11
131.914429
 21
9.039539
 31
0.0
  0
LINE
  5
7D5
330
1F
100
AcDbEntity
  8
1
  6
CONTINUOUS
370
50
 62
4
100
AcDbLine
 10
129.642944
 20
9.952473
 30
0.0
 11
129.551865
 21
10.092765
 31
0.0
  0
LINE
  5
7D6
330
1F
100
AcDbEntity
  8
1
  6
CONTINUOUS
370
50
 62
4
100
AcDbLine
 10
119.455818
 20
-10.059425
 30
0.0
 11
119.421555
 21
-10.007279
 31
0.0
  0
LINE
  5
7D7
330
1F
100
AcDbEntity
  8
1
  6
CONTINUOUS
370
50
 62
4
100
AcDbLine
 10
132.51236
 20
-7.324860999999999
 30
0.0
 11
132.433929
 21
-7.205965
 31
0.0
  0
LINE
  5
7D8
330
1F
100
AcDbEntity
  8
1
  6
CONTINUOUS
370
50
 62
4
100
AcDbLine
 10
139.478058
 20
3.974586
 30
0.0
 11
139.313614
 21
4.223557
 31
0.0
  0
LINE
  5
7D9
330
1F
100
AcDbEntity
  8
1
  6
CONTINUOUS
370
50
 62
4
100
AcDbLine
 10
119.421555
 20
-10.007279
 30
0.0
 11
119.392143
 21
-9.963256
 31
0.0
  0
LINE
  5
7DA
330
1F
100
AcDbEntity
  8
1
  6
CONTINUOUS
370
50
 62
4
100
AcDbLine
 10
132.000809
 20
8.908489
 30
0.0
 11
131.95755
 21
8.973104
 31
0.0
  0
LINE
  5
7DB
330
1F
100
AcDbEntity
  8
1
  6
CONTINUOUS
370
50
 62
4
100
AcDbLine
 10
119.252304
 20
-9.908628
 30
0.0
 11
119.182732
 21
-9.805983999999999
 31
0.0
  0
LINE
  5
7DC
330
1F
100
AcDbEntity
  8
1
  6
CONTINUOUS
370
50
 62
4
100
AcDbLine
 10
119.392143
 20
-9.963256
 30
0.0
 11
119.365013
 21
-9.92332
 31
0.0
  0
LINE
  5
7DD
330
1F
100
AcDbEntity
  8
1
  6
CONTINUOUS
370
50
 62
4
100
AcDbLine
 10
117.255173
 20
-9.45668
 30
0.0
 11
117.188385
 21
-9.358456
 31
0.0
  0
LINE
  5
7DE
330
1F
100
AcDbEntity
  8
1
  6
CONTINUOUS
370
50
 62
4
100
AcDbLine
 10
139.313614
 20
4.223557
 30
0.0
 11
139.136597
 21
4.482406999999999
 31
0.0
  0
LINE
  5
7DF
330
1F
100
AcDbEntity
  8
1
  6
CONTINUOUS
370
50
 62
4
100
AcDbLine
 10
129.551865
 20
10.092765
 30
0.0
 11
129.453369
 21
10.23597
 31
0.0
  0
LINE
  5
7E0
330
1F
100
AcDbEntity
  8
1
  6
CONTINUOUS
370
50
 62
4
100
AcDbLine
 10
119.365013
 20
-9.92332
 30
0.0
 11
119.338913
 21
-9.885555
 31
0.0
  0
LINE
  5
7E1
330
1F
100
AcDbEntity
  8
1
  6
CONTINUOUS
370
50
 62
4
100
AcDbLine
 10
132.044098
 20
8.845986
 30
0.0
 11
132.000809
 21
8.908489
 31
0.0
  0
LINE
  5
7E2
330
1F
100
AcDbEntity
  8
1
  6
CONTINUOUS
370
50
 62
4
100
AcDbLine
 10
119.338913
 20
-9.885555
 30
0.0
 11
119.313866
 21
-9.849971
 31
0.0
  0
LINE
  5
7E3
330
1F
100
AcDbEntity
  8
1
  6
CONTINUOUS
370
50
 62
4
100
AcDbLine
 10
139.136597
 20
4.482406999999999
 30
0.0
 11
138.94751
 21
4.750207
 31
0.0
  0
LINE
  5
7E4
330
1F
100
AcDbEntity
  8
1
  6
CONTINUOUS
370
50
 62
4
100
AcDbLine
 10
119.313866
 20
-9.849971
 30
0.0
 11
119.289894
 21
-9.816575
 31
0.0
  0
LINE
  5
7E5
330
1F
100
AcDbEntity
  8
1
  6
CONTINUOUS
370
50
 62
4
100
AcDbLine
 10
132.08728
 20
8.785888
 30
0.0
 11
132.044098
 21
8.845986
 31
0.0
  0
LINE
  5
7E6
330
1F
100
AcDbEntity
  8
1
  6
CONTINUOUS
370
50
 62
4
100
AcDbLine
 10
129.453369
 20
10.23597
 30
0.0
 11
129.346008
 21
10.384567
 31
0.0
  0
LINE
  5
7E7
330
1F
100
AcDbEntity
  8
1
  6
CONTINUOUS
370
50
 62
4
100
AcDbLine
 10
119.331436
 20
-10.017883
 30
0.0
 11
119.252304
 21
-9.908628
 31
0.0
  0
LINE
  5
7E8
330
1F
100
AcDbEntity
  8
1
  6
CONTINUOUS
370
50
 62
4
100
AcDbLine
 10
119.289894
 20
-9.816575
 30
0.0
 11
119.267021
 21
-9.785377
 31
0.0
  0
LINE
  5
7E9
330
1F
100
AcDbEntity
  8
1
  6
CONTINUOUS
370
50
 62
4
100
AcDbLine
 10
133.349762
 20
7.817157
 30
0.0
 11
133.295074
 21
7.891539
 31
0.0
  0
LINE
  5
7EA
330
1F
100
AcDbEntity
  8
1
  6
CONTINUOUS
370
50
 62
4
100
AcDbLine
 10
132.13028
 20
8.728484
 30
0.0
 11
132.08728
 21
8.785888
 31
0.0
  0
LINE
  5
7EB
330
1F
100
AcDbEntity
  8
1
  6
CONTINUOUS
370
50
 62
4
100
AcDbLine
 10
119.267021
 20
-9.785377
 30
0.0
 11
119.245277
 21
-9.756382
 31
0.0
  0
LINE
  5
7EC
330
1F
100
AcDbEntity
  8
1
  6
CONTINUOUS
370
50
 62
4
100
AcDbLine
 10
129.346008
 20
10.384567
 30
0.0
 11
129.229599
 21
10.539473
 31
0.0
  0
LINE
  5
7ED
330
1F
100
AcDbEntity
  8
1
  6
CONTINUOUS
370
50
 62
4
100
AcDbLine
 10
117.176788
 20
5.8428
 30
0.0
 11
117.110588
 21
5.930874999999999
 31
0.0
  0
LINE
  5
7EE
330
1F
100
AcDbEntity
  8
1
  6
CONTINUOUS
370
50
 62
4
100
AcDbLine
 10
133.815323
 20
-8.3502
 30
0.0
 11
133.771591
 21
-8.292309999999999
 31
0.0
  0
LINE
  5
7EF
330
1F
100
AcDbEntity
  8
1
  6
CONTINUOUS
370
50
 62
4
100
AcDbLine
 10
120.015549
 20
2.749624
 30
0.0
 11
119.932915
 21
2.857298
 31
0.0
  0
LINE
  5
7F0
330
1F
100
AcDbEntity
  8
1
  6
CONTINUOUS
370
50
 62
4
100
AcDbLine
 10
119.245277
 20
-9.756382
 30
0.0
 11
119.224686
 21
-9.7296
 31
0.0
  0
LINE
  5
7F1
330
1F
100
AcDbEntity
  8
1
  6
CONTINUOUS
370
50
 62
4
100
AcDbLine
 10
119.419792
 20
-10.132779
 30
0.0
 11
119.331436
 21
-10.017883
 31
0.0
  0
LINE
  5
7F2
330
1F
100
AcDbEntity
  8
1
  6
CONTINUOUS
370
50
 62
4
100
AcDbLine
 10
120.098488
 20
2.642308
 30
0.0
 11
120.015549
 21
2.749624
 31
0.0
  0
LINE
  5
7F3
330
1F
100
AcDbEntity
  8
1
  6
CONTINUOUS
370
50
 62
4
100
AcDbLine
 10
123.00296
 20
-1.051503
 30
0.0
 11
122.92041
 21
-0.9448639999999999
 31
0.0
  0
LINE
  5
7F4
330
1F
100
AcDbEntity
  8
1
  6
CONTINUOUS
370
50
 62
4
100
AcDbLine
 10
122.92041
 20
-0.9448639999999999
 30
0.0
 11
122.837746
 21
-0.838096
 31
0.0
  0
LINE
  5
7F5
330
1F
100
AcDbEntity
  8
1
  6
CONTINUOUS
370
50
 62
4
100
AcDbLine
 10
123.085449
 20
-1.158026
 30
0.0
 11
123.00296
 21
-1.051503
 31
0.0
  0
LINE
  5
7F6
330
1F
100
AcDbEntity
  8
1
  6
CONTINUOUS
370
50
 62
4
100
AcDbLine
 10
122.837746
 20
-0.838096
 30
0.0
 11
122.754913
 21
-0.731186
 31
0.0
  0
LINE
  5
7F7
330
1F
100
AcDbEntity
  8
1
  6
CONTINUOUS
370
50
 62
4
100
AcDbLine
 10
123.167931
 20
-1.264445
 30
0.0
 11
123.085449
 21
-1.158026
 31
0.0
  0
LINE
  5
7F8
330
1F
100
AcDbEntity
  8
1
  6
CONTINUOUS
370
50
 62
4
100
AcDbLine
 10
117.188385
 20
-9.358456
 30
0.0
 11
117.126511
 21
-9.278696
 31
0.0
  0
LINE
  5
7F9
330
1F
100
AcDbEntity
  8
1
  6
CONTINUOUS
370
50
 62
4
100
AcDbLine
 10
129.229599
 20
10.539473
 30
0.0
 11
129.105942
 21
10.698861
 31
0.0
  0
LINE
  5
7FA
330
1F
100
AcDbEntity
  8
1
  6
CONTINUOUS
370
50
 62
4
100
AcDbLine
 10
123.250458
 20
-1.370774
 30
0.0
 11
123.167931
 21
-1.264445
 31
0.0
  0
LINE
  5
7FB
330
1F
100
AcDbEntity
  8
1
  6
CONTINUOUS
370
50
 62
4
100
AcDbLine
 10
126.155083
 20
0.184339
 30
0.0
 11
126.072487
 21
0.290693
 31
0.0
  0
LINE
  5
7FC
330
1F
100
AcDbEntity
  8
1
  6
CONTINUOUS
370
50
 62
4
100
AcDbLine
 10
126.072487
 20
0.290693
 30
0.0
 11
125.989883
 21
0.397015
 31
0.0
  0
LINE
  5
7FD
330
1F
100
AcDbEntity
  8
1
  6
CONTINUOUS
370
50
 62
4
100
AcDbLine
 10
125.989883
 20
0.397015
 30
0.0
 11
125.907295
 21
0.503297
 31
0.0
  0
LINE
  5
7FE
330
1F
100
AcDbEntity
  8
1
  6
CONTINUOUS
370
50
 62
4
100
AcDbLine
 10
125.907295
 20
0.503297
 30
0.0
 11
125.824699
 21
0.609533
 31
0.0
  0
LINE
  5
7FF
330
1F
100
AcDbEntity
  8
1
  6
CONTINUOUS
370
50
 62
4
100
AcDbLine
 10
123.333084
 20
-1.477026
 30
0.0
 11
123.250458
 21
-1.370774
 31
0.0
  0
LINE
  5
800
330
1F
100
AcDbEntity
  8
1
  6
CONTINUOUS
370
50
 62
4
100
AcDbLine
 10
120.181549
 20
2.535504
 30
0.0
 11
120.098488
 21
2.642308
 31
0.0
  0
LINE
  5
801
330
1F
100
AcDbEntity
  8
1
  6
CONTINUOUS
370
50
 62
4
100
AcDbLine
 10
125.824699
 20
0.609533
 30
0.0
 11
125.742104
 21
0.715714
 31
0.0
  0
LINE
  5
802
330
1F
100
AcDbEntity
  8
1
  6
CONTINUOUS
370
50
 62
4
100
AcDbLine
 10
125.742104
 20
0.715714
 30
0.0
 11
125.659508
 21
0.821835
 31
0.0
  0
LINE
  5
803
330
1F
100
AcDbEntity
  8
1
  6
CONTINUOUS
370
50
 62
4
100
AcDbLine
 10
125.659508
 20
0.821835
 30
0.0
 11
125.576912
 21
0.927886
 31
0.0
  0
LINE
  5
804
330
1F
100
AcDbEntity
  8
1
  6
CONTINUOUS
370
50
 62
4
100
AcDbLine
 10
120.264526
 20
2.429368
 30
0.0
 11
120.181549
 21
2.535504
 31
0.0
  0
LINE
  5
805
330
1F
100
AcDbEntity
  8
1
  6
CONTINUOUS
370
50
 62
4
100
AcDbLine
 10
132.172958
 20
8.674066999999999
 30
0.0
 11
132.13028
 21
8.728484
 31
0.0
  0
LINE
  5
806
330
1F
100
AcDbEntity
  8
1
  6
CONTINUOUS
370
50
 62
4
100
AcDbLine
 10
120.347244
 20
2.324056
 30
0.0
 11
120.264526
 21
2.429368
 31
0.0
  0
LINE
  5
807
330
1F
100
AcDbEntity
  8
1
  6
CONTINUOUS
370
50
 62
4
100
AcDbLine
 10
131.220917
 20
-6.002864
 30
0.0
 11
131.195496
 21
-5.970536999999999
 31
0.0
  0
LINE
  5
808
330
1F
100
AcDbEntity
  8
1
  6
CONTINUOUS
370
50
 62
4
100
AcDbLine
 10
120.429489
 20
2.219724
 30
0.0
 11
120.347244
 21
2.324056
 31
0.0
  0
LINE
  5
809
330
1F
100
AcDbEntity
  8
1
  6
CONTINUOUS
370
50
 62
4
100
AcDbLine
 10
119.224686
 20
-9.7296
 30
0.0
 11
119.205322
 21
-9.705098
 31
0.0
  0
LINE
  5
80A
330
1F
100
AcDbEntity
  8
1
  6
CONTINUOUS
370
50
 62
4
100
AcDbLine
 10
120.511086
 20
2.116528
 30
0.0
 11
120.429489
 21
2.219724
 31
0.0
  0
LINE
  5
80B
330
1F
100
AcDbEntity
  8
1
  6
CONTINUOUS
370
50
 62
4
100
AcDbLine
 10
133.771591
 20
-8.292309999999999
 30
0.0
 11
133.728043
 21
-8.237323
 31
0.0
  0
LINE
  5
80C
330
1F
100
AcDbEntity
  8
1
  6
CONTINUOUS
370
50
 62
4
100
AcDbLine
 10
132.433929
 20
-7.205965
 30
0.0
 11
132.347122
 21
-7.096375999999999
 31
0.0
  0
LINE
  5
80D
330
1F
100
AcDbEntity
  8
1
  6
CONTINUOUS
370
50
 62
4
100
AcDbLine
 10
129.105942
 20
10.698861
 30
0.0
 11
128.977081
 21
10.861253
 31
0.0
  0
LINE
  5
80E
330
1F
100
AcDbEntity
  8
1
  6
CONTINUOUS
370
50
 62
4
100
AcDbLine
 10
128.481506
 20
-2.782719
 30
0.0
 11
128.398911
 21
-2.679584
 31
0.0
  0
LINE
  5
80F
330
1F
100
AcDbEntity
  8
1
  6
CONTINUOUS
370
50
 62
4
100
AcDbLine
 10
128.564102
 20
-2.885592
 30
0.0
 11
128.481506
 21
-2.782719
 31
0.0
  0
LINE
  5
810
330
1F
100
AcDbEntity
  8
1
  6
CONTINUOUS
370
50
 62
4
100
AcDbLine
 10
128.646698
 20
-2.988195
 30
0.0
 11
128.564102
 21
-2.885592
 31
0.0
  0
LINE
  5
811
330
1F
100
AcDbEntity
  8
1
  6
CONTINUOUS
370
50
 62
4
100
AcDbLine
 10
138.097748
 20
5.871675
 30
0.0
 11
137.855209
 21
6.172406
 31
0.0
  0
LINE
  5
812
330
1F
100
AcDbEntity
  8
1
  6
CONTINUOUS
370
50
 62
4
100
AcDbLine
 10
128.729279
 20
-3.090521
 30
0.0
 11
128.646698
 21
-2.988195
 31
0.0
  0
LINE
  5
813
330
1F
100
AcDbEntity
  8
1
  6
CONTINUOUS
370
50
 62
4
100
AcDbLine
 10
131.195496
 20
-5.970536999999999
 30
0.0
 11
131.170029
 21
-5.939054
 31
0.0
  0
LINE
  5
814
330
1F
100
AcDbEntity
  8
1
  6
CONTINUOUS
370
50
 62
4
100
AcDbLine
 10
128.811874
 20
-3.192565
 30
0.0
 11
128.729279
 21
-3.090521
 31
0.0
  0
LINE
  5
815
330
1F
100
AcDbEntity
  8
1
  6
CONTINUOUS
370
50
 62
4
100
AcDbLine
 10
119.537987
 20
-10.278401
 30
0.0
 11
119.419792
 21
-10.132779
 31
0.0
  0
LINE
  5
816
330
1F
100
AcDbEntity
  8
1
  6
CONTINUOUS
370
50
 62
4
100
AcDbLine
 10
128.894485
 20
-3.294317
 30
0.0
 11
128.811874
 21
-3.192565
 31
0.0
  0
LINE
  5
817
330
1F
100
AcDbEntity
  8
1
  6
CONTINUOUS
370
50
 62
4
100
AcDbLine
 10
128.977081
 20
-3.395773
 30
0.0
 11
128.894485
 21
-3.294317
 31
0.0
  0
LINE
  5
818
330
1F
100
AcDbEntity
  8
1
  6
CONTINUOUS
370
50
 62
4
100
AcDbLine
 10
119.205322
 20
-9.705098
 30
0.0
 11
119.187393
 21
-9.683081999999999
 31
0.0
  0
LINE
  5
819
330
1F
100
AcDbEntity
  8
1
  6
CONTINUOUS
370
50
 62
4
100
AcDbLine
 10
123.333084
 20
3.744889
 30
0.0
 11
123.250488
 21
3.844883
 31
0.0
  0
LINE
  5
81A
330
1F
100
AcDbEntity
  8
1
  6
CONTINUOUS
370
50
 62
4
100
AcDbLine
 10
132.215179
 20
8.622985
 30
0.0
 11
132.172958
 21
8.674066999999999
 31
0.0
  0
LINE
  5
81B
330
1F
100
AcDbEntity
  8
1
  6
CONTINUOUS
370
50
 62
4
100
AcDbLine
 10
137.855209
 20
6.172406
 30
0.0
 11
137.611649
 21
6.466418
 31
0.0
  0
LINE
  5
81C
330
1F
100
AcDbEntity
  8
1
  6
CONTINUOUS
370
50
 62
4
100
AcDbLine
 10
123.250488
 20
3.844883
 30
0.0
 11
123.167892
 21
3.944518
 31
0.0
  0
LINE
  5
81D
330
1F
100
AcDbEntity
  8
1
  6
CONTINUOUS
370
50
 62
4
100
AcDbLine
 10
123.167892
 20
3.944518
 30
0.0
 11
123.085304
 21
4.043787
 31
0.0
  0
LINE
  5
81E
330
1F
100
AcDbEntity
  8
1
  6
CONTINUOUS
370
50
 62
4
100
AcDbLine
 10
131.170029
 20
-5.939054
 30
0.0
 11
131.144516
 21
-5.908455
 31
0.0
  0
LINE
  5
81F
330
1F
100
AcDbEntity
  8
1
  6
CONTINUOUS
370
50
 62
4
100
AcDbLine
 10
123.085304
 20
4.043787
 30
0.0
 11
123.002708
 21
4.142684
 31
0.0
  0
LINE
  5
820
330
1F
100
AcDbEntity
  8
1
  6
CONTINUOUS
370
50
 62
4
100
AcDbLine
 10
133.728043
 20
-8.237323
 30
0.0
 11
133.684753
 21
-8.185552
 31
0.0
  0
LINE
  5
821
330
1F
100
AcDbEntity
  8
1
  6
CONTINUOUS
370
50
 62
4
100
AcDbLine
 10
123.002708
 20
4.142684
 30
0.0
 11
122.920113
 21
4.241201999999999
 31
0.0
  0
LINE
  5
822
330
1F
100
AcDbEntity
  8
1
  6
CONTINUOUS
370
50
 62
4
100
AcDbLine
 10
125.659607
 20
-4.357921999999999
 30
0.0
 11
125.576912
 21
-4.259617
 31
0.0
  0
LINE
  5
823
330
1F
100
AcDbEntity
  8
1
  6
CONTINUOUS
370
50
 62
4
100
AcDbLine
 10
122.920113
 20
4.241201999999999
 30
0.0
 11
122.837517
 21
4.339334
 31
0.0
  0
LINE
  5
824
330
1F
100
AcDbEntity
  8
1
  6
CONTINUOUS
370
50
 62
4
100
AcDbLine
 10
119.187393
 20
-9.683081999999999
 30
0.0
 11
119.170883
 21
-9.66349
 31
0.0
  0
LINE
  5
825
330
1F
100
AcDbEntity
  8
1
  6
CONTINUOUS
370
50
 62
4
100
AcDbLine
 10
125.742226
 20
-4.45581
 30
0.0
 11
125.659607
 21
-4.357921999999999
 31
0.0
  0
LINE
  5
826
330
1F
100
AcDbEntity
  8
1
  6
CONTINUOUS
370
50
 62
4
100
AcDbLine
 10
122.837517
 20
4.339334
 30
0.0
 11
122.754913
 21
4.437073
 31
0.0
  0
LINE
  5
827
330
1F
100
AcDbEntity
  8
1
  6
CONTINUOUS
370
50
 62
4
100
AcDbLine
 10
125.824799
 20
-4.553277
 30
0.0
 11
125.742226
 21
-4.45581
 31
0.0
  0
LINE
  5
828
330
1F
100
AcDbEntity
  8
1
  6
CONTINUOUS
370
50
 62
4
100
AcDbLine
 10
125.907349
 20
-4.650322
 30
0.0
 11
125.824799
 21
-4.553277
 31
0.0
  0
LINE
  5
829
330
1F
100
AcDbEntity
  8
1
  6
CONTINUOUS
370
50
 62
4
100
AcDbLine
 10
137.611649
 20
6.466418
 30
0.0
 11
137.367126
 21
6.753546
 31
0.0
  0
LINE
  5
82A
330
1F
100
AcDbEntity
  8
1
  6
CONTINUOUS
370
50
 62
4
100
AcDbLine
 10
119.694412
 20
-10.461955
 30
0.0
 11
119.537987
 21
-10.278401
 31
0.0
  0
LINE
  5
82B
330
1F
100
AcDbEntity
  8
1
  6
CONTINUOUS
370
50
 62
4
100
AcDbLine
 10
125.989891
 20
-4.746943
 30
0.0
 11
125.907349
 21
-4.650322
 31
0.0
  0
LINE
  5
82C
330
1F
100
AcDbEntity
  8
1
  6
CONTINUOUS
370
50
 62
4
100
AcDbLine
 10
126.072464
 20
-4.843139
 30
0.0
 11
125.989891
 21
-4.746943
 31
0.0
  0
LINE
  5
82D
330
1F
100
AcDbEntity
  8
1
  6
CONTINUOUS
370
50
 62
4
100
AcDbLine
 10
131.144516
 20
-5.908455
 30
0.0
 11
131.118942
 21
-5.878769999999999
 31
0.0
  0
LINE
  5
82E
330
1F
100
AcDbEntity
  8
1
  6
CONTINUOUS
370
50
 62
4
100
AcDbLine
 10
126.155083
 20
-4.938906999999999
 30
0.0
 11
126.072464
 21
-4.843139
 31
0.0
  0
LINE
  5
82F
330
1F
100
AcDbEntity
  8
1
  6
CONTINUOUS
370
50
 62
4
100
AcDbLine
 10
119.170883
 20
-9.66349
 30
0.0
 11
119.155777
 21
-9.646232
 31
0.0
  0
LINE
  5
830
330
1F
100
AcDbEntity
  8
1
  6
CONTINUOUS
370
50
 62
4
100
AcDbLine
 10
137.367126
 20
6.753546
 30
0.0
 11
137.121765
 21
7.033625
 31
0.0
  0
LINE
  5
831
330
1F
100
AcDbEntity
  8
1
  6
CONTINUOUS
370
50
 62
4
100
AcDbLine
 10
132.256607
 20
8.575737
 30
0.0
 11
132.215179
 21
8.622985
 31
0.0
  0
LINE
  5
832
330
1F
100
AcDbEntity
  8
1
  6
CONTINUOUS
370
50
 62
4
100
AcDbLine
 10
133.411316
 20
7.747573
 30
0.0
 11
133.349762
 21
7.817157
 31
0.0
  0
LINE
  5
833
330
1F
100
AcDbEntity
  8
1
  6
CONTINUOUS
370
50
 62
4
100
AcDbLine
 10
133.684753
 20
-8.185552
 30
0.0
 11
133.641876
 21
-8.137305999999999
 31
0.0
  0
LINE
  5
834
330
1F
100
AcDbEntity
  8
1
  6
CONTINUOUS
370
50
 62
4
100
AcDbLine
 10
124.744087
 20
0.109834
 30
0.0
 11
124.661484
 21
0.202721
 31
0.0
  0
LINE
  5
835
330
1F
100
AcDbEntity
  8
1
  6
CONTINUOUS
370
50
 62
4
100
AcDbLine
 10
124.661484
 20
0.202721
 30
0.0
 11
124.578903
 21
0.295576
 31
0.0
  0
LINE
  5
836
330
1F
100
AcDbEntity
  8
1
  6
CONTINUOUS
370
50
 62
4
100
AcDbLine
 10
124.578903
 20
0.295576
 30
0.0
 11
124.496338
 21
0.388393
 31
0.0
  0
LINE
  5
837
330
1F
100
AcDbEntity
  8
1
  6
CONTINUOUS
370
50
 62
4
100
AcDbLine
 10
124.496338
 20
0.388393
 30
0.0
 11
124.413757
 21
0.481165
 31
0.0
  0
LINE
  5
838
330
1F
100
AcDbEntity
  8
1
  6
CONTINUOUS
370
50
 62
4
100
AcDbLine
 10
124.413757
 20
0.481165
 30
0.0
 11
124.331177
 21
0.573885
 31
0.0
  0
LINE
  5
839
330
1F
100
AcDbEntity
  8
1
  6
CONTINUOUS
370
50
 62
4
100
AcDbLine
 10
131.118942
 20
-5.878769999999999
 30
0.0
 11
131.093292
 21
-5.849985999999999
 31
0.0
  0
LINE
  5
83A
330
1F
100
AcDbEntity
  8
1
  6
CONTINUOUS
370
50
 62
4
100
AcDbLine
 10
124.331177
 20
0.573885
 30
0.0
 11
124.248558
 21
0.6665479999999999
 31
0.0
  0
LINE
  5
83B
330
1F
100
AcDbEntity
  8
1
  6
CONTINUOUS
370
50
 62
4
100
AcDbLine
 10
124.248558
 20
0.6665479999999999
 30
0.0
 11
124.165916
 21
0.759146
 31
0.0
  0
LINE
  5
83C
330
1F
100
AcDbEntity
  8
1
  6
CONTINUOUS
370
50
 62
4
100
AcDbLine
 10
124.248421
 20
-0.6867639999999999
 30
0.0
 11
124.165916
 21
-0.594764
 31
0.0
  0
LINE
  5
83D
330
1F
100
AcDbEntity
  8
1
  6
CONTINUOUS
370
50
 62
4
100
AcDbLine
 10
124.330986
 20
-0.77867
 30
0.0
 11
124.248421
 21
-0.6867639999999999
 31
0.0
  0
LINE
  5
83E
330
1F
100
AcDbEntity
  8
1
  6
CONTINUOUS
370
50
 62
4
100
AcDbLine
 10
124.413597
 20
-0.870478
 30
0.0
 11
124.330986
 21
-0.77867
 31
0.0
  0
LINE
  5
83F
330
1F
100
AcDbEntity
  8
1
  6
CONTINUOUS
370
50
 62
4
100
AcDbLine
 10
124.496223
 20
-0.962182
 30
0.0
 11
124.413597
 21
-0.870478
 31
0.0
  0
LINE
  5
840
330
1F
100
AcDbEntity
  8
1
  6
CONTINUOUS
370
50
 62
4
100
AcDbLine
 10
137.121765
 20
7.033625
 30
0.0
 11
136.875626
 21
7.306489999999999
 31
0.0
  0
LINE
  5
841
330
1F
100
AcDbEntity
  8
1
  6
CONTINUOUS
370
50
 62
4
100
AcDbLine
 10
124.578865
 20
-1.053777
 30
0.0
 11
124.496223
 21
-0.962182
 31
0.0
  0
LINE
  5
842
330
1F
100
AcDbEntity
  8
1
  6
CONTINUOUS
370
50
 62
4
100
AcDbLine
 10
124.661484
 20
-1.145258
 30
0.0
 11
124.578865
 21
-1.053777
 31
0.0
  0
LINE
  5
843
330
1F
100
AcDbEntity
  8
1
  6
CONTINUOUS
370
50
 62
4
100
AcDbLine
 10
124.744087
 20
-1.236619
 30
0.0
 11
124.661484
 21
-1.145258
 31
0.0
  0
LINE
  5
844
330
1F
100
AcDbEntity
  8
1
  6
CONTINUOUS
370
50
 62
4
100
AcDbLine
 10
117.126511
 20
-9.278696
 30
0.0
 11
117.070129
 21
-9.216925
 31
0.0
  0
LINE
  5
845
330
1F
100
AcDbEntity
  8
1
  6
CONTINUOUS
370
50
 62
4
100
AcDbLine
 10
119.155777
 20
-9.646232
 30
0.0
 11
119.142029
 21
-9.631217
 31
0.0
  0
LINE
  5
846
330
1F
100
AcDbEntity
  8
1
  6
CONTINUOUS
370
50
 62
4
100
AcDbLine
 10
132.347122
 20
-7.096375999999999
 30
0.0
 11
132.254395
 21
-6.995146999999999
 31
0.0
  0
LINE
  5
847
330
1F
100
AcDbEntity
  8
1
  6
CONTINUOUS
370
50
 62
4
100
AcDbLine
 10
119.100082
 20
5.026752
 30
0.0
 11
118.961464
 21
5.177786999999999
 31
0.0
  0
LINE
  5
848
330
1F
100
AcDbEntity
  8
1
  6
CONTINUOUS
370
50
 62
4
100
AcDbLine
 10
127.070557
 20
-2.468258
 30
0.0
 11
126.987915
 21
-2.378229
 31
0.0
  0
LINE
  5
849
330
1F
100
AcDbEntity
  8
1
  6
CONTINUOUS
370
50
 62
4
100
AcDbLine
 10
127.153168
 20
-2.558058
 30
0.0
 11
127.070557
 21
-2.468258
 31
0.0
  0
LINE
  5
84A
330
1F
100
AcDbEntity
  8
1
  6
CONTINUOUS
370
50
 62
4
100
AcDbLine
 10
127.235756
 20
-2.647623
 30
0.0
 11
127.153168
 21
-2.558058
 31
0.0
  0
LINE
  5
84B
330
1F
100
AcDbEntity
  8
1
  6
CONTINUOUS
370
50
 62
4
100
AcDbLine
 10
131.265549
 20
-6.051184999999999
 30
0.0
 11
131.220917
 21
-6.002879999999999
 31
0.0
  0
LINE
  5
84C
330
1F
100
AcDbEntity
  8
1
  6
CONTINUOUS
370
50
 62
4
100
AcDbLine
 10
127.318329
 20
-2.736947
 30
0.0
 11
127.235756
 21
-2.647623
 31
0.0
  0
LINE
  5
84D
330
1F
100
AcDbEntity
  8
1
  6
CONTINUOUS
370
50
 62
4
100
AcDbLine
 10
131.093292
 20
-5.849985999999999
 30
0.0
 11
131.067551
 21
-5.822153999999999
 31
0.0
  0
LINE
  5
84E
330
1F
100
AcDbEntity
  8
1
  6
CONTINUOUS
370
50
 62
4
100
AcDbLine
 10
121.922089
 20
1.91843
 30
0.0
 11
121.841927
 21
2.00507
 31
0.0
  0
LINE
  5
84F
330
1F
100
AcDbEntity
  8
1
  6
CONTINUOUS
370
50
 62
4
100
AcDbLine
 10
127.400902
 20
-2.826025
 30
0.0
 11
127.318329
 21
-2.736947
 31
0.0
  0
LINE
  5
850
330
1F
100
AcDbEntity
  8
1
  6
CONTINUOUS
370
50
 62
4
100
AcDbLine
 10
131.310181
 20
-6.099327
 30
0.0
 11
131.265549
 21
-6.051184999999999
 31
0.0
  0
LINE
  5
851
330
1F
100
AcDbEntity
  8
1
  6
CONTINUOUS
370
50
 62
4
100
AcDbLine
 10
121.841927
 20
2.00507
 30
0.0
 11
121.761032
 21
2.092234
 31
0.0
  0
LINE
  5
852
330
1F
100
AcDbEntity
  8
1
  6
CONTINUOUS
370
50
 62
4
100
AcDbLine
 10
136.875626
 20
7.306489999999999
 30
0.0
 11
136.628815
 21
7.57198
 31
0.0
  0
LINE
  5
853
330
1F
100
AcDbEntity
  8
1
  6
CONTINUOUS
370
50
 62
4
100
AcDbLine
 10
127.48349
 20
-2.914849
 30
0.0
 11
127.400902
 21
-2.826025
 31
0.0
  0
LINE
  5
854
330
1F
100
AcDbEntity
  8
1
  6
CONTINUOUS
370
50
 62
4
100
AcDbLine
 10
131.354797
 20
-6.147304999999999
 30
0.0
 11
131.310181
 21
-6.099327
 31
0.0
  0
LINE
  5
855
330
1F
100
AcDbEntity
  8
1
  6
CONTINUOUS
370
50
 62
4
100
AcDbLine
 10
121.761032
 20
2.092234
 30
0.0
 11
121.679352
 21
2.179834
 31
0.0
  0
LINE
  5
856
330
1F
100
AcDbEntity
  8
1
  6
CONTINUOUS
370
50
 62
4
100
AcDbLine
 10
127.566086
 20
-3.003415
 30
0.0
 11
127.48349
 21
-2.914849
 31
0.0
  0
LINE
  5
857
330
1F
100
AcDbEntity
  8
1
  6
CONTINUOUS
370
50
 62
4
100
AcDbLine
 10
131.399429
 20
-6.195118
 30
0.0
 11
131.354797
 21
-6.147304999999999
 31
0.0
  0
LINE
  5
858
330
1F
100
AcDbEntity
  8
1
  6
CONTINUOUS
370
50
 62
4
100
AcDbLine
 10
138.770676
 20
3.216487
 30
0.0
 11
138.687866
 21
3.304965
 31
0.0
  0
LINE
  5
859
330
1F
100
AcDbEntity
  8
1
  6
CONTINUOUS
370
50
 62
4
100
AcDbLine
 10
138.687866
 20
3.304965
 30
0.0
 11
138.605453
 21
3.392989
 31
0.0
  0
LINE
  5
85A
330
1F
100
AcDbEntity
  8
1
  6
CONTINUOUS
370
50
 62
4
100
AcDbLine
 10
131.444061
 20
-6.242763999999999
 30
0.0
 11
131.399429
 21
-6.195118
 31
0.0
  0
LINE
  5
85B
330
1F
100
AcDbEntity
  8
1
  6
CONTINUOUS
370
50
 62
4
100
AcDbLine
 10
138.85408
 20
3.127479
 30
0.0
 11
138.770676
 21
3.216487
 31
0.0
  0
LINE
  5
85C
330
1F
100
AcDbEntity
  8
1
  6
CONTINUOUS
370
50
 62
4
100
AcDbLine
 10
121.922089
 20
3.206923
 30
0.0
 11
121.840057
 21
3.294376
 31
0.0
  0
LINE
  5
85D
330
1F
100
AcDbEntity
  8
1
  6
CONTINUOUS
370
50
 62
4
100
AcDbLine
 10
138.605453
 20
3.392989
 30
0.0
 11
138.523239
 21
3.480634
 31
0.0
  0
LINE
  5
85E
330
1F
100
AcDbEntity
  8
1
  6
CONTINUOUS
370
50
 62
4
100
AcDbLine
 10
121.679352
 20
2.179834
 30
0.0
 11
121.59684
 21
2.26778
 31
0.0
  0
LINE
  5
85F
330
1F
100
AcDbEntity
  8
1
  6
CONTINUOUS
370
50
 62
4
100
AcDbLine
 10
132.297104
 20
8.5326
 30
0.0
 11
132.256607
 21
8.575737
 31
0.0
  0
LINE
  5
860
330
1F
100
AcDbEntity
  8
1
  6
CONTINUOUS
370
50
 62
4
100
AcDbLine
 10
131.488693
 20
-6.290245
 30
0.0
 11
131.444061
 21
-6.242763999999999
 31
0.0
  0
LINE
  5
861
330
1F
100
AcDbEntity
  8
1
  6
CONTINUOUS
370
50
 62
4
100
AcDbLine
 10
121.840057
 20
3.294376
 30
0.0
 11
121.757698
 21
3.381953
 31
0.0
  0
LINE
  5
862
330
1F
100
AcDbEntity
  8
1
  6
CONTINUOUS
370
50
 62
4
100
AcDbLine
 10
138.523239
 20
3.480634
 30
0.0
 11
138.44104
 21
3.567976
 31
0.0
  0
LINE
  5
863
330
1F
100
AcDbEntity
  8
1
  6
CONTINUOUS
370
50
 62
4
100
AcDbLine
 10
121.757698
 20
3.381953
 30
0.0
 11
121.675087
 21
3.469617
 31
0.0
  0
LINE
  5
864
330
1F
100
AcDbEntity
  8
1
  6
CONTINUOUS
370
50
 62
4
100
AcDbLine
 10
121.675087
 20
3.469617
 30
0.0
 11
121.592316
 21
3.557336
 31
0.0
  0
LINE
  5
865
330
1F
100
AcDbEntity
  8
1
  6
CONTINUOUS
370
50
 62
4
100
AcDbLine
 10
121.426643
 20
3.732797
 30
0.0
 11
121.34391
 21
3.820471
 31
0.0
  0
LINE
  5
866
330
1F
100
AcDbEntity
  8
1
  6
CONTINUOUS
370
50
 62
4
100
AcDbLine
 10
131.53334
 20
-6.337555999999999
 30
0.0
 11
131.488693
 21
-6.290245
 31
0.0
  0
LINE
  5
867
330
1F
100
AcDbEntity
  8
1
  6
CONTINUOUS
370
50
 62
4
100
AcDbLine
 10
121.592316
 20
3.557336
 30
0.0
 11
121.509476
 21
3.645074
 31
0.0
  0
LINE
  5
868
330
1F
100
AcDbEntity
  8
1
  6
CONTINUOUS
370
50
 62
4
100
AcDbLine
 10
121.509476
 20
3.645074
 30
0.0
 11
121.426643
 21
3.732797
 31
0.0
  0
LINE
  5
869
330
1F
100
AcDbEntity
  8
1
  6
CONTINUOUS
370
50
 62
4
100
AcDbLine
 10
121.59684
 20
2.26778
 30
0.0
 11
121.513458
 21
2.355983
 31
0.0
  0
LINE
  5
86A
330
1F
100
AcDbEntity
  8
1
  6
CONTINUOUS
370
50
 62
4
100
AcDbLine
 10
138.44104
 20
3.567976
 30
0.0
 11
138.358658
 21
3.655089
 31
0.0
  0
LINE
  5
86B
330
1F
100
AcDbEntity
  8
1
  6
CONTINUOUS
370
50
 62
4
100
AcDbLine
 10
117.249115
 20
5.766736
 30
0.0
 11
117.176788
 21
5.8428
 31
0.0
  0
LINE
  5
86C
330
1F
100
AcDbEntity
  8
1
  6
CONTINUOUS
370
50
 62
4
100
AcDbLine
 10
138.358658
 20
3.655089
 30
0.0
 11
138.275909
 21
3.742049
 31
0.0
  0
LINE
  5
86D
330
1F
100
AcDbEntity
  8
1
  6
CONTINUOUS
370
50
 62
4
100
AcDbLine
 10
121.513458
 20
2.355983
 30
0.0
 11
121.429169
 21
2.444354
 31
0.0
  0
LINE
  5
86E
330
1F
100
AcDbEntity
  8
1
  6
CONTINUOUS
370
50
 62
4
100
AcDbLine
 10
133.641876
 20
-8.137305999999999
 30
0.0
 11
133.599655
 21
-8.093052
 31
0.0
  0
LINE
  5
86F
330
1F
100
AcDbEntity
  8
1
  6
CONTINUOUS
370
50
 62
4
100
AcDbLine
 10
136.628815
 20
7.57198
 30
0.0
 11
136.381424
 21
7.829927
 31
0.0
  0
LINE
  5
870
330
1F
100
AcDbEntity
  8
1
  6
CONTINUOUS
370
50
 62
4
100
AcDbLine
 10
118.584091
 20
6.306140999999999
 30
0.0
 11
118.521912
 21
6.370741
 31
0.0
  0
LINE
  5
871
330
1F
100
AcDbEntity
  8
1
  6
CONTINUOUS
370
50
 62
4
100
AcDbLine
 10
121.429169
 20
2.444354
 30
0.0
 11
121.34391
 21
2.532804
 31
0.0
  0
LINE
  5
872
330
1F
100
AcDbEntity
  8
1
  6
CONTINUOUS
370
50
 62
4
100
AcDbLine
 10
119.142029
 20
-9.631217
 30
0.0
 11
119.129616
 21
-9.618355
 31
0.0
  0
LINE
  5
873
330
1F
100
AcDbEntity
  8
1
  6
CONTINUOUS
370
50
 62
4
100
AcDbLine
 10
118.961464
 20
5.177786999999999
 30
0.0
 11
118.852325
 21
5.290647
 31
0.0
  0
LINE
  5
874
330
1F
100
AcDbEntity
  8
1
  6
CONTINUOUS
370
50
 62
4
100
AcDbLine
 10
127.070465
 20
-3.749114
 30
0.0
 11
126.987915
 21
-3.664083
 31
0.0
  0
LINE
  5
875
330
1F
100
AcDbEntity
  8
1
  6
CONTINUOUS
370
50
 62
4
100
AcDbLine
 10
131.575485
 20
-6.380894
 30
0.0
 11
131.53334
 21
-6.337555999999999
 31
0.0
  0
LINE
  5
876
330
1F
100
AcDbEntity
  8
1
  6
CONTINUOUS
370
50
 62
4
100
AcDbLine
 10
127.153046
 20
-3.833791
 30
0.0
 11
127.070465
 21
-3.749114
 31
0.0
  0
LINE
  5
877
330
1F
100
AcDbEntity
  8
1
  6
CONTINUOUS
370
50
 62
4
100
AcDbLine
 10
131.067551
 20
-5.822153999999999
 30
0.0
 11
131.02301
 21
-5.776534
 31
0.0
  0
LINE
  5
878
330
1F
100
AcDbEntity
  8
1
  6
CONTINUOUS
370
50
 62
4
100
AcDbLine
 10
131.617645
 20
-6.424021
 30
0.0
 11
131.575485
 21
-6.380894
 31
0.0
  0
LINE
  5
879
330
1F
100
AcDbEntity
  8
1
  6
CONTINUOUS
370
50
 62
4
100
AcDbLine
 10
127.235641
 20
-3.918111
 30
0.0
 11
127.153046
 21
-3.833791
 31
0.0
  0
LINE
  5
87A
330
1F
100
AcDbEntity
  8
1
  6
CONTINUOUS
370
50
 62
4
100
AcDbLine
 10
131.659805
 20
-6.466938
 30
0.0
 11
131.617645
 21
-6.424021
 31
0.0
  0
LINE
  5
87B
330
1F
100
AcDbEntity
  8
1
  6
CONTINUOUS
370
50
 62
4
100
AcDbLine
 10
127.318253
 20
-4.002066999999999
 30
0.0
 11
127.235641
 21
-3.918111
 31
0.0
  0
LINE
  5
87C
330
1F
100
AcDbEntity
  8
1
  6
CONTINUOUS
370
50
 62
4
100
AcDbLine
 10
131.701981
 20
-6.509645
 30
0.0
 11
131.659805
 21
-6.466938
 31
0.0
  0
LINE
  5
87D
330
1F
100
AcDbEntity
  8
1
  6
CONTINUOUS
370
50
 62
4
100
AcDbLine
 10
127.400871
 20
-4.085653
 30
0.0
 11
127.318253
 21
-4.002066999999999
 31
0.0
  0
LINE
  5
87E
330
1F
100
AcDbEntity
  8
1
  6
CONTINUOUS
370
50
 62
4
100
AcDbLine
 10
131.744156
 20
-6.552138999999999
 30
0.0
 11
131.701981
 21
-6.509645
 31
0.0
  0
LINE
  5
87F
330
1F
100
AcDbEntity
  8
1
  6
CONTINUOUS
370
50
 62
4
100
AcDbLine
 10
127.483482
 20
-4.168864
 30
0.0
 11
127.400871
 21
-4.085653
 31
0.0
  0
LINE
  5
880
330
1F
100
AcDbEntity
  8
1
  6
CONTINUOUS
370
50
 62
4
100
AcDbLine
 10
120.511086
 20
6.908123
 30
0.0
 11
120.428513
 21
6.991074999999999
 31
0.0
  0
LINE
  5
881
330
1F
100
AcDbEntity
  8
1
  6
CONTINUOUS
370
50
 62
4
100
AcDbLine
 10
127.566086
 20
-4.251693
 30
0.0
 11
127.483482
 21
-4.168864
 31
0.0
  0
LINE
  5
882
330
1F
100
AcDbEntity
  8
1
  6
CONTINUOUS
370
50
 62
4
100
AcDbLine
 10
131.786346
 20
-6.594418999999999
 30
0.0
 11
131.744156
 21
-6.552138999999999
 31
0.0
  0
LINE
  5
883
330
1F
100
AcDbEntity
  8
1
  6
CONTINUOUS
370
50
 62
4
100
AcDbLine
 10
118.648445
 20
6.241733
 30
0.0
 11
118.584091
 21
6.306140999999999
 31
0.0
  0
LINE
  5
884
330
1F
100
AcDbEntity
  8
1
  6
CONTINUOUS
370
50
 62
4
100
AcDbLine
 10
131.828522
 20
-6.636486
 30
0.0
 11
131.786346
 21
-6.594418999999999
 31
0.0
  0
LINE
  5
885
330
1F
100
AcDbEntity
  8
1
  6
CONTINUOUS
370
50
 62
4
100
AcDbLine
 10
120.428513
 20
6.991074999999999
 30
0.0
 11
120.345932
 21
7.073378
 31
0.0
  0
LINE
  5
886
330
1F
100
AcDbEntity
  8
1
  6
CONTINUOUS
370
50
 62
4
100
AcDbLine
 10
138.85408
 20
4.387992
 30
0.0
 11
138.771545
 21
4.469717999999999
 31
0.0
  0
LINE
  5
887
330
1F
100
AcDbEntity
  8
1
  6
CONTINUOUS
370
50
 62
4
100
AcDbLine
 10
120.345932
 20
7.073378
 30
0.0
 11
120.263344
 21
7.155027
 31
0.0
  0
LINE
  5
888
330
1F
100
AcDbEntity
  8
1
  6
CONTINUOUS
370
50
 62
4
100
AcDbLine
 10
132.336517
 20
8.493827999999999
 30
0.0
 11
132.297104
 21
8.5326
 31
0.0
  0
LINE
  5
889
330
1F
100
AcDbEntity
  8
1
  6
CONTINUOUS
370
50
 62
4
100
AcDbLine
 10
138.771545
 20
4.469717999999999
 30
0.0
 11
138.688934
 21
4.550835
 31
0.0
  0
LINE
  5
88A
330
1F
100
AcDbEntity
  8
1
  6
CONTINUOUS
370
50
 62
4
100
AcDbLine
 10
120.263344
 20
7.155027
 30
0.0
 11
120.180748
 21
7.236015999999999
 31
0.0
  0
LINE
  5
88B
330
1F
100
AcDbEntity
  8
1
  6
CONTINUOUS
370
50
 62
4
100
AcDbLine
 10
118.852325
 20
5.290647
 30
0.0
 11
118.78109
 21
5.360329
 31
0.0
  0
LINE
  5
88C
330
1F
100
AcDbEntity
  8
1
  6
CONTINUOUS
370
50
 62
4
100
AcDbLine
 10
117.707077
 20
5.407107
 30
0.0
 11
117.689087
 21
5.424659
 31
0.0
  0
LINE
  5
88D
330
1F
100
AcDbEntity
  8
1
  6
CONTINUOUS
370
50
 62
4
100
AcDbLine
 10
138.688934
 20
4.550835
 30
0.0
 11
138.606277
 21
4.631389
 31
0.0
  0
LINE
  5
88E
330
1F
100
AcDbEntity
  8
1
  6
CONTINUOUS
370
50
 62
4
100
AcDbLine
 10
119.129616
 20
-9.618355
 30
0.0
 11
119.118515
 21
-9.607554
 31
0.0
  0
LINE
  5
88F
330
1F
100
AcDbEntity
  8
1
  6
CONTINUOUS
370
50
 62
4
100
AcDbLine
 10
120.180748
 20
7.236015999999999
 30
0.0
 11
120.098145
 21
7.316338999999999
 31
0.0
  0
LINE
  5
890
330
1F
100
AcDbEntity
  8
1
  6
CONTINUOUS
370
50
 62
4
100
AcDbLine
 10
132.254395
 20
-6.995146999999999
 30
0.0
 11
132.153564
 21
-6.897514999999999
 31
0.0
  0
LINE
  5
891
330
1F
100
AcDbEntity
  8
1
  6
CONTINUOUS
370
50
 62
4
100
AcDbLine
 10
138.606277
 20
4.631389
 30
0.0
 11
138.523605
 21
4.711425
 31
0.0
  0
LINE
  5
892
330
1F
100
AcDbEntity
  8
1
  6
CONTINUOUS
370
50
 62
4
100
AcDbLine
 10
133.478577
 20
7.682555
 30
0.0
 11
133.411316
 21
7.747573
 31
0.0
  0
LINE
  5
893
330
1F
100
AcDbEntity
  8
1
  6
CONTINUOUS
370
50
 62
4
100
AcDbLine
 10
133.599655
 20
-8.093052
 30
0.0
 11
133.558365
 21
-8.053196999999999
 31
0.0
  0
LINE
  5
894
330
1F
100
AcDbEntity
  8
1
  6
CONTINUOUS
370
50
 62
4
100
AcDbLine
 10
128.481598
 20
-7.411362
 30
0.0
 11
128.398911
 21
-7.331550999999999
 31
0.0
  0
LINE
  5
895
330
1F
100
AcDbEntity
  8
1
  6
CONTINUOUS
370
50
 62
4
100
AcDbLine
 10
120.098145
 20
7.316338999999999
 30
0.0
 11
120.015533
 21
7.395992
 31
0.0
  0
LINE
  5
896
330
1F
100
AcDbEntity
  8
1
  6
CONTINUOUS
370
50
 62
4
100
AcDbLine
 10
138.523605
 20
4.711425
 30
0.0
 11
138.440979
 21
4.790988
 31
0.0
  0
LINE
  5
897
330
1F
100
AcDbEntity
  8
1
  6
CONTINUOUS
370
50
 62
4
100
AcDbLine
 10
134.963135
 20
6.357571999999999
 30
0.0
 11
134.910294
 21
6.408255
 31
0.0
  0
LINE
  5
898
330
1F
100
AcDbEntity
  8
1
  6
CONTINUOUS
370
50
 62
4
100
AcDbLine
 10
134.910294
 20
6.408255
 30
0.0
 11
134.857544
 21
6.458824
 31
0.0
  0
LINE
  5
899
330
1F
100
AcDbEntity
  8
1
  6
CONTINUOUS
370
50
 62
4
100
AcDbLine
 10
138.440979
 20
4.790988
 30
0.0
 11
138.358398
 21
4.870123
 31
0.0
  0
LINE
  5
89A
330
1F
100
AcDbEntity
  8
1
  6
CONTINUOUS
370
50
 62
4
100
AcDbLine
 10
134.857544
 20
6.458824
 30
0.0
 11
134.804871
 21
6.509272999999999
 31
0.0
  0
LINE
  5
89B
330
1F
100
AcDbEntity
  8
1
  6
CONTINUOUS
370
50
 62
4
100
AcDbLine
 10
128.564224
 20
-7.490478
 30
0.0
 11
128.481598
 21
-7.411362
 31
0.0
  0
LINE
  5
89C
330
1F
100
AcDbEntity
  8
1
  6
CONTINUOUS
370
50
 62
4
100
AcDbLine
 10
134.804871
 20
6.509272999999999
 30
0.0
 11
134.752289
 21
6.559597
 31
0.0
  0
LINE
  5
89D
330
1F
100
AcDbEntity
  8
1
  6
CONTINUOUS
370
50
 62
4
100
AcDbLine
 10
134.752289
 20
6.559597
 30
0.0
 11
134.699799
 21
6.609789
 31
0.0
  0
LINE
  5
89E
330
1F
100
AcDbEntity
  8
1
  6
CONTINUOUS
370
50
 62
4
100
AcDbLine
 10
120.015533
 20
7.395992
 30
0.0
 11
119.932915
 21
7.474968
 31
0.0
  0
LINE
  5
89F
330
1F
100
AcDbEntity
  8
1
  6
CONTINUOUS
370
50
 62
4
100
AcDbLine
 10
136.61972
 20
4.766757999999999
 30
0.0
 11
136.381424
 21
4.994489
 31
0.0
  0
LINE
  5
8A0
330
1F
100
AcDbEntity
  8
1
  6
CONTINUOUS
370
50
 62
4
100
AcDbLine
 10
134.699799
 20
6.609789
 30
0.0
 11
134.6474
 21
6.659846
 31
0.0
  0
LINE
  5
8A1
330
1F
100
AcDbEntity
  8
1
  6
CONTINUOUS
370
50
 62
4
100
AcDbLine
 10
138.358398
 20
4.870123
 30
0.0
 11
138.275909
 21
4.948875999999999
 31
0.0
  0
LINE
  5
8A2
330
1F
100
AcDbEntity
  8
1
  6
CONTINUOUS
370
50
 62
4
100
AcDbLine
 10
118.714836
 20
6.178418
 30
0.0
 11
118.648445
 21
6.241733
 31
0.0
  0
LINE
  5
8A3
330
1F
100
AcDbEntity
  8
1
  6
CONTINUOUS
370
50
 62
4
100
AcDbLine
 10
134.6474
 20
6.659846
 30
0.0
 11
134.506973
 21
6.793708
 31
0.0
  0
LINE
  5
8A4
330
1F
100
AcDbEntity
  8
1
  6
CONTINUOUS
370
50
 62
4
100
AcDbLine
 10
136.860367
 20
4.537655
 30
0.0
 11
136.61972
 21
4.766757999999999
 31
0.0
  0
LINE
  5
8A5
330
1F
100
AcDbEntity
  8
1
  6
CONTINUOUS
370
50
 62
4
100
AcDbLine
 10
117.725082
 20
5.390004999999999
 30
0.0
 11
117.707077
 21
5.407107
 31
0.0
  0
LINE
  5
8A6
330
1F
100
AcDbEntity
  8
1
  6
CONTINUOUS
370
50
 62
4
100
AcDbLine
 10
128.64679
 20
-7.568896
 30
0.0
 11
128.564224
 21
-7.490478
 31
0.0
  0
LINE
  5
8A7
330
1F
100
AcDbEntity
  8
1
  6
CONTINUOUS
370
50
 62
4
100
AcDbLine
 10
134.506973
 20
6.793708
 30
0.0
 11
134.367218
 21
6.926438999999999
 31
0.0
  0
LINE
  5
8A8
330
1F
100
AcDbEntity
  8
1
  6
CONTINUOUS
370
50
 62
4
100
AcDbLine
 10
131.02301
 20
-5.776534
 30
0.0
 11
130.978439
 21
-5.734279
 31
0.0
  0
LINE
  5
8A9
330
1F
100
AcDbEntity
  8
1
  6
CONTINUOUS
370
50
 62
4
100
AcDbLine
 10
137.103348
 20
4.307769
 30
0.0
 11
136.860367
 21
4.537655
 31
0.0
  0
LINE
  5
8AA
330
1F
100
AcDbEntity
  8
1
  6
CONTINUOUS
370
50
 62
4
100
AcDbLine
 10
134.367218
 20
6.926438999999999
 30
0.0
 11
134.228165
 21
7.057931
 31
0.0
  0
LINE
  5
8AB
330
1F
100
AcDbEntity
  8
1
  6
CONTINUOUS
370
50
 62
4
100
AcDbLine
 10
128.72934
 20
-7.646616
 30
0.0
 11
128.64679
 21
-7.568896
 31
0.0
  0
LINE
  5
8AC
330
1F
100
AcDbEntity
  8
1
  6
CONTINUOUS
370
50
 62
4
100
AcDbLine
 10
134.228165
 20
7.057931
 30
0.0
 11
134.089813
 21
7.188077
 31
0.0
  0
LINE
  5
8AD
330
1F
100
AcDbEntity
  8
1
  6
CONTINUOUS
370
50
 62
4
100
AcDbLine
 10
129.892563
 20
-5.341686
 30
0.0
 11
129.809921
 21
-5.263967
 31
0.0
  0
LINE
  5
8AE
330
1F
100
AcDbEntity
  8
1
  6
CONTINUOUS
370
50
 62
4
100
AcDbLine
 10
137.348602
 20
4.07769
 30
0.0
 11
137.103348
 21
4.307769
 31
0.0
  0
LINE
  5
8AF
330
1F
100
AcDbEntity
  8
1
  6
CONTINUOUS
370
50
 62
4
100
AcDbLine
 10
134.089813
 20
7.188077
 30
0.0
 11
133.952194
 21
7.316771999999999
 31
0.0
  0
LINE
  5
8B0
330
1F
100
AcDbEntity
  8
1
  6
CONTINUOUS
370
50
 62
4
100
AcDbLine
 10
129.975174
 20
-5.418914
 30
0.0
 11
129.892563
 21
-5.341686
 31
0.0
  0
LINE
  5
8B1
330
1F
100
AcDbEntity
  8
1
  6
CONTINUOUS
370
50
 62
4
100
AcDbLine
 10
128.81189
 20
-7.723634
 30
0.0
 11
128.72934
 21
-7.646616
 31
0.0
  0
LINE
  5
8B2
330
1F
100
AcDbEntity
  8
1
  6
CONTINUOUS
370
50
 62
4
100
AcDbLine
 10
130.05777
 20
-5.495645
 30
0.0
 11
129.975174
 21
-5.418914
 31
0.0
  0
LINE
  5
8B3
330
1F
100
AcDbEntity
  8
1
  6
CONTINUOUS
370
50
 62
4
100
AcDbLine
 10
133.952194
 20
7.316771999999999
 30
0.0
 11
133.815338
 21
7.443905999999999
 31
0.0
  0
LINE
  5
8B4
330
1F
100
AcDbEntity
  8
1
  6
CONTINUOUS
370
50
 62
4
100
AcDbLine
 10
137.596115
 20
3.848004
 30
0.0
 11
137.348602
 21
4.07769
 31
0.0
  0
LINE
  5
8B5
330
1F
100
AcDbEntity
  8
1
  6
CONTINUOUS
370
50
 62
4
100
AcDbLine
 10
128.89447
 20
-7.79995
 30
0.0
 11
128.81189
 21
-7.723634
 31
0.0
  0
LINE
  5
8B6
330
1F
100
AcDbEntity
  8
1
  6
CONTINUOUS
370
50
 62
4
100
AcDbLine
 10
117.743111
 20
5.373359
 30
0.0
 11
117.725082
 21
5.390004999999999
 31
0.0
  0
LINE
  5
8B7
330
1F
100
AcDbEntity
  8
1
  6
CONTINUOUS
370
50
 62
4
100
AcDbLine
 10
130.14035
 20
-5.571873999999999
 30
0.0
 11
130.05777
 21
-5.495645
 31
0.0
  0
LINE
  5
8B8
330
1F
100
AcDbEntity
  8
1
  6
CONTINUOUS
370
50
 62
4
100
AcDbLine
 10
130.222916
 20
-5.647596
 30
0.0
 11
130.14035
 21
-5.571873999999999
 31
0.0
  0
LINE
  5
8B9
330
1F
100
AcDbEntity
  8
1
  6
CONTINUOUS
370
50
 62
4
100
AcDbLine
 10
137.84584
 20
3.619303
 30
0.0
 11
137.596115
 21
3.848004
 31
0.0
  0
LINE
  5
8BA
330
1F
100
AcDbEntity
  8
1
  6
CONTINUOUS
370
50
 62
4
100
AcDbLine
 10
128.977081
 20
-7.875560999999999
 30
0.0
 11
128.89447
 21
-7.79995
 31
0.0
  0
LINE
  5
8BB
330
1F
100
AcDbEntity
  8
1
  6
CONTINUOUS
370
50
 62
4
100
AcDbLine
 10
130.305496
 20
-5.722805999999999
 30
0.0
 11
130.222916
 21
-5.647596
 31
0.0
  0
LINE
  5
8BC
330
1F
100
AcDbEntity
  8
1
  6
CONTINUOUS
370
50
 62
4
100
AcDbLine
 10
130.388092
 20
-5.797498
 30
0.0
 11
130.305496
 21
-5.722805999999999
 31
0.0
  0
LINE
  5
8BD
330
1F
100
AcDbEntity
  8
1
  6
CONTINUOUS
370
50
 62
4
100
AcDbLine
 10
138.097748
 20
3.392173
 30
0.0
 11
137.84584
 21
3.619303
 31
0.0
  0
LINE
  5
8BE
330
1F
100
AcDbEntity
  8
1
  6
CONTINUOUS
370
50
 62
4
100
AcDbLine
 10
119.118515
 20
-9.607554
 30
0.0
 11
119.108681
 21
-9.598725
 31
0.0
  0
LINE
  5
8BF
330
1F
100
AcDbEntity
  8
1
  6
CONTINUOUS
370
50
 62
4
100
AcDbLine
 10
118.78109
 20
5.360329
 30
0.0
 11
118.720711
 21
5.414479
 31
0.0
  0
LINE
  5
8C0
330
1F
100
AcDbEntity
  8
1
  6
CONTINUOUS
370
50
 62
4
100
AcDbLine
 10
117.761154
 20
5.357184
 30
0.0
 11
117.743111
 21
5.373359
 31
0.0
  0
LINE
  5
8C1
330
1F
100
AcDbEntity
  8
1
  6
CONTINUOUS
370
50
 62
4
100
AcDbLine
 10
132.153564
 20
-6.897514999999999
 30
0.0
 11
132.102737
 21
-6.852003
 31
0.0
  0
LINE
  5
8C2
330
1F
100
AcDbEntity
  8
1
  6
CONTINUOUS
370
50
 62
4
100
AcDbLine
 10
132.37471
 20
8.459671
 30
0.0
 11
132.336517
 21
8.493827999999999
 31
0.0
  0
LINE
  5
8C3
330
1F
100
AcDbEntity
  8
1
  6
CONTINUOUS
370
50
 62
4
100
AcDbLine
 10
118.787254
 20
6.113782
 30
0.0
 11
118.714836
 21
6.178418
 31
0.0
  0
LINE
  5
8C4
330
1F
100
AcDbEntity
  8
1
  6
CONTINUOUS
370
50
 62
4
100
AcDbLine
 10
117.272911
 20
5.745514
 30
0.0
 11
117.249115
 21
5.766736
 31
0.0
  0
LINE
  5
8C5
330
1F
100
AcDbEntity
  8
1
  6
CONTINUOUS
370
50
 62
4
100
AcDbLine
 10
117.070129
 20
-9.216925
 30
0.0
 11
117.019562
 21
-9.172260999999999
 31
0.0
  0
LINE
  5
8C6
330
1F
100
AcDbEntity
  8
1
  6
CONTINUOUS
370
50
 62
4
100
AcDbLine
 10
136.032089
 20
5.91034
 30
0.0
 11
135.949432
 21
5.982736999999999
 31
0.0
  0
LINE
  5
8C7
330
1F
100
AcDbEntity
  8
1
  6
CONTINUOUS
370
50
 62
4
100
AcDbLine
 10
133.558365
 20
-8.053196999999999
 30
0.0
 11
133.518158
 21
-8.017997
 31
0.0
  0
LINE
  5
8C8
330
1F
100
AcDbEntity
  8
1
  6
CONTINUOUS
370
50
 62
4
100
AcDbLine
 10
135.949432
 20
5.982736999999999
 30
0.0
 11
135.866791
 21
6.054609
 31
0.0
  0
LINE
  5
8C9
330
1F
100
AcDbEntity
  8
1
  6
CONTINUOUS
370
50
 62
4
100
AcDbLine
 10
117.779205
 20
5.341495999999999
 30
0.0
 11
117.761154
 21
5.357184
 31
0.0
  0
LINE
  5
8CA
330
1F
100
AcDbEntity
  8
1
  6
CONTINUOUS
370
50
 62
4
100
AcDbLine
 10
130.978439
 20
-5.734279
 30
0.0
 11
130.933945
 21
-5.695721
 31
0.0
  0
LINE
  5
8CB
330
1F
100
AcDbEntity
  8
1
  6
CONTINUOUS
370
50
 62
4
100
AcDbLine
 10
135.866791
 20
6.054609
 30
0.0
 11
135.784149
 21
6.125952
 31
0.0
  0
LINE
  5
8CC
330
1F
100
AcDbEntity
  8
1
  6
CONTINUOUS
370
50
 62
4
100
AcDbLine
 10
135.784149
 20
6.125952
 30
0.0
 11
135.701538
 21
6.196759999999999
 31
0.0
  0
LINE
  5
8CD
330
1F
100
AcDbEntity
  8
1
  6
CONTINUOUS
370
50
 62
4
100
AcDbLine
 10
132.102737
 20
-6.852003
 30
0.0
 11
132.050354
 21
-6.807217
 31
0.0
  0
LINE
  5
8CE
330
1F
100
AcDbEntity
  8
1
  6
CONTINUOUS
370
50
 62
4
100
AcDbLine
 10
135.701538
 20
6.196759999999999
 30
0.0
 11
135.618958
 21
6.267029
 31
0.0
  0
LINE
  5
8CF
330
1F
100
AcDbEntity
  8
1
  6
CONTINUOUS
370
50
 62
4
100
AcDbLine
 10
135.618958
 20
6.267029
 30
0.0
 11
135.536407
 21
6.336751
 31
0.0
  0
LINE
  5
8D0
330
1F
100
AcDbEntity
  8
1
  6
CONTINUOUS
370
50
 62
4
100
AcDbLine
 10
133.55043
 20
7.621868999999999
 30
0.0
 11
133.478577
 21
7.682555
 31
0.0
  0
LINE
  5
8D1
330
1F
100
AcDbEntity
  8
1
  6
CONTINUOUS
370
50
 62
4
100
AcDbLine
 10
117.797256
 20
5.326307
 30
0.0
 11
117.779205
 21
5.341495999999999
 31
0.0
  0
LINE
  5
8D2
330
1F
100
AcDbEntity
  8
1
  6
CONTINUOUS
370
50
 62
4
100
AcDbLine
 10
118.879463
 20
6.036220999999999
 30
0.0
 11
118.787254
 21
6.113782
 31
0.0
  0
LINE
  5
8D3
330
1F
100
AcDbEntity
  8
1
  6
CONTINUOUS
370
50
 62
4
100
AcDbLine
 10
129.892456
 20
-6.414512999999999
 30
0.0
 11
129.809921
 21
-6.345282999999999
 31
0.0
  0
LINE
  5
8D4
330
1F
100
AcDbEntity
  8
1
  6
CONTINUOUS
370
50
 62
4
100
AcDbLine
 10
135.536407
 20
6.336751
 30
0.0
 11
135.453918
 21
6.405924
 31
0.0
  0
LINE
  5
8D5
330
1F
100
AcDbEntity
  8
1
  6
CONTINUOUS
370
50
 62
4
100
AcDbLine
 10
117.689087
 20
5.424659999999999
 30
0.0
 11
117.64827
 21
5.458664
 31
0.0
  0
LINE
  5
8D6
330
1F
100
AcDbEntity
  8
1
  6
CONTINUOUS
370
50
 62
4
100
AcDbLine
 10
129.975021
 20
-6.483147
 30
0.0
 11
129.892456
 21
-6.414512999999999
 31
0.0
  0
LINE
  5
8D7
330
1F
100
AcDbEntity
  8
1
  6
CONTINUOUS
370
50
 62
4
100
AcDbLine
 10
117.64827
 20
5.458664
 30
0.0
 11
117.607292
 21
5.492448
 31
0.0
  0
LINE
  5
8D8
330
1F
100
AcDbEntity
  8
1
  6
CONTINUOUS
370
50
 62
4
100
AcDbLine
 10
130.057617
 20
-6.551182
 30
0.0
 11
129.975021
 21
-6.483147
 31
0.0
  0
LINE
  5
8D9
330
1F
100
AcDbEntity
  8
1
  6
CONTINUOUS
370
50
 62
4
100
AcDbLine
 10
117.297256
 20
5.725523
 30
0.0
 11
117.272911
 21
5.745514
 31
0.0
  0
LINE
  5
8DA
330
1F
100
AcDbEntity
  8
1
  6
CONTINUOUS
370
50
 62
4
100
AcDbLine
 10
132.050354
 20
-6.807217
 30
0.0
 11
131.996552
 21
-6.763198
 31
0.0
  0
LINE
  5
8DB
330
1F
100
AcDbEntity
  8
1
  6
CONTINUOUS
370
50
 62
4
100
AcDbLine
 10
130.140228
 20
-6.618613
 30
0.0
 11
130.057617
 21
-6.551182
 31
0.0
  0
LINE
  5
8DC
330
1F
100
AcDbEntity
  8
1
  6
CONTINUOUS
370
50
 62
4
100
AcDbLine
 10
117.607292
 20
5.492448
 30
0.0
 11
117.566147
 21
5.526012
 31
0.0
  0
LINE
  5
8DD
330
1F
100
AcDbEntity
  8
1
  6
CONTINUOUS
370
50
 62
4
100
AcDbLine
 10
118.988762
 20
5.947203
 30
0.0
 11
118.879463
 21
6.036220999999999
 31
0.0
  0
LINE
  5
8DE
330
1F
100
AcDbEntity
  8
1
  6
CONTINUOUS
370
50
 62
4
100
AcDbLine
 10
118.720711
 20
5.414479
 30
0.0
 11
118.657379
 21
5.46603
 31
0.0
  0
LINE
  5
8DF
330
1F
100
AcDbEntity
  8
1
  6
CONTINUOUS
370
50
 62
4
100
AcDbLine
 10
134.963135
 20
9.144624
 30
0.0
 11
134.799271
 21
9.277949999999999
 31
0.0
  0
LINE
  5
8E0
330
1F
100
AcDbEntity
  8
1
  6
CONTINUOUS
370
50
 62
4
100
AcDbLine
 10
119.108681
 20
-9.598725
 30
0.0
 11
119.10009
 21
-9.591777
 31
0.0
  0
LINE
  5
8E1
330
1F
100
AcDbEntity
  8
1
  6
CONTINUOUS
370
50
 62
4
100
AcDbLine
 10
130.222855
 20
-6.685435999999999
 30
0.0
 11
130.140228
 21
-6.618613
 31
0.0
  0
LINE
  5
8E2
330
1F
100
AcDbEntity
  8
1
  6
CONTINUOUS
370
50
 62
4
100
AcDbLine
 10
131.828522
 20
9.177508
 30
0.0
 11
131.786255
 21
9.211678
 31
0.0
  0
LINE
  5
8E3
330
1F
100
AcDbEntity
  8
1
  6
CONTINUOUS
370
50
 62
4
100
AcDbLine
 10
134.997177
 20
6.330089999999999
 30
0.0
 11
134.96315
 21
6.357568
 31
0.0
  0
LINE
  5
8E4
330
1F
100
AcDbEntity
  8
1
  6
CONTINUOUS
370
50
 62
4
100
AcDbLine
 10
117.566147
 20
5.526012
 30
0.0
 11
117.524841
 21
5.55936
 31
0.0
  0
LINE
  5
8E5
330
1F
100
AcDbEntity
  8
1
  6
CONTINUOUS
370
50
 62
4
100
AcDbLine
 10
131.786255
 20
9.211678
 30
0.0
 11
131.744019
 21
9.245683999999999
 31
0.0
  0
LINE
  5
8E6
330
1F
100
AcDbEntity
  8
1
  6
CONTINUOUS
370
50
 62
4
100
AcDbLine
 10
131.744019
 20
9.245683999999999
 30
0.0
 11
131.701813
 21
9.279527
 31
0.0
  0
LINE
  5
8E7
330
1F
100
AcDbEntity
  8
1
  6
CONTINUOUS
370
50
 62
4
100
AcDbLine
 10
130.305466
 20
-6.751646
 30
0.0
 11
130.222855
 21
-6.685435999999999
 31
0.0
  0
LINE
  5
8E8
330
1F
100
AcDbEntity
  8
1
  6
CONTINUOUS
370
50
 62
4
100
AcDbLine
 10
117.524841
 20
5.55936
 30
0.0
 11
117.483383
 21
5.592495
 31
0.0
  0
LINE
  5
8E9
330
1F
100
AcDbEntity
  8
1
  6
CONTINUOUS
370
50
 62
4
100
AcDbLine
 10
131.701813
 20
9.279527
 30
0.0
 11
131.659637
 21
9.313206
 31
0.0
  0
LINE
  5
8EA
330
1F
100
AcDbEntity
  8
1
  6
CONTINUOUS
370
50
 62
4
100
AcDbLine
 10
131.659637
 20
9.313206
 30
0.0
 11
131.617508
 21
9.346719
 31
0.0
  0
LINE
  5
8EB
330
1F
100
AcDbEntity
  8
1
  6
CONTINUOUS
370
50
 62
4
100
AcDbLine
 10
132.411545
 20
8.430386
 30
0.0
 11
132.37471
 21
8.459671
 31
0.0
  0
LINE
  5
8EC
330
1F
100
AcDbEntity
  8
1
  6
CONTINUOUS
370
50
 62
4
100
AcDbLine
 10
130.388092
 20
-6.817239
 30
0.0
 11
130.305466
 21
-6.751646
 31
0.0
  0
LINE
  5
8ED
330
1F
100
AcDbEntity
  8
1
  6
CONTINUOUS
370
50
 62
4
100
AcDbLine
 10
119.100082
 20
5.858916
 30
0.0
 11
118.988762
 21
5.947203
 31
0.0
  0
LINE
  5
8EE
330
1F
100
AcDbEntity
  8
1
  6
CONTINUOUS
370
50
 62
4
100
AcDbLine
 10
135.453903
 20
-9.112699
 30
0.0
 11
135.446747
 21
-9.107025
 31
0.0
  0
LINE
  5
8EF
330
1F
100
AcDbEntity
  8
1
  6
CONTINUOUS
370
50
 62
4
100
AcDbLine
 10
131.617508
 20
9.346719
 30
0.0
 11
131.575409
 21
9.380068
 31
0.0
  0
LINE
  5
8F0
330
1F
100
AcDbEntity
  8
1
  6
CONTINUOUS
370
50
 62
4
100
AcDbLine
 10
128.398911
 20
-2.679564
 30
0.0
 11
128.356003
 21
-2.645614
 31
0.0
  0
LINE
  5
8F1
330
1F
100
AcDbEntity
  8
1
  6
CONTINUOUS
370
50
 62
4
100
AcDbLine
 10
117.483383
 20
5.592495
 30
0.0
 11
117.441765
 21
5.625420999999999
 31
0.0
  0
LINE
  5
8F2
330
1F
100
AcDbEntity
  8
1
  6
CONTINUOUS
370
50
 62
4
100
AcDbLine
 10
134.799271
 20
9.277949999999999
 30
0.0
 11
134.635361
 21
9.407352999999999
 31
0.0
  0
LINE
  5
8F3
330
1F
100
AcDbEntity
  8
1
  6
CONTINUOUS
370
50
 62
4
100
AcDbLine
 10
131.575409
 20
9.380068
 30
0.0
 11
131.53334
 21
9.41325
 31
0.0
  0
LINE
  5
8F4
330
1F
100
AcDbEntity
  8
1
  6
CONTINUOUS
370
50
 62
4
100
AcDbLine
 10
139.055344
 20
2.579556
 30
0.0
 11
138.94751
 21
2.664493
 31
0.0
  0
LINE
  5
8F5
330
1F
100
AcDbEntity
  8
1
  6
CONTINUOUS
370
50
 62
4
100
AcDbLine
 10
131.996552
 20
-6.763198
 30
0.0
 11
131.941498
 21
-6.719988
 31
0.0
  0
LINE
  5
8F6
330
1F
100
AcDbEntity
  8
1
  6
CONTINUOUS
370
50
 62
4
100
AcDbLine
 10
136.032089
 20
6.918933
 30
0.0
 11
135.949539
 21
6.983706
 31
0.0
  0
LINE
  5
8F7
330
1F
100
AcDbEntity
  8
1
  6
CONTINUOUS
370
50
 62
4
100
AcDbLine
 10
117.441765
 20
5.625420999999999
 30
0.0
 11
117.400002
 21
5.65814
 31
0.0
  0
LINE
  5
8F8
330
1F
100
AcDbEntity
  8
1
  6
CONTINUOUS
370
50
 62
4
100
AcDbLine
 10
130.933945
 20
-5.695721
 30
0.0
 11
130.889648
 21
-5.661195999999999
 31
0.0
  0
LINE
  5
8F9
330
1F
100
AcDbEntity
  8
1
  6
CONTINUOUS
370
50
 62
4
100
AcDbLine
 10
117.857826
 20
5.279138
 30
0.0
 11
117.797256
 21
5.326307
 31
0.0
  0
LINE
  5
8FA
330
1F
100
AcDbEntity
  8
1
  6
CONTINUOUS
370
50
 62
4
100
AcDbLine
 10
133.518158
 20
-8.017997
 30
0.0
 11
133.479156
 21
-7.987705
 31
0.0
  0
LINE
  5
8FB
330
1F
100
AcDbEntity
  8
1
  6
CONTINUOUS
370
50
 62
4
100
AcDbLine
 10
135.949539
 20
6.983706
 30
0.0
 11
135.866974
 21
7.047814
 31
0.0
  0
LINE
  5
8FC
330
1F
100
AcDbEntity
  8
1
  6
CONTINUOUS
370
50
 62
4
100
AcDbLine
 10
133.592773
 20
7.589287
 30
0.0
 11
133.55043
 21
7.621868999999999
 31
0.0
  0
LINE
  5
8FD
330
1F
100
AcDbEntity
  8
1
  6
CONTINUOUS
370
50
 62
4
100
AcDbLine
 10
135.866974
 20
7.047814
 30
0.0
 11
135.784424
 21
7.111253
 31
0.0
  0
LINE
  5
8FE
330
1F
100
AcDbEntity
  8
1
  6
CONTINUOUS
370
50
 62
4
100
AcDbLine
 10
134.635361
 20
9.407352999999999
 30
0.0
 11
134.471436
 21
9.532809
 31
0.0
  0
LINE
  5
8FF
330
1F
100
AcDbEntity
  8
1
  6
CONTINUOUS
370
50
 62
4
100
AcDbLine
 10
139.159988
 20
2.499533
 30
0.0
 11
139.055344
 21
2.579556
 31
0.0
  0
LINE
  5
900
330
1F
100
AcDbEntity
  8
1
  6
CONTINUOUS
370
50
 62
4
100
AcDbLine
 10
135.784424
 20
7.111253
 30
0.0
 11
135.701843
 21
7.174018999999999
 31
0.0
  0
LINE
  5
901
330
1F
100
AcDbEntity
  8
1
  6
CONTINUOUS
370
50
 62
4
100
AcDbLine
 10
131.941498
 20
-6.719988
 30
0.0
 11
131.88533
 21
-6.677627999999999
 31
0.0
  0
LINE
  5
902
330
1F
100
AcDbEntity
  8
1
  6
CONTINUOUS
370
50
 62
4
100
AcDbLine
 10
117.322151
 20
5.706778
 30
0.0
 11
117.297256
 21
5.725523
 31
0.0
  0
LINE
  5
903
330
1F
100
AcDbEntity
  8
1
  6
CONTINUOUS
370
50
 62
4
100
AcDbLine
 10
135.701843
 20
7.174018999999999
 30
0.0
 11
135.619232
 21
7.236109
 31
0.0
  0
LINE
  5
904
330
1F
100
AcDbEntity
  8
1
  6
CONTINUOUS
370
50
 62
4
100
AcDbLine
 10
135.619232
 20
7.236109
 30
0.0
 11
135.536591
 21
7.297518999999999
 31
0.0
  0
LINE
  5
905
330
1F
100
AcDbEntity
  8
1
  6
CONTINUOUS
370
50
 62
4
100
AcDbLine
 10
134.471436
 20
9.532809
 30
0.0
 11
134.30748
 21
9.654293
 31
0.0
  0
LINE
  5
906
330
1F
100
AcDbEntity
  8
1
  6
CONTINUOUS
370
50
 62
4
100
AcDbLine
 10
139.261292
 20
2.424578
 30
0.0
 11
139.159988
 21
2.499533
 31
0.0
  0
LINE
  5
907
330
1F
100
AcDbEntity
  8
1
  6
CONTINUOUS
370
50
 62
4
100
AcDbLine
 10
135.536591
 20
7.297518999999999
 30
0.0
 11
135.453918
 21
7.358244
 31
0.0
  0
LINE
  5
908
330
1F
100
AcDbEntity
  8
1
  6
CONTINUOUS
370
50
 62
4
100
AcDbLine
 10
118.657379
 20
5.46603
 30
0.0
 11
118.591064
 21
5.514728
 31
0.0
  0
LINE
  5
909
330
1F
100
AcDbEntity
  8
1
  6
CONTINUOUS
370
50
 62
4
100
AcDbLine
 10
135.030914
 20
6.305349
 30
0.0
 11
134.997177
 21
6.330089999999999
 31
0.0
  0
LINE
  5
90A
330
1F
100
AcDbEntity
  8
1
  6
CONTINUOUS
370
50
 62
4
100
AcDbLine
 10
131.88533
 20
-6.677627999999999
 30
0.0
 11
131.828217
 21
-6.636158
 31
0.0
  0
LINE
  5
90B
330
1F
100
AcDbEntity
  8
1
  6
CONTINUOUS
370
50
 62
4
100
AcDbLine
 10
133.636032
 20
7.557981
 30
0.0
 11
133.592773
 21
7.589287
 31
0.0
  0
LINE
  5
90C
330
1F
100
AcDbEntity
  8
1
  6
CONTINUOUS
370
50
 62
4
100
AcDbLine
 10
128.356003
 20
-2.645614
 30
0.0
 11
128.312943
 21
-2.614626
 31
0.0
  0
LINE
  5
90D
330
1F
100
AcDbEntity
  8
1
  6
CONTINUOUS
370
50
 62
4
100
AcDbLine
 10
134.30748
 20
9.654293
 30
0.0
 11
134.143478
 21
9.77178
 31
0.0
  0
LINE
  5
90E
330
1F
100
AcDbEntity
  8
1
  6
CONTINUOUS
370
50
 62
4
100
AcDbLine
 10
139.3591
 20
2.354846
 30
0.0
 11
139.261292
 21
2.424578
 31
0.0
  0
LINE
  5
90F
330
1F
100
AcDbEntity
  8
1
  6
CONTINUOUS
370
50
 62
4
100
AcDbLine
 10
135.446747
 20
-9.107025
 30
0.0
 11
135.439255
 21
-9.10175
 31
0.0
  0
LINE
  5
910
330
1F
100
AcDbEntity
  8
1
  6
CONTINUOUS
370
50
 62
4
100
AcDbLine
 10
120.579376
 20
2.069224
 30
0.0
 11
120.511101
 21
2.116494
 31
0.0
  0
LINE
  5
911
330
1F
100
AcDbEntity
  8
1
  6
CONTINUOUS
370
50
 62
4
100
AcDbLine
 10
132.714539
 20
-7.649292999999999
 30
0.0
 11
132.631912
 21
-7.592104
 31
0.0
  0
LINE
  5
912
330
1F
100
AcDbEntity
  8
1
  6
CONTINUOUS
370
50
 62
4
100
AcDbLine
 10
134.143478
 20
9.77178
 30
0.0
 11
133.979431
 21
9.885246
 31
0.0
  0
LINE
  5
913
330
1F
100
AcDbEntity
  8
1
  6
CONTINUOUS
370
50
 62
4
100
AcDbLine
 10
117.689087
 20
9.343232
 30
0.0
 11
117.647911
 21
9.371667
 31
0.0
  0
LINE
  5
914
330
1F
100
AcDbEntity
  8
1
  6
CONTINUOUS
370
50
 62
4
100
AcDbLine
 10
117.34758
 20
5.689292
 30
0.0
 11
117.322151
 21
5.706778
 31
0.0
  0
LINE
  5
915
330
1F
100
AcDbEntity
  8
1
  6
CONTINUOUS
370
50
 62
4
100
AcDbLine
 10
130.889648
 20
-5.661195999999999
 30
0.0
 11
130.845703
 21
-5.631035
 31
0.0
  0
LINE
  5
916
330
1F
100
AcDbEntity
  8
1
  6
CONTINUOUS
370
50
 62
4
100
AcDbLine
 10
132.446472
 20
8.406459
 30
0.0
 11
132.411545
 21
8.430386
 31
0.0
  0
LINE
  5
917
330
1F
100
AcDbEntity
  8
1
  6
CONTINUOUS
370
50
 62
4
100
AcDbLine
 10
133.679962
 20
7.527909999999999
 30
0.0
 11
133.636032
 21
7.557981
 31
0.0
  0
LINE
  5
918
330
1F
100
AcDbEntity
  8
1
  6
CONTINUOUS
370
50
 62
4
100
AcDbLine
 10
117.647911
 20
9.371667
 30
0.0
 11
117.606697
 21
9.399872
 31
0.0
  0
LINE
  5
919
330
1F
100
AcDbEntity
  8
1
  6
CONTINUOUS
370
50
 62
4
100
AcDbLine
 10
131.53334
 20
9.41325
 30
0.0
 11
131.48877
 21
9.443723
 31
0.0
  0
LINE
  5
91A
330
1F
100
AcDbEntity
  8
1
  6
CONTINUOUS
370
50
 62
4
100
AcDbLine
 10
132.79715
 20
-7.705774
 30
0.0
 11
132.714539
 21
-7.649292999999999
 31
0.0
  0
LINE
  5
91B
330
1F
100
AcDbEntity
  8
1
  6
CONTINUOUS
370
50
 62
4
100
AcDbLine
 10
139.453293
 20
2.290493
 30
0.0
 11
139.3591
 21
2.354846
 31
0.0
  0
LINE
  5
91C
330
1F
100
AcDbEntity
  8
1
  6
CONTINUOUS
370
50
 62
4
100
AcDbLine
 10
117.606697
 20
9.399872
 30
0.0
 11
117.565445
 21
9.427848
 31
0.0
  0
LINE
  5
91D
330
1F
100
AcDbEntity
  8
1
  6
CONTINUOUS
370
50
 62
4
100
AcDbLine
 10
131.48877
 20
9.443723
 30
0.0
 11
131.444153
 21
9.47396
 31
0.0
  0
LINE
  5
91E
330
1F
100
AcDbEntity
  8
1
  6
CONTINUOUS
370
50
 62
4
100
AcDbLine
 10
117.918091
 20
5.238332
 30
0.0
 11
117.857826
 21
5.279138
 31
0.0
  0
LINE
  5
91F
330
1F
100
AcDbEntity
  8
1
  6
CONTINUOUS
370
50
 62
4
100
AcDbLine
 10
132.87973
 20
-7.761544
 30
0.0
 11
132.79715
 21
-7.705774
 31
0.0
  0
LINE
  5
920
330
1F
100
AcDbEntity
  8
1
  6
CONTINUOUS
370
50
 62
4
100
AcDbLine
 10
117.565445
 20
9.427848
 30
0.0
 11
117.524155
 21
9.455594
 31
0.0
  0
LINE
  5
921
330
1F
100
AcDbEntity
  8
1
  6
CONTINUOUS
370
50
 62
4
100
AcDbLine
 10
131.444153
 20
9.47396
 30
0.0
 11
131.399521
 21
9.503946
 31
0.0
  0
LINE
  5
922
330
1F
100
AcDbEntity
  8
1
  6
CONTINUOUS
370
50
 62
4
100
AcDbLine
 10
133.979431
 20
9.885246
 30
0.0
 11
133.815338
 21
9.994665999999999
 31
0.0
  0
LINE
  5
923
330
1F
100
AcDbEntity
  8
1
  6
CONTINUOUS
370
50
 62
4
100
AcDbLine
 10
132.962311
 20
-7.816597
 30
0.0
 11
132.87973
 21
-7.761544
 31
0.0
  0
LINE
  5
924
330
1F
100
AcDbEntity
  8
1
  6
CONTINUOUS
370
50
 62
4
100
AcDbLine
 10
131.399521
 20
9.503946
 30
0.0
 11
131.354889
 21
9.533673
 31
0.0
  0
LINE
  5
925
330
1F
100
AcDbEntity
  8
1
  6
CONTINUOUS
370
50
 62
4
100
AcDbLine
 10
117.524155
 20
9.455594
 30
0.0
 11
117.482819
 21
9.483112
 31
0.0
  0
LINE
  5
926
330
1F
100
AcDbEntity
  8
1
  6
CONTINUOUS
370
50
 62
4
100
AcDbLine
 10
133.479156
 20
-7.987705
 30
0.0
 11
133.438812
 21
-7.960932
 31
0.0
  0
LINE
  5
927
330
1F
100
AcDbEntity
  8
1
  6
CONTINUOUS
370
50
 62
4
100
AcDbLine
 10
118.591064
 20
5.514728
 30
0.0
 11
118.521912
 21
5.560378
 31
0.0
  0
LINE
  5
928
330
1F
100
AcDbEntity
  8
1
  6
CONTINUOUS
370
50
 62
4
100
AcDbLine
 10
131.354889
 20
9.533673
 30
0.0
 11
131.310242
 21
9.563139999999999
 31
0.0
  0
LINE
  5
929
330
1F
100
AcDbEntity
  8
1
  6
CONTINUOUS
370
50
 62
4
100
AcDbLine
 10
117.482819
 20
9.483112
 30
0.0
 11
117.441437
 21
9.510401
 31
0.0
  0
LINE
  5
92A
330
1F
100
AcDbEntity
  8
1
  6
CONTINUOUS
370
50
 62
4
100
AcDbLine
 10
133.044891
 20
-7.870932
 30
0.0
 11
132.962311
 21
-7.816597
 31
0.0
  0
LINE
  5
92B
330
1F
100
AcDbEntity
  8
1
  6
CONTINUOUS
370
50
 62
4
100
AcDbLine
 10
135.064178
 20
6.283576
 30
0.0
 11
135.030914
 21
6.305349
 31
0.0
  0
LINE
  5
92C
330
1F
100
AcDbEntity
  8
1
  6
CONTINUOUS
370
50
 62
4
100
AcDbLine
 10
131.310242
 20
9.563139999999999
 30
0.0
 11
131.265579
 21
9.592346
 31
0.0
  0
LINE
  5
92D
330
1F
100
AcDbEntity
  8
1
  6
CONTINUOUS
370
50
 62
4
100
AcDbLine
 10
117.441437
 20
9.510401
 30
0.0
 11
117.400002
 21
9.537462
 31
0.0
  0
LINE
  5
92E
330
1F
100
AcDbEntity
  8
1
  6
CONTINUOUS
370
50
 62
4
100
AcDbLine
 10
139.543732
 20
2.231672
 30
0.0
 11
139.453293
 21
2.290493
 31
0.0
  0
LINE
  5
92F
330
1F
100
AcDbEntity
  8
1
  6
CONTINUOUS
370
50
 62
4
100
AcDbLine
 10
133.724396
 20
7.499029999999999
 30
0.0
 11
133.679962
 21
7.527909999999999
 31
0.0
  0
LINE
  5
930
330
1F
100
AcDbEntity
  8
1
  6
CONTINUOUS
370
50
 62
4
100
AcDbLine
 10
133.127472
 20
-7.924542
 30
0.0
 11
133.044891
 21
-7.870932
 31
0.0
  0
LINE
  5
931
330
1F
100
AcDbEntity
  8
1
  6
CONTINUOUS
370
50
 62
4
100
AcDbLine
 10
131.265579
 20
9.592346
 30
0.0
 11
131.220917
 21
9.621293
 31
0.0
  0
LINE
  5
932
330
1F
100
AcDbEntity
  8
1
  6
CONTINUOUS
370
50
 62
4
100
AcDbLine
 10
128.312943
 20
-2.614626
 30
0.0
 11
128.269699
 21
-2.586737
 31
0.0
  0
LINE
  5
933
330
1F
100
AcDbEntity
  8
1
  6
CONTINUOUS
370
50
 62
4
100
AcDbLine
 10
131.265579
 20
-9.654764
 30
0.0
 11
131.220917
 21
-9.62612
 31
0.0
  0
LINE
  5
934
330
1F
100
AcDbEntity
  8
1
  6
CONTINUOUS
370
50
 62
4
100
AcDbLine
 10
133.210083
 20
-7.977427
 30
0.0
 11
133.127472
 21
-7.924542
 31
0.0
  0
LINE
  5
935
330
1F
100
AcDbEntity
  8
1
  6
CONTINUOUS
370
50
 62
4
100
AcDbLine
 10
117.019562
 20
-9.172260999999999
 30
0.0
 11
116.974419
 21
-9.143502999999999
 31
0.0
  0
LINE
  5
936
330
1F
100
AcDbEntity
  8
1
  6
CONTINUOUS
370
50
 62
4
100
AcDbLine
 10
131.310242
 20
-9.683152
 30
0.0
 11
131.265579
 21
-9.654764
 31
0.0
  0
LINE
  5
937
330
1F
100
AcDbEntity
  8
1
  6
CONTINUOUS
370
50
 62
4
100
AcDbLine
 10
131.354889
 20
-9.711283
 30
0.0
 11
131.310242
 21
-9.683152
 31
0.0
  0
LINE
  5
938
330
1F
100
AcDbEntity
  8
1
  6
CONTINUOUS
370
50
 62
4
100
AcDbLine
 10
117.373535
 20
5.67308
 30
0.0
 11
117.34758
 21
5.689292
 31
0.0
  0
LINE
  5
939
330
1F
100
AcDbEntity
  8
1
  6
CONTINUOUS
370
50
 62
4
100
AcDbLine
 10
131.399521
 20
-9.739156999999999
 30
0.0
 11
131.354889
 21
-9.711283
 31
0.0
  0
LINE
  5
93A
330
1F
100
AcDbEntity
  8
1
  6
CONTINUOUS
370
50
 62
4
100
AcDbLine
 10
135.439255
 20
-9.10175
 30
0.0
 11
135.431351
 21
-9.096817999999999
 31
0.0
  0
LINE
  5
93B
330
1F
100
AcDbEntity
  8
1
  6
CONTINUOUS
370
50
 62
4
100
AcDbLine
 10
133.769257
 20
7.471207
 30
0.0
 11
133.724396
 21
7.499029999999999
 31
0.0
  0
LINE
  5
93C
330
1F
100
AcDbEntity
  8
1
  6
CONTINUOUS
370
50
 62
4
100
AcDbLine
 10
131.444153
 20
-9.766771
 30
0.0
 11
131.399521
 21
-9.739156999999999
 31
0.0
  0
LINE
  5
93D
330
1F
100
AcDbEntity
  8
1
  6
CONTINUOUS
370
50
 62
4
100
AcDbLine
 10
117.441437
 20
-9.733146999999999
 30
0.0
 11
117.400002
 21
-9.707694
 31
0.0
  0
LINE
  5
93E
330
1F
100
AcDbEntity
  8
1
  6
CONTINUOUS
370
50
 62
4
100
AcDbLine
 10
139.63028
 20
2.17854
 30
0.0
 11
139.543732
 21
2.231672
 31
0.0
  0
LINE
  5
93F
330
1F
100
AcDbEntity
  8
1
  6
CONTINUOUS
370
50
 62
4
100
AcDbLine
 10
131.48877
 20
-9.794120999999999
 30
0.0
 11
131.444153
 21
-9.766771
 31
0.0
  0
LINE
  5
940
330
1F
100
AcDbEntity
  8
1
  6
CONTINUOUS
370
50
 62
4
100
AcDbLine
 10
133.210083
 20
8.057414999999999
 30
0.0
 11
133.127502
 21
8.107993
 31
0.0
  0
LINE
  5
941
330
1F
100
AcDbEntity
  8
1
  6
CONTINUOUS
370
50
 62
4
100
AcDbLine
 10
117.482819
 20
-9.758396
 30
0.0
 11
117.441437
 21
-9.733146999999999
 31
0.0
  0
LINE
  5
942
330
1F
100
AcDbEntity
  8
1
  6
CONTINUOUS
370
50
 62
4
100
AcDbLine
 10
131.53334
 20
-9.821190999999999
 30
0.0
 11
131.48877
 21
-9.794120999999999
 31
0.0
  0
LINE
  5
943
330
1F
100
AcDbEntity
  8
1
  6
CONTINUOUS
370
50
 62
4
100
AcDbLine
 10
117.524155
 20
-9.783441999999999
 30
0.0
 11
117.482819
 21
-9.758396
 31
0.0
  0
LINE
  5
944
330
1F
100
AcDbEntity
  8
1
  6
CONTINUOUS
370
50
 62
4
100
AcDbLine
 10
133.127502
 20
8.107993
 30
0.0
 11
133.044891
 21
8.157836
 31
0.0
  0
LINE
  5
945
330
1F
100
AcDbEntity
  8
1
  6
CONTINUOUS
370
50
 62
4
100
AcDbLine
 10
117.565445
 20
-9.808285
 30
0.0
 11
117.524155
 21
-9.783441999999999
 31
0.0
  0
LINE
  5
946
330
1F
100
AcDbEntity
  8
1
  6
CONTINUOUS
370
50
 62
4
100
AcDbLine
 10
117.606697
 20
-9.832922
 30
0.0
 11
117.565445
 21
-9.808285
 31
0.0
  0
LINE
  5
947
330
1F
100
AcDbEntity
  8
1
  6
CONTINUOUS
370
50
 62
4
100
AcDbLine
 10
133.044891
 20
8.157836
 30
0.0
 11
132.96228
 21
8.20694
 31
0.0
  0
LINE
  5
948
330
1F
100
AcDbEntity
  8
1
  6
CONTINUOUS
370
50
 62
4
100
AcDbLine
 10
117.647911
 20
-9.857355
 30
0.0
 11
117.606697
 21
-9.832922
 31
0.0
  0
LINE
  5
949
330
1F
100
AcDbEntity
  8
1
  6
CONTINUOUS
370
50
 62
4
100
AcDbLine
 10
133.815369
 20
7.443875999999999
 30
0.0
 11
133.769257
 21
7.471207
 31
0.0
  0
LINE
  5
94A
330
1F
100
AcDbEntity
  8
1
  6
CONTINUOUS
370
50
 62
4
100
AcDbLine
 10
117.689087
 20
-9.881583
 30
0.0
 11
117.647911
 21
-9.857355
 31
0.0
  0
LINE
  5
94B
330
1F
100
AcDbEntity
  8
1
  6
CONTINUOUS
370
50
 62
4
100
AcDbLine
 10
132.96228
 20
8.20694
 30
0.0
 11
132.879669
 21
8.255301
 31
0.0
  0
LINE
  5
94C
330
1F
100
AcDbEntity
  8
1
  6
CONTINUOUS
370
50
 62
4
100
AcDbLine
 10
130.845703
 20
-5.631035
 30
0.0
 11
130.802231
 21
-5.605589999999999
 31
0.0
  0
LINE
  5
94D
330
1F
100
AcDbEntity
  8
1
  6
CONTINUOUS
370
50
 62
4
100
AcDbLine
 10
132.879669
 20
8.255301
 30
0.0
 11
132.797058
 21
8.302915
 31
0.0
  0
LINE
  5
94E
330
1F
100
AcDbEntity
  8
1
  6
CONTINUOUS
370
50
 62
4
100
AcDbLine
 10
139.717072
 20
2.128888
 30
0.0
 11
139.63028
 21
2.17854
 31
0.0
  0
LINE
  5
94F
330
1F
100
AcDbEntity
  8
1
  6
CONTINUOUS
370
50
 62
4
100
AcDbLine
 10
120.646011
 20
2.031175
 30
0.0
 11
120.579376
 21
2.069224
 31
0.0
  0
LINE
  5
950
330
1F
100
AcDbEntity
  8
1
  6
CONTINUOUS
370
50
 62
4
100
AcDbLine
 10
135.096878
 20
6.264912
 30
0.0
 11
135.064178
 21
6.283576
 31
0.0
  0
LINE
  5
951
330
1F
100
AcDbEntity
  8
1
  6
CONTINUOUS
370
50
 62
4
100
AcDbLine
 10
117.977806
 20
5.204442999999999
 30
0.0
 11
117.918091
 21
5.238332
 31
0.0
  0
LINE
  5
952
330
1F
100
AcDbEntity
  8
1
  6
CONTINUOUS
370
50
 62
4
100
AcDbLine
 10
132.797058
 20
8.302915
 30
0.0
 11
132.714478
 21
8.349779
 31
0.0
  0
LINE
  5
953
330
1F
100
AcDbEntity
  8
1
  6
CONTINUOUS
370
50
 62
4
100
AcDbLine
 10
128.269699
 20
-2.586737
 30
0.0
 11
128.226242
 21
-2.562129
 31
0.0
  0
LINE
  5
954
330
1F
100
AcDbEntity
  8
1
  6
CONTINUOUS
370
50
 62
4
100
AcDbLine
 10
117.400002
 20
5.658156
 30
0.0
 11
117.373535
 21
5.67308
 31
0.0
  0
LINE
  5
955
330
1F
100
AcDbEntity
  8
1
  6
CONTINUOUS
370
50
 62
4
100
AcDbLine
 10
132.714478
 20
8.349779
 30
0.0
 11
132.631912
 21
8.39589
 31
0.0
  0
LINE
  5
956
330
1F
100
AcDbEntity
  8
1
  6
CONTINUOUS
370
50
 62
4
100
AcDbLine
 10
132.714478
 20
-8.398935
 30
0.0
 11
132.631912
 21
-8.352875
 31
0.0
  0
LINE
  5
957
330
1F
100
AcDbEntity
  8
1
  6
CONTINUOUS
370
50
 62
4
100
AcDbLine
 10
135.431351
 20
-9.096817999999999
 30
0.0
 11
135.423065
 21
-9.092215999999999
 31
0.0
  0
LINE
  5
958
330
1F
100
AcDbEntity
  8
1
  6
CONTINUOUS
370
50
 62
4
100
AcDbLine
 10
132.797058
 20
-8.444227999999999
 30
0.0
 11
132.714478
 21
-8.398935
 31
0.0
  0
LINE
  5
959
330
1F
100
AcDbEntity
  8
1
  6
CONTINUOUS
370
50
 62
4
100
AcDbLine
 10
132.486664
 20
8.384481
 30
0.0
 11
132.446472
 21
8.406459
 31
0.0
  0
LINE
  5
95A
330
1F
100
AcDbEntity
  8
1
  6
CONTINUOUS
370
50
 62
4
100
AcDbLine
 10
132.879669
 20
-8.48875
 30
0.0
 11
132.797058
 21
-8.444227999999999
 31
0.0
  0
LINE
  5
95B
330
1F
100
AcDbEntity
  8
1
  6
CONTINUOUS
370
50
 62
4
100
AcDbLine
 10
133.438812
 20
-7.960932
 30
0.0
 11
133.400421
 21
-7.940511
 31
0.0
  0
LINE
  5
95C
330
1F
100
AcDbEntity
  8
1
  6
CONTINUOUS
370
50
 62
4
100
AcDbLine
 10
132.96228
 20
-8.532497
 30
0.0
 11
132.879669
 21
-8.48875
 31
0.0
  0
LINE
  5
95D
330
1F
100
AcDbEntity
  8
1
  6
CONTINUOUS
370
50
 62
4
100
AcDbLine
 10
133.044891
 20
-8.575467999999999
 30
0.0
 11
132.96228
 21
-8.532497
 31
0.0
  0
LINE
  5
95E
330
1F
100
AcDbEntity
  8
1
  6
CONTINUOUS
370
50
 62
4
100
AcDbLine
 10
139.810013
 20
2.080599
 30
0.0
 11
139.717072
 21
2.128888
 31
0.0
  0
LINE
  5
95F
330
1F
100
AcDbEntity
  8
1
  6
CONTINUOUS
370
50
 62
4
100
AcDbLine
 10
133.127502
 20
-8.617659
 30
0.0
 11
133.044891
 21
-8.575467999999999
 31
0.0
  0
LINE
  5
960
330
1F
100
AcDbEntity
  8
1
  6
CONTINUOUS
370
50
 62
4
100
AcDbLine
 10
133.210083
 20
-8.659066
 30
0.0
 11
133.127502
 21
-8.617659
 31
0.0
  0
LINE
  5
961
330
1F
100
AcDbEntity
  8
1
  6
CONTINUOUS
370
50
 62
4
100
AcDbLine
 10
135.423065
 20
-9.092215999999999
 30
0.0
 11
135.414398
 21
-9.087937
 31
0.0
  0
LINE
  5
962
330
1F
100
AcDbEntity
  8
1
  6
CONTINUOUS
370
50
 62
4
100
AcDbLine
 10
128.226242
 20
-2.562129
 30
0.0
 11
128.182693
 21
-2.541084
 31
0.0
  0
LINE
  5
963
330
1F
100
AcDbEntity
  8
1
  6
CONTINUOUS
370
50
 62
4
100
AcDbLine
 10
135.128937
 20
6.24948
 30
0.0
 11
135.096878
 21
6.264912
 31
0.0
  0
LINE
  5
964
330
1F
100
AcDbEntity
  8
1
  6
CONTINUOUS
370
50
 62
4
100
AcDbLine
 10
133.210083
 20
8.721807
 30
0.0
 11
133.127472
 21
8.761531
 31
0.0
  0
LINE
  5
965
330
1F
100
AcDbEntity
  8
1
  6
CONTINUOUS
370
50
 62
4
100
AcDbLine
 10
130.802231
 20
-5.605589999999999
 30
0.0
 11
130.759613
 21
-5.585293
 31
0.0
  0
LINE
  5
966
330
1F
100
AcDbEntity
  8
1
  6
CONTINUOUS
370
50
 62
4
100
AcDbLine
 10
133.127472
 20
8.761531
 30
0.0
 11
133.044891
 21
8.800443
 31
0.0
  0
LINE
  5
967
330
1F
100
AcDbEntity
  8
1
  6
CONTINUOUS
370
50
 62
4
100
AcDbLine
 10
133.044891
 20
8.800443
 30
0.0
 11
132.962311
 21
8.83854
 31
0.0
  0
LINE
  5
968
330
1F
100
AcDbEntity
  8
1
  6
CONTINUOUS
370
50
 62
4
100
AcDbLine
 10
132.962311
 20
8.83854
 30
0.0
 11
132.87973
 21
8.87582
 31
0.0
  0
LINE
  5
969
330
1F
100
AcDbEntity
  8
1
  6
CONTINUOUS
370
50
 62
4
100
AcDbLine
 10
139.905563
 20
2.037566
 30
0.0
 11
139.810013
 21
2.080599
 31
0.0
  0
LINE
  5
96A
330
1F
100
AcDbEntity
  8
1
  6
CONTINUOUS
370
50
 62
4
100
AcDbLine
 10
118.036667
 20
5.178046999999999
 30
0.0
 11
117.977806
 21
5.204442999999999
 31
0.0
  0
LINE
  5
96B
330
1F
100
AcDbEntity
  8
1
  6
CONTINUOUS
370
50
 62
4
100
AcDbLine
 10
120.710915
 20
2.002332
 30
0.0
 11
120.646011
 21
2.031175
 31
0.0
  0
LINE
  5
96C
330
1F
100
AcDbEntity
  8
1
  6
CONTINUOUS
370
50
 62
4
100
AcDbLine
 10
132.87973
 20
8.87582
 30
0.0
 11
132.79715
 21
8.912279999999999
 31
0.0
  0
LINE
  5
96D
330
1F
100
AcDbEntity
  8
1
  6
CONTINUOUS
370
50
 62
4
100
AcDbLine
 10
135.414398
 20
-9.087937
 30
0.0
 11
135.40538
 21
-9.083973
 31
0.0
  0
LINE
  5
96E
330
1F
100
AcDbEntity
  8
1
  6
CONTINUOUS
370
50
 62
4
100
AcDbLine
 10
132.79715
 20
8.912279999999999
 30
0.0
 11
132.714539
 21
8.947918
 31
0.0
  0
LINE
  5
96F
330
1F
100
AcDbEntity
  8
1
  6
CONTINUOUS
370
50
 62
4
100
AcDbLine
 10
132.714539
 20
8.947918
 30
0.0
 11
132.631912
 21
8.982731
 31
0.0
  0
LINE
  5
970
330
1F
100
AcDbEntity
  8
1
  6
CONTINUOUS
370
50
 62
4
100
AcDbLine
 10
131.575409
 20
-9.838372999999999
 30
0.0
 11
131.53334
 21
-9.821190999999999
 31
0.0
  0
LINE
  5
971
330
1F
100
AcDbEntity
  8
1
  6
CONTINUOUS
370
50
 62
4
100
AcDbLine
 10
131.617508
 20
-9.855317
 30
0.0
 11
131.575409
 21
-9.838372999999999
 31
0.0
  0
LINE
  5
972
330
1F
100
AcDbEntity
  8
1
  6
CONTINUOUS
370
50
 62
4
100
AcDbLine
 10
131.659637
 20
-9.872021
 30
0.0
 11
131.617508
 21
-9.855317
 31
0.0
  0
LINE
  5
973
330
1F
100
AcDbEntity
  8
1
  6
CONTINUOUS
370
50
 62
4
100
AcDbLine
 10
128.182693
 20
-2.541084
 30
0.0
 11
128.139145
 21
-2.523884
 31
0.0
  0
LINE
  5
974
330
1F
100
AcDbEntity
  8
1
  6
CONTINUOUS
370
50
 62
4
100
AcDbLine
 10
131.701813
 20
-9.888485
 30
0.0
 11
131.659637
 21
-9.872021
 31
0.0
  0
LINE
  5
975
330
1F
100
AcDbEntity
  8
1
  6
CONTINUOUS
370
50
 62
4
100
AcDbLine
 10
135.160294
 20
6.237411
 30
0.0
 11
135.128937
 21
6.24948
 31
0.0
  0
LINE
  5
976
330
1F
100
AcDbEntity
  8
1
  6
CONTINUOUS
370
50
 62
4
100
AcDbLine
 10
131.744019
 20
-9.90471
 30
0.0
 11
131.701813
 21
-9.888485
 31
0.0
  0
LINE
  5
977
330
1F
100
AcDbEntity
  8
1
  6
CONTINUOUS
370
50
 62
4
100
AcDbLine
 10
133.400421
 20
-7.940511
 30
0.0
 11
133.364685
 21
-7.926819999999999
 31
0.0
  0
LINE
  5
978
330
1F
100
AcDbEntity
  8
1
  6
CONTINUOUS
370
50
 62
4
100
AcDbLine
 10
131.786255
 20
-9.920695
 30
0.0
 11
131.744019
 21
-9.90471
 31
0.0
  0
LINE
  5
979
330
1F
100
AcDbEntity
  8
1
  6
CONTINUOUS
370
50
 62
4
100
AcDbLine
 10
131.828522
 20
-9.93644
 30
0.0
 11
131.786255
 21
-9.920695
 31
0.0
  0
LINE
  5
97A
330
1F
100
AcDbEntity
  8
1
  6
CONTINUOUS
370
50
 62
4
100
AcDbLine
 10
135.536591
 20
-9.143424
 30
0.0
 11
135.453918
 21
-9.112708
 31
0.0
  0
LINE
  5
97B
330
1F
100
AcDbEntity
  8
1
  6
CONTINUOUS
370
50
 62
4
100
AcDbLine
 10
132.5233
 20
8.370904
 30
0.0
 11
132.486664
 21
8.384481
 31
0.0
  0
LINE
  5
97C
330
1F
100
AcDbEntity
  8
1
  6
CONTINUOUS
370
50
 62
4
100
AcDbLine
 10
135.619232
 20
-9.173297
 30
0.0
 11
135.536591
 21
-9.143424
 31
0.0
  0
LINE
  5
97D
330
1F
100
AcDbEntity
  8
1
  6
CONTINUOUS
370
50
 62
4
100
AcDbLine
 10
140.0
 20
2.003803
 30
0.0
 11
139.905563
 21
2.037566
 31
0.0
  0
LINE
  5
97E
330
1F
100
AcDbEntity
  8
1
  6
CONTINUOUS
370
50
 62
4
100
AcDbLine
 10
130.759613
 20
-5.585293
 30
0.0
 11
130.718018
 21
-5.570431999999999
 31
0.0
  0
LINE
  5
97F
330
1F
100
AcDbEntity
  8
1
  6
CONTINUOUS
370
50
 62
4
100
AcDbLine
 10
135.701843
 20
-9.202325
 30
0.0
 11
135.619232
 21
-9.173297
 31
0.0
  0
LINE
  5
980
330
1F
100
AcDbEntity
  8
1
  6
CONTINUOUS
370
50
 62
4
100
AcDbLine
 10
135.784424
 20
-9.230504
 30
0.0
 11
135.701843
 21
-9.202325
 31
0.0
  0
LINE
  5
981
330
1F
100
AcDbEntity
  8
1
  6
CONTINUOUS
370
50
 62
4
100
AcDbLine
 10
131.828522
 20
10.982154
 30
0.0
 11
131.786346
 21
10.996165
 31
0.0
  0
LINE
  5
982
330
1F
100
AcDbEntity
  8
1
  6
CONTINUOUS
370
50
 62
4
100
AcDbLine
 10
116.974419
 20
-9.143502999999999
 30
0.0
 11
116.934746
 21
-9.130324
 31
0.0
  0
LINE
  5
983
330
1F
100
AcDbEntity
  8
1
  6
CONTINUOUS
370
50
 62
4
100
AcDbLine
 10
135.866974
 20
-9.257833
 30
0.0
 11
135.784424
 21
-9.230504
 31
0.0
  0
LINE
  5
984
330
1F
100
AcDbEntity
  8
1
  6
CONTINUOUS
370
50
 62
4
100
AcDbLine
 10
128.977081
 20
10.727287
 30
0.0
 11
128.89447
 21
10.754633
 31
0.0
  0
LINE
  5
985
330
1F
100
AcDbEntity
  8
1
  6
CONTINUOUS
370
50
 62
4
100
AcDbLine
 10
131.786346
 20
10.996165
 30
0.0
 11
131.744156
 21
11.009879
 31
0.0
  0
LINE
  5
986
330
1F
100
AcDbEntity
  8
1
  6
CONTINUOUS
370
50
 62
4
100
AcDbLine
 10
135.949539
 20
-9.28431
 30
0.0
 11
135.866974
 21
-9.257833
 31
0.0
  0
LINE
  5
987
330
1F
100
AcDbEntity
  8
1
  6
CONTINUOUS
370
50
 62
4
100
AcDbLine
 10
128.89447
 20
10.754633
 30
0.0
 11
128.81189
 21
10.780983
 31
0.0
  0
LINE
  5
988
330
1F
100
AcDbEntity
  8
1
  6
CONTINUOUS
370
50
 62
4
100
AcDbLine
 10
131.744156
 20
11.009879
 30
0.0
 11
131.701981
 21
11.023296
 31
0.0
  0
LINE
  5
989
330
1F
100
AcDbEntity
  8
1
  6
CONTINUOUS
370
50
 62
4
100
AcDbLine
 10
118.094193
 20
5.159765
 30
0.0
 11
118.036667
 21
5.178046999999999
 31
0.0
  0
LINE
  5
98A
330
1F
100
AcDbEntity
  8
1
  6
CONTINUOUS
370
50
 62
4
100
AcDbLine
 10
120.77282
 20
1.982962
 30
0.0
 11
120.710915
 21
2.002332
 31
0.0
  0
LINE
  5
98B
330
1F
100
AcDbEntity
  8
1
  6
CONTINUOUS
370
50
 62
4
100
AcDbLine
 10
131.701981
 20
11.023296
 30
0.0
 11
131.659805
 21
11.036415
 31
0.0
  0
LINE
  5
98C
330
1F
100
AcDbEntity
  8
1
  6
CONTINUOUS
370
50
 62
4
100
AcDbLine
 10
136.032089
 20
-9.309932
 30
0.0
 11
135.949539
 21
-9.28431
 31
0.0
  0
LINE
  5
98D
330
1F
100
AcDbEntity
  8
1
  6
CONTINUOUS
370
50
 62
4
100
AcDbLine
 10
128.81189
 20
10.780983
 30
0.0
 11
128.72934
 21
10.806338
 31
0.0
  0
LINE
  5
98E
330
1F
100
AcDbEntity
  8
1
  6
CONTINUOUS
370
50
 62
4
100
AcDbLine
 10
131.659805
 20
11.036415
 30
0.0
 11
131.617645
 21
11.049236
 31
0.0
  0
LINE
  5
98F
330
1F
100
AcDbEntity
  8
1
  6
CONTINUOUS
370
50
 62
4
100
AcDbLine
 10
128.139145
 20
-2.523884
 30
0.0
 11
128.095718
 21
-2.510813
 31
0.0
  0
LINE
  5
990
330
1F
100
AcDbEntity
  8
1
  6
CONTINUOUS
370
50
 62
4
100
AcDbLine
 10
136.035217
 20
-9.31081
 30
0.0
 11
136.034683
 21
-9.310649999999999
 31
0.0
  0
LINE
  5
991
330
1F
100
AcDbEntity
  8
1
  6
CONTINUOUS
370
50
 62
4
100
AcDbLine
 10
136.034683
 20
-9.310649999999999
 30
0.0
 11
136.034164
 21
-9.310495
 31
0.0
  0
LINE
  5
992
330
1F
100
AcDbEntity
  8
1
  6
CONTINUOUS
370
50
 62
4
100
AcDbLine
 10
131.617645
 20
11.049236
 30
0.0
 11
131.575485
 21
11.061759
 31
0.0
  0
LINE
  5
993
330
1F
100
AcDbEntity
  8
1
  6
CONTINUOUS
370
50
 62
4
100
AcDbLine
 10
135.40538
 20
-9.083973
 30
0.0
 11
135.348892
 21
-9.067221
 31
0.0
  0
LINE
  5
994
330
1F
100
AcDbEntity
  8
1
  6
CONTINUOUS
370
50
 62
4
100
AcDbLine
 10
128.72934
 20
10.806338
 30
0.0
 11
128.64679
 21
10.830697
 31
0.0
  0
LINE
  5
995
330
1F
100
AcDbEntity
  8
1
  6
CONTINUOUS
370
50
 62
4
100
AcDbLine
 10
131.575485
 20
11.061759
 30
0.0
 11
131.53334
 21
11.073984
 31
0.0
  0
LINE
  5
996
330
1F
100
AcDbEntity
  8
1
  6
CONTINUOUS
370
50
 62
4
100
AcDbLine
 10
136.034164
 20
-9.310495
 30
0.0
 11
136.033646
 21
-9.310345
 31
0.0
  0
LINE
  5
997
330
1F
100
AcDbEntity
  8
1
  6
CONTINUOUS
370
50
 62
4
100
AcDbLine
 10
128.64679
 20
10.830697
 30
0.0
 11
128.564224
 21
10.854058
 31
0.0
  0
LINE
  5
998
330
1F
100
AcDbEntity
  8
1
  6
CONTINUOUS
370
50
 62
4
100
AcDbLine
 10
136.033646
 20
-9.310345
 30
0.0
 11
136.033127
 21
-9.310198999999999
 31
0.0
  0
LINE
  5
999
330
1F
100
AcDbEntity
  8
1
  6
CONTINUOUS
370
50
 62
4
100
AcDbLine
 10
135.190857
 20
6.228828999999999
 30
0.0
 11
135.160294
 21
6.237411
 31
0.0
  0
LINE
  5
99A
330
1F
100
AcDbEntity
  8
1
  6
CONTINUOUS
370
50
 62
4
100
AcDbLine
 10
136.033127
 20
-9.310198999999999
 30
0.0
 11
136.032608
 21
-9.310056999999999
 31
0.0
  0
LINE
  5
99B
330
1F
100
AcDbEntity
  8
1
  6
CONTINUOUS
370
50
 62
4
100
AcDbLine
 10
136.032608
 20
-9.310056999999999
 30
0.0
 11
136.032104
 21
-9.30992
 31
0.0
  0
LINE
  5
99C
330
1F
100
AcDbEntity
  8
1
  6
CONTINUOUS
370
50
 62
4
100
AcDbLine
 10
128.564224
 20
10.854058
 30
0.0
 11
128.481598
 21
10.876423
 31
0.0
  0
LINE
  5
99D
330
1F
100
AcDbEntity
  8
1
  6
CONTINUOUS
370
50
 62
4
100
AcDbLine
 10
120.015533
 20
-10.88063
 30
0.0
 11
119.932915
 21
-10.858536
 31
0.0
  0
LINE
  5
99E
330
1F
100
AcDbEntity
  8
1
  6
CONTINUOUS
370
50
 62
4
100
AcDbLine
 10
118.584091
 20
-9.501773
 30
0.0
 11
118.521912
 21
-9.485522999999999
 31
0.0
  0
LINE
  5
99F
330
1F
100
AcDbEntity
  8
1
  6
CONTINUOUS
370
50
 62
4
100
AcDbLine
 10
128.481598
 20
10.876423
 30
0.0
 11
128.398911
 21
10.897789
 31
0.0
  0
LINE
  5
9A0
330
1F
100
AcDbEntity
  8
1
  6
CONTINUOUS
370
50
 62
4
100
AcDbLine
 10
120.098145
 20
-10.901728
 30
0.0
 11
120.015533
 21
-10.88063
 31
0.0
  0
LINE
  5
9A1
330
1F
100
AcDbEntity
  8
1
  6
CONTINUOUS
370
50
 62
4
100
AcDbLine
 10
120.180748
 20
-10.921829
 30
0.0
 11
120.098145
 21
-10.901728
 31
0.0
  0
LINE
  5
9A2
330
1F
100
AcDbEntity
  8
1
  6
CONTINUOUS
370
50
 62
4
100
AcDbLine
 10
125.576912
 20
0.927908
 30
0.0
 11
125.534012
 21
0.9381579999999999
 31
0.0
  0
LINE
  5
9A3
330
1F
100
AcDbEntity
  8
1
  6
CONTINUOUS
370
50
 62
4
100
AcDbLine
 10
118.648445
 20
-9.517128999999999
 30
0.0
 11
118.584091
 21
-9.501773
 31
0.0
  0
LINE
  5
9A4
330
1F
100
AcDbEntity
  8
1
  6
CONTINUOUS
370
50
 62
4
100
AcDbLine
 10
120.263344
 20
-10.940932
 30
0.0
 11
120.180748
 21
-10.921829
 31
0.0
  0
LINE
  5
9A5
330
1F
100
AcDbEntity
  8
1
  6
CONTINUOUS
370
50
 62
4
100
AcDbLine
 10
130.718018
 20
-5.570431999999999
 30
0.0
 11
130.677597
 21
-5.561264
 31
0.0
  0
LINE
  5
9A6
330
1F
100
AcDbEntity
  8
1
  6
CONTINUOUS
370
50
 62
4
100
AcDbLine
 10
120.345932
 20
-10.959036
 30
0.0
 11
120.263344
 21
-10.940932
 31
0.0
  0
LINE
  5
9A7
330
1F
100
AcDbEntity
  8
1
  6
CONTINUOUS
370
50
 62
4
100
AcDbLine
 10
118.714836
 20
-9.531417
 30
0.0
 11
118.648445
 21
-9.517128999999999
 31
0.0
  0
LINE
  5
9A8
330
1F
100
AcDbEntity
  8
1
  6
CONTINUOUS
370
50
 62
4
100
AcDbLine
 10
133.364685
 20
-7.926819999999999
 30
0.0
 11
133.331696
 21
-7.919752
 31
0.0
  0
LINE
  5
9A9
330
1F
100
AcDbEntity
  8
1
  6
CONTINUOUS
370
50
 62
4
100
AcDbLine
 10
120.428513
 20
-10.976139
 30
0.0
 11
120.345932
 21
-10.959036
 31
0.0
  0
LINE
  5
9AA
330
1F
100
AcDbEntity
  8
1
  6
CONTINUOUS
370
50
 62
4
100
AcDbLine
 10
128.095718
 20
-2.510813
 30
0.0
 11
128.052536
 21
-2.502154
 31
0.0
  0
LINE
  5
9AB
330
1F
100
AcDbEntity
  8
1
  6
CONTINUOUS
370
50
 62
4
100
AcDbLine
 10
120.511086
 20
-10.992239
 30
0.0
 11
120.428513
 21
-10.976139
 31
0.0
  0
LINE
  5
9AC
330
1F
100
AcDbEntity
  8
1
  6
CONTINUOUS
370
50
 62
4
100
AcDbLine
 10
118.787254
 20
-9.545223
 30
0.0
 11
118.714836
 21
-9.531417
 31
0.0
  0
LINE
  5
9AD
330
1F
100
AcDbEntity
  8
1
  6
CONTINUOUS
370
50
 62
4
100
AcDbLine
 10
120.829193
 20
1.972867
 30
0.0
 11
120.77282
 21
1.982962
 31
0.0
  0
LINE
  5
9AE
330
1F
100
AcDbEntity
  8
1
  6
CONTINUOUS
370
50
 62
4
100
AcDbLine
 10
118.150017
 20
5.1501
 30
0.0
 11
118.094193
 21
5.159765
 31
0.0
  0
LINE
  5
9AF
330
1F
100
AcDbEntity
  8
1
  6
CONTINUOUS
370
50
 62
4
100
AcDbLine
 10
131.828522
 20
11.06151
 30
0.0
 11
131.53334
 21
11.1125
 31
0.0
  0
LINE
  5
9B0
330
1F
100
AcDbEntity
  8
1
  6
CONTINUOUS
370
50
 62
4
100
AcDbLine
 10
140.0
 20
9.65
 30
0.0
 11
138.94751
 21
9.831804
 31
0.0
  0
LINE
  5
9B1
330
1F
100
AcDbEntity
  8
1
  6
CONTINUOUS
370
50
 62
4
100
AcDbLine
 10
138.097748
 20
9.978587
 30
0.0
 11
136.381424
 21
10.275061
 31
0.0
  0
LINE
  5
9B2
330
1F
100
AcDbEntity
  8
1
  6
CONTINUOUS
370
50
 62
4
100
AcDbLine
 10
134.963135
 20
10.520048
 30
0.0
 11
133.815338
 21
10.718316
 31
0.0
  0
LINE
  5
9B3
330
1F
100
AcDbEntity
  8
1
  6
CONTINUOUS
370
50
 62
4
100
AcDbLine
 10
118.879463
 20
-9.560641
 30
0.0
 11
118.787254
 21
-9.545223
 31
0.0
  0
LINE
  5
9B4
330
1F
100
AcDbEntity
  8
1
  6
CONTINUOUS
370
50
 62
4
100
AcDbLine
 10
135.220581
 20
6.223863
 30
0.0
 11
135.190857
 21
6.228828999999999
 31
0.0
  0
LINE
  5
9B5
330
1F
100
AcDbEntity
  8
1
  6
CONTINUOUS
370
50
 62
4
100
AcDbLine
 10
125.534012
 20
0.9381579999999999
 30
0.0
 11
125.490959
 21
0.9452809999999999
 31
0.0
  0
LINE
  5
9B6
330
1F
100
AcDbEntity
  8
1
  6
CONTINUOUS
370
50
 62
4
100
AcDbLine
 10
132.55632
 20
8.36556
 30
0.0
 11
132.5233
 21
8.370904
 31
0.0
  0
LINE
  5
9B7
330
1F
100
AcDbEntity
  8
1
  6
CONTINUOUS
370
50
 62
4
100
AcDbLine
 10
123.375916
 20
-1.483882
 30
0.0
 11
123.333084
 21
-1.477035
 31
0.0
  0
LINE
  5
9B8
330
1F
100
AcDbEntity
  8
1
  6
CONTINUOUS
370
50
 62
4
100
AcDbLine
 10
118.988762
 20
-9.576993
 30
0.0
 11
118.879463
 21
-9.560641
 31
0.0
  0
LINE
  5
9B9
330
1F
100
AcDbEntity
  8
1
  6
CONTINUOUS
370
50
 62
4
100
AcDbLine
 10
135.348892
 20
-9.067221
 30
0.0
 11
135.283417
 21
-9.058489
 31
0.0
  0
LINE
  5
9BA
330
1F
100
AcDbEntity
  8
1
  6
CONTINUOUS
370
50
 62
4
100
AcDbLine
 10
119.100082
 20
-9.591778
 30
0.0
 11
118.988762
 21
-9.576993
 31
0.0
  0
LINE
  5
9BB
330
1F
100
AcDbEntity
  8
1
  6
CONTINUOUS
370
50
 62
4
100
AcDbLine
 10
130.388092
 20
9.601244
 30
0.0
 11
130.305496
 21
9.611869
 31
0.0
  0
LINE
  5
9BC
330
1F
100
AcDbEntity
  8
1
  6
CONTINUOUS
370
50
 62
4
100
AcDbLine
 10
130.305496
 20
9.611869
 30
0.0
 11
130.222916
 21
9.621604
 31
0.0
  0
LINE
  5
9BD
330
1F
100
AcDbEntity
  8
1
  6
CONTINUOUS
370
50
 62
4
100
AcDbLine
 10
130.222916
 20
9.621604
 30
0.0
 11
130.14035
 21
9.630448
 31
0.0
  0
LINE
  5
9BE
330
1F
100
AcDbEntity
  8
1
  6
CONTINUOUS
370
50
 62
4
100
AcDbLine
 10
131.53334
 20
11.073984
 30
0.0
 11
131.488693
 21
11.078618
 31
0.0
  0
LINE
  5
9BF
330
1F
100
AcDbEntity
  8
1
  6
CONTINUOUS
370
50
 62
4
100
AcDbLine
 10
131.488693
 20
11.078618
 30
0.0
 11
131.444061
 21
11.082956
 31
0.0
  0
LINE
  5
9C0
330
1F
100
AcDbEntity
  8
1
  6
CONTINUOUS
370
50
 62
4
100
AcDbLine
 10
130.14035
 20
9.630448
 30
0.0
 11
130.05777
 21
9.638402
 31
0.0
  0
LINE
  5
9C1
330
1F
100
AcDbEntity
  8
1
  6
CONTINUOUS
370
50
 62
4
100
AcDbLine
 10
133.976364
 20
-10.415456
 30
0.0
 11
133.815338
 21
-10.400496
 31
0.0
  0
LINE
  5
9C2
330
1F
100
AcDbEntity
  8
1
  6
CONTINUOUS
370
50
 62
4
100
AcDbLine
 10
128.052536
 20
-2.502154
 30
0.0
 11
128.00972
 21
-2.498191
 31
0.0
  0
LINE
  5
9C3
330
1F
100
AcDbEntity
  8
1
  6
CONTINUOUS
370
50
 62
4
100
AcDbLine
 10
131.444061
 20
11.082956
 30
0.0
 11
131.399429
 21
11.086997
 31
0.0
  0
LINE
  5
9C4
330
1F
100
AcDbEntity
  8
1
  6
CONTINUOUS
370
50
 62
4
100
AcDbLine
 10
125.490959
 20
0.9452809999999999
 30
0.0
 11
125.447731
 21
0.949121
 31
0.0
  0
LINE
  5
9C5
330
1F
100
AcDbEntity
  8
1
  6
CONTINUOUS
370
50
 62
4
100
AcDbLine
 10
123.418892
 20
-1.487598
 30
0.0
 11
123.375916
 21
-1.483882
 31
0.0
  0
LINE
  5
9C6
330
1F
100
AcDbEntity
  8
1
  6
CONTINUOUS
370
50
 62
4
100
AcDbLine
 10
130.05777
 20
9.638402
 30
0.0
 11
129.975174
 21
9.645465
 31
0.0
  0
LINE
  5
9C7
330
1F
100
AcDbEntity
  8
1
  6
CONTINUOUS
370
50
 62
4
100
AcDbLine
 10
131.399429
 20
11.086997
 30
0.0
 11
131.354797
 21
11.090742
 31
0.0
  0
LINE
  5
9C8
330
1F
100
AcDbEntity
  8
1
  6
CONTINUOUS
370
50
 62
4
100
AcDbLine
 10
130.677597
 20
-5.561264
 30
0.0
 11
130.638519
 21
-5.558045
 31
0.0
  0
LINE
  5
9C9
330
1F
100
AcDbEntity
  8
1
  6
CONTINUOUS
370
50
 62
4
100
AcDbLine
 10
131.354797
 20
11.090742
 30
0.0
 11
131.310181
 21
11.09419
 31
0.0
  0
LINE
  5
9CA
330
1F
100
AcDbEntity
  8
1
  6
CONTINUOUS
370
50
 62
4
100
AcDbLine
 10
129.975174
 20
9.645465
 30
0.0
 11
129.892563
 21
9.651636
 31
0.0
  0
LINE
  5
9CB
330
1F
100
AcDbEntity
  8
1
  6
CONTINUOUS
370
50
 62
4
100
AcDbLine
 10
134.138412
 20
-10.427251
 30
0.0
 11
133.976364
 21
-10.415456
 31
0.0
  0
LINE
  5
9CC
330
1F
100
AcDbEntity
  8
1
  6
CONTINUOUS
370
50
 62
4
100
AcDbLine
 10
118.720711
 20
-9.645844
 30
0.0
 11
118.657379
 21
-9.641238999999999
 31
0.0
  0
LINE
  5
9CD
330
1F
100
AcDbEntity
  8
1
  6
CONTINUOUS
370
50
 62
4
100
AcDbLine
 10
118.78109
 20
-9.650231
 30
0.0
 11
118.720711
 21
-9.645844
 31
0.0
  0
LINE
  5
9CE
330
1F
100
AcDbEntity
  8
1
  6
CONTINUOUS
370
50
 62
4
100
AcDbLine
 10
118.657379
 20
-9.641238999999999
 30
0.0
 11
118.591064
 21
-9.636498999999999
 31
0.0
  0
LINE
  5
9CF
330
1F
100
AcDbEntity
  8
1
  6
CONTINUOUS
370
50
 62
4
100
AcDbLine
 10
131.310181
 20
11.09419
 30
0.0
 11
131.265549
 21
11.097341
 31
0.0
  0
LINE
  5
9D0
330
1F
100
AcDbEntity
  8
1
  6
CONTINUOUS
370
50
 62
4
100
AcDbLine
 10
118.852325
 20
-9.655230999999999
 30
0.0
 11
118.78109
 21
-9.650231
 31
0.0
  0
LINE
  5
9D1
330
1F
100
AcDbEntity
  8
1
  6
CONTINUOUS
370
50
 62
4
100
AcDbLine
 10
118.591064
 20
-9.636498999999999
 30
0.0
 11
118.521912
 21
-9.631708999999999
 31
0.0
  0
LINE
  5
9D2
330
1F
100
AcDbEntity
  8
1
  6
CONTINUOUS
370
50
 62
4
100
AcDbLine
 10
131.265549
 20
11.097341
 30
0.0
 11
131.220917
 21
11.100194
 31
0.0
  0
LINE
  5
9D3
330
1F
100
AcDbEntity
  8
1
  6
CONTINUOUS
370
50
 62
4
100
AcDbLine
 10
129.892563
 20
9.651636
 30
0.0
 11
129.809921
 21
9.656915
 31
0.0
  0
LINE
  5
9D4
330
1F
100
AcDbEntity
  8
1
  6
CONTINUOUS
370
50
 62
4
100
AcDbLine
 10
118.961464
 20
-9.661717999999999
 30
0.0
 11
118.852325
 21
-9.655230999999999
 31
0.0
  0
LINE
  5
9D5
330
1F
100
AcDbEntity
  8
1
  6
CONTINUOUS
370
50
 62
4
100
AcDbLine
 10
134.301483
 20
-10.435845
 30
0.0
 11
134.138412
 21
-10.427251
 31
0.0
  0
LINE
  5
9D6
330
1F
100
AcDbEntity
  8
1
  6
CONTINUOUS
370
50
 62
4
100
AcDbLine
 10
120.880127
 20
1.97058
 30
0.0
 11
120.829193
 21
1.972867
 31
0.0
  0
LINE
  5
9D7
330
1F
100
AcDbEntity
  8
1
  6
CONTINUOUS
370
50
 62
4
100
AcDbLine
 10
135.249283
 20
6.222637
 30
0.0
 11
135.220581
 21
6.223863
 31
0.0
  0
LINE
  5
9D8
330
1F
100
AcDbEntity
  8
1
  6
CONTINUOUS
370
50
 62
4
100
AcDbLine
 10
119.100082
 20
-9.667430999999999
 30
0.0
 11
118.961464
 21
-9.661717999999999
 31
0.0
  0
LINE
  5
9D9
330
1F
100
AcDbEntity
  8
1
  6
CONTINUOUS
370
50
 62
4
100
AcDbLine
 10
134.465515
 20
-10.441206
 30
0.0
 11
134.301483
 21
-10.435845
 31
0.0
  0
LINE
  5
9DA
330
1F
100
AcDbEntity
  8
1
  6
CONTINUOUS
370
50
 62
4
100
AcDbLine
 10
135.283417
 20
-9.058489
 30
0.0
 11
135.210983
 21
-9.056295
 31
0.0
  0
LINE
  5
9DB
330
1F
100
AcDbEntity
  8
1
  6
CONTINUOUS
370
50
 62
4
100
AcDbLine
 10
133.331696
 20
-7.919752
 30
0.0
 11
133.301498
 21
-7.919171
 31
0.0
  0
LINE
  5
9DC
330
1F
100
AcDbEntity
  8
1
  6
CONTINUOUS
370
50
 62
4
100
AcDbLine
 10
138.292923
 20
-9.669338
 30
0.0
 11
138.275909
 21
-9.669099
 31
0.0
  0
LINE
  5
9DD
330
1F
100
AcDbEntity
  8
1
  6
CONTINUOUS
370
50
 62
4
100
AcDbLine
 10
134.630478
 20
-10.443298
 30
0.0
 11
134.465515
 21
-10.441206
 31
0.0
  0
LINE
  5
9DE
330
1F
100
AcDbEntity
  8
1
  6
CONTINUOUS
370
50
 62
4
100
AcDbLine
 10
138.309921
 20
-9.669540999999999
 30
0.0
 11
138.292923
 21
-9.669338
 31
0.0
  0
LINE
  5
9DF
330
1F
100
AcDbEntity
  8
1
  6
CONTINUOUS
370
50
 62
4
100
AcDbLine
 10
118.203812
 20
5.149543
 30
0.0
 11
118.150017
 21
5.1501
 31
0.0
  0
LINE
  5
9E0
330
1F
100
AcDbEntity
  8
1
  6
CONTINUOUS
370
50
 62
4
100
AcDbLine
 10
130.459045
 20
9.347152
 30
0.0
 11
130.388153
 21
9.34788
 31
0.0
  0
LINE
  5
9E1
330
1F
100
AcDbEntity
  8
1
  6
CONTINUOUS
370
50
 62
4
100
AcDbLine
 10
123.462105
 20
-1.488021
 30
0.0
 11
123.418892
 21
-1.487598
 31
0.0
  0
LINE
  5
9E2
330
1F
100
AcDbEntity
  8
1
  6
CONTINUOUS
370
50
 62
4
100
AcDbLine
 10
138.32695
 20
-9.669706999999999
 30
0.0
 11
138.309921
 21
-9.669540999999999
 31
0.0
  0
LINE
  5
9E3
330
1F
100
AcDbEntity
  8
1
  6
CONTINUOUS
370
50
 62
4
100
AcDbLine
 10
117.421364
 20
-11.112062
 30
0.0
 11
117.400002
 21
-11.111874
 31
0.0
  0
LINE
  5
9E4
330
1F
100
AcDbEntity
  8
1
  6
CONTINUOUS
370
50
 62
4
100
AcDbLine
 10
125.447731
 20
0.949121
 30
0.0
 11
125.404274
 21
0.949472
 31
0.0
  0
LINE
  5
9E5
330
1F
100
AcDbEntity
  8
1
  6
CONTINUOUS
370
50
 62
4
100
AcDbLine
 10
138.343964
 20
-9.669837
 30
0.0
 11
138.32695
 21
-9.669706999999999
 31
0.0
  0
LINE
  5
9E6
330
1F
100
AcDbEntity
  8
1
  6
CONTINUOUS
370
50
 62
4
100
AcDbLine
 10
117.442696
 20
-11.112218
 30
0.0
 11
117.421364
 21
-11.112062
 31
0.0
  0
LINE
  5
9E7
330
1F
100
AcDbEntity
  8
1
  6
CONTINUOUS
370
50
 62
4
100
AcDbLine
 10
117.463982
 20
-11.11234
 30
0.0
 11
117.442696
 21
-11.112218
 31
0.0
  0
LINE
  5
9E8
330
1F
100
AcDbEntity
  8
1
  6
CONTINUOUS
370
50
 62
4
100
AcDbLine
 10
138.360992
 20
-9.669929999999999
 30
0.0
 11
138.343964
 21
-9.669837
 31
0.0
  0
LINE
  5
9E9
330
1F
100
AcDbEntity
  8
1
  6
CONTINUOUS
370
50
 62
4
100
AcDbLine
 10
117.485229
 20
-11.112428
 30
0.0
 11
117.463982
 21
-11.11234
 31
0.0
  0
LINE
  5
9EA
330
1F
100
AcDbEntity
  8
1
  6
CONTINUOUS
370
50
 62
4
100
AcDbLine
 10
138.378021
 20
-9.669986
 30
0.0
 11
138.360992
 21
-9.669929999999999
 31
0.0
  0
LINE
  5
9EB
330
1F
100
AcDbEntity
  8
1
  6
CONTINUOUS
370
50
 62
4
100
AcDbLine
 10
117.506439
 20
-11.112481
 30
0.0
 11
117.485229
 21
-11.112428
 31
0.0
  0
LINE
  5
9EC
330
1F
100
AcDbEntity
  8
1
  6
CONTINUOUS
370
50
 62
4
100
AcDbLine
 10
138.39505
 20
-9.670005999999999
 30
0.0
 11
138.378021
 21
-9.669986
 31
0.0
  0
LINE
  5
9ED
330
1F
100
AcDbEntity
  8
1
  6
CONTINUOUS
370
50
 62
4
100
AcDbLine
 10
117.527603
 20
-11.1125
 30
0.0
 11
117.506439
 21
-11.112481
 31
0.0
  0
LINE
  5
9EE
330
1F
100
AcDbEntity
  8
1
  6
CONTINUOUS
370
50
 62
4
100
AcDbLine
 10
131.220917
 20
-11.1125
 30
0.0
 11
131.53334
 21
-11.1125
 31
0.0
  0
LINE
  5
9EF
330
1F
100
AcDbEntity
  8
1
  6
CONTINUOUS
370
50
 62
4
100
AcDbLine
 10
128.398911
 20
-11.1125
 30
0.0
 11
128.977081
 21
-11.1125
 31
0.0
  0
LINE
  5
9F0
330
1F
100
AcDbEntity
  8
1
  6
CONTINUOUS
370
50
 62
4
100
AcDbLine
 10
125.576912
 20
-11.1125
 30
0.0
 11
126.155083
 21
-11.1125
 31
0.0
  0
LINE
  5
9F1
330
1F
100
AcDbEntity
  8
1
  6
CONTINUOUS
370
50
 62
4
100
AcDbLine
 10
122.754913
 20
-11.1125
 30
0.0
 11
123.333084
 21
-11.1125
 31
0.0
  0
LINE
  5
9F2
330
1F
100
AcDbEntity
  8
1
  6
CONTINUOUS
370
50
 62
4
100
AcDbLine
 10
117.400002
 20
-11.1125
 30
0.0
 11
117.527641
 21
-11.1125
 31
0.0
  0
LINE
  5
9F3
330
1F
100
AcDbEntity
  8
1
  6
CONTINUOUS
370
50
 62
4
100
AcDbLine
 10
118.521912
 20
-9.67
 30
0.0
 11
119.100082
 21
-9.67
 31
0.0
  0
LINE
  5
9F4
330
1F
100
AcDbEntity
  8
1
  6
CONTINUOUS
370
50
 62
4
100
AcDbLine
 10
121.34391
 20
-9.67
 30
0.0
 11
121.922089
 21
-9.67
 31
0.0
  0
LINE
  5
9F5
330
1F
100
AcDbEntity
  8
1
  6
CONTINUOUS
370
50
 62
4
100
AcDbLine
 10
124.165916
 20
-9.67
 30
0.0
 11
124.744087
 21
-9.67
 31
0.0
  0
LINE
  5
9F6
330
1F
100
AcDbEntity
  8
1
  6
CONTINUOUS
370
50
 62
4
100
AcDbLine
 10
126.987915
 20
-9.67
 30
0.0
 11
127.566086
 21
-9.67
 31
0.0
  0
LINE
  5
9F7
330
1F
100
AcDbEntity
  8
1
  6
CONTINUOUS
370
50
 62
4
100
AcDbLine
 10
129.809921
 20
-9.67
 30
0.0
 11
130.388092
 21
-9.67
 31
0.0
  0
LINE
  5
9F8
330
1F
100
AcDbEntity
  8
1
  6
CONTINUOUS
370
50
 62
4
100
AcDbLine
 10
132.631912
 20
-9.67
 30
0.0
 11
133.210083
 21
-9.67
 31
0.0
  0
LINE
  5
9F9
330
1F
100
AcDbEntity
  8
1
  6
CONTINUOUS
370
50
 62
4
100
AcDbLine
 10
135.453918
 20
-9.67
 30
0.0
 11
136.032089
 21
-9.67
 31
0.0
  0
LINE
  5
9FA
330
1F
100
AcDbEntity
  8
1
  6
CONTINUOUS
370
50
 62
4
100
AcDbLine
 10
138.394989
 20
-9.67
 30
0.0
 11
138.85408
 21
-9.67
 31
0.0
  0
LINE
  5
9FB
330
1F
100
AcDbEntity
  8
1
  6
CONTINUOUS
370
50
 62
4
100
AcDbLine
 10
36.0
 20
-9.0
 30
0.0
 11
116.555626
 21
-9.0
 31
0.0
  0
LINE
  5
9FC
330
1F
100
AcDbEntity
  8
1
  6
CONTINUOUS
370
50
 62
4
100
AcDbLine
 10
36.0
 20
9.0
 30
0.0
 11
116.555626
 21
9.0
 31
0.0
  0
LINE
  5
9FD
330
1F
100
AcDbEntity
  8
1
  6
CONTINUOUS
370
50
 62
4
100
AcDbLine
 10
118.521912
 20
9.67
 30
0.0
 11
119.100082
 21
9.67
 31
0.0
  0
LINE
  5
9FE
330
1F
100
AcDbEntity
  8
1
  6
CONTINUOUS
370
50
 62
4
100
AcDbLine
 10
121.34391
 20
9.67
 30
0.0
 11
121.922089
 21
9.67
 31
0.0
  0
LINE
  5
9FF
330
1F
100
AcDbEntity
  8
1
  6
CONTINUOUS
370
50
 62
4
100
AcDbLine
 10
124.165916
 20
9.67
 30
0.0
 11
124.744087
 21
9.67
 31
0.0
  0
LINE
  5
A00
330
1F
100
AcDbEntity
  8
1
  6
CONTINUOUS
370
50
 62
4
100
AcDbLine
 10
126.987915
 20
9.67
 30
0.0
 11
127.566086
 21
9.67
 31
0.0
  0
LINE
  5
A01
330
1F
100
AcDbEntity
  8
1
  6
CONTINUOUS
370
50
 62
4
100
AcDbLine
 10
129.809921
 20
9.67
 30
0.0
 11
130.388092
 21
9.67
 31
0.0
  0
LINE
  5
A02
330
1F
100
AcDbEntity
  8
1
  6
CONTINUOUS
370
50
 62
4
100
AcDbLine
 10
132.631912
 20
9.67
 30
0.0
 11
133.210083
 21
9.67
 31
0.0
  0
LINE
  5
A03
330
1F
100
AcDbEntity
  8
1
  6
CONTINUOUS
370
50
 62
4
100
AcDbLine
 10
135.453918
 20
9.67
 30
0.0
 11
136.032089
 21
9.67
 31
0.0
  0
LINE
  5
A04
330
1F
100
AcDbEntity
  8
1
  6
CONTINUOUS
370
50
 62
4
100
AcDbLine
 10
138.275909
 20
9.67
 30
0.0
 11
138.85408
 21
9.67
 31
0.0
  0
LINE
  5
A05
330
1F
100
AcDbEntity
  8
1
  6
CONTINUOUS
370
50
 62
4
100
AcDbLine
 10
131.220917
 20
11.1125
 30
0.0
 11
131.53334
 21
11.1125
 31
0.0
  0
LINE
  5
A06
330
1F
100
AcDbEntity
  8
1
  6
CONTINUOUS
370
50
 62
4
100
AcDbLine
 10
125.576912
 20
11.1125
 30
0.0
 11
126.155083
 21
11.1125
 31
0.0
  0
LINE
  5
A07
330
1F
100
AcDbEntity
  8
1
  6
CONTINUOUS
370
50
 62
4
100
AcDbLine
 10
122.754913
 20
11.1125
 30
0.0
 11
123.333084
 21
11.1125
 31
0.0
  0
LINE
  5
A08
330
1F
100
AcDbEntity
  8
1
  6
CONTINUOUS
370
50
 62
4
100
AcDbLine
 10
117.400002
 20
11.1125
 30
0.0
 11
117.689087
 21
11.1125
 31
0.0
  0
LINE
  5
A09
330
1F
100
AcDbEntity
  8
1
  6
CONTINUOUS
370
50
 62
4
100
AcDbLine
 10
119.932915
 20
11.1125
 30
0.0
 11
120.511086
 21
11.1125
 31
0.0
  0
LINE
  5
A0A
330
1F
100
AcDbEntity
  8
1
  6
CONTINUOUS
370
50
 62
4
100
AcDbLine
 10
117.527603
 20
-11.1125
 30
0.0
 11
117.554695
 21
-11.112474
 31
0.0
  0
LINE
  5
A0B
330
1F
100
AcDbEntity
  8
1
  6
CONTINUOUS
370
50
 62
4
100
AcDbLine
 10
117.554695
 20
-11.112474
 30
0.0
 11
117.581711
 21
-11.112391
 31
0.0
  0
LINE
  5
A0C
330
1F
100
AcDbEntity
  8
1
  6
CONTINUOUS
370
50
 62
4
100
AcDbLine
 10
117.581711
 20
-11.112391
 30
0.0
 11
117.608658
 21
-11.112248
 31
0.0
  0
LINE
  5
A0D
330
1F
100
AcDbEntity
  8
1
  6
CONTINUOUS
370
50
 62
4
100
AcDbLine
 10
134.630478
 20
-10.443298
 30
0.0
 11
134.796371
 21
-10.442088
 31
0.0
  0
LINE
  5
A0E
330
1F
100
AcDbEntity
  8
1
  6
CONTINUOUS
370
50
 62
4
100
AcDbLine
 10
117.608658
 20
-11.112248
 30
0.0
 11
117.635536
 21
-11.112048
 31
0.0
  0
LINE
  5
A0F
330
1F
100
AcDbEntity
  8
1
  6
CONTINUOUS
370
50
 62
4
100
AcDbLine
 10
117.635536
 20
-11.112048
 30
0.0
 11
117.662346
 21
-11.111789
 31
0.0
  0
LINE
  5
A10
330
1F
100
AcDbEntity
  8
1
  6
CONTINUOUS
370
50
 62
4
100
AcDbLine
 10
117.662346
 20
-11.111789
 30
0.0
 11
117.689087
 21
-11.111469
 31
0.0
  0
LINE
  5
A11
330
1F
100
AcDbEntity
  8
1
  6
CONTINUOUS
370
50
 62
4
100
AcDbLine
 10
127.967461
 20
-2.499204
 30
0.0
 11
128.00972
 21
-2.498191
 31
0.0
  0
LINE
  5
A12
330
1F
100
AcDbEntity
  8
1
  6
CONTINUOUS
370
50
 62
4
100
AcDbLine
 10
134.796371
 20
-10.442088
 30
0.0
 11
134.963135
 21
-10.437541
 31
0.0
  0
LINE
  5
A13
330
1F
100
AcDbEntity
  8
1
  6
CONTINUOUS
370
50
 62
4
100
AcDbLine
 10
135.133575
 20
-9.059161
 30
0.0
 11
135.210983
 21
-9.056295
 31
0.0
  0
LINE
  5
A14
330
1F
100
AcDbEntity
  8
1
  6
CONTINUOUS
370
50
 62
4
100
AcDbLine
 10
123.462105
 20
-1.488021
 30
0.0
 11
123.505539
 21
-1.484943
 31
0.0
  0
LINE
  5
A15
330
1F
100
AcDbEntity
  8
1
  6
CONTINUOUS
370
50
 62
4
100
AcDbLine
 10
125.360718
 20
0.9461109999999999
 30
0.0
 11
125.404274
 21
0.949472
 31
0.0
  0
LINE
  5
A16
330
1F
100
AcDbEntity
  8
1
  6
CONTINUOUS
370
50
 62
4
100
AcDbLine
 10
116.901115
 20
-9.132947
 30
0.0
 11
116.934746
 21
-9.130324
 31
0.0
  0
LINE
  5
A17
330
1F
100
AcDbEntity
  8
1
  6
CONTINUOUS
370
50
 62
4
100
AcDbLine
 10
130.600952
 20
-5.561031
 30
0.0
 11
130.638519
 21
-5.558045
 31
0.0
  0
LINE
  5
A18
330
1F
100
AcDbEntity
  8
1
  6
CONTINUOUS
370
50
 62
4
100
AcDbLine
 10
135.051437
 20
-9.065864999999999
 30
0.0
 11
135.133575
 21
-9.059161
 31
0.0
  0
LINE
  5
A19
330
1F
100
AcDbEntity
  8
1
  6
CONTINUOUS
370
50
 62
4
100
AcDbLine
 10
120.880127
 20
1.97058
 30
0.0
 11
120.925789
 21
1.974603
 31
0.0
  0
LINE
  5
A1A
330
1F
100
AcDbEntity
  8
1
  6
CONTINUOUS
370
50
 62
4
100
AcDbLine
 10
132.55632
 20
8.36556
 30
0.0
 11
132.585632
 21
8.368267
 31
0.0
  0
LINE
  5
A1B
330
1F
100
AcDbEntity
  8
1
  6
CONTINUOUS
370
50
 62
4
100
AcDbLine
 10
118.464905
 20
-9.490356
 30
0.0
 11
118.521843
 21
-9.485064
 31
0.0
  0
LINE
  5
A1C
330
1F
100
AcDbEntity
  8
1
  6
CONTINUOUS
370
50
 62
4
100
AcDbLine
 10
135.249283
 20
6.222637
 30
0.0
 11
135.276581
 21
6.225186
 31
0.0
  0
LINE
  5
A1D
330
1F
100
AcDbEntity
  8
1
  6
CONTINUOUS
370
50
 62
4
100
AcDbLine
 10
134.962936
 20
-9.076037999999999
 30
0.0
 11
135.051437
 21
-9.065864999999999
 31
0.0
  0
LINE
  5
A1E
330
1F
100
AcDbEntity
  8
1
  6
CONTINUOUS
370
50
 62
4
100
AcDbLine
 10
127.926079
 20
-2.505435
 30
0.0
 11
127.967461
 21
-2.499204
 31
0.0
  0
LINE
  5
A1F
330
1F
100
AcDbEntity
  8
1
  6
CONTINUOUS
370
50
 62
4
100
AcDbLine
 10
123.505539
 20
-1.484943
 30
0.0
 11
123.549065
 21
-1.478151
 31
0.0
  0
LINE
  5
A20
330
1F
100
AcDbEntity
  8
1
  6
CONTINUOUS
370
50
 62
4
100
AcDbLine
 10
125.317177
 20
0.938811
 30
0.0
 11
125.360718
 21
0.9461109999999999
 31
0.0
  0
LINE
  5
A21
330
1F
100
AcDbEntity
  8
1
  6
CONTINUOUS
370
50
 62
4
100
AcDbLine
 10
133.815338
 20
-10.718316
 30
0.0
 11
134.963135
 21
-10.520048
 31
0.0
  0
LINE
  5
A22
330
1F
100
AcDbEntity
  8
1
  6
CONTINUOUS
370
50
 62
4
100
AcDbLine
 10
138.94751
 20
-9.831804
 30
0.0
 11
140.0
 21
-9.65
 31
0.0
  0
LINE
  5
A23
330
1F
100
AcDbEntity
  8
1
  6
CONTINUOUS
370
50
 62
4
100
AcDbLine
 10
131.53334
 20
-11.1125
 30
0.0
 11
131.828522
 21
-11.06151
 31
0.0
  0
LINE
  5
A24
330
1F
100
AcDbEntity
  8
1
  6
CONTINUOUS
370
50
 62
4
100
AcDbLine
 10
118.203812
 20
5.149543
 30
0.0
 11
118.255226
 21
5.158586
 31
0.0
  0
LINE
  5
A25
330
1F
100
AcDbEntity
  8
1
  6
CONTINUOUS
370
50
 62
4
100
AcDbLine
 10
136.381424
 20
-10.273745
 30
0.0
 11
136.612152
 21
-10.227614
 31
0.0
  0
LINE
  5
A26
330
1F
100
AcDbEntity
  8
1
  6
CONTINUOUS
370
50
 62
4
100
AcDbLine
 10
130.459045
 20
9.347152
 30
0.0
 11
130.553741
 21
9.366873
 31
0.0
  0
LINE
  5
A27
330
1F
100
AcDbEntity
  8
1
  6
CONTINUOUS
370
50
 62
4
100
AcDbLine
 10
133.274094
 20
-7.924942
 30
0.0
 11
133.301498
 21
-7.919171
 31
0.0
  0
LINE
  5
A28
330
1F
100
AcDbEntity
  8
1
  6
CONTINUOUS
370
50
 62
4
100
AcDbLine
 10
120.925789
 20
1.974603
 30
0.0
 11
120.966347
 21
1.983439
 31
0.0
  0
LINE
  5
A29
330
1F
100
AcDbEntity
  8
1
  6
CONTINUOUS
370
50
 62
4
100
AcDbLine
 10
136.612152
 20
-10.227614
 30
0.0
 11
136.845108
 21
-10.175992
 31
0.0
  0
LINE
  5
A2A
330
1F
100
AcDbEntity
  8
1
  6
CONTINUOUS
370
50
 62
4
100
AcDbLine
 10
136.845108
 20
-10.175992
 30
0.0
 11
137.080246
 21
-10.11904
 31
0.0
  0
LINE
  5
A2B
330
1F
100
AcDbEntity
  8
1
  6
CONTINUOUS
370
50
 62
4
100
AcDbLine
 10
135.276581
 20
6.225186
 30
0.0
 11
135.302429
 21
6.231459999999999
 31
0.0
  0
LINE
  5
A2C
330
1F
100
AcDbEntity
  8
1
  6
CONTINUOUS
370
50
 62
4
100
AcDbLine
 10
123.549065
 20
-1.478151
 30
0.0
 11
123.59259
 21
-1.467428
 31
0.0
  0
LINE
  5
A2D
330
1F
100
AcDbEntity
  8
1
  6
CONTINUOUS
370
50
 62
4
100
AcDbLine
 10
130.56543
 20
-5.570328
 30
0.0
 11
130.600952
 21
-5.561031
 31
0.0
  0
LINE
  5
A2E
330
1F
100
AcDbEntity
  8
1
  6
CONTINUOUS
370
50
 62
4
100
AcDbLine
 10
137.080246
 20
-10.11904
 30
0.0
 11
137.31752
 21
-10.056926
 31
0.0
  0
LINE
  5
A2F
330
1F
100
AcDbEntity
  8
1
  6
CONTINUOUS
370
50
 62
4
100
AcDbLine
 10
125.273758
 20
0.92735
 30
0.0
 11
125.317177
 21
0.938811
 31
0.0
  0
LINE
  5
A30
330
1F
100
AcDbEntity
  8
1
  6
CONTINUOUS
370
50
 62
4
100
AcDbLine
 10
128.940445
 20
10.851175
 30
0.0
 11
128.977081
 21
10.861253
 31
0.0
  0
LINE
  5
A31
330
1F
100
AcDbEntity
  8
1
  6
CONTINUOUS
370
50
 62
4
100
AcDbLine
 10
128.903793
 20
10.840902
 30
0.0
 11
128.940445
 21
10.851175
 31
0.0
  0
LINE
  5
A32
330
1F
100
AcDbEntity
  8
1
  6
CONTINUOUS
370
50
 62
4
100
AcDbLine
 10
137.31752
 20
-10.056926
 30
0.0
 11
137.556915
 21
-9.989813999999999
 31
0.0
  0
LINE
  5
A33
330
1F
100
AcDbEntity
  8
1
  6
CONTINUOUS
370
50
 62
4
100
AcDbLine
 10
128.867157
 20
10.830435
 30
0.0
 11
128.903793
 21
10.840902
 31
0.0
  0
LINE
  5
A34
330
1F
100
AcDbEntity
  8
1
  6
CONTINUOUS
370
50
 62
4
100
AcDbLine
 10
127.885719
 20
-2.517088
 30
0.0
 11
127.926079
 21
-2.505435
 31
0.0
  0
LINE
  5
A35
330
1F
100
AcDbEntity
  8
1
  6
CONTINUOUS
370
50
 62
4
100
AcDbLine
 10
128.830505
 20
10.819771
 30
0.0
 11
128.867157
 21
10.830435
 31
0.0
  0
LINE
  5
A36
330
1F
100
AcDbEntity
  8
1
  6
CONTINUOUS
370
50
 62
4
100
AcDbLine
 10
128.793869
 20
10.808912
 30
0.0
 11
128.830505
 21
10.819771
 31
0.0
  0
LINE
  5
A37
330
1F
100
AcDbEntity
  8
1
  6
CONTINUOUS
370
50
 62
4
100
AcDbLine
 10
137.556915
 20
-9.989813999999999
 30
0.0
 11
137.798401
 21
-9.917867
 31
0.0
  0
LINE
  5
A38
330
1F
100
AcDbEntity
  8
1
  6
CONTINUOUS
370
50
 62
4
100
AcDbLine
 10
128.757233
 20
10.797859
 30
0.0
 11
128.793869
 21
10.808912
 31
0.0
  0
LINE
  5
A39
330
1F
100
AcDbEntity
  8
1
  6
CONTINUOUS
370
50
 62
4
100
AcDbLine
 10
130.553741
 20
9.366873
 30
0.0
 11
130.667191
 21
9.402171
 31
0.0
  0
LINE
  5
A3A
330
1F
100
AcDbEntity
  8
1
  6
CONTINUOUS
370
50
 62
4
100
AcDbLine
 10
122.711945
 20
4.422467999999999
 30
0.0
 11
122.754913
 21
4.437095999999999
 31
0.0
  0
LINE
  5
A3B
330
1F
100
AcDbEntity
  8
1
  6
CONTINUOUS
370
50
 62
4
100
AcDbLine
 10
120.966347
 20
1.983439
 30
0.0
 11
121.001991
 21
1.995599
 31
0.0
  0
LINE
  5
A3C
330
1F
100
AcDbEntity
  8
1
  6
CONTINUOUS
370
50
 62
4
100
AcDbLine
 10
123.59259
 20
-1.467428
 30
0.0
 11
123.635986
 21
-1.452561
 31
0.0
  0
LINE
  5
A3D
330
1F
100
AcDbEntity
  8
1
  6
CONTINUOUS
370
50
 62
4
100
AcDbLine
 10
118.38047
 20
-9.519699
 30
0.0
 11
118.464905
 21
-9.490356
 31
0.0
  0
LINE
  5
A3E
330
1F
100
AcDbEntity
  8
1
  6
CONTINUOUS
370
50
 62
4
100
AcDbLine
 10
130.667191
 20
9.402171
 30
0.0
 11
130.793625
 21
9.448343999999999
 31
0.0
  0
LINE
  5
A3F
330
1F
100
AcDbEntity
  8
1
  6
CONTINUOUS
370
50
 62
4
100
AcDbLine
 10
125.230591
 20
0.9115019999999999
 30
0.0
 11
125.273758
 21
0.92735
 31
0.0
  0
LINE
  5
A40
330
1F
100
AcDbEntity
  8
1
  6
CONTINUOUS
370
50
 62
4
100
AcDbLine
 10
118.255226
 20
5.158586
 30
0.0
 11
118.303383
 21
5.177436
 31
0.0
  0
LINE
  5
A41
330
1F
100
AcDbEntity
  8
1
  6
CONTINUOUS
370
50
 62
4
100
AcDbLine
 10
130.793625
 20
9.448343999999999
 30
0.0
 11
130.927292
 21
9.500689999999999
 31
0.0
  0
LINE
  5
A42
330
1F
100
AcDbEntity
  8
1
  6
CONTINUOUS
370
50
 62
4
100
AcDbLine
 10
130.927292
 20
9.500689999999999
 30
0.0
 11
131.068985
 21
9.55792
 31
0.0
  0
LINE
  5
A43
330
1F
100
AcDbEntity
  8
1
  6
CONTINUOUS
370
50
 62
4
100
AcDbLine
 10
135.302429
 20
6.231459999999999
 30
0.0
 11
135.326813
 21
6.241403999999999
 31
0.0
  0
LINE
  5
A44
330
1F
100
AcDbEntity
  8
1
  6
CONTINUOUS
370
50
 62
4
100
AcDbLine
 10
122.668831
 20
4.404864
 30
0.0
 11
122.711945
 21
4.422467999999999
 31
0.0
  0
LINE
  5
A45
330
1F
100
AcDbEntity
  8
1
  6
CONTINUOUS
370
50
 62
4
100
AcDbLine
 10
132.585632
 20
8.368267
 30
0.0
 11
132.610794
 21
8.378582
 31
0.0
  0
LINE
  5
A46
330
1F
100
AcDbEntity
  8
1
  6
CONTINUOUS
370
50
 62
4
100
AcDbLine
 10
131.068985
 20
9.55792
 30
0.0
 11
131.221115
 21
9.621036
 31
0.0
  0
LINE
  5
A47
330
1F
100
AcDbEntity
  8
1
  6
CONTINUOUS
370
50
 62
4
100
AcDbLine
 10
126.15509
 20
-4.938912
 30
0.0
 11
126.19857
 21
-4.92058
 31
0.0
  0
LINE
  5
A48
330
1F
100
AcDbEntity
  8
1
  6
CONTINUOUS
370
50
 62
4
100
AcDbLine
 10
127.846527
 20
-2.534364
 30
0.0
 11
127.885719
 21
-2.517088
 31
0.0
  0
LINE
  5
A49
330
1F
100
AcDbEntity
  8
1
  6
CONTINUOUS
370
50
 62
4
100
AcDbLine
 10
118.271996
 20
-9.567886999999999
 30
0.0
 11
118.38047
 21
-9.519699
 31
0.0
  0
LINE
  5
A4A
330
1F
100
AcDbEntity
  8
1
  6
CONTINUOUS
370
50
 62
4
100
AcDbLine
 10
123.635986
 20
-1.452561
 30
0.0
 11
123.679146
 21
-1.433334
 31
0.0
  0
LINE
  5
A4B
330
1F
100
AcDbEntity
  8
1
  6
CONTINUOUS
370
50
 62
4
100
AcDbLine
 10
121.001991
 20
1.995599
 30
0.0
 11
121.035149
 21
2.010937
 31
0.0
  0
LINE
  5
A4C
330
1F
100
AcDbEntity
  8
1
  6
CONTINUOUS
370
50
 62
4
100
AcDbLine
 10
130.532379
 20
-5.585795
 30
0.0
 11
130.56543
 21
-5.570328
 31
0.0
  0
LINE
  5
A4D
330
1F
100
AcDbEntity
  8
1
  6
CONTINUOUS
370
50
 62
4
100
AcDbLine
 10
125.187775
 20
0.8910429999999999
 30
0.0
 11
125.230591
 21
0.9115019999999999
 31
0.0
  0
LINE
  5
A4E
330
1F
100
AcDbEntity
  8
1
  6
CONTINUOUS
370
50
 62
4
100
AcDbLine
 10
122.625534
 20
4.384123
 30
0.0
 11
122.668831
 21
4.404864
 31
0.0
  0
LINE
  5
A4F
330
1F
100
AcDbEntity
  8
1
  6
CONTINUOUS
370
50
 62
4
100
AcDbLine
 10
133.249619
 20
-7.936882
 30
0.0
 11
133.274094
 21
-7.924942
 31
0.0
  0
LINE
  5
A50
330
1F
100
AcDbEntity
  8
1
  6
CONTINUOUS
370
50
 62
4
100
AcDbLine
 10
126.19857
 20
-4.92058
 30
0.0
 11
126.241669
 21
-4.899528
 31
0.0
  0
LINE
  5
A51
330
1F
100
AcDbEntity
  8
1
  6
CONTINUOUS
370
50
 62
4
100
AcDbLine
 10
118.145424
 20
-9.630466
 30
0.0
 11
118.271996
 21
-9.567886999999999
 31
0.0
  0
LINE
  5
A52
330
1F
100
AcDbEntity
  8
1
  6
CONTINUOUS
370
50
 62
4
100
AcDbLine
 10
118.006516
 20
-9.703282
 30
0.0
 11
118.145424
 21
-9.630466
 31
0.0
  0
LINE
  5
A53
330
1F
100
AcDbEntity
  8
1
  6
CONTINUOUS
370
50
 62
4
100
AcDbLine
 10
117.854393
 20
-9.786413999999999
 30
0.0
 11
118.006516
 21
-9.703282
 31
0.0
  0
LINE
  5
A54
330
1F
100
AcDbEntity
  8
1
  6
CONTINUOUS
370
50
 62
4
100
AcDbLine
 10
122.582024
 20
4.360041
 30
0.0
 11
122.625534
 21
4.384123
 31
0.0
  0
LINE
  5
A55
330
1F
100
AcDbEntity
  8
1
  6
CONTINUOUS
370
50
 62
4
100
AcDbLine
 10
123.679146
 20
-1.433334
 30
0.0
 11
123.721954
 21
-1.409534
 31
0.0
  0
LINE
  5
A56
330
1F
100
AcDbEntity
  8
1
  6
CONTINUOUS
370
50
 62
4
100
AcDbLine
 10
126.241669
 20
-4.899528
 30
0.0
 11
126.284874
 21
-4.875435
 31
0.0
  0
LINE
  5
A57
330
1F
100
AcDbEntity
  8
1
  6
CONTINUOUS
370
50
 62
4
100
AcDbLine
 10
117.688942
 20
-9.881435
 30
0.0
 11
117.854393
 21
-9.786413999999999
 31
0.0
  0
LINE
  5
A58
330
1F
100
AcDbEntity
  8
1
  6
CONTINUOUS
370
50
 62
4
100
AcDbLine
 10
135.326813
 20
6.241403999999999
 30
0.0
 11
135.349716
 21
6.254964999999999
 31
0.0
  0
LINE
  5
A59
330
1F
100
AcDbEntity
  8
1
  6
CONTINUOUS
370
50
 62
4
100
AcDbLine
 10
121.035149
 20
2.010937
 30
0.0
 11
121.067291
 21
2.029987
 31
0.0
  0
LINE
  5
A5A
330
1F
100
AcDbEntity
  8
1
  6
CONTINUOUS
370
50
 62
4
100
AcDbLine
 10
125.145523
 20
0.8657929999999999
 30
0.0
 11
125.187775
 21
0.8910429999999999
 31
0.0
  0
LINE
  5
A5B
330
1F
100
AcDbEntity
  8
1
  6
CONTINUOUS
370
50
 62
4
100
AcDbLine
 10
127.808647
 20
-2.557465
 30
0.0
 11
127.846527
 21
-2.534364
 31
0.0
  0
LINE
  5
A5C
330
1F
100
AcDbEntity
  8
1
  6
CONTINUOUS
370
50
 62
4
100
AcDbLine
 10
126.284874
 20
-4.875435
 30
0.0
 11
126.328285
 21
-4.848074
 31
0.0
  0
LINE
  5
A5D
330
1F
100
AcDbEntity
  8
1
  6
CONTINUOUS
370
50
 62
4
100
AcDbLine
 10
122.538406
 20
4.332475
 30
0.0
 11
122.582024
 21
4.360041
 31
0.0
  0
LINE
  5
A5E
330
1F
100
AcDbEntity
  8
1
  6
CONTINUOUS
370
50
 62
4
100
AcDbLine
 10
118.303383
 20
5.177436
 30
0.0
 11
118.347618
 21
5.205928
 31
0.0
  0
LINE
  5
A5F
330
1F
100
AcDbEntity
  8
1
  6
CONTINUOUS
370
50
 62
4
100
AcDbLine
 10
123.721954
 20
-1.409534
 30
0.0
 11
123.764191
 21
-1.381017
 31
0.0
  0
LINE
  5
A60
330
1F
100
AcDbEntity
  8
1
  6
CONTINUOUS
370
50
 62
4
100
AcDbLine
 10
116.874741
 20
-9.150896
 30
0.0
 11
116.901115
 21
-9.132947
 31
0.0
  0
LINE
  5
A61
330
1F
100
AcDbEntity
  8
1
  6
CONTINUOUS
370
50
 62
4
100
AcDbLine
 10
130.501801
 20
-5.607298999999999
 30
0.0
 11
130.532379
 21
-5.585795
 31
0.0
  0
LINE
  5
A62
330
1F
100
AcDbEntity
  8
1
  6
CONTINUOUS
370
50
 62
4
100
AcDbLine
 10
126.328285
 20
-4.848074
 30
0.0
 11
126.371796
 21
-4.817315
 31
0.0
  0
LINE
  5
A63
330
1F
100
AcDbEntity
  8
1
  6
CONTINUOUS
370
50
 62
4
100
AcDbLine
 10
122.494804
 20
4.301280999999999
 30
0.0
 11
122.538406
 21
4.332475
 31
0.0
  0
LINE
  5
A64
330
1F
100
AcDbEntity
  8
1
  6
CONTINUOUS
370
50
 62
4
100
AcDbLine
 10
125.104141
 20
0.835677
 30
0.0
 11
125.145523
 21
0.8657929999999999
 31
0.0
  0
LINE
  5
A65
330
1F
100
AcDbEntity
  8
1
  6
CONTINUOUS
370
50
 62
4
100
AcDbLine
 10
121.067291
 20
2.029987
 30
0.0
 11
121.098373
 21
2.052794
 31
0.0
  0
LINE
  5
A66
330
1F
100
AcDbEntity
  8
1
  6
CONTINUOUS
370
50
 62
4
100
AcDbLine
 10
126.371796
 20
-4.817315
 30
0.0
 11
126.415283
 21
-4.783028
 31
0.0
  0
LINE
  5
A67
330
1F
100
AcDbEntity
  8
1
  6
CONTINUOUS
370
50
 62
4
100
AcDbLine
 10
127.772247
 20
-2.586573
 30
0.0
 11
127.808647
 21
-2.557465
 31
0.0
  0
LINE
  5
A68
330
1F
100
AcDbEntity
  8
1
  6
CONTINUOUS
370
50
 62
4
100
AcDbLine
 10
135.349716
 20
6.254964999999999
 30
0.0
 11
135.371109
 21
6.272088999999999
 31
0.0
  0
LINE
  5
A69
330
1F
100
AcDbEntity
  8
1
  6
CONTINUOUS
370
50
 62
4
100
AcDbLine
 10
122.451332
 20
4.266319
 30
0.0
 11
122.494804
 21
4.301280999999999
 31
0.0
  0
LINE
  5
A6A
330
1F
100
AcDbEntity
  8
1
  6
CONTINUOUS
370
50
 62
4
100
AcDbLine
 10
123.764191
 20
-1.381017
 30
0.0
 11
123.805557
 21
-1.347711
 31
0.0
  0
LINE
  5
A6B
330
1F
100
AcDbEntity
  8
1
  6
CONTINUOUS
370
50
 62
4
100
AcDbLine
 10
132.610794
 20
8.378582
 30
0.0
 11
132.631897
 21
8.395869
 31
0.0
  0
LINE
  5
A6C
330
1F
100
AcDbEntity
  8
1
  6
CONTINUOUS
370
50
 62
4
100
AcDbLine
 10
133.228302
 20
-7.954522
 30
0.0
 11
133.249619
 21
-7.936882
 31
0.0
  0
LINE
  5
A6D
330
1F
100
AcDbEntity
  8
1
  6
CONTINUOUS
370
50
 62
4
100
AcDbLine
 10
125.063782
 20
0.800553
 30
0.0
 11
125.104141
 21
0.835677
 31
0.0
  0
LINE
  5
A6E
330
1F
100
AcDbEntity
  8
1
  6
CONTINUOUS
370
50
 62
4
100
AcDbLine
 10
126.415283
 20
-4.783028
 30
0.0
 11
126.458649
 21
-4.745083
 31
0.0
  0
LINE
  5
A6F
330
1F
100
AcDbEntity
  8
1
  6
CONTINUOUS
370
50
 62
4
100
AcDbLine
 10
121.098373
 20
2.052794
 30
0.0
 11
121.128311
 21
2.079407
 31
0.0
  0
LINE
  5
A70
330
1F
100
AcDbEntity
  8
1
  6
CONTINUOUS
370
50
 62
4
100
AcDbLine
 10
119.876122
 20
7.424439
 30
0.0
 11
119.932915
 21
7.474968
 31
0.0
  0
LINE
  5
A71
330
1F
100
AcDbEntity
  8
1
  6
CONTINUOUS
370
50
 62
4
100
AcDbLine
 10
122.408112
 20
4.227446
 30
0.0
 11
122.451332
 21
4.266319
 31
0.0
  0
LINE
  5
A72
330
1F
100
AcDbEntity
  8
1
  6
CONTINUOUS
370
50
 62
4
100
AcDbLine
 10
118.347618
 20
5.205928
 30
0.0
 11
118.38781
 21
5.243951
 31
0.0
  0
LINE
  5
A73
330
1F
100
AcDbEntity
  8
1
  6
CONTINUOUS
370
50
 62
4
100
AcDbLine
 10
123.805557
 20
-1.347711
 30
0.0
 11
123.845924
 21
-1.309474
 31
0.0
  0
LINE
  5
A74
330
1F
100
AcDbEntity
  8
1
  6
CONTINUOUS
370
50
 62
4
100
AcDbLine
 10
128.977097
 20
-7.875566
 30
0.0
 11
129.020584
 21
-7.83409
 31
0.0
  0
LINE
  5
A75
330
1F
100
AcDbEntity
  8
1
  6
CONTINUOUS
370
50
 62
4
100
AcDbLine
 10
119.818748
 20
7.369008999999999
 30
0.0
 11
119.876122
 21
7.424439
 31
0.0
  0
LINE
  5
A76
330
1F
100
AcDbEntity
  8
1
  6
CONTINUOUS
370
50
 62
4
100
AcDbLine
 10
126.458649
 20
-4.745083
 30
0.0
 11
126.50177
 21
-4.703352
 31
0.0
  0
LINE
  5
A77
330
1F
100
AcDbEntity
  8
1
  6
CONTINUOUS
370
50
 62
4
100
AcDbLine
 10
130.47374
 20
-5.634704
 30
0.0
 11
130.501801
 21
-5.607298999999999
 31
0.0
  0
LINE
  5
A78
330
1F
100
AcDbEntity
  8
1
  6
CONTINUOUS
370
50
 62
4
100
AcDbLine
 10
138.097763
 20
3.392171
 30
0.0
 11
138.119095
 21
3.413129
 31
0.0
  0
LINE
  5
A79
330
1F
100
AcDbEntity
  8
1
  6
CONTINUOUS
370
50
 62
4
100
AcDbLine
 10
122.365257
 20
4.184518
 30
0.0
 11
122.408112
 21
4.227446
 31
0.0
  0
LINE
  5
A7A
330
1F
100
AcDbEntity
  8
1
  6
CONTINUOUS
370
50
 62
4
100
AcDbLine
 10
129.020584
 20
-7.83409
 30
0.0
 11
129.063705
 21
-7.790700999999999
 31
0.0
  0
LINE
  5
A7B
330
1F
100
AcDbEntity
  8
1
  6
CONTINUOUS
370
50
 62
4
100
AcDbLine
 10
127.737961
 20
-2.621337
 30
0.0
 11
127.772247
 21
-2.586573
 31
0.0
  0
LINE
  5
A7C
330
1F
100
AcDbEntity
  8
1
  6
CONTINUOUS
370
50
 62
4
100
AcDbLine
 10
125.02459
 20
0.760278
 30
0.0
 11
125.063782
 21
0.800553
 31
0.0
  0
LINE
  5
A7D
330
1F
100
AcDbEntity
  8
1
  6
CONTINUOUS
370
50
 62
4
100
AcDbLine
 10
135.371109
 20
6.272088999999999
 30
0.0
 11
135.391006
 21
6.292723
 31
0.0
  0
LINE
  5
A7E
330
1F
100
AcDbEntity
  8
1
  6
CONTINUOUS
370
50
 62
4
100
AcDbLine
 10
119.761047
 20
7.308516999999999
 30
0.0
 11
119.818748
 21
7.369008999999999
 31
0.0
  0
LINE
  5
A7F
330
1F
100
AcDbEntity
  8
1
  6
CONTINUOUS
370
50
 62
4
100
AcDbLine
 10
121.128311
 20
2.079407
 30
0.0
 11
121.157066
 21
2.109872
 31
0.0
  0
LINE
  5
A80
330
1F
100
AcDbEntity
  8
1
  6
CONTINUOUS
370
50
 62
4
100
AcDbLine
 10
129.063705
 20
-7.790700999999999
 30
0.0
 11
129.106903
 21
-7.744880999999999
 31
0.0
  0
LINE
  5
A81
330
1F
100
AcDbEntity
  8
1
  6
CONTINUOUS
370
50
 62
4
100
AcDbLine
 10
126.50177
 20
-4.703352
 30
0.0
 11
126.544533
 21
-4.657705
 31
0.0
  0
LINE
  5
A82
330
1F
100
AcDbEntity
  8
1
  6
CONTINUOUS
370
50
 62
4
100
AcDbLine
 10
123.845924
 20
-1.309474
 30
0.0
 11
123.885147
 21
-1.266167
 31
0.0
  0
LINE
  5
A83
330
1F
100
AcDbEntity
  8
1
  6
CONTINUOUS
370
50
 62
4
100
AcDbLine
 10
122.322968
 20
4.137483
 30
0.0
 11
122.365257
 21
4.184518
 31
0.0
  0
LINE
  5
A84
330
1F
100
AcDbEntity
  8
1
  6
CONTINUOUS
370
50
 62
4
100
AcDbLine
 10
129.106903
 20
-7.744880999999999
 30
0.0
 11
129.150299
 21
-7.696361
 31
0.0
  0
LINE
  5
A85
330
1F
100
AcDbEntity
  8
1
  6
CONTINUOUS
370
50
 62
4
100
AcDbLine
 10
119.70327
 20
7.242811
 30
0.0
 11
119.761047
 21
7.308516999999999
 31
0.0
  0
LINE
  5
A86
330
1F
100
AcDbEntity
  8
1
  6
CONTINUOUS
370
50
 62
4
100
AcDbLine
 10
138.119095
 20
3.413129
 30
0.0
 11
138.139481
 21
3.436464
 31
0.0
  0
LINE
  5
A87
330
1F
100
AcDbEntity
  8
1
  6
CONTINUOUS
370
50
 62
4
100
AcDbLine
 10
126.544533
 20
-4.657705
 30
0.0
 11
126.586708
 21
-4.608156
 31
0.0
  0
LINE
  5
A88
330
1F
100
AcDbEntity
  8
1
  6
CONTINUOUS
370
50
 62
4
100
AcDbLine
 10
129.150299
 20
-7.696361
 30
0.0
 11
129.193802
 21
-7.645109
 31
0.0
  0
LINE
  5
A89
330
1F
100
AcDbEntity
  8
1
  6
CONTINUOUS
370
50
 62
4
100
AcDbLine
 10
124.98671
 20
0.714706
 30
0.0
 11
125.02459
 21
0.760278
 31
0.0
  0
LINE
  5
A8A
330
1F
100
AcDbEntity
  8
1
  6
CONTINUOUS
370
50
 62
4
100
AcDbLine
 10
122.281555
 20
4.086438
 30
0.0
 11
122.322968
 21
4.137483
 31
0.0
  0
LINE
  5
A8B
330
1F
100
AcDbEntity
  8
1
  6
CONTINUOUS
370
50
 62
4
100
AcDbLine
 10
119.64566
 20
7.171742
 30
0.0
 11
119.70327
 21
7.242811
 31
0.0
  0
LINE
  5
A8C
330
1F
100
AcDbEntity
  8
1
  6
CONTINUOUS
370
50
 62
4
100
AcDbLine
 10
129.193802
 20
-7.645109
 30
0.0
 11
129.237289
 21
-7.591093
 31
0.0
  0
LINE
  5
A8D
330
1F
100
AcDbEntity
  8
1
  6
CONTINUOUS
370
50
 62
4
100
AcDbLine
 10
121.157066
 20
2.109872
 30
0.0
 11
121.184555
 21
2.144237
 31
0.0
  0
LINE
  5
A8E
330
1F
100
AcDbEntity
  8
1
  6
CONTINUOUS
370
50
 62
4
100
AcDbLine
 10
127.706017
 20
-2.661472
 30
0.0
 11
127.737961
 21
-2.621337
 31
0.0
  0
LINE
  5
A8F
330
1F
100
AcDbEntity
  8
1
  6
CONTINUOUS
370
50
 62
4
100
AcDbLine
 10
133.210114
 20
-7.977405
 30
0.0
 11
133.228302
 21
-7.954522
 31
0.0
  0
LINE
  5
A90
330
1F
100
AcDbEntity
  8
1
  6
CONTINUOUS
370
50
 62
4
100
AcDbLine
 10
123.885147
 20
-1.266167
 30
0.0
 11
123.92308
 21
-1.217651
 31
0.0
  0
LINE
  5
A91
330
1F
100
AcDbEntity
  8
1
  6
CONTINUOUS
370
50
 62
4
100
AcDbLine
 10
128.280182
 20
10.744016
 30
0.0
 11
128.399109
 21
10.897532
 31
0.0
  0
LINE
  5
A92
330
1F
100
AcDbEntity
  8
1
  6
CONTINUOUS
370
50
 62
4
100
AcDbLine
 10
126.586708
 20
-4.608156
 30
0.0
 11
126.628021
 21
-4.55476
 31
0.0
  0
LINE
  5
A93
330
1F
100
AcDbEntity
  8
1
  6
CONTINUOUS
370
50
 62
4
100
AcDbLine
 10
130.448212
 20
-5.667876
 30
0.0
 11
130.47374
 21
-5.634704
 31
0.0
  0
LINE
  5
A94
330
1F
100
AcDbEntity
  8
1
  6
CONTINUOUS
370
50
 62
4
100
AcDbLine
 10
129.237289
 20
-7.591093
 30
0.0
 11
129.280655
 21
-7.534281
 31
0.0
  0
LINE
  5
A95
330
1F
100
AcDbEntity
  8
1
  6
CONTINUOUS
370
50
 62
4
100
AcDbLine
 10
135.391006
 20
6.292723
 30
0.0
 11
135.409302
 21
6.316717
 31
0.0
  0
LINE
  5
A96
330
1F
100
AcDbEntity
  8
1
  6
CONTINUOUS
370
50
 62
4
100
AcDbLine
 10
118.38781
 20
5.243951
 30
0.0
 11
118.423851
 21
5.291396
 31
0.0
  0
LINE
  5
A97
330
1F
100
AcDbEntity
  8
1
  6
CONTINUOUS
370
50
 62
4
100
AcDbLine
 10
138.139481
 20
3.436464
 30
0.0
 11
138.158905
 21
3.462157
 31
0.0
  0
LINE
  5
A98
330
1F
100
AcDbEntity
  8
1
  6
CONTINUOUS
370
50
 62
4
100
AcDbLine
 10
128.167175
 20
10.594234
 30
0.0
 11
128.280182
 21
10.744016
 31
0.0
  0
LINE
  5
A99
330
1F
100
AcDbEntity
  8
1
  6
CONTINUOUS
370
50
 62
4
100
AcDbLine
 10
138.097427
 20
-9.922695
 30
0.0
 11
138.128464
 21
-9.881459999999999
 31
0.0
  0
LINE
  5
A9A
330
1F
100
AcDbEntity
  8
1
  6
CONTINUOUS
370
50
 62
4
100
AcDbLine
 10
119.589989
 20
7.097252
 30
0.0
 11
119.64566
 21
7.171742
 31
0.0
  0
LINE
  5
A9B
330
1F
100
AcDbEntity
  8
1
  6
CONTINUOUS
370
50
 62
4
100
AcDbLine
 10
138.128464
 20
-9.881459999999999
 30
0.0
 11
138.15799
 21
-9.841455
 31
0.0
  0
LINE
  5
A9C
330
1F
100
AcDbEntity
  8
1
  6
CONTINUOUS
370
50
 62
4
100
AcDbLine
 10
122.24118
 20
4.031321999999999
 30
0.0
 11
122.281555
 21
4.086438
 31
0.0
  0
LINE
  5
A9D
330
1F
100
AcDbEntity
  8
1
  6
CONTINUOUS
370
50
 62
4
100
AcDbLine
 10
128.060806
 20
10.448647
 30
0.0
 11
128.167175
 21
10.594234
 31
0.0
  0
LINE
  5
A9E
330
1F
100
AcDbEntity
  8
1
  6
CONTINUOUS
370
50
 62
4
100
AcDbLine
 10
129.280655
 20
-7.534281
 30
0.0
 11
129.323776
 21
-7.47464
 31
0.0
  0
LINE
  5
A9F
330
1F
100
AcDbEntity
  8
1
  6
CONTINUOUS
370
50
 62
4
100
AcDbLine
 10
138.15799
 20
-9.841455
 30
0.0
 11
138.185791
 21
-9.80294
 31
0.0
  0
LINE
  5
AA0
330
1F
100
AcDbEntity
  8
1
  6
CONTINUOUS
370
50
 62
4
100
AcDbLine
 10
124.95031
 20
0.6637339999999999
 30
0.0
 11
124.98671
 21
0.714706
 31
0.0
  0
LINE
  5
AA1
330
1F
100
AcDbEntity
  8
1
  6
CONTINUOUS
370
50
 62
4
100
AcDbLine
 10
131.828522
 20
-9.936442999999999
 30
0.0
 11
131.870514
 21
-9.877398
 31
0.0
  0
LINE
  5
AA2
330
1F
100
AcDbEntity
  8
1
  6
CONTINUOUS
370
50
 62
4
100
AcDbLine
 10
120.510826
 20
-10.991709
 30
0.0
 11
120.605225
 21
-10.858041
 31
0.0
  0
LINE
  5
AA3
330
1F
100
AcDbEntity
  8
1
  6
CONTINUOUS
370
50
 62
4
100
AcDbLine
 10
138.185791
 20
-9.80294
 30
0.0
 11
138.21167
 21
-9.766181
 31
0.0
  0
LINE
  5
AA4
330
1F
100
AcDbEntity
  8
1
  6
CONTINUOUS
370
50
 62
4
100
AcDbLine
 10
126.628021
 20
-4.55476
 30
0.0
 11
126.668335
 21
-4.497451
 31
0.0
  0
LINE
  5
AA5
330
1F
100
AcDbEntity
  8
1
  6
CONTINUOUS
370
50
 62
4
100
AcDbLine
 10
127.957794
 20
10.301971
 30
0.0
 11
128.060806
 21
10.448647
 31
0.0
  0
LINE
  5
AA6
330
1F
100
AcDbEntity
  8
1
  6
CONTINUOUS
370
50
 62
4
100
AcDbLine
 10
131.870514
 20
-9.877398
 30
0.0
 11
131.912369
 21
-9.817183
 31
0.0
  0
LINE
  5
AA7
330
1F
100
AcDbEntity
  8
1
  6
CONTINUOUS
370
50
 62
4
100
AcDbLine
 10
120.605225
 20
-10.858041
 30
0.0
 11
120.697021
 21
-10.725307
 31
0.0
  0
LINE
  5
AA8
330
1F
100
AcDbEntity
  8
1
  6
CONTINUOUS
370
50
 62
4
100
AcDbLine
 10
119.539841
 20
7.024712
 30
0.0
 11
119.589989
 21
7.097252
 31
0.0
  0
LINE
  5
AA9
330
1F
100
AcDbEntity
  8
1
  6
CONTINUOUS
370
50
 62
4
100
AcDbLine
 10
138.21167
 20
-9.766181
 30
0.0
 11
138.235443
 21
-9.731437999999999
 31
0.0
  0
LINE
  5
AAA
330
1F
100
AcDbEntity
  8
1
  6
CONTINUOUS
370
50
 62
4
100
AcDbLine
 10
129.323776
 20
-7.47464
 30
0.0
 11
129.366531
 21
-7.412139
 31
0.0
  0
LINE
  5
AAB
330
1F
100
AcDbEntity
  8
1
  6
CONTINUOUS
370
50
 62
4
100
AcDbLine
 10
121.184555
 20
2.144237
 30
0.0
 11
121.210655
 21
2.182449
 31
0.0
  0
LINE
  5
AAC
330
1F
100
AcDbEntity
  8
1
  6
CONTINUOUS
370
50
 62
4
100
AcDbLine
 10
131.912369
 20
-9.817183
 30
0.0
 11
131.954437
 21
-9.755213999999999
 31
0.0
  0
LINE
  5
AAD
330
1F
100
AcDbEntity
  8
1
  6
CONTINUOUS
370
50
 62
4
100
AcDbLine
 10
123.92308
 20
-1.217651
 30
0.0
 11
123.959503
 21
-1.163897
 31
0.0
  0
LINE
  5
AAE
330
1F
100
AcDbEntity
  8
1
  6
CONTINUOUS
370
50
 62
4
100
AcDbLine
 10
120.697021
 20
-10.725307
 30
0.0
 11
120.785622
 21
-10.594186
 31
0.0
  0
LINE
  5
AAF
330
1F
100
AcDbEntity
  8
1
  6
CONTINUOUS
370
50
 62
4
100
AcDbLine
 10
127.859497
 20
10.155917
 30
0.0
 11
127.957794
 21
10.301971
 31
0.0
  0
LINE
  5
AB0
330
1F
100
AcDbEntity
  8
1
  6
CONTINUOUS
370
50
 62
4
100
AcDbLine
 10
131.954437
 20
-9.755213999999999
 30
0.0
 11
131.996658
 21
-9.691543
 31
0.0
  0
LINE
  5
AB1
330
1F
100
AcDbEntity
  8
1
  6
CONTINUOUS
370
50
 62
4
100
AcDbLine
 10
122.201988
 20
3.972063
 30
0.0
 11
122.24118
 21
4.031321999999999
 31
0.0
  0
LINE
  5
AB2
330
1F
100
AcDbEntity
  8
1
  6
CONTINUOUS
370
50
 62
4
100
AcDbLine
 10
138.235443
 20
-9.731437999999999
 30
0.0
 11
138.256912
 21
-9.698976
 31
0.0
  0
LINE
  5
AB3
330
1F
100
AcDbEntity
  8
1
  6
CONTINUOUS
370
50
 62
4
100
AcDbLine
 10
120.785622
 20
-10.594186
 30
0.0
 11
120.870422
 21
-10.46536
 31
0.0
  0
LINE
  5
AB4
330
1F
100
AcDbEntity
  8
1
  6
CONTINUOUS
370
50
 62
4
100
AcDbLine
 10
138.158905
 20
3.462157
 30
0.0
 11
138.177338
 21
3.490186
 31
0.0
  0
LINE
  5
AB5
330
1F
100
AcDbEntity
  8
1
  6
CONTINUOUS
370
50
 62
4
100
AcDbLine
 10
127.676453
 20
-2.70685
 30
0.0
 11
127.706017
 21
-2.661472
 31
0.0
  0
LINE
  5
AB6
330
1F
100
AcDbEntity
  8
1
  6
CONTINUOUS
370
50
 62
4
100
AcDbLine
 10
131.996658
 20
-9.691543
 30
0.0
 11
132.03891
 21
-9.626232
 31
0.0
  0
LINE
  5
AB7
330
1F
100
AcDbEntity
  8
1
  6
CONTINUOUS
370
50
 62
4
100
AcDbLine
 10
129.366531
 20
-7.412139
 30
0.0
 11
129.408707
 21
-7.346927999999999
 31
0.0
  0
LINE
  5
AB8
330
1F
100
AcDbEntity
  8
1
  6
CONTINUOUS
370
50
 62
4
100
AcDbLine
 10
119.495178
 20
6.955204999999999
 30
0.0
 11
119.539841
 21
7.024712
 31
0.0
  0
LINE
  5
AB9
330
1F
100
AcDbEntity
  8
1
  6
CONTINUOUS
370
50
 62
4
100
AcDbLine
 10
127.768631
 20
10.014103
 30
0.0
 11
127.859497
 21
10.155917
 31
0.0
  0
LINE
  5
ABA
330
1F
100
AcDbEntity
  8
1
  6
CONTINUOUS
370
50
 62
4
100
AcDbLine
 10
126.668335
 20
-4.497451
 30
0.0
 11
126.707512
 21
-4.436167
 31
0.0
  0
LINE
  5
ABB
330
1F
100
AcDbEntity
  8
1
  6
CONTINUOUS
370
50
 62
4
100
AcDbLine
 10
120.870422
 20
-10.46536
 30
0.0
 11
120.950813
 21
-10.339508
 31
0.0
  0
LINE
  5
ABC
330
1F
100
AcDbEntity
  8
1
  6
CONTINUOUS
370
50
 62
4
100
AcDbLine
 10
138.256912
 20
-9.698976
 30
0.0
 11
138.275864
 21
-9.669056
 31
0.0
  0
LINE
  5
ABD
330
1F
100
AcDbEntity
  8
1
  6
CONTINUOUS
370
50
 62
4
100
AcDbLine
 10
132.03891
 20
-9.626232
 30
0.0
 11
132.081085
 21
-9.559345
 31
0.0
  0
LINE
  5
ABE
330
1F
100
AcDbEntity
  8
1
  6
CONTINUOUS
370
50
 62
4
100
AcDbLine
 10
120.950813
 20
-10.339508
 30
0.0
 11
121.026192
 21
-10.217311
 31
0.0
  0
LINE
  5
ABF
330
1F
100
AcDbEntity
  8
1
  6
CONTINUOUS
370
50
 62
4
100
AcDbLine
 10
124.916016
 20
0.608066
 30
0.0
 11
124.95031
 21
0.6637339999999999
 31
0.0
  0
LINE
  5
AC0
330
1F
100
AcDbEntity
  8
1
  6
CONTINUOUS
370
50
 62
4
100
AcDbLine
 10
133.774673
 20
9.928479
 30
0.0
 11
133.815323
 21
9.994678
 31
0.0
  0
LINE
  5
AC1
330
1F
100
AcDbEntity
  8
1
  6
CONTINUOUS
370
50
 62
4
100
AcDbLine
 10
132.081085
 20
-9.559345
 30
0.0
 11
132.123077
 21
-9.490946
 31
0.0
  0
LINE
  5
AC2
330
1F
100
AcDbEntity
  8
1
  6
CONTINUOUS
370
50
 62
4
100
AcDbLine
 10
135.409302
 20
6.316717
 30
0.0
 11
135.425858
 21
6.343706
 31
0.0
  0
LINE
  5
AC3
330
1F
100
AcDbEntity
  8
1
  6
CONTINUOUS
370
50
 62
4
100
AcDbLine
 10
129.408707
 20
-7.346927999999999
 30
0.0
 11
129.450027
 21
-7.279207
 31
0.0
  0
LINE
  5
AC4
330
1F
100
AcDbEntity
  8
1
  6
CONTINUOUS
370
50
 62
4
100
AcDbLine
 10
127.687881
 20
9.880146
 30
0.0
 11
127.768631
 21
10.014103
 31
0.0
  0
LINE
  5
AC5
330
1F
100
AcDbEntity
  8
1
  6
CONTINUOUS
370
50
 62
4
100
AcDbLine
 10
133.734146
 20
9.861146
 30
0.0
 11
133.774673
 21
9.928479
 31
0.0
  0
LINE
  5
AC6
330
1F
100
AcDbEntity
  8
1
  6
CONTINUOUS
370
50
 62
4
100
AcDbLine
 10
119.455818
 20
6.889615
 30
0.0
 11
119.495178
 21
6.955204999999999
 31
0.0
  0
LINE
  5
AC7
330
1F
100
AcDbEntity
  8
1
  6
CONTINUOUS
370
50
 62
4
100
AcDbLine
 10
132.123077
 20
-9.490946
 30
0.0
 11
132.164795
 21
-9.421095
 31
0.0
  0
LINE
  5
AC8
330
1F
100
AcDbEntity
  8
1
  6
CONTINUOUS
370
50
 62
4
100
AcDbLine
 10
122.164108
 20
3.908593
 30
0.0
 11
122.201988
 21
3.972063
 31
0.0
  0
LINE
  5
AC9
330
1F
100
AcDbEntity
  8
1
  6
CONTINUOUS
370
50
 62
4
100
AcDbLine
 10
130.425323
 20
-5.706515
 30
0.0
 11
130.448212
 21
-5.667876
 31
0.0
  0
LINE
  5
ACA
330
1F
100
AcDbEntity
  8
1
  6
CONTINUOUS
370
50
 62
4
100
AcDbLine
 10
121.026192
 20
-10.217311
 30
0.0
 11
121.095955
 21
-10.099451
 31
0.0
  0
LINE
  5
ACB
330
1F
100
AcDbEntity
  8
1
  6
CONTINUOUS
370
50
 62
4
100
AcDbLine
 10
133.693848
 20
9.792755999999999
 30
0.0
 11
133.734146
 21
9.861146
 31
0.0
  0
LINE
  5
ACC
330
1F
100
AcDbEntity
  8
1
  6
CONTINUOUS
370
50
 62
4
100
AcDbLine
 10
123.959503
 20
-1.163897
 30
0.0
 11
123.993767
 21
-1.105714
 31
0.0
  0
LINE
  5
ACD
330
1F
100
AcDbEntity
  8
1
  6
CONTINUOUS
370
50
 62
4
100
AcDbLine
 10
121.210655
 20
2.182449
 30
0.0
 11
121.234993
 21
2.223941
 31
0.0
  0
LINE
  5
ACE
330
1F
100
AcDbEntity
  8
1
  6
CONTINUOUS
370
50
 62
4
100
AcDbLine
 10
116.855194
 20
-9.184244
 30
0.0
 11
116.874741
 21
-9.150896
 31
0.0
  0
LINE
  5
ACF
330
1F
100
AcDbEntity
  8
1
  6
CONTINUOUS
370
50
 62
4
100
AcDbLine
 10
131.178009
 20
11.026723
 30
0.0
 11
131.220917
 21
11.1002
 31
0.0
  0
LINE
  5
AD0
330
1F
100
AcDbEntity
  8
1
  6
CONTINUOUS
370
50
 62
4
100
AcDbLine
 10
131.134949
 20
10.952835
 30
0.0
 11
131.178009
 21
11.026723
 31
0.0
  0
LINE
  5
AD1
330
1F
100
AcDbEntity
  8
1
  6
CONTINUOUS
370
50
 62
4
100
AcDbLine
 10
131.091721
 20
10.878483
 30
0.0
 11
131.134949
 21
10.952835
 31
0.0
  0
LINE
  5
AD2
330
1F
100
AcDbEntity
  8
1
  6
CONTINUOUS
370
50
 62
4
100
AcDbLine
 10
131.048264
 20
10.803603
 30
0.0
 11
131.091721
 21
10.878483
 31
0.0
  0
LINE
  5
AD3
330
1F
100
AcDbEntity
  8
1
  6
CONTINUOUS
370
50
 62
4
100
AcDbLine
 10
132.164795
 20
-9.421095
 30
0.0
 11
132.206116
 21
-9.34989
 31
0.0
  0
LINE
  5
AD4
330
1F
100
AcDbEntity
  8
1
  6
CONTINUOUS
370
50
 62
4
100
AcDbLine
 10
126.707512
 20
-4.436167
 30
0.0
 11
126.745399
 21
-4.370843
 31
0.0
  0
LINE
  5
AD5
330
1F
100
AcDbEntity
  8
1
  6
CONTINUOUS
370
50
 62
4
100
AcDbLine
 10
131.0047
 20
10.728379
 30
0.0
 11
131.048264
 21
10.803603
 31
0.0
  0
LINE
  5
AD6
330
1F
100
AcDbEntity
  8
1
  6
CONTINUOUS
370
50
 62
4
100
AcDbLine
 10
118.036369
 20
-10.510612
 30
0.0
 11
118.078102
 21
-10.438536
 31
0.0
  0
LINE
  5
AD7
330
1F
100
AcDbEntity
  8
1
  6
CONTINUOUS
370
50
 62
4
100
AcDbLine
 10
117.993942
 20
-10.583906
 30
0.0
 11
118.036369
 21
-10.510612
 31
0.0
  0
LINE
  5
AD8
330
1F
100
AcDbEntity
  8
1
  6
CONTINUOUS
370
50
 62
4
100
AcDbLine
 10
117.951004
 20
-10.658098
 30
0.0
 11
117.993942
 21
-10.583906
 31
0.0
  0
LINE
  5
AD9
330
1F
100
AcDbEntity
  8
1
  6
CONTINUOUS
370
50
 62
4
100
AcDbLine
 10
118.078102
 20
-10.438536
 30
0.0
 11
118.118996
 21
-10.367859
 31
0.0
  0
LINE
  5
ADA
330
1F
100
AcDbEntity
  8
1
  6
CONTINUOUS
370
50
 62
4
100
AcDbLine
 10
117.9077
 20
-10.732944
 30
0.0
 11
117.951004
 21
-10.658098
 31
0.0
  0
LINE
  5
ADB
330
1F
100
AcDbEntity
  8
1
  6
CONTINUOUS
370
50
 62
4
100
AcDbLine
 10
117.864136
 20
-10.808288
 30
0.0
 11
117.9077
 21
-10.732944
 31
0.0
  0
LINE
  5
ADC
330
1F
100
AcDbEntity
  8
1
  6
CONTINUOUS
370
50
 62
4
100
AcDbLine
 10
117.820404
 20
-10.883968
 30
0.0
 11
117.864136
 21
-10.808288
 31
0.0
  0
LINE
  5
ADD
330
1F
100
AcDbEntity
  8
1
  6
CONTINUOUS
370
50
 62
4
100
AcDbLine
 10
118.118996
 20
-10.367859
 30
0.0
 11
118.15892
 21
-10.298756
 31
0.0
  0
LINE
  5
ADE
330
1F
100
AcDbEntity
  8
1
  6
CONTINUOUS
370
50
 62
4
100
AcDbLine
 10
117.776588
 20
-10.959828
 30
0.0
 11
117.820404
 21
-10.883968
 31
0.0
  0
LINE
  5
ADF
330
1F
100
AcDbEntity
  8
1
  6
CONTINUOUS
370
50
 62
4
100
AcDbLine
 10
130.961166
 20
10.653
 30
0.0
 11
131.0047
 21
10.728379
 31
0.0
  0
LINE
  5
AE0
330
1F
100
AcDbEntity
  8
1
  6
CONTINUOUS
370
50
 62
4
100
AcDbLine
 10
138.85408
 20
9.67
 30
0.0
 11
138.94751
 21
9.831804
 31
0.0
  0
LINE
  5
AE1
330
1F
100
AcDbEntity
  8
1
  6
CONTINUOUS
370
50
 62
4
100
AcDbLine
 10
134.963135
 20
-10.520048
 30
0.0
 11
135.453918
 21
-9.67
 31
0.0
  0
LINE
  5
AE2
330
1F
100
AcDbEntity
  8
1
  6
CONTINUOUS
370
50
 62
4
100
AcDbLine
 10
133.210083
 20
9.67
 30
0.0
 11
133.815338
 21
10.718316
 31
0.0
  0
LINE
  5
AE3
330
1F
100
AcDbEntity
  8
1
  6
CONTINUOUS
370
50
 62
4
100
AcDbLine
 10
128.977081
 20
-11.1125
 30
0.0
 11
129.809921
 21
-9.67
 31
0.0
  0
LINE
  5
AE4
330
1F
100
AcDbEntity
  8
1
  6
CONTINUOUS
370
50
 62
4
100
AcDbLine
 10
136.032089
 20
9.67
 30
0.0
 11
136.381424
 21
10.275061
 31
0.0
  0
LINE
  5
AE5
330
1F
100
AcDbEntity
  8
1
  6
CONTINUOUS
370
50
 62
4
100
AcDbLine
 10
119.100082
 20
9.67
 30
0.0
 11
119.932915
 21
11.1125
 31
0.0
  0
LINE
  5
AE6
330
1F
100
AcDbEntity
  8
1
  6
CONTINUOUS
370
50
 62
4
100
AcDbLine
 10
123.333084
 20
-11.1125
 30
0.0
 11
124.165916
 21
-9.67
 31
0.0
  0
LINE
  5
AE7
330
1F
100
AcDbEntity
  8
1
  6
CONTINUOUS
370
50
 62
4
100
AcDbLine
 10
126.155083
 20
-11.1125
 30
0.0
 11
126.987915
 21
-9.67
 31
0.0
  0
LINE
  5
AE8
330
1F
100
AcDbEntity
  8
1
  6
CONTINUOUS
370
50
 62
4
100
AcDbLine
 10
131.828522
 20
-11.06151
 30
0.0
 11
132.631912
 21
-9.67
 31
0.0
  0
LINE
  5
AE9
330
1F
100
AcDbEntity
  8
1
  6
CONTINUOUS
370
50
 62
4
100
AcDbLine
 10
118.158905
 20
-10.298749
 30
0.0
 11
118.521912
 21
-9.67
 31
0.0
  0
LINE
  5
AEA
330
1F
100
AcDbEntity
  8
1
  6
CONTINUOUS
370
50
 62
4
100
AcDbLine
 10
124.744087
 20
9.67
 30
0.0
 11
125.576912
 21
11.1125
 31
0.0
  0
LINE
  5
AEB
330
1F
100
AcDbEntity
  8
1
  6
CONTINUOUS
370
50
 62
4
100
AcDbLine
 10
130.388092
 20
9.67
 30
0.0
 11
131.220917
 21
11.1125
 31
0.0
  0
LINE
  5
AEC
330
1F
100
AcDbEntity
  8
1
  6
CONTINUOUS
370
50
 62
4
100
AcDbLine
 10
121.922089
 20
9.67
 30
0.0
 11
122.754913
 21
11.1125
 31
0.0
  0
LINE
  5
AED
330
1F
100
AcDbEntity
  8
1
  6
CONTINUOUS
370
50
 62
4
100
AcDbLine
 10
121.095963
 20
-10.099465
 30
0.0
 11
121.34391
 21
-9.67
 31
0.0
  0
LINE
  5
AEE
330
1F
100
AcDbEntity
  8
1
  6
CONTINUOUS
370
50
 62
4
100
AcDbLine
 10
127.566086
 20
9.67
 30
0.0
 11
127.687592
 21
9.880459
 31
0.0
  0
LINE
  5
AEF
330
1F
100
AcDbEntity
  8
1
  6
CONTINUOUS
370
50
 62
4
100
AcDbLine
 10
117.732788
 20
-11.03571
 30
0.0
 11
117.776588
 21
-10.959828
 31
0.0
  0
LINE
  5
AF0
330
1F
100
AcDbEntity
  8
1
  6
CONTINUOUS
370
50
 62
4
100
AcDbLine
 10
117.689087
 20
-11.111469
 30
0.0
 11
117.732788
 21
-11.03571
 31
0.0
  0
LINE
  5
AF1
330
1F
100
AcDbEntity
  8
1
  6
CONTINUOUS
370
50
 62
4
100
AcDbLine
 10
118.15892
 20
-10.298756
 30
0.0
 11
118.194214
 21
-10.23755
 31
0.0
  0
LINE
  5
AF2
330
1F
100
AcDbEntity
  8
1
  6
CONTINUOUS
370
50
 62
4
100
AcDbLine
 10
130.91774
 20
10.577651
 30
0.0
 11
130.961166
 21
10.653
 31
0.0
  0
LINE
  5
AF3
330
1F
100
AcDbEntity
  8
1
  6
CONTINUOUS
370
50
 62
4
100
AcDbLine
 10
133.653885
 20
9.723389
 30
0.0
 11
133.693848
 21
9.792755999999999
 31
0.0
  0
LINE
  5
AF4
330
1F
100
AcDbEntity
  8
1
  6
CONTINUOUS
370
50
 62
4
100
AcDbLine
 10
138.177338
 20
3.490186
 30
0.0
 11
138.194794
 21
3.520532
 31
0.0
  0
LINE
  5
AF5
330
1F
100
AcDbEntity
  8
1
  6
CONTINUOUS
370
50
 62
4
100
AcDbLine
 10
118.194214
 20
-10.23755
 30
0.0
 11
118.228516
 21
-10.177916
 31
0.0
  0
LINE
  5
AF6
330
1F
100
AcDbEntity
  8
1
  6
CONTINUOUS
370
50
 62
4
100
AcDbLine
 10
130.874573
 20
10.502522
 30
0.0
 11
130.91774
 21
10.577651
 31
0.0
  0
LINE
  5
AF7
330
1F
100
AcDbEntity
  8
1
  6
CONTINUOUS
370
50
 62
4
100
AcDbLine
 10
129.450027
 20
-7.279207
 30
0.0
 11
129.490341
 21
-7.208998999999999
 31
0.0
  0
LINE
  5
AF8
330
1F
100
AcDbEntity
  8
1
  6
CONTINUOUS
370
50
 62
4
100
AcDbLine
 10
118.228516
 20
-10.177916
 30
0.0
 11
118.261719
 21
-10.12001
 31
0.0
  0
LINE
  5
AF9
330
1F
100
AcDbEntity
  8
1
  6
CONTINUOUS
370
50
 62
4
100
AcDbLine
 10
130.831757
 20
10.4278
 30
0.0
 11
130.874573
 21
10.502522
 31
0.0
  0
LINE
  5
AFA
330
1F
100
AcDbEntity
  8
1
  6
CONTINUOUS
370
50
 62
4
100
AcDbLine
 10
130.789505
 20
10.353804
 30
0.0
 11
130.831757
 21
10.4278
 31
0.0
  0
LINE
  5
AFB
330
1F
100
AcDbEntity
  8
1
  6
CONTINUOUS
370
50
 62
4
100
AcDbLine
 10
118.261719
 20
-10.12001
 30
0.0
 11
118.293404
 21
-10.064488
 31
0.0
  0
LINE
  5
AFC
330
1F
100
AcDbEntity
  8
1
  6
CONTINUOUS
370
50
 62
4
100
AcDbLine
 10
134.96315
 20
-10.437544
 30
0.0
 11
134.997177
 21
-10.377755
 31
0.0
  0
LINE
  5
AFD
330
1F
100
AcDbEntity
  8
1
  6
CONTINUOUS
370
50
 62
4
100
AcDbLine
 10
130.748108
 20
10.281049
 30
0.0
 11
130.789505
 21
10.353804
 31
0.0
  0
LINE
  5
AFE
330
1F
100
AcDbEntity
  8
1
  6
CONTINUOUS
370
50
 62
4
100
AcDbLine
 10
118.293404
 20
-10.064488
 30
0.0
 11
118.323418
 21
-10.011587
 31
0.0
  0
LINE
  5
AFF
330
1F
100
AcDbEntity
  8
1
  6
CONTINUOUS
370
50
 62
4
100
AcDbLine
 10
130.707748
 20
10.209736
 30
0.0
 11
130.748108
 21
10.281049
 31
0.0
  0
LINE
  5
B00
330
1F
100
AcDbEntity
  8
1
  6
CONTINUOUS
370
50
 62
4
100
AcDbLine
 10
134.997177
 20
-10.377755
 30
0.0
 11
135.030914
 21
-10.318093
 31
0.0
  0
LINE
  5
B01
330
1F
100
AcDbEntity
  8
1
  6
CONTINUOUS
370
50
 62
4
100
AcDbLine
 10
119.421555
 20
6.828819999999999
 30
0.0
 11
119.455818
 21
6.889615
 31
0.0
  0
LINE
  5
B02
330
1F
100
AcDbEntity
  8
1
  6
CONTINUOUS
370
50
 62
4
100
AcDbLine
 10
133.61438
 20
9.653234
 30
0.0
 11
133.653885
 21
9.723389
 31
0.0
  0
LINE
  5
B03
330
1F
100
AcDbEntity
  8
1
  6
CONTINUOUS
370
50
 62
4
100
AcDbLine
 10
118.323418
 20
-10.011587
 30
0.0
 11
118.351723
 21
-9.961305999999999
 31
0.0
  0
LINE
  5
B04
330
1F
100
AcDbEntity
  8
1
  6
CONTINUOUS
370
50
 62
4
100
AcDbLine
 10
132.206116
 20
-9.34989
 30
0.0
 11
132.24675
 21
-9.277702
 31
0.0
  0
LINE
  5
B05
330
1F
100
AcDbEntity
  8
1
  6
CONTINUOUS
370
50
 62
4
100
AcDbLine
 10
130.668564
 20
10.140049
 30
0.0
 11
130.707748
 21
10.209736
 31
0.0
  0
LINE
  5
B06
330
1F
100
AcDbEntity
  8
1
  6
CONTINUOUS
370
50
 62
4
100
AcDbLine
 10
135.030914
 20
-10.318093
 30
0.0
 11
135.064178
 21
-10.258846
 31
0.0
  0
LINE
  5
B07
330
1F
100
AcDbEntity
  8
1
  6
CONTINUOUS
370
50
 62
4
100
AcDbLine
 10
118.423851
 20
5.291396
 30
0.0
 11
118.455536
 21
5.347955
 31
0.0
  0
LINE
  5
B08
330
1F
100
AcDbEntity
  8
1
  6
CONTINUOUS
370
50
 62
4
100
AcDbLine
 10
130.630676
 20
10.072174
 30
0.0
 11
130.668564
 21
10.140049
 31
0.0
  0
LINE
  5
B09
330
1F
100
AcDbEntity
  8
1
  6
CONTINUOUS
370
50
 62
4
100
AcDbLine
 10
118.351723
 20
-9.961305999999999
 30
0.0
 11
118.378281
 21
-9.913641
 31
0.0
  0
LINE
  5
B0A
330
1F
100
AcDbEntity
  8
1
  6
CONTINUOUS
370
50
 62
4
100
AcDbLine
 10
135.064178
 20
-10.258846
 30
0.0
 11
135.096878
 21
-10.200126
 31
0.0
  0
LINE
  5
B0B
330
1F
100
AcDbEntity
  8
1
  6
CONTINUOUS
370
50
 62
4
100
AcDbLine
 10
136.356476
 20
7.785000999999999
 30
0.0
 11
136.381409
 21
7.829933
 31
0.0
  0
LINE
  5
B0C
330
1F
100
AcDbEntity
  8
1
  6
CONTINUOUS
370
50
 62
4
100
AcDbLine
 10
130.594284
 20
10.006341
 30
0.0
 11
130.630676
 21
10.072174
 31
0.0
  0
LINE
  5
B0D
330
1F
100
AcDbEntity
  8
1
  6
CONTINUOUS
370
50
 62
4
100
AcDbLine
 10
135.096878
 20
-10.200126
 30
0.0
 11
135.128937
 21
-10.142018
 31
0.0
  0
LINE
  5
B0E
330
1F
100
AcDbEntity
  8
1
  6
CONTINUOUS
370
50
 62
4
100
AcDbLine
 10
118.378281
 20
-9.913641
 30
0.0
 11
118.403069
 21
-9.868592
 31
0.0
  0
LINE
  5
B0F
330
1F
100
AcDbEntity
  8
1
  6
CONTINUOUS
370
50
 62
4
100
AcDbLine
 10
133.575653
 20
9.582675
 30
0.0
 11
133.61438
 21
9.653234
 31
0.0
  0
LINE
  5
B10
330
1F
100
AcDbEntity
  8
1
  6
CONTINUOUS
370
50
 62
4
100
AcDbLine
 10
130.559998
 20
9.943598
 30
0.0
 11
130.594284
 21
10.006341
 31
0.0
  0
LINE
  5
B11
330
1F
100
AcDbEntity
  8
1
  6
CONTINUOUS
370
50
 62
4
100
AcDbLine
 10
135.128937
 20
-10.142018
 30
0.0
 11
135.160294
 21
-10.08461
 31
0.0
  0
LINE
  5
B12
330
1F
100
AcDbEntity
  8
1
  6
CONTINUOUS
370
50
 62
4
100
AcDbLine
 10
132.24675
 20
-9.277702
 30
0.0
 11
132.286514
 21
-9.204699999999999
 31
0.0
  0
LINE
  5
B13
330
1F
100
AcDbEntity
  8
1
  6
CONTINUOUS
370
50
 62
4
100
AcDbLine
 10
118.403069
 20
-9.868592
 30
0.0
 11
118.426048
 21
-9.826158999999999
 31
0.0
  0
LINE
  5
B14
330
1F
100
AcDbEntity
  8
1
  6
CONTINUOUS
370
50
 62
4
100
AcDbLine
 10
135.160294
 20
-10.08461
 30
0.0
 11
135.190857
 21
-10.027988
 31
0.0
  0
LINE
  5
B15
330
1F
100
AcDbEntity
  8
1
  6
CONTINUOUS
370
50
 62
4
100
AcDbLine
 10
129.490341
 20
-7.208998999999999
 30
0.0
 11
129.52951
 21
-7.136324
 31
0.0
  0
LINE
  5
B16
330
1F
100
AcDbEntity
  8
1
  6
CONTINUOUS
370
50
 62
4
100
AcDbLine
 10
130.528046
 20
9.884302
 30
0.0
 11
130.559998
 21
9.943598
 31
0.0
  0
LINE
  5
B17
330
1F
100
AcDbEntity
  8
1
  6
CONTINUOUS
370
50
 62
4
100
AcDbLine
 10
127.649284
 20
-2.75734
 30
0.0
 11
127.676453
 21
-2.70685
 31
0.0
  0
LINE
  5
B18
330
1F
100
AcDbEntity
  8
1
  6
CONTINUOUS
370
50
 62
4
100
AcDbLine
 10
122.127724
 20
3.840901
 30
0.0
 11
122.164108
 21
3.908593
 31
0.0
  0
LINE
  5
B19
330
1F
100
AcDbEntity
  8
1
  6
CONTINUOUS
370
50
 62
4
100
AcDbLine
 10
136.331924
 20
7.739214
 30
0.0
 11
136.356476
 21
7.785000999999999
 31
0.0
  0
LINE
  5
B1A
330
1F
100
AcDbEntity
  8
1
  6
CONTINUOUS
370
50
 62
4
100
AcDbLine
 10
133.537781
 20
9.511823999999999
 30
0.0
 11
133.575653
 21
9.582675
 31
0.0
  0
LINE
  5
B1B
330
1F
100
AcDbEntity
  8
1
  6
CONTINUOUS
370
50
 62
4
100
AcDbLine
 10
135.190857
 20
-10.027988
 30
0.0
 11
135.220581
 21
-9.97224
 31
0.0
  0
LINE
  5
B1C
330
1F
100
AcDbEntity
  8
1
  6
CONTINUOUS
370
50
 62
4
100
AcDbLine
 10
124.884079
 20
0.548095
 30
0.0
 11
124.916016
 21
0.608066
 31
0.0
  0
LINE
  5
B1D
330
1F
100
AcDbEntity
  8
1
  6
CONTINUOUS
370
50
 62
4
100
AcDbLine
 10
119.392143
 20
6.773587
 30
0.0
 11
119.421555
 21
6.828819999999999
 31
0.0
  0
LINE
  5
B1E
330
1F
100
AcDbEntity
  8
1
  6
CONTINUOUS
370
50
 62
4
100
AcDbLine
 10
118.426048
 20
-9.826158999999999
 30
0.0
 11
118.447182
 21
-9.786375
 31
0.0
  0
LINE
  5
B1F
330
1F
100
AcDbEntity
  8
1
  6
CONTINUOUS
370
50
 62
4
100
AcDbLine
 10
130.498474
 20
9.828417
 30
0.0
 11
130.528046
 21
9.884302
 31
0.0
  0
LINE
  5
B20
330
1F
100
AcDbEntity
  8
1
  6
CONTINUOUS
370
50
 62
4
100
AcDbLine
 10
132.286514
 20
-9.204699999999999
 30
0.0
 11
132.325287
 21
-9.130975
 31
0.0
  0
LINE
  5
B21
330
1F
100
AcDbEntity
  8
1
  6
CONTINUOUS
370
50
 62
4
100
AcDbLine
 10
135.220581
 20
-9.97224
 30
0.0
 11
135.249283
 21
-9.917633
 31
0.0
  0
LINE
  5
B22
330
1F
100
AcDbEntity
  8
1
  6
CONTINUOUS
370
50
 62
4
100
AcDbLine
 10
126.745399
 20
-4.370843
 30
0.0
 11
126.781776
 21
-4.30159
 31
0.0
  0
LINE
  5
B23
330
1F
100
AcDbEntity
  8
1
  6
CONTINUOUS
370
50
 62
4
100
AcDbLine
 10
133.500916
 20
9.440778
 30
0.0
 11
133.537781
 21
9.511823999999999
 31
0.0
  0
LINE
  5
B24
330
1F
100
AcDbEntity
  8
1
  6
CONTINUOUS
370
50
 62
4
100
AcDbLine
 10
118.447182
 20
-9.786375
 30
0.0
 11
118.466209
 21
-9.749627
 31
0.0
  0
LINE
  5
B25
330
1F
100
AcDbEntity
  8
1
  6
CONTINUOUS
370
50
 62
4
100
AcDbLine
 10
130.471313
 20
9.775909
 30
0.0
 11
130.498474
 21
9.828417
 31
0.0
  0
LINE
  5
B26
330
1F
100
AcDbEntity
  8
1
  6
CONTINUOUS
370
50
 62
4
100
AcDbLine
 10
135.249283
 20
-9.917633
 30
0.0
 11
135.276581
 21
-9.864846
 31
0.0
  0
LINE
  5
B27
330
1F
100
AcDbEntity
  8
1
  6
CONTINUOUS
370
50
 62
4
100
AcDbLine
 10
136.307816
 20
7.692582
 30
0.0
 11
136.331924
 21
7.739214
 31
0.0
  0
LINE
  5
B28
330
1F
100
AcDbEntity
  8
1
  6
CONTINUOUS
370
50
 62
4
100
AcDbLine
 10
123.993767
 20
-1.105714
 30
0.0
 11
124.025711
 21
-1.043381
 31
0.0
  0
LINE
  5
B29
330
1F
100
AcDbEntity
  8
1
  6
CONTINUOUS
370
50
 62
4
100
AcDbLine
 10
135.276581
 20
-9.864846
 30
0.0
 11
135.302429
 21
-9.81393
 31
0.0
  0
LINE
  5
B2A
330
1F
100
AcDbEntity
  8
1
  6
CONTINUOUS
370
50
 62
4
100
AcDbLine
 10
132.325287
 20
-9.130975
 30
0.0
 11
132.362946
 21
-9.056621999999999
 31
0.0
  0
LINE
  5
B2B
330
1F
100
AcDbEntity
  8
1
  6
CONTINUOUS
370
50
 62
4
100
AcDbLine
 10
121.234993
 20
2.223941
 30
0.0
 11
121.25753
 21
2.268507
 31
0.0
  0
LINE
  5
B2C
330
1F
100
AcDbEntity
  8
1
  6
CONTINUOUS
370
50
 62
4
100
AcDbLine
 10
119.365013
 20
6.719872
 30
0.0
 11
119.392143
 21
6.773587
 31
0.0
  0
LINE
  5
B2D
330
1F
100
AcDbEntity
  8
1
  6
CONTINUOUS
370
50
 62
4
100
AcDbLine
 10
129.52951
 20
-7.136324
 30
0.0
 11
129.567398
 21
-7.061202
 31
0.0
  0
LINE
  5
B2E
330
1F
100
AcDbEntity
  8
1
  6
CONTINUOUS
370
50
 62
4
100
AcDbLine
 10
138.194794
 20
3.520532
 30
0.0
 11
138.211212
 21
3.553131
 31
0.0
  0
LINE
  5
B2F
330
1F
100
AcDbEntity
  8
1
  6
CONTINUOUS
370
50
 62
4
100
AcDbLine
 10
130.446564
 20
9.726744
 30
0.0
 11
130.471313
 21
9.775909
 31
0.0
  0
LINE
  5
B30
330
1F
100
AcDbEntity
  8
1
  6
CONTINUOUS
370
50
 62
4
100
AcDbLine
 10
133.465164
 20
9.369636999999999
 30
0.0
 11
133.500916
 21
9.440778
 31
0.0
  0
LINE
  5
B31
330
1F
100
AcDbEntity
  8
1
  6
CONTINUOUS
370
50
 62
4
100
AcDbLine
 10
118.466209
 20
-9.749627
 30
0.0
 11
118.483131
 21
-9.715914999999999
 31
0.0
  0
LINE
  5
B32
330
1F
100
AcDbEntity
  8
1
  6
CONTINUOUS
370
50
 62
4
100
AcDbLine
 10
135.425858
 20
6.343706
 30
0.0
 11
135.440704
 21
6.373497
 31
0.0
  0
LINE
  5
B33
330
1F
100
AcDbEntity
  8
1
  6
CONTINUOUS
370
50
 62
4
100
AcDbLine
 10
136.28421
 20
7.645204
 30
0.0
 11
136.307816
 21
7.692582
 31
0.0
  0
LINE
  5
B34
330
1F
100
AcDbEntity
  8
1
  6
CONTINUOUS
370
50
 62
4
100
AcDbLine
 10
135.302429
 20
-9.81393
 30
0.0
 11
135.326813
 21
-9.764877
 31
0.0
  0
LINE
  5
B35
330
1F
100
AcDbEntity
  8
1
  6
CONTINUOUS
370
50
 62
4
100
AcDbLine
 10
130.424362
 20
9.681084
 30
0.0
 11
130.446564
 21
9.726744
 31
0.0
  0
LINE
  5
B36
330
1F
100
AcDbEntity
  8
1
  6
CONTINUOUS
370
50
 62
4
100
AcDbLine
 10
132.362946
 20
-9.056621999999999
 30
0.0
 11
132.399338
 21
-8.981734
 31
0.0
  0
LINE
  5
B37
330
1F
100
AcDbEntity
  8
1
  6
CONTINUOUS
370
50
 62
4
100
AcDbLine
 10
133.430634
 20
9.298501
 30
0.0
 11
133.465164
 21
9.369636999999999
 31
0.0
  0
LINE
  5
B38
330
1F
100
AcDbEntity
  8
1
  6
CONTINUOUS
370
50
 62
4
100
AcDbLine
 10
135.326813
 20
-9.764877
 30
0.0
 11
135.349716
 21
-9.717680999999999
 31
0.0
  0
LINE
  5
B39
330
1F
100
AcDbEntity
  8
1
  6
CONTINUOUS
370
50
 62
4
100
AcDbLine
 10
122.093475
 20
3.769982
 30
0.0
 11
122.127724
 21
3.840901
 31
0.0
  0
LINE
  5
B3A
330
1F
100
AcDbEntity
  8
1
  6
CONTINUOUS
370
50
 62
4
100
AcDbLine
 10
118.483131
 20
-9.715914999999999
 30
0.0
 11
118.498009
 21
-9.685107
 31
0.0
  0
LINE
  5
B3B
330
1F
100
AcDbEntity
  8
1
  6
CONTINUOUS
370
50
 62
4
100
AcDbLine
 10
136.261353
 20
7.597486
 30
0.0
 11
136.28421
 21
7.645204
 31
0.0
  0
LINE
  5
B3C
330
1F
100
AcDbEntity
  8
1
  6
CONTINUOUS
370
50
 62
4
100
AcDbLine
 10
119.338913
 20
6.665317
 30
0.0
 11
119.365013
 21
6.719872
 31
0.0
  0
LINE
  5
B3D
330
1F
100
AcDbEntity
  8
1
  6
CONTINUOUS
370
50
 62
4
100
AcDbLine
 10
126.781776
 20
-4.30159
 30
0.0
 11
126.815971
 21
-4.229486
 31
0.0
  0
LINE
  5
B3E
330
1F
100
AcDbEntity
  8
1
  6
CONTINUOUS
370
50
 62
4
100
AcDbLine
 10
135.349716
 20
-9.717680999999999
 30
0.0
 11
135.371109
 21
-9.672333
 31
0.0
  0
LINE
  5
B3F
330
1F
100
AcDbEntity
  8
1
  6
CONTINUOUS
370
50
 62
4
100
AcDbLine
 10
129.567398
 20
-7.061202
 30
0.0
 11
129.60376
 21
-6.983823999999999
 31
0.0
  0
LINE
  5
B40
330
1F
100
AcDbEntity
  8
1
  6
CONTINUOUS
370
50
 62
4
100
AcDbLine
 10
133.39769
 20
9.227959
 30
0.0
 11
133.430634
 21
9.298501
 31
0.0
  0
LINE
  5
B41
330
1F
100
AcDbEntity
  8
1
  6
CONTINUOUS
370
50
 62
4
100
AcDbLine
 10
130.404907
 20
9.639297
 30
0.0
 11
130.424362
 21
9.681084
 31
0.0
  0
LINE
  5
B42
330
1F
100
AcDbEntity
  8
1
  6
CONTINUOUS
370
50
 62
4
100
AcDbLine
 10
132.399338
 20
-8.981734
 30
0.0
 11
132.434158
 21
-8.906787
 31
0.0
  0
LINE
  5
B43
330
1F
100
AcDbEntity
  8
1
  6
CONTINUOUS
370
50
 62
4
100
AcDbLine
 10
130.405319
 20
-5.749858
 30
0.0
 11
130.425323
 21
-5.706515
 31
0.0
  0
LINE
  5
B44
330
1F
100
AcDbEntity
  8
1
  6
CONTINUOUS
370
50
 62
4
100
AcDbLine
 10
124.854507
 20
0.483939
 30
0.0
 11
124.884079
 21
0.548095
 31
0.0
  0
LINE
  5
B45
330
1F
100
AcDbEntity
  8
1
  6
CONTINUOUS
370
50
 62
4
100
AcDbLine
 10
136.239258
 20
7.549486
 30
0.0
 11
136.261353
 21
7.597486
 31
0.0
  0
LINE
  5
B46
330
1F
100
AcDbEntity
  8
1
  6
CONTINUOUS
370
50
 62
4
100
AcDbLine
 10
118.498009
 20
-9.685107
 30
0.0
 11
118.510902
 21
-9.657074999999999
 31
0.0
  0
LINE
  5
B47
330
1F
100
AcDbEntity
  8
1
  6
CONTINUOUS
370
50
 62
4
100
AcDbLine
 10
135.371109
 20
-9.672333
 30
0.0
 11
135.391006
 21
-9.628824999999999
 31
0.0
  0
LINE
  5
B48
330
1F
100
AcDbEntity
  8
1
  6
CONTINUOUS
370
50
 62
4
100
AcDbLine
 10
119.313866
 20
6.609945
 30
0.0
 11
119.338913
 21
6.665317
 31
0.0
  0
LINE
  5
B49
330
1F
100
AcDbEntity
  8
1
  6
CONTINUOUS
370
50
 62
4
100
AcDbLine
 10
133.36676
 20
9.158902
 30
0.0
 11
133.39769
 21
9.227959
 31
0.0
  0
LINE
  5
B4A
330
1F
100
AcDbEntity
  8
1
  6
CONTINUOUS
370
50
 62
4
100
AcDbLine
 10
127.624542
 20
-2.812814
 30
0.0
 11
127.649284
 21
-2.75734
 31
0.0
  0
LINE
  5
B4B
330
1F
100
AcDbEntity
  8
1
  6
CONTINUOUS
370
50
 62
4
100
AcDbLine
 10
124.025711
 20
-1.043381
 30
0.0
 11
124.055313
 21
-0.9770099999999999
 31
0.0
  0
LINE
  5
B4C
330
1F
100
AcDbEntity
  8
1
  6
CONTINUOUS
370
50
 62
4
100
AcDbLine
 10
132.434158
 20
-8.906787
 30
0.0
 11
132.466858
 21
-8.832878
 31
0.0
  0
LINE
  5
B4D
330
1F
100
AcDbEntity
  8
1
  6
CONTINUOUS
370
50
 62
4
100
AcDbLine
 10
138.211212
 20
3.553131
 30
0.0
 11
138.226456
 21
3.587623
 31
0.0
  0
LINE
  5
B4E
330
1F
100
AcDbEntity
  8
1
  6
CONTINUOUS
370
50
 62
4
100
AcDbLine
 10
136.217941
 20
7.501214999999999
 30
0.0
 11
136.239258
 21
7.549486
 31
0.0
  0
LINE
  5
B4F
330
1F
100
AcDbEntity
  8
1
  6
CONTINUOUS
370
50
 62
4
100
AcDbLine
 10
130.388107
 20
9.601220999999999
 30
0.0
 11
130.404907
 21
9.639297
 31
0.0
  0
LINE
  5
B50
330
1F
100
AcDbEntity
  8
1
  6
CONTINUOUS
370
50
 62
4
100
AcDbLine
 10
135.391006
 20
-9.628824999999999
 30
0.0
 11
135.409302
 21
-9.587295
 31
0.0
  0
LINE
  5
B51
330
1F
100
AcDbEntity
  8
1
  6
CONTINUOUS
370
50
 62
4
100
AcDbLine
 10
121.25753
 20
2.268507
 30
0.0
 11
121.27829
 21
2.316015
 31
0.0
  0
LINE
  5
B52
330
1F
100
AcDbEntity
  8
1
  6
CONTINUOUS
370
50
 62
4
100
AcDbLine
 10
129.60376
 20
-6.983823999999999
 30
0.0
 11
129.63797
 21
-6.905419999999999
 31
0.0
  0
LINE
  5
B53
330
1F
100
AcDbEntity
  8
1
  6
CONTINUOUS
370
50
 62
4
100
AcDbLine
 10
122.061577
 20
3.696288
 30
0.0
 11
122.093475
 21
3.769982
 31
0.0
  0
LINE
  5
B54
330
1F
100
AcDbEntity
  8
1
  6
CONTINUOUS
370
50
 62
4
100
AcDbLine
 10
118.510902
 20
-9.657074999999999
 30
0.0
 11
118.521889
 21
-9.631689
 31
0.0
  0
LINE
  5
B55
330
1F
100
AcDbEntity
  8
1
  6
CONTINUOUS
370
50
 62
4
100
AcDbLine
 10
133.337906
 20
9.091351
 30
0.0
 11
133.36676
 21
9.158902
 31
0.0
  0
LINE
  5
B56
330
1F
100
AcDbEntity
  8
1
  6
CONTINUOUS
370
50
 62
4
100
AcDbLine
 10
126.815971
 20
-4.229486
 30
0.0
 11
126.84787
 21
-4.154799
 31
0.0
  0
LINE
  5
B57
330
1F
100
AcDbEntity
  8
1
  6
CONTINUOUS
370
50
 62
4
100
AcDbLine
 10
119.289894
 20
6.55378
 30
0.0
 11
119.313866
 21
6.609945
 31
0.0
  0
LINE
  5
B58
330
1F
100
AcDbEntity
  8
1
  6
CONTINUOUS
370
50
 62
4
100
AcDbLine
 10
136.197433
 20
7.452686
 30
0.0
 11
136.217941
 21
7.501214999999999
 31
0.0
  0
LINE
  5
B59
330
1F
100
AcDbEntity
  8
1
  6
CONTINUOUS
370
50
 62
4
100
AcDbLine
 10
135.409302
 20
-9.587295
 30
0.0
 11
135.425858
 21
-9.54807
 31
0.0
  0
LINE
  5
B5A
330
1F
100
AcDbEntity
  8
1
  6
CONTINUOUS
370
50
 62
4
100
AcDbLine
 10
132.466858
 20
-8.832878
 30
0.0
 11
132.497391
 21
-8.760086
 31
0.0
  0
LINE
  5
B5B
330
1F
100
AcDbEntity
  8
1
  6
CONTINUOUS
370
50
 62
4
100
AcDbLine
 10
118.455536
 20
5.347955
 30
0.0
 11
118.482338
 21
5.412184
 31
0.0
  0
LINE
  5
B5C
330
1F
100
AcDbEntity
  8
1
  6
CONTINUOUS
370
50
 62
4
100
AcDbLine
 10
135.440704
 20
6.373497
 30
0.0
 11
135.453888
 21
6.405907
 31
0.0
  0
LINE
  5
B5D
330
1F
100
AcDbEntity
  8
1
  6
CONTINUOUS
370
50
 62
4
100
AcDbLine
 10
133.311111
 20
9.025311
 30
0.0
 11
133.337906
 21
9.091351
 31
0.0
  0
LINE
  5
B5E
330
1F
100
AcDbEntity
  8
1
  6
CONTINUOUS
370
50
 62
4
100
AcDbLine
 10
136.17775
 20
7.403912
 30
0.0
 11
136.197433
 21
7.452686
 31
0.0
  0
LINE
  5
B5F
330
1F
100
AcDbEntity
  8
1
  6
CONTINUOUS
370
50
 62
4
100
AcDbLine
 10
129.63797
 20
-6.905419999999999
 30
0.0
 11
129.669876
 21
-6.826277999999999
 31
0.0
  0
LINE
  5
B60
330
1F
100
AcDbEntity
  8
1
  6
CONTINUOUS
370
50
 62
4
100
AcDbLine
 10
119.267021
 20
6.496845
 30
0.0
 11
119.289894
 21
6.55378
 31
0.0
  0
LINE
  5
B61
330
1F
100
AcDbEntity
  8
1
  6
CONTINUOUS
370
50
 62
4
100
AcDbLine
 10
135.425858
 20
-9.54807
 30
0.0
 11
135.440704
 21
-9.511091
 31
0.0
  0
LINE
  5
B62
330
1F
100
AcDbEntity
  8
1
  6
CONTINUOUS
370
50
 62
4
100
AcDbLine
 10
116.555626
 20
9.0
 30
0.0
 11
117.400002
 21
11.1125
 31
0.0
  0
LINE
  5
B63
330
1F
100
AcDbEntity
  8
1
  6
CONTINUOUS
370
50
 62
4
100
AcDbLine
 10
124.827332
 20
0.415717
 30
0.0
 11
124.854507
 21
0.483939
 31
0.0
  0
LINE
  5
B64
330
1F
100
AcDbEntity
  8
1
  6
CONTINUOUS
370
50
 62
4
100
AcDbLine
 10
132.497391
 20
-8.760086
 30
0.0
 11
132.525696
 21
-8.688433
 31
0.0
  0
LINE
  5
B65
330
1F
100
AcDbEntity
  8
1
  6
CONTINUOUS
370
50
 62
4
100
AcDbLine
 10
117.329536
 20
9.3589
 30
0.0
 11
117.400002
 21
9.537473
 31
0.0
  0
LINE
  5
B66
330
1F
100
AcDbEntity
  8
1
  6
CONTINUOUS
370
50
 62
4
100
AcDbLine
 10
138.226456
 20
3.587623
 30
0.0
 11
138.240524
 21
3.623856
 31
0.0
  0
LINE
  5
B67
330
1F
100
AcDbEntity
  8
1
  6
CONTINUOUS
370
50
 62
4
100
AcDbLine
 10
124.055313
 20
-0.9770099999999999
 30
0.0
 11
124.082542
 21
-0.9067099999999999
 31
0.0
  0
LINE
  5
B68
330
1F
100
AcDbEntity
  8
1
  6
CONTINUOUS
370
50
 62
4
100
AcDbLine
 10
122.032066
 20
3.619916
 30
0.0
 11
122.061577
 21
3.696288
 31
0.0
  0
LINE
  5
B69
330
1F
100
AcDbEntity
  8
1
  6
CONTINUOUS
370
50
 62
4
100
AcDbLine
 10
136.15889
 20
7.354902999999999
 30
0.0
 11
136.17775
 21
7.403912
 31
0.0
  0
LINE
  5
B6A
330
1F
100
AcDbEntity
  8
1
  6
CONTINUOUS
370
50
 62
4
100
AcDbLine
 10
126.84787
 20
-4.154799
 30
0.0
 11
126.877434
 21
-4.077616
 31
0.0
  0
LINE
  5
B6B
330
1F
100
AcDbEntity
  8
1
  6
CONTINUOUS
370
50
 62
4
100
AcDbLine
 10
133.286438
 20
8.960791
 30
0.0
 11
133.311111
 21
9.025311
 31
0.0
  0
LINE
  5
B6C
330
1F
100
AcDbEntity
  8
1
  6
CONTINUOUS
370
50
 62
4
100
AcDbLine
 10
135.440704
 20
-9.511091
 30
0.0
 11
135.453888
 21
-9.476279
 31
0.0
  0
LINE
  5
B6D
330
1F
100
AcDbEntity
  8
1
  6
CONTINUOUS
370
50
 62
4
100
AcDbLine
 10
121.27829
 20
2.316015
 30
0.0
 11
121.297287
 21
2.366332
 31
0.0
  0
LINE
  5
B6E
330
1F
100
AcDbEntity
  8
1
  6
CONTINUOUS
370
50
 62
4
100
AcDbLine
 10
119.245277
 20
6.439164
 30
0.0
 11
119.267021
 21
6.496845
 31
0.0
  0
LINE
  5
B6F
330
1F
100
AcDbEntity
  8
1
  6
CONTINUOUS
370
50
 62
4
100
AcDbLine
 10
129.669876
 20
-6.826277999999999
 30
0.0
 11
129.699432
 21
-6.746456999999999
 31
0.0
  0
LINE
  5
B70
330
1F
100
AcDbEntity
  8
1
  6
CONTINUOUS
370
50
 62
4
100
AcDbLine
 10
132.525696
 20
-8.688433
 30
0.0
 11
132.551773
 21
-8.617937999999999
 31
0.0
  0
LINE
  5
B71
330
1F
100
AcDbEntity
  8
1
  6
CONTINUOUS
370
50
 62
4
100
AcDbLine
 10
127.602341
 20
-2.872852
 30
0.0
 11
127.624542
 21
-2.812814
 31
0.0
  0
LINE
  5
B72
330
1F
100
AcDbEntity
  8
1
  6
CONTINUOUS
370
50
 62
4
100
AcDbLine
 10
117.262085
 20
9.175436
 30
0.0
 11
117.329536
 21
9.3589
 31
0.0
  0
LINE
  5
B73
330
1F
100
AcDbEntity
  8
1
  6
CONTINUOUS
370
50
 62
4
100
AcDbLine
 10
136.140884
 20
7.305673
 30
0.0
 11
136.15889
 21
7.354902999999999
 31
0.0
  0
LINE
  5
B74
330
1F
100
AcDbEntity
  8
1
  6
CONTINUOUS
370
50
 62
4
100
AcDbLine
 10
130.388107
 20
-5.797482
 30
0.0
 11
130.405319
 21
-5.749858
 31
0.0
  0
LINE
  5
B75
330
1F
100
AcDbEntity
  8
1
  6
CONTINUOUS
370
50
 62
4
100
AcDbLine
 10
133.26387
 20
8.897796
 30
0.0
 11
133.286438
 21
8.960791
 31
0.0
  0
LINE
  5
B76
330
1F
100
AcDbEntity
  8
1
  6
CONTINUOUS
370
50
 62
4
100
AcDbLine
 10
119.224686
 20
6.380761
 30
0.0
 11
119.245277
 21
6.439164
 31
0.0
  0
LINE
  5
B77
330
1F
100
AcDbEntity
  8
1
  6
CONTINUOUS
370
50
 62
4
100
AcDbLine
 10
136.123749
 20
7.256232
 30
0.0
 11
136.140884
 21
7.305673
 31
0.0
  0
LINE
  5
B78
330
1F
100
AcDbEntity
  8
1
  6
CONTINUOUS
370
50
 62
4
100
AcDbLine
 10
132.551773
 20
-8.617937999999999
 30
0.0
 11
132.575577
 21
-8.548624
 31
0.0
  0
LINE
  5
B79
330
1F
100
AcDbEntity
  8
1
  6
CONTINUOUS
370
50
 62
4
100
AcDbLine
 10
122.004959
 20
3.540966
 30
0.0
 11
122.032066
 21
3.619916
 31
0.0
  0
LINE
  5
B7A
330
1F
100
AcDbEntity
  8
1
  6
CONTINUOUS
370
50
 62
4
100
AcDbLine
 10
124.802574
 20
0.343549
 30
0.0
 11
124.827332
 21
0.415717
 31
0.0
  0
LINE
  5
B7B
330
1F
100
AcDbEntity
  8
1
  6
CONTINUOUS
370
50
 62
4
100
AcDbLine
 10
117.19812
 20
8.988579999999999
 30
0.0
 11
117.262085
 21
9.175436
 31
0.0
  0
LINE
  5
B7C
330
1F
100
AcDbEntity
  8
1
  6
CONTINUOUS
370
50
 62
4
100
AcDbLine
 10
126.877434
 20
-4.077616
 30
0.0
 11
126.90464
 21
-3.998026
 31
0.0
  0
LINE
  5
B7D
330
1F
100
AcDbEntity
  8
1
  6
CONTINUOUS
370
50
 62
4
100
AcDbLine
 10
138.240524
 20
3.623856
 30
0.0
 11
138.253433
 21
3.661734
 31
0.0
  0
LINE
  5
B7E
330
1F
100
AcDbEntity
  8
1
  6
CONTINUOUS
370
50
 62
4
100
AcDbLine
 10
129.699432
 20
-6.746456999999999
 30
0.0
 11
129.726639
 21
-6.666016
 31
0.0
  0
LINE
  5
B7F
330
1F
100
AcDbEntity
  8
1
  6
CONTINUOUS
370
50
 62
4
100
AcDbLine
 10
124.082542
 20
-0.9067099999999999
 30
0.0
 11
124.107368
 21
-0.832595
 31
0.0
  0
LINE
  5
B80
330
1F
100
AcDbEntity
  8
1
  6
CONTINUOUS
370
50
 62
4
100
AcDbLine
 10
133.243576
 20
8.836746
 30
0.0
 11
133.26387
 21
8.897796
 31
0.0
  0
LINE
  5
B81
330
1F
100
AcDbEntity
  8
1
  6
CONTINUOUS
370
50
 62
4
100
AcDbLine
 10
119.205322
 20
6.321810999999999
 30
0.0
 11
119.224686
 21
6.380761
 31
0.0
  0
LINE
  5
B82
330
1F
100
AcDbEntity
  8
1
  6
CONTINUOUS
370
50
 62
4
100
AcDbLine
 10
136.107529
 20
7.206747
 30
0.0
 11
136.123749
 21
7.256232
 31
0.0
  0
LINE
  5
B83
330
1F
100
AcDbEntity
  8
1
  6
CONTINUOUS
370
50
 62
4
100
AcDbLine
 10
121.297287
 20
2.366332
 30
0.0
 11
121.314545
 21
2.419327
 31
0.0
  0
LINE
  5
B84
330
1F
100
AcDbEntity
  8
1
  6
CONTINUOUS
370
50
 62
4
100
AcDbLine
 10
138.931107
 20
4.699488
 30
0.0
 11
138.947495
 21
4.750208
 31
0.0
  0
LINE
  5
B85
330
1F
100
AcDbEntity
  8
1
  6
CONTINUOUS
370
50
 62
4
100
AcDbLine
 10
117.138458
 20
8.800780999999999
 30
0.0
 11
117.19812
 21
8.988579999999999
 31
0.0
  0
LINE
  5
B86
330
1F
100
AcDbEntity
  8
1
  6
CONTINUOUS
370
50
 62
4
100
AcDbLine
 10
132.575577
 20
-8.548624
 30
0.0
 11
132.596893
 21
-8.481118
 31
0.0
  0
LINE
  5
B87
330
1F
100
AcDbEntity
  8
1
  6
CONTINUOUS
370
50
 62
4
100
AcDbLine
 10
118.482338
 20
5.412184
 30
0.0
 11
118.504379
 21
5.483224
 31
0.0
  0
LINE
  5
B88
330
1F
100
AcDbEntity
  8
1
  6
CONTINUOUS
370
50
 62
4
100
AcDbLine
 10
136.092377
 20
7.15766
 30
0.0
 11
136.107529
 21
7.206747
 31
0.0
  0
LINE
  5
B89
330
1F
100
AcDbEntity
  8
1
  6
CONTINUOUS
370
50
 62
4
100
AcDbLine
 10
129.726639
 20
-6.666016
 30
0.0
 11
129.751434
 21
-6.585012
 31
0.0
  0
LINE
  5
B8A
330
1F
100
AcDbEntity
  8
1
  6
CONTINUOUS
370
50
 62
4
100
AcDbLine
 10
127.582893
 20
-2.936507
 30
0.0
 11
127.602341
 21
-2.872852
 31
0.0
  0
LINE
  5
B8B
330
1F
100
AcDbEntity
  8
1
  6
CONTINUOUS
370
50
 62
4
100
AcDbLine
 10
133.225693
 20
8.778096999999999
 30
0.0
 11
133.243576
 21
8.836746
 31
0.0
  0
LINE
  5
B8C
330
1F
100
AcDbEntity
  8
1
  6
CONTINUOUS
370
50
 62
4
100
AcDbLine
 10
119.187393
 20
6.262970999999999
 30
0.0
 11
119.205322
 21
6.321810999999999
 31
0.0
  0
LINE
  5
B8D
330
1F
100
AcDbEntity
  8
1
  6
CONTINUOUS
370
50
 62
4
100
AcDbLine
 10
121.980278
 20
3.459532
 30
0.0
 11
122.004959
 21
3.540966
 31
0.0
  0
LINE
  5
B8E
330
1F
100
AcDbEntity
  8
1
  6
CONTINUOUS
370
50
 62
4
100
AcDbLine
 10
126.90464
 20
-3.998026
 30
0.0
 11
126.929443
 21
-3.916114
 31
0.0
  0
LINE
  5
B8F
330
1F
100
AcDbEntity
  8
1
  6
CONTINUOUS
370
50
 62
4
100
AcDbLine
 10
138.915649
 20
4.648010999999999
 30
0.0
 11
138.931107
 21
4.699488
 31
0.0
  0
LINE
  5
B90
330
1F
100
AcDbEntity
  8
1
  6
CONTINUOUS
370
50
 62
4
100
AcDbLine
 10
138.253433
 20
3.661734
 30
0.0
 11
138.265213
 21
3.70116
 31
0.0
  0
LINE
  5
B91
330
1F
100
AcDbEntity
  8
1
  6
CONTINUOUS
370
50
 62
4
100
AcDbLine
 10
124.780365
 20
0.267924
 30
0.0
 11
124.802574
 21
0.343549
 31
0.0
  0
LINE
  5
B92
330
1F
100
AcDbEntity
  8
1
  6
CONTINUOUS
370
50
 62
4
100
AcDbLine
 10
117.083694
 20
8.614091
 30
0.0
 11
117.138458
 21
8.800780999999999
 31
0.0
  0
LINE
  5
B93
330
1F
100
AcDbEntity
  8
1
  6
CONTINUOUS
370
50
 62
4
100
AcDbLine
 10
136.078293
 20
7.109005
 30
0.0
 11
136.092377
 21
7.15766
 31
0.0
  0
LINE
  5
B94
330
1F
100
AcDbEntity
  8
1
  6
CONTINUOUS
370
50
 62
4
100
AcDbLine
 10
124.107368
 20
-0.832595
 30
0.0
 11
124.129593
 21
-0.755381
 31
0.0
  0
LINE
  5
B95
330
1F
100
AcDbEntity
  8
1
  6
CONTINUOUS
370
50
 62
4
100
AcDbLine
 10
132.596893
 20
-8.481118
 30
0.0
 11
132.615631
 21
-8.415875999999999
 31
0.0
  0
LINE
  5
B96
330
1F
100
AcDbEntity
  8
1
  6
CONTINUOUS
370
50
 62
4
100
AcDbLine
 10
119.170883
 20
6.204342
 30
0.0
 11
119.187393
 21
6.262970999999999
 31
0.0
  0
LINE
  5
B97
330
1F
100
AcDbEntity
  8
1
  6
CONTINUOUS
370
50
 62
4
100
AcDbLine
 10
121.314545
 20
2.419327
 30
0.0
 11
121.330078
 21
2.474869
 31
0.0
  0
LINE
  5
B98
330
1F
100
AcDbEntity
  8
1
  6
CONTINUOUS
370
50
 62
4
100
AcDbLine
 10
138.901245
 20
4.59622
 30
0.0
 11
138.915649
 21
4.648010999999999
 31
0.0
  0
LINE
  5
B99
330
1F
100
AcDbEntity
  8
1
  6
CONTINUOUS
370
50
 62
4
100
AcDbLine
 10
133.210114
 20
8.721786999999999
 30
0.0
 11
133.225693
 21
8.778096999999999
 31
0.0
  0
LINE
  5
B9A
330
1F
100
AcDbEntity
  8
1
  6
CONTINUOUS
370
50
 62
4
100
AcDbLine
 10
129.751434
 20
-6.585012
 30
0.0
 11
129.773621
 21
-6.504144999999999
 31
0.0
  0
LINE
  5
B9B
330
1F
100
AcDbEntity
  8
1
  6
CONTINUOUS
370
50
 62
4
100
AcDbLine
 10
136.065231
 20
7.060795
 30
0.0
 11
136.078293
 21
7.109005
 31
0.0
  0
LINE
  5
B9C
330
1F
100
AcDbEntity
  8
1
  6
CONTINUOUS
370
50
 62
4
100
AcDbLine
 10
117.034111
 20
8.429566
 30
0.0
 11
117.083694
 21
8.614091
 31
0.0
  0
LINE
  5
B9D
330
1F
100
AcDbEntity
  8
1
  6
CONTINUOUS
370
50
 62
4
100
AcDbLine
 10
126.929443
 20
-3.916114
 30
0.0
 11
126.95163
 21
-3.832686
 31
0.0
  0
LINE
  5
B9E
330
1F
100
AcDbEntity
  8
1
  6
CONTINUOUS
370
50
 62
4
100
AcDbLine
 10
121.95816
 20
3.376137
 30
0.0
 11
121.980278
 21
3.459532
 31
0.0
  0
LINE
  5
B9F
330
1F
100
AcDbEntity
  8
1
  6
CONTINUOUS
370
50
 62
4
100
AcDbLine
 10
138.265213
 20
3.70116
 30
0.0
 11
138.275894
 21
3.742039
 31
0.0
  0
LINE
  5
BA0
330
1F
100
AcDbEntity
  8
1
  6
CONTINUOUS
370
50
 62
4
100
AcDbLine
 10
119.155777
 20
6.145957999999999
 30
0.0
 11
119.170883
 21
6.204342
 31
0.0
  0
LINE
  5
BA1
330
1F
100
AcDbEntity
  8
1
  6
CONTINUOUS
370
50
 62
4
100
AcDbLine
 10
132.615631
 20
-8.415875999999999
 30
0.0
 11
132.631897
 21
-8.352857
 31
0.0
  0
LINE
  5
BA2
330
1F
100
AcDbEntity
  8
1
  6
CONTINUOUS
370
50
 62
4
100
AcDbLine
 10
138.887909
 20
4.544284
 30
0.0
 11
138.901245
 21
4.59622
 31
0.0
  0
LINE
  5
BA3
330
1F
100
AcDbEntity
  8
1
  6
CONTINUOUS
370
50
 62
4
100
AcDbLine
 10
136.053192
 20
7.013038
 30
0.0
 11
136.065231
 21
7.060795
 31
0.0
  0
LINE
  5
BA4
330
1F
100
AcDbEntity
  8
1
  6
CONTINUOUS
370
50
 62
4
100
AcDbLine
 10
127.566109
 20
-3.003404
 30
0.0
 11
127.582893
 21
-2.936507
 31
0.0
  0
LINE
  5
BA5
330
1F
100
AcDbEntity
  8
1
  6
CONTINUOUS
370
50
 62
4
100
AcDbLine
 10
124.76091
 20
0.189912
 30
0.0
 11
124.780365
 21
0.267924
 31
0.0
  0
LINE
  5
BA6
330
1F
100
AcDbEntity
  8
1
  6
CONTINUOUS
370
50
 62
4
100
AcDbLine
 10
116.843117
 20
-9.232877
 30
0.0
 11
116.855194
 21
-9.184244
 31
0.0
  0
LINE
  5
BA7
330
1F
100
AcDbEntity
  8
1
  6
CONTINUOUS
370
50
 62
4
100
AcDbLine
 10
124.129593
 20
-0.755381
 30
0.0
 11
124.149063
 21
-0.676013
 31
0.0
  0
LINE
  5
BA8
330
1F
100
AcDbEntity
  8
1
  6
CONTINUOUS
370
50
 62
4
100
AcDbLine
 10
116.989632
 20
8.24689
 30
0.0
 11
117.034111
 21
8.429566
 31
0.0
  0
LINE
  5
BA9
330
1F
100
AcDbEntity
  8
1
  6
CONTINUOUS
370
50
 62
4
100
AcDbLine
 10
129.773621
 20
-6.504144999999999
 30
0.0
 11
129.793076
 21
-6.424207
 31
0.0
  0
LINE
  5
BAA
330
1F
100
AcDbEntity
  8
1
  6
CONTINUOUS
370
50
 62
4
100
AcDbLine
 10
121.330078
 20
2.474869
 30
0.0
 11
121.34391
 21
2.532803
 31
0.0
  0
LINE
  5
BAB
330
1F
100
AcDbEntity
  8
1
  6
CONTINUOUS
370
50
 62
4
100
AcDbLine
 10
119.142029
 20
6.087854999999999
 30
0.0
 11
119.155777
 21
6.145957999999999
 31
0.0
  0
LINE
  5
BAC
330
1F
100
AcDbEntity
  8
1
  6
CONTINUOUS
370
50
 62
4
100
AcDbLine
 10
138.875626
 20
4.492242
 30
0.0
 11
138.887909
 21
4.544284
 31
0.0
  0
LINE
  5
BAD
330
1F
100
AcDbEntity
  8
1
  6
CONTINUOUS
370
50
 62
4
100
AcDbLine
 10
136.04216
 20
6.965745
 30
0.0
 11
136.053192
 21
7.013038
 31
0.0
  0
LINE
  5
BAE
330
1F
100
AcDbEntity
  8
1
  6
CONTINUOUS
370
50
 62
4
100
AcDbLine
 10
126.95163
 20
-3.832686
 30
0.0
 11
126.971085
 21
-3.748613
 31
0.0
  0
LINE
  5
BAF
330
1F
100
AcDbEntity
  8
1
  6
CONTINUOUS
370
50
 62
4
100
AcDbLine
 10
121.938805
 20
3.291856
 30
0.0
 11
121.95816
 21
3.376137
 31
0.0
  0
LINE
  5
BB0
330
1F
100
AcDbEntity
  8
1
  6
CONTINUOUS
370
50
 62
4
100
AcDbLine
 10
118.504379
 20
5.483224
 30
0.0
 11
118.521889
 21
5.560365
 31
0.0
  0
LINE
  5
BB1
330
1F
100
AcDbEntity
  8
1
  6
CONTINUOUS
370
50
 62
4
100
AcDbLine
 10
116.949928
 20
8.063842
 30
0.0
 11
116.989632
 21
8.24689
 31
0.0
  0
LINE
  5
BB2
330
1F
100
AcDbEntity
  8
1
  6
CONTINUOUS
370
50
 62
4
100
AcDbLine
 10
138.864365
 20
4.44013
 30
0.0
 11
138.875626
 21
4.492242
 31
0.0
  0
LINE
  5
BB3
330
1F
100
AcDbEntity
  8
1
  6
CONTINUOUS
370
50
 62
4
100
AcDbLine
 10
119.129616
 20
6.030065
 30
0.0
 11
119.142029
 21
6.087854999999999
 31
0.0
  0
LINE
  5
BB4
330
1F
100
AcDbEntity
  8
1
  6
CONTINUOUS
370
50
 62
4
100
AcDbLine
 10
136.032104
 20
6.918926
 30
0.0
 11
136.04216
 21
6.965745
 31
0.0
  0
LINE
  5
BB5
330
1F
100
AcDbEntity
  8
1
  6
CONTINUOUS
370
50
 62
4
100
AcDbLine
 10
129.793076
 20
-6.424207
 30
0.0
 11
129.809891
 21
-6.345270999999999
 31
0.0
  0
LINE
  5
BB6
330
1F
100
AcDbEntity
  8
1
  6
CONTINUOUS
370
50
 62
4
100
AcDbLine
 10
124.74411
 20
0.109837
 30
0.0
 11
124.76091
 21
0.189912
 31
0.0
  0
LINE
  5
BB7
330
1F
100
AcDbEntity
  8
1
  6
CONTINUOUS
370
50
 62
4
100
AcDbLine
 10
124.149063
 20
-0.676013
 30
0.0
 11
124.165894
 21
-0.594766
 31
0.0
  0
LINE
  5
BB8
330
1F
100
AcDbEntity
  8
1
  6
CONTINUOUS
370
50
 62
4
100
AcDbLine
 10
126.971085
 20
-3.748613
 30
0.0
 11
126.987892
 21
-3.664078
 31
0.0
  0
LINE
  5
BB9
330
1F
100
AcDbEntity
  8
1
  6
CONTINUOUS
370
50
 62
4
100
AcDbLine
 10
138.854111
 20
4.387985
 30
0.0
 11
138.864365
 21
4.44013
 31
0.0
  0
LINE
  5
BBA
330
1F
100
AcDbEntity
  8
1
  6
CONTINUOUS
370
50
 62
4
100
AcDbLine
 10
121.922112
 20
3.206919
 30
0.0
 11
121.938805
 21
3.291856
 31
0.0
  0
LINE
  5
BBB
330
1F
100
AcDbEntity
  8
1
  6
CONTINUOUS
370
50
 62
4
100
AcDbLine
 10
119.118515
 20
5.972621999999999
 30
0.0
 11
119.129616
 21
6.030065
 31
0.0
  0
LINE
  5
BBC
330
1F
100
AcDbEntity
  8
1
  6
CONTINUOUS
370
50
 62
4
100
AcDbLine
 10
116.915466
 20
7.88101
 30
0.0
 11
116.949928
 21
8.063842
 31
0.0
  0
LINE
  5
BBD
330
1F
100
AcDbEntity
  8
1
  6
CONTINUOUS
370
50
 62
4
100
AcDbLine
 10
119.108681
 20
5.915560999999999
 30
0.0
 11
119.118515
 21
5.972621999999999
 31
0.0
  0
LINE
  5
BBE
330
1F
100
AcDbEntity
  8
1
  6
CONTINUOUS
370
50
 62
4
100
AcDbLine
 10
116.886757
 20
7.699096
 30
0.0
 11
116.915466
 21
7.88101
 31
0.0
  0
LINE
  5
BBF
330
1F
100
AcDbEntity
  8
1
  6
CONTINUOUS
370
50
 62
4
100
AcDbLine
 10
119.10009
 20
5.858916
 30
0.0
 11
119.108681
 21
5.915560999999999
 31
0.0
  0
LINE
  5
BC0
330
1F
100
AcDbEntity
  8
1
  6
CONTINUOUS
370
50
 62
4
100
AcDbLine
 10
116.864296
 20
7.5188
 30
0.0
 11
116.886757
 21
7.699096
 31
0.0
  0
LINE
  5
BC1
330
1F
100
AcDbEntity
  8
1
  6
CONTINUOUS
370
50
 62
4
100
AcDbLine
 10
139.989761
 20
2.993652
 30
0.0
 11
140.0
 21
3.095984
 31
0.0
  0
LINE
  5
BC2
330
1F
100
AcDbEntity
  8
1
  6
CONTINUOUS
370
50
 62
4
100
AcDbLine
 10
139.984985
 20
2.935259
 30
0.0
 11
140.0
 21
3.095984
 31
0.0
  0
LINE
  5
BC3
330
1F
100
AcDbEntity
  8
1
  6
CONTINUOUS
370
50
 62
4
100
AcDbLine
 10
116.848618
 20
7.341021
 30
0.0
 11
116.864296
 21
7.5188
 31
0.0
  0
LINE
  5
BC4
330
1F
100
AcDbEntity
  8
1
  6
CONTINUOUS
370
50
 62
4
100
AcDbLine
 10
139.981903
 20
2.891532
 30
0.0
 11
139.989761
 21
2.993652
 31
0.0
  0
LINE
  5
BC5
330
1F
100
AcDbEntity
  8
1
  6
CONTINUOUS
370
50
 62
4
100
AcDbLine
 10
116.838875
 20
-9.296422999999999
 30
0.0
 11
116.843117
 21
-9.232877
 31
0.0
  0
LINE
  5
BC6
330
1F
100
AcDbEntity
  8
1
  6
CONTINUOUS
370
50
 62
4
100
AcDbLine
 10
139.975693
 20
2.775346
 30
0.0
 11
139.984985
 21
2.935259
 31
0.0
  0
LINE
  5
BC7
330
1F
100
AcDbEntity
  8
1
  6
CONTINUOUS
370
50
 62
4
100
AcDbLine
 10
139.976318
 20
2.789829
 30
0.0
 11
139.981903
 21
2.891532
 31
0.0
  0
LINE
  5
BC8
330
1F
100
AcDbEntity
  8
1
  6
CONTINUOUS
370
50
 62
4
100
AcDbLine
 10
116.840279
 20
7.167739999999999
 30
0.0
 11
116.848618
 21
7.341021
 31
0.0
  0
LINE
  5
BC9
330
1F
100
AcDbEntity
  8
1
  6
CONTINUOUS
370
50
 62
4
100
AcDbLine
 10
139.972885
 20
2.688749
 30
0.0
 11
139.976318
 21
2.789829
 31
0.0
  0
LINE
  5
BCA
330
1F
100
AcDbEntity
  8
1
  6
CONTINUOUS
370
50
 62
4
100
AcDbLine
 10
139.971695
 20
2.617041
 30
0.0
 11
139.975693
 21
2.775346
 31
0.0
  0
LINE
  5
BCB
330
1F
100
AcDbEntity
  8
1
  6
CONTINUOUS
370
50
 62
4
100
AcDbLine
 10
139.971497
 20
2.588495
 30
0.0
 11
139.972885
 21
2.688749
 31
0.0
  0
LINE
  5
BCC
330
1F
100
AcDbEntity
  8
1
  6
CONTINUOUS
370
50
 62
4
100
AcDbLine
 10
116.839447
 20
6.999822
 30
0.0
 11
116.840279
 21
7.167739999999999
 31
0.0
  0
LINE
  5
BCD
330
1F
100
AcDbEntity
  8
1
  6
CONTINUOUS
370
50
 62
4
100
AcDbLine
 10
36.0
 20
-9.0
 30
0.0
 11
36.0
 21
9.0
 31
0.0
  0
LINE
  5
BCE
330
1F
100
AcDbEntity
  8
1
  6
CONTINUOUS
370
50
 62
4
100
AcDbLine
 10
116.555626
 20
-9.0
 30
0.0
 11
116.555626
 21
9.0
 31
0.0
  0
LINE
  5
BCF
330
1F
100
AcDbEntity
  8
1
  6
CONTINUOUS
370
50
 62
4
100
AcDbLine
 10
117.400002
 20
-11.1125
 30
0.0
 11
117.400002
 21
11.1125
 31
0.0
  0
LINE
  5
BD0
330
1F
100
AcDbEntity
  8
1
  6
CONTINUOUS
370
50
 62
4
100
AcDbLine
 10
117.689087
 20
-9.881583
 30
0.0
 11
117.689087
 21
5.424659999999999
 31
0.0
  0
LINE
  5
BD1
330
1F
100
AcDbEntity
  8
1
  6
CONTINUOUS
370
50
 62
4
100
AcDbLine
 10
117.689087
 20
9.343232
 30
0.0
 11
117.689087
 21
11.1125
 31
0.0
  0
LINE
  5
BD2
330
1F
100
AcDbEntity
  8
1
  6
CONTINUOUS
370
50
 62
4
100
AcDbLine
 10
118.521912
 20
-9.67
 30
0.0
 11
118.521912
 21
-9.631708999999999
 31
0.0
  0
LINE
  5
BD3
330
1F
100
AcDbEntity
  8
1
  6
CONTINUOUS
370
50
 62
4
100
AcDbLine
 10
118.521912
 20
6.370741
 30
0.0
 11
118.521912
 21
9.67
 31
0.0
  0
LINE
  5
BD4
330
1F
100
AcDbEntity
  8
1
  6
CONTINUOUS
370
50
 62
4
100
AcDbLine
 10
118.521912
 20
-9.485522999999999
 30
0.0
 11
118.521912
 21
5.560378
 31
0.0
  0
LINE
  5
BD5
330
1F
100
AcDbEntity
  8
1
  6
CONTINUOUS
370
50
 62
4
100
AcDbLine
 10
119.100082
 20
-9.67
 30
0.0
 11
119.100082
 21
-9.667430999999999
 31
0.0
  0
LINE
  5
BD6
330
1F
100
AcDbEntity
  8
1
  6
CONTINUOUS
370
50
 62
4
100
AcDbLine
 10
119.100082
 20
5.858916
 30
0.0
 11
119.100082
 21
9.67
 31
0.0
  0
LINE
  5
BD7
330
1F
100
AcDbEntity
  8
1
  6
CONTINUOUS
370
50
 62
4
100
AcDbLine
 10
119.100082
 20
-9.591778
 30
0.0
 11
119.100082
 21
5.026752
 31
0.0
  0
LINE
  5
BD8
330
1F
100
AcDbEntity
  8
1
  6
CONTINUOUS
370
50
 62
4
100
AcDbLine
 10
119.932915
 20
-10.858536
 30
0.0
 11
119.932915
 21
2.857298
 31
0.0
  0
LINE
  5
BD9
330
1F
100
AcDbEntity
  8
1
  6
CONTINUOUS
370
50
 62
4
100
AcDbLine
 10
119.932915
 20
7.474968
 30
0.0
 11
119.932915
 21
11.1125
 31
0.0
  0
LINE
  5
BDA
330
1F
100
AcDbEntity
  8
1
  6
CONTINUOUS
370
50
 62
4
100
AcDbLine
 10
120.511086
 20
-10.992239
 30
0.0
 11
120.511086
 21
2.116528
 31
0.0
  0
LINE
  5
BDB
330
1F
100
AcDbEntity
  8
1
  6
CONTINUOUS
370
50
 62
4
100
AcDbLine
 10
120.511086
 20
6.908123
 30
0.0
 11
120.511086
 21
11.1125
 31
0.0
  0
LINE
  5
BDC
330
1F
100
AcDbEntity
  8
1
  6
CONTINUOUS
370
50
 62
4
100
AcDbLine
 10
121.34391
 20
3.820471
 30
0.0
 11
121.34391
 21
9.67
 31
0.0
  0
LINE
  5
BDD
330
1F
100
AcDbEntity
  8
1
  6
CONTINUOUS
370
50
 62
4
100
AcDbLine
 10
121.34391
 20
-9.67
 30
0.0
 11
121.34391
 21
2.532804
 31
0.0
  0
LINE
  5
BDE
330
1F
100
AcDbEntity
  8
1
  6
CONTINUOUS
370
50
 62
4
100
AcDbLine
 10
121.922089
 20
3.206923
 30
0.0
 11
121.922089
 21
9.67
 31
0.0
  0
LINE
  5
BDF
330
1F
100
AcDbEntity
  8
1
  6
CONTINUOUS
370
50
 62
4
100
AcDbLine
 10
121.922089
 20
-9.67
 30
0.0
 11
121.922089
 21
1.91843
 31
0.0
  0
LINE
  5
BE0
330
1F
100
AcDbEntity
  8
1
  6
CONTINUOUS
370
50
 62
4
100
AcDbLine
 10
122.754913
 20
4.437073
 30
0.0
 11
122.754913
 21
11.1125
 31
0.0
  0
LINE
  5
BE1
330
1F
100
AcDbEntity
  8
1
  6
CONTINUOUS
370
50
 62
4
100
AcDbLine
 10
122.754913
 20
-11.1125
 30
0.0
 11
122.754913
 21
-0.731186
 31
0.0
  0
LINE
  5
BE2
330
1F
100
AcDbEntity
  8
1
  6
CONTINUOUS
370
50
 62
4
100
AcDbLine
 10
123.333084
 20
3.744889
 30
0.0
 11
123.333084
 21
11.1125
 31
0.0
  0
LINE
  5
BE3
330
1F
100
AcDbEntity
  8
1
  6
CONTINUOUS
370
50
 62
4
100
AcDbLine
 10
123.333084
 20
-11.1125
 30
0.0
 11
123.333084
 21
-1.477026
 31
0.0
  0
LINE
  5
BE4
330
1F
100
AcDbEntity
  8
1
  6
CONTINUOUS
370
50
 62
4
100
AcDbLine
 10
124.165916
 20
0.759146
 30
0.0
 11
124.165916
 21
9.67
 31
0.0
  0
LINE
  5
BE5
330
1F
100
AcDbEntity
  8
1
  6
CONTINUOUS
370
50
 62
4
100
AcDbLine
 10
124.165916
 20
-9.67
 30
0.0
 11
124.165916
 21
-0.594764
 31
0.0
  0
LINE
  5
BE6
330
1F
100
AcDbEntity
  8
1
  6
CONTINUOUS
370
50
 62
4
100
AcDbLine
 10
124.744087
 20
0.109834
 30
0.0
 11
124.744087
 21
9.67
 31
0.0
  0
LINE
  5
BE7
330
1F
100
AcDbEntity
  8
1
  6
CONTINUOUS
370
50
 62
4
100
AcDbLine
 10
124.744087
 20
-9.67
 30
0.0
 11
124.744087
 21
-1.236619
 31
0.0
  0
LINE
  5
BE8
330
1F
100
AcDbEntity
  8
1
  6
CONTINUOUS
370
50
 62
4
100
AcDbLine
 10
125.576912
 20
0.927886
 30
0.0
 11
125.576912
 21
11.1125
 31
0.0
  0
LINE
  5
BE9
330
1F
100
AcDbEntity
  8
1
  6
CONTINUOUS
370
50
 62
4
100
AcDbLine
 10
125.576912
 20
-11.1125
 30
0.0
 11
125.576912
 21
-4.259617
 31
0.0
  0
LINE
  5
BEA
330
1F
100
AcDbEntity
  8
1
  6
CONTINUOUS
370
50
 62
4
100
AcDbLine
 10
126.155083
 20
0.184339
 30
0.0
 11
126.155083
 21
11.1125
 31
0.0
  0
LINE
  5
BEB
330
1F
100
AcDbEntity
  8
1
  6
CONTINUOUS
370
50
 62
4
100
AcDbLine
 10
126.155083
 20
-11.1125
 30
0.0
 11
126.155083
 21
-4.938906999999999
 31
0.0
  0
LINE
  5
BEC
330
1F
100
AcDbEntity
  8
1
  6
CONTINUOUS
370
50
 62
4
100
AcDbLine
 10
126.987915
 20
-2.378229
 30
0.0
 11
126.987915
 21
9.67
 31
0.0
  0
LINE
  5
BED
330
1F
100
AcDbEntity
  8
1
  6
CONTINUOUS
370
50
 62
4
100
AcDbLine
 10
126.987915
 20
-9.67
 30
0.0
 11
126.987915
 21
-3.664083
 31
0.0
  0
LINE
  5
BEE
330
1F
100
AcDbEntity
  8
1
  6
CONTINUOUS
370
50
 62
4
100
AcDbLine
 10
127.566086
 20
-3.003415
 30
0.0
 11
127.566086
 21
9.67
 31
0.0
  0
LINE
  5
BEF
330
1F
100
AcDbEntity
  8
1
  6
CONTINUOUS
370
50
 62
4
100
AcDbLine
 10
127.566086
 20
-9.67
 30
0.0
 11
127.566086
 21
-4.251693
 31
0.0
  0
LINE
  5
BF0
330
1F
100
AcDbEntity
  8
1
  6
CONTINUOUS
370
50
 62
4
100
AcDbLine
 10
128.398911
 20
-2.679584
 30
0.0
 11
128.398911
 21
10.897789
 31
0.0
  0
LINE
  5
BF1
330
1F
100
AcDbEntity
  8
1
  6
CONTINUOUS
370
50
 62
4
100
AcDbLine
 10
128.398911
 20
-11.1125
 30
0.0
 11
128.398911
 21
-7.331550999999999
 31
0.0
  0
LINE
  5
BF2
330
1F
100
AcDbEntity
  8
1
  6
CONTINUOUS
370
50
 62
4
100
AcDbLine
 10
128.977081
 20
-3.395773
 30
0.0
 11
128.977081
 21
10.727287
 31
0.0
  0
LINE
  5
BF3
330
1F
100
AcDbEntity
  8
1
  6
CONTINUOUS
370
50
 62
4
100
AcDbLine
 10
128.977081
 20
-11.1125
 30
0.0
 11
128.977081
 21
-7.875560999999999
 31
0.0
  0
LINE
  5
BF4
330
1F
100
AcDbEntity
  8
1
  6
CONTINUOUS
370
50
 62
4
100
AcDbLine
 10
129.809921
 20
9.656915
 30
0.0
 11
129.809921
 21
9.67
 31
0.0
  0
LINE
  5
BF5
330
1F
100
AcDbEntity
  8
1
  6
CONTINUOUS
370
50
 62
4
100
AcDbLine
 10
129.809921
 20
-5.263967
 30
0.0
 11
129.809921
 21
9.492033
 31
0.0
  0
LINE
  5
BF6
330
1F
100
AcDbEntity
  8
1
  6
CONTINUOUS
370
50
 62
4
100
AcDbLine
 10
129.809921
 20
-9.67
 30
0.0
 11
129.809921
 21
-6.345282999999999
 31
0.0
  0
LINE
  5
BF7
330
1F
100
AcDbEntity
  8
1
  6
CONTINUOUS
370
50
 62
4
100
AcDbLine
 10
130.388092
 20
9.601244
 30
0.0
 11
130.388092
 21
9.67
 31
0.0
  0
LINE
  5
BF8
330
1F
100
AcDbEntity
  8
1
  6
CONTINUOUS
370
50
 62
4
100
AcDbLine
 10
130.388092
 20
-5.797498
 30
0.0
 11
130.388092
 21
9.347947
 31
0.0
  0
LINE
  5
BF9
330
1F
100
AcDbEntity
  8
1
  6
CONTINUOUS
370
50
 62
4
100
AcDbLine
 10
130.388092
 20
-9.67
 30
0.0
 11
130.388092
 21
-6.817239
 31
0.0
  0
LINE
  5
BFA
330
1F
100
AcDbEntity
  8
1
  6
CONTINUOUS
370
50
 62
4
100
AcDbLine
 10
131.220917
 20
-6.002879999999999
 30
0.0
 11
131.220917
 21
9.621293
 31
0.0
  0
LINE
  5
BFB
330
1F
100
AcDbEntity
  8
1
  6
CONTINUOUS
370
50
 62
4
100
AcDbLine
 10
131.220917
 20
11.100194
 30
0.0
 11
131.220917
 21
11.1125
 31
0.0
  0
LINE
  5
BFC
330
1F
100
AcDbEntity
  8
1
  6
CONTINUOUS
370
50
 62
4
100
AcDbLine
 10
131.220917
 20
-11.1125
 30
0.0
 11
131.220917
 21
-9.62612
 31
0.0
  0
LINE
  5
BFD
330
1F
100
AcDbEntity
  8
1
  6
CONTINUOUS
370
50
 62
4
100
AcDbLine
 10
131.53334
 20
-6.337555999999999
 30
0.0
 11
131.53334
 21
9.41325
 31
0.0
  0
LINE
  5
BFE
330
1F
100
AcDbEntity
  8
1
  6
CONTINUOUS
370
50
 62
4
100
AcDbLine
 10
131.53334
 20
11.073984
 30
0.0
 11
131.53334
 21
11.1125
 31
0.0
  0
LINE
  5
BFF
330
1F
100
AcDbEntity
  8
1
  6
CONTINUOUS
370
50
 62
4
100
AcDbLine
 10
131.53334
 20
-11.1125
 30
0.0
 11
131.53334
 21
-9.821190999999999
 31
0.0
  0
LINE
  5
C00
330
1F
100
AcDbEntity
  8
1
  6
CONTINUOUS
370
50
 62
4
100
AcDbLine
 10
131.828522
 20
-6.636486
 30
0.0
 11
131.828522
 21
9.177508
 31
0.0
  0
LINE
  5
C01
330
1F
100
AcDbEntity
  8
1
  6
CONTINUOUS
370
50
 62
4
100
AcDbLine
 10
131.828522
 20
10.982154
 30
0.0
 11
131.828522
 21
11.06151
 31
0.0
  0
LINE
  5
C02
330
1F
100
AcDbEntity
  8
1
  6
CONTINUOUS
370
50
 62
4
100
AcDbLine
 10
131.828522
 20
-11.06151
 30
0.0
 11
131.828522
 21
-9.93644
 31
0.0
  0
LINE
  5
C03
330
1F
100
AcDbEntity
  8
1
  6
CONTINUOUS
370
50
 62
4
100
AcDbLine
 10
132.631912
 20
8.982731
 30
0.0
 11
132.631912
 21
9.67
 31
0.0
  0
LINE
  5
C04
330
1F
100
AcDbEntity
  8
1
  6
CONTINUOUS
370
50
 62
4
100
AcDbLine
 10
132.631912
 20
-7.592104
 30
0.0
 11
132.631912
 21
8.39589
 31
0.0
  0
LINE
  5
C05
330
1F
100
AcDbEntity
  8
1
  6
CONTINUOUS
370
50
 62
4
100
AcDbLine
 10
132.631912
 20
-9.67
 30
0.0
 11
132.631912
 21
-8.352875
 31
0.0
  0
LINE
  5
C06
330
1F
100
AcDbEntity
  8
1
  6
CONTINUOUS
370
50
 62
4
100
AcDbLine
 10
133.210083
 20
8.721807
 30
0.0
 11
133.210083
 21
9.67
 31
0.0
  0
LINE
  5
C07
330
1F
100
AcDbEntity
  8
1
  6
CONTINUOUS
370
50
 62
4
100
AcDbLine
 10
133.210083
 20
-7.977427
 30
0.0
 11
133.210083
 21
8.057414999999999
 31
0.0
  0
LINE
  5
C08
330
1F
100
AcDbEntity
  8
1
  6
CONTINUOUS
370
50
 62
4
100
AcDbLine
 10
133.210083
 20
-9.67
 30
0.0
 11
133.210083
 21
-8.659066
 31
0.0
  0
LINE
  5
C09
330
1F
100
AcDbEntity
  8
1
  6
CONTINUOUS
370
50
 62
4
100
AcDbLine
 10
133.815338
 20
-8.3502
 30
0.0
 11
133.815338
 21
7.443905999999999
 31
0.0
  0
LINE
  5
C0A
330
1F
100
AcDbEntity
  8
1
  6
CONTINUOUS
370
50
 62
4
100
AcDbLine
 10
133.815338
 20
9.994665999999999
 30
0.0
 11
133.815338
 21
10.718316
 31
0.0
  0
LINE
  5
C0B
330
1F
100
AcDbEntity
  8
1
  6
CONTINUOUS
370
50
 62
4
100
AcDbLine
 10
133.815338
 20
-10.718316
 30
0.0
 11
133.815338
 21
-10.400496
 31
0.0
  0
LINE
  5
C0C
330
1F
100
AcDbEntity
  8
1
  6
CONTINUOUS
370
50
 62
4
100
AcDbLine
 10
134.963135
 20
-9.07625
 30
0.0
 11
134.963135
 21
6.357571999999999
 31
0.0
  0
LINE
  5
C0D
330
1F
100
AcDbEntity
  8
1
  6
CONTINUOUS
370
50
 62
4
100
AcDbLine
 10
134.963135
 20
9.144624
 30
0.0
 11
134.963135
 21
10.520048
 31
0.0
  0
LINE
  5
C0E
330
1F
100
AcDbEntity
  8
1
  6
CONTINUOUS
370
50
 62
4
100
AcDbLine
 10
134.963135
 20
-10.520048
 30
0.0
 11
134.963135
 21
-10.437541
 31
0.0
  0
LINE
  5
C0F
330
1F
100
AcDbEntity
  8
1
  6
CONTINUOUS
370
50
 62
4
100
AcDbLine
 10
135.453918
 20
7.358244
 30
0.0
 11
135.453918
 21
9.67
 31
0.0
  0
LINE
  5
C10
330
1F
100
AcDbEntity
  8
1
  6
CONTINUOUS
370
50
 62
4
100
AcDbLine
 10
135.453918
 20
-9.112708
 30
0.0
 11
135.453918
 21
6.405924
 31
0.0
  0
LINE
  5
C11
330
1F
100
AcDbEntity
  8
1
  6
CONTINUOUS
370
50
 62
4
100
AcDbLine
 10
135.453918
 20
-9.67
 30
0.0
 11
135.453918
 21
-9.4763
 31
0.0
  0
LINE
  5
C12
330
1F
100
AcDbEntity
  8
1
  6
CONTINUOUS
370
50
 62
4
100
AcDbLine
 10
136.032089
 20
6.918933
 30
0.0
 11
136.032089
 21
9.67
 31
0.0
  0
LINE
  5
C13
330
1F
100
AcDbEntity
  8
1
  6
CONTINUOUS
370
50
 62
4
100
AcDbLine
 10
136.032089
 20
-9.309932
 30
0.0
 11
136.032089
 21
5.91034
 31
0.0
  0
LINE
  5
C14
330
1F
100
AcDbEntity
  8
1
  6
CONTINUOUS
370
50
 62
4
100
AcDbLine
 10
136.032089
 20
-9.67
 30
0.0
 11
136.032089
 21
-9.583336
 31
0.0
  0
LINE
  5
C15
330
1F
100
AcDbEntity
  8
1
  6
CONTINUOUS
370
50
 62
4
100
AcDbLine
 10
136.381424
 20
-9.677067
 30
0.0
 11
136.381424
 21
4.994489
 31
0.0
  0
LINE
  5
C16
330
1F
100
AcDbEntity
  8
1
  6
CONTINUOUS
370
50
 62
4
100
AcDbLine
 10
136.381424
 20
7.829927
 30
0.0
 11
136.381424
 21
10.275061
 31
0.0
  0
LINE
  5
C17
330
1F
100
AcDbEntity
  8
1
  6
CONTINUOUS
370
50
 62
4
100
AcDbLine
 10
138.097748
 20
-9.923091999999999
 30
0.0
 11
138.097748
 21
3.392173
 31
0.0
  0
LINE
  5
C18
330
1F
100
AcDbEntity
  8
1
  6
CONTINUOUS
370
50
 62
4
100
AcDbLine
 10
138.097748
 20
5.871675
 30
0.0
 11
138.097748
 21
9.978587
 31
0.0
  0
LINE
  5
C19
330
1F
100
AcDbEntity
  8
1
  6
CONTINUOUS
370
50
 62
4
100
AcDbLine
 10
138.275909
 20
4.948875999999999
 30
0.0
 11
138.275909
 21
9.67
 31
0.0
  0
LINE
  5
C1A
330
1F
100
AcDbEntity
  8
1
  6
CONTINUOUS
370
50
 62
4
100
AcDbLine
 10
138.275909
 20
-9.669099
 30
0.0
 11
138.275909
 21
3.742049
 31
0.0
  0
LINE
  5
C1B
330
1F
100
AcDbEntity
  8
1
  6
CONTINUOUS
370
50
 62
4
100
AcDbLine
 10
138.85408
 20
4.387992
 30
0.0
 11
138.85408
 21
9.67
 31
0.0
  0
LINE
  5
C1C
330
1F
100
AcDbEntity
  8
1
  6
CONTINUOUS
370
50
 62
4
100
AcDbLine
 10
138.85408
 20
-9.67
 30
0.0
 11
138.85408
 21
3.127479
 31
0.0
  0
LINE
  5
C1D
330
1F
100
AcDbEntity
  8
1
  6
CONTINUOUS
370
50
 62
4
100
AcDbLine
 10
138.94751
 20
-9.831804
 30
0.0
 11
138.94751
 21
2.664493
 31
0.0
  0
LINE
  5
C1E
330
1F
100
AcDbEntity
  8
1
  6
CONTINUOUS
370
50
 62
4
100
AcDbLine
 10
138.94751
 20
4.750207
 30
0.0
 11
138.94751
 21
9.831804
 31
0.0
  0
LINE
  5
C1F
330
1F
100
AcDbEntity
  8
1
  6
CONTINUOUS
370
50
 62
4
100
AcDbLine
 10
140.0
 20
-9.65
 30
0.0
 11
140.0
 21
9.65
 31
0.0
  0
LINE
  5
C20
330
1F
100
AcDbEntity
  8
SK2
  6
CONTINUOUS
370
25
 62
7
100
AcDbLine
 10
-10.0000002
 20
-9.000001
 30
0.0
 11
-11.00000000000009
 21
-9.000001
 31
0.0
  0
LINE
  5
C21
330
1F
100
AcDbEntity
  8
SK2
  6
CONTINUOUS
370
25
 62
7
100
AcDbLine
 10
0.0
 20
-9.000001
 30
0.0
 11
-9.999999800000001
 21
-9.000001
 31
0.0
  0
LINE
  5
C22
330
1F
100
AcDbEntity
  8
SK2
  6
CONTINUOUS
370
25
 62
7
100
AcDbLine
 10
-11.0
 20
9.0
 30
0.0
 11
0.0
 21
9.0
 31
0.0
  0
LINE
  5
C23
330
1F
100
AcDbEntity
  8
SK2
  6
CONTINUOUS
370
25
 62
7
100
AcDbLine
 10
-10.0
 20
19.0
 30
0.0
 11
-10.0
 21
-19.0
 31
0.0
  0
LINE
  5
C24
330
1F
100
AcDbEntity
  8
SK2
  6
CONTINUOUS
370
25
 62
7
100
AcDbLine
 10
-10.0
 20
-9.0
 30
0.0
 11
-9.0
 21
-14.0
 31
0.0
  0
LINE
  5
C25
330
1F
100
AcDbEntity
  8
SK2
  6
CONTINUOUS
370
25
 62
7
100
AcDbLine
 10
-9.0
 20
-14.0
 30
0.0
 11
-11.0
 21
-14.0
 31
0.0
  0
LINE
  5
C26
330
1F
100
AcDbEntity
  8
SK2
  6
CONTINUOUS
370
25
 62
7
100
AcDbLine
 10
-11.0
 20
-14.0
 30
0.0
 11
-10.0
 21
-9.0
 31
0.0
  0
LINE
  5
C27
330
1F
100
AcDbEntity
  8
SK2
  6
CONTINUOUS
370
25
 62
7
100
AcDbLine
 10
-9.395541084682648
 20
-14.0
 30
0.0
 11
-9.06592351411377
 21
-13.67038242943112
 31
0.0
  0
LINE
  5
C28
330
1F
100
AcDbEntity
  8
SK2
  6
CONTINUOUS
370
25
 62
7
100
AcDbLine
 10
-9.819805153394583
 20
-14.0
 30
0.0
 11
-9.136634192232428
 21
-13.31682903883785
 31
0.0
  0
LINE
  5
C29
330
1F
100
AcDbEntity
  8
SK2
  6
CONTINUOUS
370
25
 62
7
100
AcDbLine
 10
-10.24406922210651
 20
-14.0
 30
0.0
 11
-9.207344870351086
 21
-12.96327564824458
 31
0.0
  0
LINE
  5
C2A
330
1F
100
AcDbEntity
  8
SK2
  6
CONTINUOUS
370
25
 62
7
100
AcDbLine
 10
-10.66833329081844
 20
-14.0
 30
0.0
 11
-9.278055548469744
 21
-12.60972225765131
 31
0.0
  0
LINE
  5
C2B
330
1F
100
AcDbEntity
  8
SK2
  6
CONTINUOUS
370
25
 62
7
100
AcDbLine
 10
-10.97685066011741
 20
-13.88425330058703
 30
0.0
 11
-9.348766226588396
 21
-12.25616886705802
 31
0.0
  0
LINE
  5
C2C
330
1F
100
AcDbEntity
  8
SK2
  6
CONTINUOUS
370
25
 62
7
100
AcDbLine
 10
-10.87078464293943
 20
-13.35392321469712
 30
0.0
 11
-9.419476904707047
 21
-11.90261547646474
 31
0.0
  0
LINE
  5
C2D
330
1F
100
AcDbEntity
  8
SK2
  6
CONTINUOUS
370
25
 62
7
100
AcDbLine
 10
-10.76471862576144
 20
-12.8235931288072
 30
0.0
 11
-9.490187582825705
 21
-11.54906208587147
 31
0.0
  0
LINE
  5
C2E
330
1F
100
AcDbEntity
  8
SK2
  6
CONTINUOUS
370
25
 62
7
100
AcDbLine
 10
-10.65865260858346
 20
-12.2932630429173
 30
0.0
 11
-9.560898260944363
 21
-11.1955086952782
 31
0.0
  0
LINE
  5
C2F
330
1F
100
AcDbEntity
  8
SK2
  6
CONTINUOUS
370
25
 62
7
100
AcDbLine
 10
-10.55258659140547
 20
-11.76293295702737
 30
0.0
 11
-9.631608939063021
 21
-10.84195530468492
 31
0.0
  0
LINE
  5
C30
330
1F
100
AcDbEntity
  8
SK2
  6
CONTINUOUS
370
25
 62
7
100
AcDbLine
 10
-10.44652057422749
 20
-11.23260287113746
 30
0.0
 11
-9.702319617181672
 21
-10.48840191409164
 31
0.0
  0
LINE
  5
C31
330
1F
100
AcDbEntity
  8
SK2
  6
CONTINUOUS
370
25
 62
7
100
AcDbLine
 10
-10.34045455704951
 20
-10.70227278524755
 30
0.0
 11
-9.773030295300323
 21
-10.13484852349836
 31
0.0
  0
LINE
  5
C32
330
1F
100
AcDbEntity
  8
SK2
  6
CONTINUOUS
370
25
 62
7
100
AcDbLine
 10
-10.23438853987153
 20
-10.17194269935764
 30
0.0
 11
-9.843740973418981
 21
-9.781295132905093
 31
0.0
  0
LINE
  5
C33
330
1F
100
AcDbEntity
  8
SK2
  6
CONTINUOUS
370
25
 62
7
100
AcDbLine
 10
-10.12832252269354
 20
-9.641612613467721
 30
0.0
 11
-9.91445165153764
 21
-9.427741742311817
 31
0.0
  0
LINE
  5
C34
330
1F
100
AcDbEntity
  8
SK2
  6
CONTINUOUS
370
25
 62
7
100
AcDbLine
 10
-10.02225650551556
 20
-9.1112825275778
 30
0.0
 11
-9.985162329656298
 21
-9.07418835171854
 31
0.0
  0
LINE
  5
C35
330
1F
100
AcDbEntity
  8
SK2
  6
CONTINUOUS
370
25
 62
7
100
AcDbLine
 10
-10.9310453818872
 20
-13.65522690943597
 30
0.0
 11
-10.58627229132317
 21
-14.0
 31
0.0
  0
LINE
  5
C36
330
1F
100
AcDbEntity
  8
SK2
  6
CONTINUOUS
370
25
 62
7
100
AcDbLine
 10
-10.86033470376854
 20
-13.3016735188427
 30
0.0
 11
-10.16200822261124
 21
-14.0
 31
0.0
  0
LINE
  5
C37
330
1F
100
AcDbEntity
  8
SK2
  6
CONTINUOUS
370
25
 62
7
100
AcDbLine
 10
-10.78962402564989
 20
-12.94812012824942
 30
0.0
 11
-9.737744153899307
 21
-14.0
 31
0.0
  0
LINE
  5
C38
330
1F
100
AcDbEntity
  8
SK2
  6
CONTINUOUS
370
25
 62
7
100
AcDbLine
 10
-10.71891334753123
 20
-12.59456673765614
 30
0.0
 11
-9.313480085187372
 21
-14.0
 31
0.0
  0
LINE
  5
C39
330
1F
100
AcDbEntity
  8
SK2
  6
CONTINUOUS
370
25
 62
7
100
AcDbLine
 10
-10.64820266941258
 20
-12.24101334706288
 30
0.0
 11
-9.027695995881139
 21
-13.86152002059431
 31
0.0
  0
LINE
  5
C3A
330
1F
100
AcDbEntity
  8
SK2
  6
CONTINUOUS
370
25
 62
7
100
AcDbLine
 10
-10.57749199129392
 20
-11.8874599564696
 30
0.0
 11
-9.133762013059126
 21
-13.33118993470439
 31
0.0
  0
LINE
  5
C3B
330
1F
100
AcDbEntity
  8
SK2
  6
CONTINUOUS
370
25
 62
7
100
AcDbLine
 10
-10.50678131317526
 20
-11.53390656587633
 30
0.0
 11
-9.239828030237106
 21
-12.80085984881448
 31
0.0
  0
LINE
  5
C3C
330
1F
100
AcDbEntity
  8
SK2
  6
CONTINUOUS
370
25
 62
7
100
AcDbLine
 10
-10.43607063505661
 20
-11.18035317528305
 30
0.0
 11
-9.345894047415086
 21
-12.27052976292457
 31
0.0
  0
LINE
  5
C3D
330
1F
100
AcDbEntity
  8
SK2
  6
CONTINUOUS
370
25
 62
7
100
AcDbLine
 10
-10.36535995693796
 20
-10.82679978468975
 30
0.0
 11
-9.451960064593074
 21
-11.74019967703464
 31
0.0
  0
LINE
  5
C3E
330
1F
100
AcDbEntity
  8
SK2
  6
CONTINUOUS
370
25
 62
7
100
AcDbLine
 10
-10.2946492788193
 20
-10.47324639409649
 30
0.0
 11
-9.558026081771054
 21
-11.20986959114474
 31
0.0
  0
LINE
  5
C3F
330
1F
100
AcDbEntity
  8
SK2
  6
CONTINUOUS
370
25
 62
7
100
AcDbLine
 10
-10.22393860070064
 20
-10.11969300350322
 30
0.0
 11
-9.664092098949034
 21
-10.67953950525482
 31
0.0
  0
LINE
  5
C40
330
1F
100
AcDbEntity
  8
SK2
  6
CONTINUOUS
370
25
 62
7
100
AcDbLine
 10
-10.15322792258198
 20
-9.766139612909939
 30
0.0
 11
-9.770158116127021
 21
-10.1492094193649
 31
0.0
  0
LINE
  5
C41
330
1F
100
AcDbEntity
  8
SK2
  6
CONTINUOUS
370
25
 62
7
100
AcDbLine
 10
-10.08251724446333
 20
-9.41258622231667
 30
0.0
 11
-9.876224133305001
 21
-9.618879333475
 31
0.0
  0
LINE
  5
C42
330
1F
100
AcDbEntity
  8
SK2
  6
CONTINUOUS
370
25
 62
7
100
AcDbLine
 10
-10.01180656634468
 20
-9.059032831723378
 30
0.0
 11
-9.982290150482989
 21
-9.088549247585071
 31
0.0
  0
LINE
  5
C43
330
1F
100
AcDbEntity
  8
SK2
  6
CONTINUOUS
370
25
 62
7
100
AcDbLine
 10
-10.0
 20
9.0
 30
0.0
 11
-11.0
 21
14.0
 31
0.0
  0
LINE
  5
C44
330
1F
100
AcDbEntity
  8
SK2
  6
CONTINUOUS
370
25
 62
7
100
AcDbLine
 10
-11.0
 20
14.0
 30
0.0
 11
-9.0
 21
14.0
 31
0.0
  0
LINE
  5
C45
330
1F
100
AcDbEntity
  8
SK2
  6
CONTINUOUS
370
25
 62
7
100
AcDbLine
 10
-9.0
 20
14.0
 30
0.0
 11
-10.0
 21
9.0
 31
0.0
  0
LINE
  5
C46
330
1F
100
AcDbEntity
  8
SK2
  6
CONTINUOUS
370
25
 62
7
100
AcDbLine
 10
-10.02572148875845
 20
9.128607443792227
 30
0.0
 11
-9.961417766862333
 21
9.192911165688344
 31
0.0
  0
LINE
  5
C47
330
1F
100
AcDbEntity
  8
SK2
  6
CONTINUOUS
370
25
 62
7
100
AcDbLine
 10
-10.0964321668771
 20
9.48216083438551
 30
0.0
 11
-9.855351749684345
 21
9.723241251578266
 31
0.0
  0
LINE
  5
C48
330
1F
100
AcDbEntity
  8
SK2
  6
CONTINUOUS
370
25
 62
7
100
AcDbLine
 10
-10.16714284499576
 20
9.83571422497878
 30
0.0
 11
-9.749285732506365
 21
10.25357133746817
 31
0.0
  0
LINE
  5
C49
330
1F
100
AcDbEntity
  8
SK2
  6
CONTINUOUS
370
25
 62
7
100
AcDbLine
 10
-10.23785352311441
 20
10.18926761557206
 30
0.0
 11
-9.643219715328385
 21
10.78390142335809
 31
0.0
  0
LINE
  5
C4A
330
1F
100
AcDbEntity
  8
SK2
  6
CONTINUOUS
370
25
 62
7
100
AcDbLine
 10
-10.30856420123306
 20
10.54282100616534
 30
0.0
 11
-9.537153698150398
 21
11.314231509248
 31
0.0
  0
LINE
  5
C4B
330
1F
100
AcDbEntity
  8
SK2
  6
CONTINUOUS
370
25
 62
7
100
AcDbLine
 10
-10.37927487935173
 20
10.89637439675861
 30
0.0
 11
-9.431087680972418
 21
11.84456159513792
 31
0.0
  0
LINE
  5
C4C
330
1F
100
AcDbEntity
  8
SK2
  6
CONTINUOUS
370
25
 62
7
100
AcDbLine
 10
-10.44998555747038
 20
11.24992778735189
 30
0.0
 11
-9.32502166379443
 21
12.37489168102783
 31
0.0
  0
LINE
  5
C4D
330
1F
100
AcDbEntity
  8
SK2
  6
CONTINUOUS
370
25
 62
7
100
AcDbLine
 10
-10.52069623558904
 20
11.60348117794516
 30
0.0
 11
-9.21895564661645
 21
12.90522176691775
 31
0.0
  0
LINE
  5
C4E
330
1F
100
AcDbEntity
  8
SK2
  6
CONTINUOUS
370
25
 62
7
100
AcDbLine
 10
-10.59140691370769
 20
11.95703456853844
 30
0.0
 11
-9.11288962943847
 21
13.43555185280766
 31
0.0
  0
LINE
  5
C4F
330
1F
100
AcDbEntity
  8
SK2
  6
CONTINUOUS
370
25
 62
7
100
AcDbLine
 10
-10.66211759182634
 20
12.31058795913172
 30
0.0
 11
-9.006823612260483
 21
13.96588193869758
 31
0.0
  0
LINE
  5
C50
330
1F
100
AcDbEntity
  8
SK2
  6
CONTINUOUS
370
25
 62
7
100
AcDbLine
 10
-10.732828269945
 20
12.66414134972499
 30
0.0
 11
-9.396969619669989
 21
14.0
 31
0.0
  0
LINE
  5
C51
330
1F
100
AcDbEntity
  8
SK2
  6
CONTINUOUS
370
25
 62
7
100
AcDbLine
 10
-10.80353894806365
 20
13.01769474031827
 30
0.0
 11
-9.821233688381916
 21
14.0
 31
0.0
  0
LINE
  5
C52
330
1F
100
AcDbEntity
  8
SK2
  6
CONTINUOUS
370
25
 62
7
100
AcDbLine
 10
-10.87424962618231
 20
13.37124813091153
 30
0.0
 11
-10.24549775709384
 21
14.0
 31
0.0
  0
LINE
  5
C53
330
1F
100
AcDbEntity
  8
SK2
  6
CONTINUOUS
370
25
 62
7
100
AcDbLine
 10
-10.94496030430096
 20
13.72480152150482
 30
0.0
 11
-10.66976182580578
 21
14.0
 31
0.0
  0
LINE
  5
C54
330
1F
100
AcDbEntity
  8
SK2
  6
CONTINUOUS
370
25
 62
7
100
AcDbLine
 10
-10.08799903391413
 20
9.439995169570679
 30
0.0
 11
-9.941333977390578
 21
9.293330113047126
 31
0.0
  0
LINE
  5
C55
330
1F
100
AcDbEntity
  8
SK2
  6
CONTINUOUS
370
25
 62
7
100
AcDbLine
 10
-10.19406505109212
 20
9.970325255460601
 30
0.0
 11
-9.87062329927192
 21
9.646883503640403
 31
0.0
  0
LINE
  5
C56
330
1F
100
AcDbEntity
  8
SK2
  6
CONTINUOUS
370
25
 62
7
100
AcDbLine
 10
-10.3001310682701
 20
10.50065534135051
 30
0.0
 11
-9.799912621153268
 21
10.00043689423368
 31
0.0
  0
LINE
  5
C57
330
1F
100
AcDbEntity
  8
SK2
  6
CONTINUOUS
370
25
 62
7
100
AcDbLine
 10
-10.40619708544808
 20
11.03098542724042
 30
0.0
 11
-9.729201943034617
 21
10.35399028482696
 31
0.0
  0
LINE
  5
C58
330
1F
100
AcDbEntity
  8
SK2
  6
CONTINUOUS
370
25
 62
7
100
AcDbLine
 10
-10.51226310262607
 20
11.56131551313035
 30
0.0
 11
-9.658491264915952
 21
10.70754367542023
 31
0.0
  0
LINE
  5
C59
330
1F
100
AcDbEntity
  8
SK2
  6
CONTINUOUS
370
25
 62
7
100
AcDbLine
 10
-10.61832911980405
 20
12.09164559902026
 30
0.0
 11
-9.587780586797301
 21
11.06109706601351
 31
0.0
  0
LINE
  5
C5A
330
1F
100
AcDbEntity
  8
SK2
  6
CONTINUOUS
370
25
 62
7
100
AcDbLine
 10
-10.72439513698203
 20
12.62197568491017
 30
0.0
 11
-9.517069908678643
 21
11.41465045660678
 31
0.0
  0
LINE
  5
C5B
330
1F
100
AcDbEntity
  8
SK2
  6
CONTINUOUS
370
25
 62
7
100
AcDbLine
 10
-10.83046115416001
 20
13.15230577080008
 30
0.0
 11
-9.446359230559992
 21
11.76820384720006
 31
0.0
  0
LINE
  5
C5C
330
1F
100
AcDbEntity
  8
SK2
  6
CONTINUOUS
370
25
 62
7
100
AcDbLine
 10
-10.93652717133801
 20
13.68263585669001
 30
0.0
 11
-9.375648552441326
 21
12.12175723779333
 31
0.0
  0
LINE
  5
C5D
330
1F
100
AcDbEntity
  8
SK2
  6
CONTINUOUS
370
25
 62
7
100
AcDbLine
 10
-10.82962724593607
 20
14.0
 30
0.0
 11
-9.304937874322682
 21
12.47531062838661
 31
0.0
  0
LINE
  5
C5E
330
1F
100
AcDbEntity
  8
SK2
  6
CONTINUOUS
370
25
 62
7
100
AcDbLine
 10
-10.40536317722414
 20
14.0
 30
0.0
 11
-9.234227196204024
 21
12.82886401897989
 31
0.0
  0
LINE
  5
C5F
330
1F
100
AcDbEntity
  8
SK2
  6
CONTINUOUS
370
25
 62
7
100
AcDbLine
 10
-9.981099108512204
 20
14.0
 30
0.0
 11
-9.163516518085373
 21
13.18241740957317
 31
0.0
  0
LINE
  5
C60
330
1F
100
AcDbEntity
  8
SK2
  6
CONTINUOUS
370
25
 62
7
100
AcDbLine
 10
-9.556835039800276
 20
14.0
 30
0.0
 11
-9.092805839966708
 21
13.53597080016643
 31
0.0
  0
LINE
  5
C61
330
1F
100
AcDbEntity
  8
SK2
  6
CONTINUOUS
370
25
 62
7
100
AcDbLine
 10
-9.132570971088349
 20
14.0
 30
0.0
 11
-9.022095161848057
 21
13.88952419075971
 31
0.0
  0
TEXT
  5
C62
330
1F
100
AcDbEntity
  8
SK2
  6
CONTINUOUS
370
25
 62
7
100
AcDbText
 10
-11.0
 20
-0.7333333333333338
 30
0.0
 40
3.5
  1
18
 50
90.0
 72
     1
 11
-11.0
 21
1.6
 31
0.0
100
AcDbText
  0
CIRCLE
  5
C63
330
1F
100
AcDbEntity
  8
SK2
  6
CONTINUOUS
370
25
 62
7
100
AcDbCircle
 10
-12.53125
 20
-4.46375
 30
0.0
 40
1.53125
  0
LINE
  5
C64
330
1F
100
AcDbEntity
  8
SK2
  6
CONTINUOUS
370
25
 62
7
100
AcDbLine
 10
-11.0
 20
-5.995
 30
0.0
 11
-14.0625
 21
-2.9325
 31
0.0
  0
LINE
  5
C65
330
1F
100
AcDbEntity
  8
SK1
  6
CONTINUOUS
370
50
 62
4
100
AcDbLine
 10
36.0
 20
9.0
 30
0.0
 11
17.0
 21
9.0
 31
0.0
  0
LINE
  5
C66
330
1F
100
AcDbEntity
  8
SK1
  6
CONTINUOUS
370
50
 62
4
100
AcDbLine
 10
17.0
 20
9.0
 30
0.0
 11
17.0
 21
7.25
 31
0.0
  0
LINE
  5
C67
330
1F
100
AcDbEntity
  8
SK1
  6
CONTINUOUS
370
50
 62
4
100
AcDbLine
 10
17.0
 20
7.25
 30
0.0
 11
0.0
 21
7.25
 31
0.0
  0
LINE
  5
C68
330
1F
100
AcDbEntity
  8
SK1
  6
CONTINUOUS
370
50
 62
4
100
AcDbLine
 10
0.0
 20
7.25
 30
0.0
 11
0.0
 21
-7.25
 31
0.0
  0
LINE
  5
C69
330
1F
100
AcDbEntity
  8
SK1
  6
CONTINUOUS
370
50
 62
4
100
AcDbLine
 10
0.0
 20
-7.25
 30
0.0
 11
17.0
 21
-7.25
 31
0.0
  0
LINE
  5
C6A
330
1F
100
AcDbEntity
  8
SK1
  6
CONTINUOUS
370
50
 62
4
100
AcDbLine
 10
17.0
 20
-7.25
 30
0.0
 11
17.0
 21
-9.0
 31
0.0
  0
LINE
  5
C6B
330
1F
100
AcDbEntity
  8
SK1
  6
CONTINUOUS
370
50
 62
4
100
AcDbLine
 10
17.0
 20
-9.0
 30
0.0
 11
36.0
 21
-9.0
 31
0.0
  0
LINE
  5
C6C
330
1F
100
AcDbEntity
  8
SK1
  6
CONTINUOUS
370
50
 62
4
100
AcDbLine
 10
0.0
 20
5.332682251925386
 30
0.0
 11
17.0
 21
5.332682251925386
 31
0.0
  0
LINE
  5
C6D
330
1F
100
AcDbEntity
  8
SK1
  6
CONTINUOUS
370
50
 62
4
100
AcDbLine
 10
17.0
 20
5.332682251925386
 30
0.0
 11
17.0
 21
-5.332682251925386
 31
0.0
  0
LINE
  5
C6E
330
1F
100
AcDbEntity
  8
SK1
  6
CONTINUOUS
370
50
 62
4
100
AcDbLine
 10
17.0
 20
-5.332682251925386
 30
0.0
 11
0.0
 21
-5.332682251925386
 31
0.0
  0
LINE
  5
C6F
330
1F
100
AcDbEntity
  8
CUT
  6
CONTINUOUS
370
25
 62
1
100
AcDbLine
 10
117.4
 20
8.62643467
 30
0.0
 11
139.5442793537967
 21
8.62643467
 31
0.0
  0
LINE
  5
C70
330
1F
100
AcDbEntity
  8
CUT
  6
CONTINUOUS
370
25
 62
1
100
AcDbLine
 10
139.5442793537967
 20
8.62643467
 30
0.0
 11
140.0
 21
9.65
 31
0.0
  0
LINE
  5
C71
330
1F
100
AcDbEntity
  8
CUT
  6
CONTINUOUS
370
25
 62
1
100
AcDbLine
 10
140.0
 20
9.65
 30
0.0
 11
131.53333333
 21
11.1125
 31
0.0
  0
LINE
  5
C72
330
1F
100
AcDbEntity
  8
CUT
  6
CONTINUOUS
370
25
 62
1
100
AcDbLine
 10
131.53333333
 20
11.1125
 30
0.0
 11
117.4
 21
11.1125
 31
0.0
  0
LINE
  5
C73
330
1F
100
AcDbEntity
  8
CUT
  6
CONTINUOUS
370
25
 62
1
100
AcDbLine
 10
117.4
 20
11.1125
 30
0.0
 11
117.4
 21
8.62643467
 31
0.0
  0
LINE
  5
C74
330
1F
100
AcDbEntity
  8
NOCUT
  6
CONTINUOUS
370
25
 62
7
100
AcDbLine
 10
36.0
 20
0.0
 30
0.0
 11
140.0
 21
0.0
 31
0.0
  0
LINE
  5
C75
330
1F
100
AcDbEntity
  8
NOCUT
  6
CONTINUOUS
370
25
 62
7
100
AcDbLine
 10
140.0
 20
0.0
 30
0.0
 11
140.0
 21
9.65
 31
0.0
  0
LINE
  5
C76
330
1F
100
AcDbEntity
  8
NOCUT
  6
CONTINUOUS
370
25
 62
7
100
AcDbLine
 10
140.0
 20
9.65
 30
0.0
 11
139.5442793537967
 21
8.62643467
 31
0.0
  0
LINE
  5
C77
330
1F
100
AcDbEntity
  8
NOCUT
  6
CONTINUOUS
370
25
 62
7
100
AcDbLine
 10
139.5442793537967
 20
8.62643467
 30
0.0
 11
117.4
 21
8.62643467
 31
0.0
  0
LINE
  5
C78
330
1F
100
AcDbEntity
  8
NOCUT
  6
CONTINUOUS
370
25
 62
7
100
AcDbLine
 10
117.4
 20
8.62643467
 30
0.0
 11
117.4
 21
11.1125
 31
0.0
  0
LINE
  5
C79
330
1F
100
AcDbEntity
  8
NOCUT
  6
CONTINUOUS
370
25
 62
7
100
AcDbLine
 10
117.4
 20
11.1125
 30
0.0
 11
116.5556252313102
 21
9.0
 31
0.0
  0
LINE
  5
C7A
330
1F
100
AcDbEntity
  8
NOCUT
  6
CONTINUOUS
370
25
 62
7
100
AcDbLine
 10
116.5556252313102
 20
9.0
 30
0.0
 11
36.0
 21
9.0
 31
0.0
  0
LINE
  5
C7B
330
1F
100
AcDbEntity
  8
NOCUT
  6
CONTINUOUS
370
25
 62
7
100
AcDbLine
 10
36.0
 20
9.0
 30
0.0
 11
36.0
 21
0.0
 31
0.0
  0
LINE
  5
C7C
330
1F
100
AcDbEntity
  8
2
  6
CONTINUOUS
370
25
 62
7
100
AcDbLine
 10
131.53333333
 20
-11.1125
 30
0.0
 11
158.0
 21
-11.1125
 31
0.0
  0
LINE
  5
C7D
330
1F
100
AcDbEntity
  8
2
  6
CONTINUOUS
370
25
 62
7
100
AcDbLine
 10
158.0
 20
11.1125
 30
0.0
 11
131.53333333
 21
11.1125
 31
0.0
  0
LINE
  5
C7E
330
1F
100
AcDbEntity
  8
2
  6
CONTINUOUS
370
25
 62
7
100
AcDbLine
 10
157.0
 20
53.16875
 30
0.0
 11
157.0
 21
-21.1125
 31
0.0
  0
LINE
  5
C7F
330
1F
100
AcDbEntity
  8
2
  6
CONTINUOUS
370
25
 62
7
100
AcDbLine
 10
157.0
 20
-11.1125
 30
0.0
 11
158.0
 21
-16.1125
 31
0.0
  0
LINE
  5
C80
330
1F
100
AcDbEntity
  8
2
  6
CONTINUOUS
370
25
 62
7
100
AcDbLine
 10
158.0
 20
-16.1125
 30
0.0
 11
156.0
 21
-16.1125
 31
0.0
  0
LINE
  5
C81
330
1F
100
AcDbEntity
  8
2
  6
CONTINUOUS
370
25
 62
7
100
AcDbLine
 10
156.0
 20
-16.1125
 30
0.0
 11
157.0
 21
-11.1125
 31
0.0
  0
LINE
  5
C82
330
1F
100
AcDbEntity
  8
2
  6
CONTINUOUS
370
25
 62
7
100
AcDbLine
 10
157.9069758544637
 20
-16.1125
 30
0.0
 11
157.984495975744
 21
-16.03497987871974
 31
0.0
  0
LINE
  5
C83
330
1F
100
AcDbEntity
  8
2
  6
CONTINUOUS
370
25
 62
7
100
AcDbLine
 10
157.4827117857518
 20
-16.1125
 30
0.0
 11
157.9137852976253
 21
-15.68142648812649
 31
0.0
  0
LINE
  5
C84
330
1F
100
AcDbEntity
  8
2
  6
CONTINUOUS
370
25
 62
7
100
AcDbLine
 10
157.0584477170399
 20
-16.1125
 30
0.0
 11
157.8430746195066
 21
-15.32787309753321
 31
0.0
  0
LINE
  5
C85
330
1F
100
AcDbEntity
  8
2
  6
CONTINUOUS
370
25
 62
7
100
AcDbLine
 10
156.634183648328
 20
-16.1125
 30
0.0
 11
157.772363941388
 21
-14.97431970693995
 31
0.0
  0
LINE
  5
C86
330
1F
100
AcDbEntity
  8
2
  6
CONTINUOUS
370
25
 62
7
100
AcDbLine
 10
156.209919579616
 20
-16.1125
 30
0.0
 11
157.7016532632693
 21
-14.62076631634667
 31
0.0
  0
LINE
  5
C87
330
1F
100
AcDbEntity
  8
2
  6
CONTINUOUS
370
25
 62
7
100
AcDbLine
 10
156.053586122274
 20
-15.84456938863013
 30
0.0
 11
157.6309425851507
 21
-14.26721292575341
 31
0.0
  0
LINE
  5
C88
330
1F
100
AcDbEntity
  8
2
  6
CONTINUOUS
370
25
 62
7
100
AcDbLine
 10
156.1596521394519
 20
-15.31423930274025
 30
0.0
 11
157.5602319070321
 21
-13.91365953516014
 31
0.0
  0
LINE
  5
C89
330
1F
100
AcDbEntity
  8
2
  6
CONTINUOUS
370
25
 62
7
100
AcDbLine
 10
156.2657181566299
 20
-14.7839092168503
 30
0.0
 11
157.4895212289134
 21
-13.56010614456686
 31
0.0
  0
LINE
  5
C8A
330
1F
100
AcDbEntity
  8
2
  6
CONTINUOUS
370
25
 62
7
100
AcDbLine
 10
156.3717841738079
 20
-14.2535791309604
 30
0.0
 11
157.4188105507947
 21
-13.20655275397358
 31
0.0
  0
LINE
  5
C8B
330
1F
100
AcDbEntity
  8
2
  6
CONTINUOUS
370
25
 62
7
100
AcDbLine
 10
156.4778501909859
 20
-13.7232490450705
 30
0.0
 11
157.3480998726761
 21
-12.85299936338032
 31
0.0
  0
LINE
  5
C8C
330
1F
100
AcDbEntity
  8
2
  6
CONTINUOUS
370
25
 62
7
100
AcDbLine
 10
156.5839162081639
 20
-13.1929189591806
 30
0.0
 11
157.2773891945574
 21
-12.49944597278706
 31
0.0
  0
LINE
  5
C8D
330
1F
100
AcDbEntity
  8
2
  6
CONTINUOUS
370
25
 62
7
100
AcDbLine
 10
156.6899822253419
 20
-12.6625888732907
 30
0.0
 11
157.2066785164388
 21
-12.14589258219378
 31
0.0
  0
LINE
  5
C8E
330
1F
100
AcDbEntity
  8
2
  6
CONTINUOUS
370
25
 62
7
100
AcDbLine
 10
156.7960482425198
 20
-12.1322587874008
 30
0.0
 11
157.1359678383201
 21
-11.7923391916005
 31
0.0
  0
LINE
  5
C8F
330
1F
100
AcDbEntity
  8
2
  6
CONTINUOUS
370
25
 62
7
100
AcDbLine
 10
156.9021142596978
 20
-11.6019287015109
 30
0.0
 11
157.0652571602014
 21
-11.43878580100726
 31
0.0
  0
LINE
  5
C90
330
1F
100
AcDbEntity
  8
2
  6
CONTINUOUS
370
25
 62
7
100
AcDbLine
 10
156.0095328057371
 20
-16.06483597131417
 30
0.0
 11
156.057196834423
 21
-16.1125
 31
0.0
  0
LINE
  5
C91
330
1F
100
AcDbEntity
  8
2
  6
CONTINUOUS
370
25
 62
7
100
AcDbLine
 10
156.0802434838558
 20
-15.71128258072092
 30
0.0
 11
156.4814609031349
 21
-16.1125
 31
0.0
  0
LINE
  5
C92
330
1F
100
AcDbEntity
  8
2
  6
CONTINUOUS
370
25
 62
7
100
AcDbLine
 10
156.1509541619745
 20
-15.35772919012764
 30
0.0
 11
156.9057249718468
 21
-16.1125
 31
0.0
  0
LINE
  5
C93
330
1F
100
AcDbEntity
  8
2
  6
CONTINUOUS
370
25
 62
7
100
AcDbLine
 10
156.2216648400931
 20
-15.00417579953438
 30
0.0
 11
157.3299890405588
 21
-16.1125
 31
0.0
  0
LINE
  5
C94
330
1F
100
AcDbEntity
  8
2
  6
CONTINUOUS
370
25
 62
7
100
AcDbLine
 10
156.2923755182118
 20
-14.6506224089411
 30
0.0
 11
157.7542531092707
 21
-16.1125
 31
0.0
  0
LINE
  5
C95
330
1F
100
AcDbEntity
  8
2
  6
CONTINUOUS
370
25
 62
7
100
AcDbLine
 10
156.3630861963304
 20
-14.29706901834784
 30
0.0
 11
157.9553707055044
 21
-15.88935352752176
 31
0.0
  0
LINE
  5
C96
330
1F
100
AcDbEntity
  8
2
  6
CONTINUOUS
370
25
 62
7
100
AcDbLine
 10
156.4337968744491
 20
-13.94351562775456
 30
0.0
 11
157.8493046883264
 21
-15.35902344163186
 31
0.0
  0
LINE
  5
C97
330
1F
100
AcDbEntity
  8
2
  6
CONTINUOUS
370
25
 62
7
100
AcDbLine
 10
156.5045075525678
 20
-13.5899622371613
 30
0.0
 11
157.7432386711484
 21
-14.82869335574195
 31
0.0
  0
LINE
  5
C98
330
1F
100
AcDbEntity
  8
2
  6
CONTINUOUS
370
25
 62
7
100
AcDbLine
 10
156.5752182306864
 20
-13.23640884656804
 30
0.0
 11
157.6371726539704
 21
-14.29836326985205
 31
0.0
  0
LINE
  5
C99
330
1F
100
AcDbEntity
  8
2
  6
CONTINUOUS
370
25
 62
7
100
AcDbLine
 10
156.645928908805
 20
-12.88285545597476
 30
0.0
 11
157.5311066367924
 21
-13.76803318396215
 31
0.0
  0
LINE
  5
C9A
330
1F
100
AcDbEntity
  8
2
  6
CONTINUOUS
370
25
 62
7
100
AcDbLine
 10
156.7166395869237
 20
-12.52930206538149
 30
0.0
 11
157.4250406196144
 21
-13.23770309807225
 31
0.0
  0
LINE
  5
C9B
330
1F
100
AcDbEntity
  8
2
  6
CONTINUOUS
370
25
 62
7
100
AcDbLine
 10
156.7873502650423
 20
-12.17574867478821
 30
0.0
 11
157.3189746024365
 21
-12.70737301218233
 31
0.0
  0
LINE
  5
C9C
330
1F
100
AcDbEntity
  8
2
  6
CONTINUOUS
370
25
 62
7
100
AcDbLine
 10
156.858060943161
 20
-11.82219528419496
 30
0.0
 11
157.2129085852585
 21
-12.17704292629243
 31
0.0
  0
LINE
  5
C9D
330
1F
100
AcDbEntity
  8
2
  6
CONTINUOUS
370
25
 62
7
100
AcDbLine
 10
156.9287716212796
 20
-11.46864189360166
 30
0.0
 11
157.1068425680805
 21
-11.64671284040254
 31
0.0
  0
LINE
  5
C9E
330
1F
100
AcDbEntity
  8
2
  6
CONTINUOUS
370
25
 62
7
100
AcDbLine
 10
156.9994822993983
 20
-11.11508850300839
 30
0.0
 11
157.0007765509025
 21
-11.11638275451263
 31
0.0
  0
LINE
  5
C9F
330
1F
100
AcDbEntity
  8
2
  6
CONTINUOUS
370
25
 62
7
100
AcDbLine
 10
157.0
 20
11.1125
 30
0.0
 11
156.0
 21
16.1125
 31
0.0
  0
LINE
  5
CA0
330
1F
100
AcDbEntity
  8
2
  6
CONTINUOUS
370
25
 62
7
100
AcDbLine
 10
156.0
 20
16.1125
 30
0.0
 11
158.0
 21
16.1125
 31
0.0
  0
LINE
  5
CA1
330
1F
100
AcDbEntity
  8
2
  6
CONTINUOUS
370
25
 62
7
100
AcDbLine
 10
158.0
 20
16.1125
 30
0.0
 11
157.0
 21
11.1125
 31
0.0
  0
LINE
  5
CA2
330
1F
100
AcDbEntity
  8
2
  6
CONTINUOUS
370
25
 62
7
100
AcDbLine
 10
156.9977246857672
 20
11.123876571164
 30
0.0
 11
157.0034129713492
 21
11.12956485674601
 31
0.0
  0
LINE
  5
CA3
330
1F
100
AcDbEntity
  8
2
  6
CONTINUOUS
370
25
 62
7
100
AcDbLine
 10
156.9270140076486
 20
11.47742996175727
 30
0.0
 11
157.1094789885272
 21
11.65989494263592
 31
0.0
  0
LINE
  5
CA4
330
1F
100
AcDbEntity
  8
2
  6
CONTINUOUS
370
25
 62
7
100
AcDbLine
 10
156.8563033295299
 20
11.83098335235056
 30
0.0
 11
157.2155450057052
 21
12.19022502852583
 31
0.0
  0
LINE
  5
CA5
330
1F
100
AcDbEntity
  8
2
  6
CONTINUOUS
370
25
 62
7
100
AcDbLine
 10
156.7855926514112
 20
12.18453674294381
 30
0.0
 11
157.3216110228831
 21
12.72055511441573
 31
0.0
  0
LINE
  5
CA6
330
1F
100
AcDbEntity
  8
2
  6
CONTINUOUS
370
25
 62
7
100
AcDbLine
 10
156.7148819732926
 20
12.53809013353708
 30
0.0
 11
157.4276770400611
 21
13.25088520030563
 31
0.0
  0
LINE
  5
CA7
330
1F
100
AcDbEntity
  8
2
  6
CONTINUOUS
370
25
 62
7
100
AcDbLine
 10
156.6441712951739
 20
12.89164352413034
 30
0.0
 11
157.5337430572391
 21
13.78121528619553
 31
0.0
  0
LINE
  5
CA8
330
1F
100
AcDbEntity
  8
2
  6
CONTINUOUS
370
25
 62
7
100
AcDbLine
 10
156.5734606170553
 20
13.24519691472364
 30
0.0
 11
157.6398090744171
 21
14.31154537208545
 31
0.0
  0
LINE
  5
CA9
330
1F
100
AcDbEntity
  8
2
  6
CONTINUOUS
370
25
 62
7
100
AcDbLine
 10
156.5027499389366
 20
13.5987503053169
 30
0.0
 11
157.7458750915951
 21
14.84187545797536
 31
0.0
  0
LINE
  5
CAA
330
1F
100
AcDbEntity
  8
2
  6
CONTINUOUS
370
25
 62
7
100
AcDbLine
 10
156.432039260818
 20
13.95230369591017
 30
0.0
 11
157.851941108773
 21
15.37220554386525
 31
0.0
  0
LINE
  5
CAB
330
1F
100
AcDbEntity
  8
2
  6
CONTINUOUS
370
25
 62
7
100
AcDbLine
 10
156.3613285826993
 20
14.30585708650342
 30
0.0
 11
157.958007125951
 21
15.90253562975516
 31
0.0
  0
LINE
  5
CAC
330
1F
100
AcDbEntity
  8
2
  6
CONTINUOUS
370
25
 62
7
100
AcDbLine
 10
156.2906179045806
 20
14.65941047709671
 30
0.0
 11
157.7437074274839
 21
16.1125
 31
0.0
  0
LINE
  5
CAD
330
1F
100
AcDbEntity
  8
2
  6
CONTINUOUS
370
25
 62
7
100
AcDbLine
 10
156.219907226462
 20
15.01296386768998
 30
0.0
 11
157.319443358772
 21
16.1125
 31
0.0
  0
LINE
  5
CAE
330
1F
100
AcDbEntity
  8
2
  6
CONTINUOUS
370
25
 62
7
100
AcDbLine
 10
156.1491965483434
 20
15.36651725828325
 30
0.0
 11
156.8951792900601
 21
16.1125
 31
0.0
  0
LINE
  5
CAF
330
1F
100
AcDbEntity
  8
2
  6
CONTINUOUS
370
25
 62
7
100
AcDbLine
 10
156.0784858702247
 20
15.72007064887651
 30
0.0
 11
156.4709152213482
 21
16.1125
 31
0.0
  0
LINE
  5
CB0
330
1F
100
AcDbEntity
  8
2
  6
CONTINUOUS
370
25
 62
7
100
AcDbLine
 10
156.0077751921061
 20
16.07362403946981
 30
0.0
 11
156.0466511526362
 21
16.1125
 31
0.0
  0
LINE
  5
CB1
330
1F
100
AcDbEntity
  8
2
  6
CONTINUOUS
370
25
 62
7
100
AcDbLine
 10
156.9355276404695
 20
11.4348617976526
 30
0.0
 11
157.0429815730204
 21
11.32740786510172
 31
0.0
  0
LINE
  5
CB2
330
1F
100
AcDbEntity
  8
2
  6
CONTINUOUS
370
25
 62
7
100
AcDbLine
 10
156.8294616232915
 20
11.96519188354252
 30
0.0
 11
157.113692251139
 21
11.68096125569498
 31
0.0
  0
LINE
  5
CB3
330
1F
100
AcDbEntity
  8
2
  6
CONTINUOUS
370
25
 62
7
100
AcDbLine
 10
156.7233956061135
 20
12.4955219694324
 30
0.0
 11
157.1844029292577
 21
12.03451464628826
 31
0.0
  0
LINE
  5
CB4
330
1F
100
AcDbEntity
  8
2
  6
CONTINUOUS
370
25
 62
7
100
AcDbLine
 10
156.6173295889355
 20
13.02585205532235
 30
0.0
 11
157.2551136073763
 21
12.38806803688155
 31
0.0
  0
LINE
  5
CB5
330
1F
100
AcDbEntity
  8
2
  6
CONTINUOUS
370
25
 62
7
100
AcDbLine
 10
156.5112635717575
 20
13.55618214121225
 30
0.0
 11
157.3258242854949
 21
12.74162142747483
 31
0.0
  0
LINE
  5
CB6
330
1F
100
AcDbEntity
  8
2
  6
CONTINUOUS
370
25
 62
7
100
AcDbLine
 10
156.4051975545796
 20
14.08651222710215
 30
0.0
 11
157.3965349636136
 21
13.09517481806807
 31
0.0
  0
LINE
  5
CB7
330
1F
100
AcDbEntity
  8
2
  6
CONTINUOUS
370
25
 62
7
100
AcDbLine
 10
156.2991315374016
 20
14.61684231299205
 30
0.0
 11
157.4672456417323
 21
13.44872820866134
 31
0.0
  0
LINE
  5
CB8
330
1F
100
AcDbEntity
  8
2
  6
CONTINUOUS
370
25
 62
7
100
AcDbLine
 10
156.1930655202236
 20
15.14717239888195
 30
0.0
 11
157.5379563198509
 21
13.80228159925461
 31
0.0
  0
LINE
  5
CB9
330
1F
100
AcDbEntity
  8
2
  6
CONTINUOUS
370
25
 62
7
100
AcDbLine
 10
156.0869995030456
 20
15.67750248477185
 30
0.0
 11
157.6086669979696
 21
14.15583498984789
 31
0.0
  0
LINE
  5
CBA
330
1F
100
AcDbEntity
  8
2
  6
CONTINUOUS
370
25
 62
7
100
AcDbLine
 10
156.0762660565294
 20
16.1125
 30
0.0
 11
157.6793776760882
 21
14.50938838044115
 31
0.0
  0
LINE
  5
CBB
330
1F
100
AcDbEntity
  8
2
  6
CONTINUOUS
370
25
 62
7
100
AcDbLine
 10
156.5005301252413
 20
16.1125
 30
0.0
 11
157.7500883542069
 21
14.8629417710344
 31
0.0
  0
LINE
  5
CBC
330
1F
100
AcDbEntity
  8
2
  6
CONTINUOUS
370
25
 62
7
100
AcDbLine
 10
156.9247941939532
 20
16.1125
 30
0.0
 11
157.8207990323256
 21
15.21649516162768
 31
0.0
  0
LINE
  5
CBD
330
1F
100
AcDbEntity
  8
2
  6
CONTINUOUS
370
25
 62
7
100
AcDbLine
 10
157.3490582626652
 20
16.1125
 30
0.0
 11
157.8915097104442
 21
15.57004855222097
 31
0.0
  0
LINE
  5
CBE
330
1F
100
AcDbEntity
  8
2
  6
CONTINUOUS
370
25
 62
7
100
AcDbLine
 10
157.7733223313771
 20
16.1125
 30
0.0
 11
157.9622203885629
 21
15.92360194281424
 31
0.0
  0
TEXT
  5
CBF
330
1F
100
AcDbEntity
  8
2
  6
CONTINUOUS
370
25
 62
7
100
AcDbText
 10
156.0
 20
15.97395833333333
 30
0.0
 40
3.5
  1
7/8 - 9 UNC
 50
90.00000000000001
 72
     1
 11
156.0
 21
34.640625
 31
0.0
100
AcDbText
  0
LINE
  5
CC0
330
1F
100
AcDbEntity
  8
SK2
  6
CONTINUOUS
370
25
 62
7
100
AcDbLine
 10
0.0
 20
9.65
 30
0.0
 11
0.0
 21
32.1125
 31
0.0
  0
LINE
  5
CC1
330
1F
100
AcDbEntity
  8
SK2
  6
CONTINUOUS
370
25
 62
7
100
AcDbLine
 10
140.0
 20
32.1125
 30
0.0
 11
140.0
 21
11.1125
 31
0.0
  0
LINE
  5
CC2
330
1F
100
AcDbEntity
  8
SK2
  6
CONTINUOUS
370
25
 62
7
100
AcDbLine
 10
0.0
 20
31.1125
 30
0.0
 11
140.0
 21
31.1125
 31
0.0
  0
LINE
  5
CC3
330
1F
100
AcDbEntity
  8
SK2
  6
CONTINUOUS
370
25
 62
7
100
AcDbLine
 10
0.0
 20
31.1125
 30
0.0
 11
5.0
 21
32.1125
 31
0.0
  0
LINE
  5
CC4
330
1F
100
AcDbEntity
  8
SK2
  6
CONTINUOUS
370
25
 62
7
100
AcDbLine
 10
5.0
 20
32.1125
 30
0.0
 11
5.0
 21
30.1125
 31
0.0
  0
LINE
  5
CC5
330
1F
100
AcDbEntity
  8
SK2
  6
CONTINUOUS
370
25
 62
7
100
AcDbLine
 10
5.0
 20
30.1125
 30
0.0
 11
0.0
 21
31.1125
 31
0.0
  0
LINE
  5
CC6
330
1F
100
AcDbEntity
  8
SK2
  6
CONTINUOUS
370
25
 62
7
100
AcDbLine
 10
4.661841697308621
 20
30.18013166053827
 30
0.0
 11
5.0
 21
30.51828996322965
 31
0.0
  0
LINE
  5
CC7
330
1F
100
AcDbEntity
  8
SK2
  6
CONTINUOUS
370
25
 62
7
100
AcDbLine
 10
4.30828830671534
 20
30.25084233865692
 30
0.0
 11
5.0
 21
30.94255403194158
 31
0.0
  0
LINE
  5
CC8
330
1F
100
AcDbEntity
  8
SK2
  6
CONTINUOUS
370
25
 62
7
100
AcDbLine
 10
3.954734916122071
 20
30.32155301677558
 30
0.0
 11
5.0
 21
31.36681810065351
 31
0.0
  0
LINE
  5
CC9
330
1F
100
AcDbEntity
  8
SK2
  6
CONTINUOUS
370
25
 62
7
100
AcDbLine
 10
3.601181525528794
 20
30.39226369489423
 30
0.0
 11
5.0
 21
31.79108216936544
 31
0.0
  0
LINE
  5
CCA
330
1F
100
AcDbEntity
  8
SK2
  6
CONTINUOUS
370
25
 62
7
100
AcDbLine
 10
3.247628134935518
 20
30.46297437301289
 30
0.0
 11
4.871442202403284
 21
32.08678844048066
 31
0.0
  0
LINE
  5
CCB
330
1F
100
AcDbEntity
  8
SK2
  6
CONTINUOUS
370
25
 62
7
100
AcDbLine
 10
2.894074744342234
 20
30.53368505113154
 30
0.0
 11
4.341112116513365
 21
31.98072242330267
 31
0.0
  0
LINE
  5
CCC
330
1F
100
AcDbEntity
  8
SK2
  6
CONTINUOUS
370
25
 62
7
100
AcDbLine
 10
2.540521353748971
 20
30.6043957292502
 30
0.0
 11
3.810782030623464
 21
31.87465640612469
 31
0.0
  0
LINE
  5
CCD
330
1F
100
AcDbEntity
  8
SK2
  6
CONTINUOUS
370
25
 62
7
100
AcDbLine
 10
2.186967963155688
 20
30.67510640736885
 30
0.0
 11
3.280451944733549
 21
31.76859038894671
 31
0.0
  0
LINE
  5
CCE
330
1F
100
AcDbEntity
  8
SK2
  6
CONTINUOUS
370
25
 62
7
100
AcDbLine
 10
1.833414572562411
 20
30.74581708548751
 30
0.0
 11
2.750121858843627
 21
31.66252437176873
 31
0.0
  0
LINE
  5
CCF
330
1F
100
AcDbEntity
  8
SK2
  6
CONTINUOUS
370
25
 62
7
100
AcDbLine
 10
1.479861181969135
 20
30.81652776360617
 30
0.0
 11
2.219791772953712
 21
31.55645835459075
 31
0.0
  0
LINE
  5
CD0
330
1F
100
AcDbEntity
  8
SK2
  6
CONTINUOUS
370
25
 62
7
100
AcDbLine
 10
1.126307791375851
 20
30.88723844172482
 30
0.0
 11
1.68946168706379
 21
31.45039233741276
 31
0.0
  0
LINE
  5
CD1
330
1F
100
AcDbEntity
  8
SK2
  6
CONTINUOUS
370
25
 62
7
100
AcDbLine
 10
0.7727544007825884
 20
30.95794911984348
 30
0.0
 11
1.15913160117389
 21
31.34432632023478
 31
0.0
  0
LINE
  5
CD2
330
1F
100
AcDbEntity
  8
SK2
  6
CONTINUOUS
370
25
 62
7
100
AcDbLine
 10
0.4192010101893047
 20
31.02865979796213
 30
0.0
 11
0.6288015152839748
 21
31.2382603030568
 31
0.0
  0
LINE
  5
CD3
330
1F
100
AcDbEntity
  8
SK2
  6
CONTINUOUS
370
25
 62
7
100
AcDbLine
 10
0.0656476195960281
 20
31.09937047608079
 30
0.0
 11
0.0984714293940527
 21
31.13219428587881
 31
0.0
  0
LINE
  5
CD4
330
1F
100
AcDbEntity
  8
SK2
  6
CONTINUOUS
370
25
 62
7
100
AcDbLine
 10
0.1836890946249881
 20
31.14923781892499
 30
0.0
 11
0.2755336419374856
 21
31.0573932716125
 31
0.0
  0
LINE
  5
CD5
330
1F
100
AcDbEntity
  8
SK2
  6
CONTINUOUS
370
25
 62
7
100
AcDbLine
 10
0.5372424852182576
 20
31.21994849704365
 30
0.0
 11
0.8058637278273935
 21
30.95132725443452
 31
0.0
  0
LINE
  5
CD6
330
1F
100
AcDbEntity
  8
SK2
  6
CONTINUOUS
370
25
 62
7
100
AcDbLine
 10
0.8907958758115413
 20
31.2906591751623
 30
0.0
 11
1.336193813717308
 21
30.84526123725654
 31
0.0
  0
LINE
  5
CD7
330
1F
100
AcDbEntity
  8
SK2
  6
CONTINUOUS
370
25
 62
7
100
AcDbLine
 10
1.244349266404811
 20
31.36136985328096
 30
0.0
 11
1.866523899607216
 21
30.73919522007856
 31
0.0
  0
LINE
  5
CD8
330
1F
100
AcDbEntity
  8
SK2
  6
CONTINUOUS
370
25
 62
7
100
AcDbLine
 10
1.597902656998087
 20
31.43208053139962
 30
0.0
 11
2.396853985497138
 21
30.63312920290057
 31
0.0
  0
LINE
  5
CD9
330
1F
100
AcDbEntity
  8
SK2
  6
CONTINUOUS
370
25
 62
7
100
AcDbLine
 10
1.951456047591364
 20
31.50279120951827
 30
0.0
 11
2.927184071387039
 21
30.52706318572259
 31
0.0
  0
LINE
  5
CDA
330
1F
100
AcDbEntity
  8
SK2
  6
CONTINUOUS
370
25
 62
7
100
AcDbLine
 10
2.305009438184641
 20
31.57350188763693
 30
0.0
 11
3.457514157276954
 21
30.42099716854461
 31
0.0
  0
LINE
  5
CDB
330
1F
100
AcDbEntity
  8
SK2
  6
CONTINUOUS
370
25
 62
7
100
AcDbLine
 10
2.65856282877791
 20
31.64421256575559
 30
0.0
 11
3.987844243166862
 21
30.31493115136662
 31
0.0
  0
LINE
  5
CDC
330
1F
100
AcDbEntity
  8
SK2
  6
CONTINUOUS
370
25
 62
7
100
AcDbLine
 10
3.012116219371187
 20
31.71492324387424
 30
0.0
 11
4.51817432905677
 21
30.20886513418865
 31
0.0
  0
LINE
  5
CDD
330
1F
100
AcDbEntity
  8
SK2
  6
CONTINUOUS
370
25
 62
7
100
AcDbLine
 10
3.365669609964463
 20
31.7856339219929
 30
0.0
 11
5.0
 21
30.15130353195734
 31
0.0
  0
LINE
  5
CDE
330
1F
100
AcDbEntity
  8
SK2
  6
CONTINUOUS
370
25
 62
7
100
AcDbLine
 10
3.71922300055774
 20
31.85634460011155
 30
0.0
 11
5.0
 21
30.57556760066928
 31
0.0
  0
LINE
  5
CDF
330
1F
100
AcDbEntity
  8
SK2
  6
CONTINUOUS
370
25
 62
7
100
AcDbLine
 10
4.072776391151017
 20
31.92705527823021
 30
0.0
 11
5.0
 21
30.99983166938121
 31
0.0
  0
LINE
  5
CE0
330
1F
100
AcDbEntity
  8
SK2
  6
CONTINUOUS
370
25
 62
7
100
AcDbLine
 10
4.426329781744286
 20
31.99776595634886
 30
0.0
 11
5.0
 21
31.42409573809314
 31
0.0
  0
LINE
  5
CE1
330
1F
100
AcDbEntity
  8
SK2
  6
CONTINUOUS
370
25
 62
7
100
AcDbLine
 10
4.779883172337559
 20
32.06847663446752
 30
0.0
 11
5.0
 21
31.84835980680507
 31
0.0
  0
LINE
  5
CE2
330
1F
100
AcDbEntity
  8
SK2
  6
CONTINUOUS
370
25
 62
7
100
AcDbLine
 10
140.0
 20
31.1125
 30
0.0
 11
135.0
 21
30.1125
 31
0.0
  0
LINE
  5
CE3
330
1F
100
AcDbEntity
  8
SK2
  6
CONTINUOUS
370
25
 62
7
100
AcDbLine
 10
135.0
 20
30.1125
 30
0.0
 11
135.0
 21
32.1125
 31
0.0
  0
LINE
  5
CE4
330
1F
100
AcDbEntity
  8
SK2
  6
CONTINUOUS
370
25
 62
7
100
AcDbLine
 10
135.0
 20
32.1125
 30
0.0
 11
140.0
 21
31.1125
 31
0.0
  0
LINE
  5
CE5
330
1F
100
AcDbEntity
  8
SK2
  6
CONTINUOUS
370
25
 62
7
100
AcDbLine
 10
139.871652615676
 20
31.08683052313519
 30
0.0
 11
139.9144350771173
 21
31.12961298457653
 31
0.0
  0
LINE
  5
CE6
330
1F
100
AcDbEntity
  8
SK2
  6
CONTINUOUS
370
25
 62
7
100
AcDbLine
 10
139.3413225297861
 20
30.98076450595723
 30
0.0
 11
139.5608816865241
 21
31.20032366269518
 31
0.0
  0
LINE
  5
CE7
330
1F
100
AcDbEntity
  8
SK2
  6
CONTINUOUS
370
25
 62
7
100
AcDbLine
 10
138.8109924438962
 20
30.87469848877923
 30
0.0
 11
139.2073282959308
 21
31.27103434081384
 31
0.0
  0
LINE
  5
CE8
330
1F
100
AcDbEntity
  8
SK2
  6
CONTINUOUS
370
25
 62
7
100
AcDbLine
 10
138.2806623580063
 20
30.76863247160125
 30
0.0
 11
138.8537749053375
 21
31.34174501893249
 31
0.0
  0
LINE
  5
CE9
330
1F
100
AcDbEntity
  8
SK2
  6
CONTINUOUS
370
25
 62
7
100
AcDbLine
 10
137.7503322721164
 20
30.66256645442327
 30
0.0
 11
138.5002215147443
 21
31.41245569705114
 31
0.0
  0
LINE
  5
CEA
330
1F
100
AcDbEntity
  8
SK2
  6
CONTINUOUS
370
25
 62
7
100
AcDbLine
 10
137.2200021862265
 20
30.55650043724529
 30
0.0
 11
138.146668124151
 21
31.4831663751698
 31
0.0
  0
LINE
  5
CEB
330
1F
100
AcDbEntity
  8
SK2
  6
CONTINUOUS
370
25
 62
7
100
AcDbLine
 10
136.6896721003366
 20
30.45043442006731
 30
0.0
 11
137.7931147335577
 21
31.55387705328846
 31
0.0
  0
LINE
  5
CEC
330
1F
100
AcDbEntity
  8
SK2
  6
CONTINUOUS
370
25
 62
7
100
AcDbLine
 10
136.1593420144467
 20
30.34436840288933
 30
0.0
 11
137.4395613429645
 21
31.6245877314071
 31
0.0
  0
LINE
  5
CED
330
1F
100
AcDbEntity
  8
SK2
  6
CONTINUOUS
370
25
 62
7
100
AcDbLine
 10
135.6290119285568
 20
30.23830238571135
 30
0.0
 11
137.0860079523712
 21
31.69529840952576
 31
0.0
  0
LINE
  5
CEE
330
1F
100
AcDbEntity
  8
SK2
  6
CONTINUOUS
370
25
 62
7
100
AcDbLine
 10
135.0986818426668
 20
30.13223636853337
 30
0.0
 11
136.7324545617779
 21
31.76600908764442
 31
0.0
  0
LINE
  5
CEF
330
1F
100
AcDbEntity
  8
SK2
  6
CONTINUOUS
370
25
 62
7
100
AcDbLine
 10
135.0
 20
30.45781859457843
 30
0.0
 11
136.3789011711846
 21
31.83671976576308
 31
0.0
  0
LINE
  5
CF0
330
1F
100
AcDbEntity
  8
SK2
  6
CONTINUOUS
370
25
 62
7
100
AcDbLine
 10
135.0
 20
30.88208266329036
 30
0.0
 11
136.0253477805913
 21
31.90743044388174
 31
0.0
  0
LINE
  5
CF1
330
1F
100
AcDbEntity
  8
SK2
  6
CONTINUOUS
370
25
 62
7
100
AcDbLine
 10
135.0
 20
31.30634673200228
 30
0.0
 11
135.6717943899981
 21
31.97814112200038
 31
0.0
  0
LINE
  5
CF2
330
1F
100
AcDbEntity
  8
SK2
  6
CONTINUOUS
370
25
 62
7
100
AcDbLine
 10
135.0
 20
31.73061080071422
 30
0.0
 11
135.3182409994048
 21
32.04885180011904
 31
0.0
  0
LINE
  5
CF3
330
1F
100
AcDbEntity
  8
SK2
  6
CONTINUOUS
370
25
 62
7
100
AcDbLine
 10
135.0
 20
30.40054095713852
 30
0.0
 11
135.2400341309488
 21
30.16050682618975
 31
0.0
  0
LINE
  5
CF4
330
1F
100
AcDbEntity
  8
SK2
  6
CONTINUOUS
370
25
 62
7
100
AcDbLine
 10
135.0
 20
30.82480502585045
 30
0.0
 11
135.593587521542
 21
30.2312175043084
 31
0.0
  0
LINE
  5
CF5
330
1F
100
AcDbEntity
  8
SK2
  6
CONTINUOUS
370
25
 62
7
100
AcDbLine
 10
135.0
 20
31.24906909456239
 30
0.0
 11
135.9471409121353
 21
30.30192818242706
 31
0.0
  0
LINE
  5
CF6
330
1F
100
AcDbEntity
  8
SK2
  6
CONTINUOUS
370
25
 62
7
100
AcDbLine
 10
135.0
 20
31.67333316327429
 30
0.0
 11
136.3006943027286
 21
30.37263886054571
 31
0.0
  0
LINE
  5
CF7
330
1F
100
AcDbEntity
  8
SK2
  6
CONTINUOUS
370
25
 62
7
100
AcDbLine
 10
135.0
 20
32.09759723198626
 30
0.0
 11
136.6542476933219
 21
30.44334953866436
 31
0.0
  0
LINE
  5
CF8
330
1F
100
AcDbEntity
  8
SK2
  6
CONTINUOUS
370
25
 62
7
100
AcDbLine
 10
135.5117016258727
 20
32.01015967482545
 30
0.0
 11
137.0078010839152
 21
30.51406021678302
 31
0.0
  0
LINE
  5
CF9
330
1F
100
AcDbEntity
  8
SK2
  6
CONTINUOUS
370
25
 62
7
100
AcDbLine
 10
136.0420317117626
 20
31.90409365764748
 30
0.0
 11
137.3613544745084
 21
30.58477089490168
 31
0.0
  0
LINE
  5
CFA
330
1F
100
AcDbEntity
  8
SK2
  6
CONTINUOUS
370
25
 62
7
100
AcDbLine
 10
136.5723617976525
 20
31.7980276404695
 30
0.0
 11
137.7149078651017
 21
30.65548157302034
 31
0.0
  0
LINE
  5
CFB
330
1F
100
AcDbEntity
  8
SK2
  6
CONTINUOUS
370
25
 62
7
100
AcDbLine
 10
137.1026918835424
 20
31.6919616232915
 30
0.0
 11
138.068461255695
 21
30.72619225113898
 31
0.0
  0
LINE
  5
CFC
330
1F
100
AcDbEntity
  8
SK2
  6
CONTINUOUS
370
25
 62
7
100
AcDbLine
 10
137.6330219694323
 20
31.58589560611354
 30
0.0
 11
138.4220146462882
 21
30.79690292925764
 31
0.0
  0
LINE
  5
CFD
330
1F
100
AcDbEntity
  8
SK2
  6
CONTINUOUS
370
25
 62
7
100
AcDbLine
 10
138.1633520553223
 20
31.47982958893554
 30
0.0
 11
138.7755680368815
 21
30.8676136073763
 31
0.0
  0
LINE
  5
CFE
330
1F
100
AcDbEntity
  8
SK2
  6
CONTINUOUS
370
25
 62
7
100
AcDbLine
 10
138.6936821412122
 20
31.37376357175756
 30
0.0
 11
139.1291214274748
 21
30.93832428549496
 31
0.0
  0
LINE
  5
CFF
330
1F
100
AcDbEntity
  8
SK2
  6
CONTINUOUS
370
25
 62
7
100
AcDbLine
 10
139.2240122271021
 20
31.26769755457958
 30
0.0
 11
139.4826748180681
 21
31.0090349636136
 31
0.0
  0
LINE
  5
D00
330
1F
100
AcDbEntity
  8
SK2
  6
CONTINUOUS
370
25
 62
7
100
AcDbLine
 10
139.7543423129919
 20
31.16163153740162
 30
0.0
 11
139.8362282086613
 21
31.07974564173226
 31
0.0
  0
TEXT
  5
D01
330
1F
100
AcDbEntity
  8
SK2
  6
CONTINUOUS
370
25
 62
7
100
AcDbText
 10
66.20833333333333
 20
32.1125
 30
0.0
 40
3.5
  1
140
 72
     1
 11
70.0
 21
32.1125
 31
0.0
100
AcDbText
  0
LINE
  5
D02
330
1F
100
AcDbEntity
  8
2
  6
CONTINUOUS
370
25
 62
7
100
AcDbLine
 10
117.4
 20
-1.4625
 30
0.0
 11
117.4
 21
-22.1125
 31
0.0
  0
LINE
  5
D03
330
1F
100
AcDbEntity
  8
2
  6
CONTINUOUS
370
25
 62
7
100
AcDbLine
 10
140.0
 20
-22.1125
 30
0.0
 11
140.0
 21
-1.462499999999999
 31
0.0
  0
LINE
  5
D04
330
1F
100
AcDbEntity
  8
2
  6
CONTINUOUS
370
25
 62
7
100
AcDbLine
 10
150.0
 20
-21.1125
 30
0.0
 11
107.4
 21
-21.1125
 31
0.0
  0
LINE
  5
D05
330
1F
100
AcDbEntity
  8
2
  6
CONTINUOUS
370
25
 62
7
100
AcDbLine
 10
117.4
 20
-21.1125
 30
0.0
 11
112.4
 21
-22.1125
 31
0.0
  0
LINE
  5
D06
330
1F
100
AcDbEntity
  8
2
  6
CONTINUOUS
370
25
 62
7
100
AcDbLine
 10
112.4
 20
-22.1125
 30
0.0
 11
112.4
 21
-20.1125
 31
0.0
  0
LINE
  5
D07
330
1F
100
AcDbEntity
  8
2
  6
CONTINUOUS
370
25
 62
7
100
AcDbLine
 10
112.4
 20
-20.1125
 30
0.0
 11
117.4
 21
-21.1125
 31
0.0
  0
LINE
  5
D08
330
1F
100
AcDbEntity
  8
2
  6
CONTINUOUS
370
25
 62
7
100
AcDbLine
 10
117.1797966033828
 20
-21.15654067932344
 30
0.0
 11
117.2531977355885
 21
-21.08313954711771
 31
0.0
  0
LINE
  5
D09
330
1F
100
AcDbEntity
  8
2
  6
CONTINUOUS
370
25
 62
7
100
AcDbLine
 10
116.6494665174929
 20
-21.26260669650142
 30
0.0
 11
116.8996443449952
 21
-21.01242886899905
 31
0.0
  0
LINE
  5
D0A
330
1F
100
AcDbEntity
  8
2
  6
CONTINUOUS
370
25
 62
7
100
AcDbLine
 10
116.119136431603
 20
-21.3686727136794
 30
0.0
 11
116.546090954402
 21
-20.94171819088039
 31
0.0
  0
LINE
  5
D0B
330
1F
100
AcDbEntity
  8
2
  6
CONTINUOUS
370
25
 62
7
100
AcDbLine
 10
115.5888063457131
 20
-21.47473873085738
 30
0.0
 11
116.1925375638087
 21
-20.87100751276174
 31
0.0
  0
LINE
  5
D0C
330
1F
100
AcDbEntity
  8
2
  6
CONTINUOUS
370
25
 62
7
100
AcDbLine
 10
115.0584762598231
 20
-21.58080474803536
 30
0.0
 11
115.8389841732154
 21
-20.80029683464309
 31
0.0
  0
LINE
  5
D0D
330
1F
100
AcDbEntity
  8
2
  6
CONTINUOUS
370
25
 62
7
100
AcDbLine
 10
114.5281461739332
 20
-21.68687076521334
 30
0.0
 11
115.4854307826221
 21
-20.72958615652443
 31
0.0
  0
LINE
  5
D0E
330
1F
100
AcDbEntity
  8
2
  6
CONTINUOUS
370
25
 62
7
100
AcDbLine
 10
113.9978160880433
 20
-21.79293678239134
 30
0.0
 11
115.1318773920289
 21
-20.65887547840578
 31
0.0
  0
LINE
  5
D0F
330
1F
100
AcDbEntity
  8
2
  6
CONTINUOUS
370
25
 62
7
100
AcDbLine
 10
113.4674860021534
 20
-21.89900279956932
 30
0.0
 11
114.7783240014356
 21
-20.58816480028713
 31
0.0
  0
LINE
  5
D10
330
1F
100
AcDbEntity
  8
2
  6
CONTINUOUS
370
25
 62
7
100
AcDbLine
 10
112.9371559162635
 20
-22.0050688167473
 30
0.0
 11
114.4247706108423
 21
-20.51745412216847
 31
0.0
  0
LINE
  5
D11
330
1F
100
AcDbEntity
  8
2
  6
CONTINUOUS
370
25
 62
7
100
AcDbLine
 10
112.4068258303736
 20
-22.11113483392528
 30
0.0
 11
114.0712172202491
 21
-20.44674344404982
 31
0.0
  0
LINE
  5
D12
330
1F
100
AcDbEntity
  8
2
  6
CONTINUOUS
370
25
 62
7
100
AcDbLine
 10
112.4
 20
-21.69369659558696
 30
0.0
 11
113.7176638296558
 21
-20.37603276593116
 31
0.0
  0
LINE
  5
D13
330
1F
100
AcDbEntity
  8
2
  6
CONTINUOUS
370
25
 62
7
100
AcDbLine
 10
112.4
 20
-21.26943252687504
 30
0.0
 11
113.3641104390625
 21
-20.30532208781251
 31
0.0
  0
LINE
  5
D14
330
1F
100
AcDbEntity
  8
2
  6
CONTINUOUS
370
25
 62
7
100
AcDbLine
 10
112.4
 20
-20.8451684581631
 30
0.0
 11
113.0105570484693
 21
-20.23461140969385
 31
0.0
  0
LINE
  5
D15
330
1F
100
AcDbEntity
  8
2
  6
CONTINUOUS
370
25
 62
7
100
AcDbLine
 10
112.4
 20
-20.42090438945118
 30
0.0
 11
112.657003657876
 21
-20.1639007315752
 31
0.0
  0
LINE
  5
D16
330
1F
100
AcDbEntity
  8
2
  6
CONTINUOUS
370
25
 62
7
100
AcDbLine
 10
112.4
 20
-22.09419920487268
 30
0.0
 11
112.4152506626061
 21
-22.10944986747877
 31
0.0
  0
LINE
  5
D17
330
1F
100
AcDbEntity
  8
2
  6
CONTINUOUS
370
25
 62
7
100
AcDbLine
 10
112.4
 20
-21.66993513616076
 30
0.0
 11
112.7688040531994
 21
-22.03873918936013
 31
0.0
  0
LINE
  5
D18
330
1F
100
AcDbEntity
  8
2
  6
CONTINUOUS
370
25
 62
7
100
AcDbLine
 10
112.4
 20
-21.24567106744883
 30
0.0
 11
113.1223574437926
 21
-21.96802851124146
 31
0.0
  0
LINE
  5
D19
330
1F
100
AcDbEntity
  8
2
  6
CONTINUOUS
370
25
 62
7
100
AcDbLine
 10
112.4
 20
-20.8214069987369
 30
0.0
 11
113.4759108343859
 21
-21.89731783312281
 31
0.0
  0
LINE
  5
D1A
330
1F
100
AcDbEntity
  8
2
  6
CONTINUOUS
370
25
 62
7
100
AcDbLine
 10
112.4
 20
-20.39714293002498
 30
0.0
 11
113.8294642249792
 21
-21.82660715500415
 31
0.0
  0
LINE
  5
D1B
330
1F
100
AcDbEntity
  8
2
  6
CONTINUOUS
370
25
 62
7
100
AcDbLine
 10
112.5745264233587
 20
-20.14740528467173
 30
0.0
 11
114.1830176155725
 21
-21.75589647688551
 31
0.0
  0
LINE
  5
D1C
330
1F
100
AcDbEntity
  8
2
  6
CONTINUOUS
370
25
 62
7
100
AcDbLine
 10
113.1048565092486
 20
-20.25347130184972
 30
0.0
 11
114.5365710061657
 21
-21.68518579876686
 31
0.0
  0
LINE
  5
D1D
330
1F
100
AcDbEntity
  8
2
  6
CONTINUOUS
370
25
 62
7
100
AcDbLine
 10
113.6351865951385
 20
-20.35953731902771
 30
0.0
 11
114.890124396759
 21
-21.61447512064819
 31
0.0
  0
LINE
  5
D1E
330
1F
100
AcDbEntity
  8
2
  6
CONTINUOUS
370
25
 62
7
100
AcDbLine
 10
114.1655166810284
 20
-20.46560333620569
 30
0.0
 11
115.2436777873523
 21
-21.54376444252955
 31
0.0
  0
LINE
  5
D1F
330
1F
100
AcDbEntity
  8
2
  6
CONTINUOUS
370
25
 62
7
100
AcDbLine
 10
114.6958467669183
 20
-20.57166935338367
 30
0.0
 11
115.5972311779455
 21
-21.47305376441089
 31
0.0
  0
LINE
  5
D20
330
1F
100
AcDbEntity
  8
2
  6
CONTINUOUS
370
25
 62
7
100
AcDbLine
 10
115.2261768528082
 20
-20.67773537056166
 30
0.0
 11
115.9507845685388
 21
-21.40234308629223
 31
0.0
  0
LINE
  5
D21
330
1F
100
AcDbEntity
  8
2
  6
CONTINUOUS
370
25
 62
7
100
AcDbLine
 10
115.7565069386981
 20
-20.78380138773963
 30
0.0
 11
116.3043379591321
 21
-21.33163240817359
 31
0.0
  0
LINE
  5
D22
330
1F
100
AcDbEntity
  8
2
  6
CONTINUOUS
370
25
 62
7
100
AcDbLine
 10
116.286837024588
 20
-20.88986740491761
 30
0.0
 11
116.6578913497253
 21
-21.26092173005493
 31
0.0
  0
LINE
  5
D23
330
1F
100
AcDbEntity
  8
2
  6
CONTINUOUS
370
25
 62
7
100
AcDbLine
 10
116.8171671104779
 20
-20.99593342209559
 30
0.0
 11
117.0114447403186
 21
-21.19021105193627
 31
0.0
  0
LINE
  5
D24
330
1F
100
AcDbEntity
  8
2
  6
CONTINUOUS
370
25
 62
7
100
AcDbLine
 10
117.3474971963679
 20
-21.10199943927359
 30
0.0
 11
117.3649981309119
 21
-21.11950037381762
 31
0.0
  0
LINE
  5
D25
330
1F
100
AcDbEntity
  8
2
  6
CONTINUOUS
370
25
 62
7
100
AcDbLine
 10
140.0
 20
-21.1125
 30
0.0
 11
145.0
 21
-20.1125
 31
0.0
  0
LINE
  5
D26
330
1F
100
AcDbEntity
  8
2
  6
CONTINUOUS
370
25
 62
7
100
AcDbLine
 10
145.0
 20
-20.1125
 30
0.0
 11
145.0
 21
-22.1125
 31
0.0
  0
LINE
  5
D27
330
1F
100
AcDbEntity
  8
2
  6
CONTINUOUS
370
25
 62
7
100
AcDbLine
 10
145.0
 20
-22.1125
 30
0.0
 11
140.0
 21
-21.1125
 31
0.0
  0
LINE
  5
D28
330
1F
100
AcDbEntity
  8
2
  6
CONTINUOUS
370
25
 62
7
100
AcDbLine
 10
144.7460007948788
 20
-22.06170015897575
 30
0.0
 11
145.0
 21
-21.80770095385455
 31
0.0
  0
LINE
  5
D29
330
1F
100
AcDbEntity
  8
2
  6
CONTINUOUS
370
25
 62
7
100
AcDbLine
 10
144.3924474042855
 20
-21.9909894808571
 30
0.0
 11
145.0
 21
-21.38343688514263
 31
0.0
  0
LINE
  5
D2A
330
1F
100
AcDbEntity
  8
2
  6
CONTINUOUS
370
25
 62
7
100
AcDbLine
 10
144.0388940136922
 20
-21.92027880273845
 30
0.0
 11
145.0
 21
-20.95917281643071
 31
0.0
  0
LINE
  5
D2B
330
1F
100
AcDbEntity
  8
2
  6
CONTINUOUS
370
25
 62
7
100
AcDbLine
 10
143.685340623099
 20
-21.84956812461979
 30
0.0
 11
145.0
 21
-20.53490874771879
 31
0.0
  0
LINE
  5
D2C
330
1F
100
AcDbEntity
  8
2
  6
CONTINUOUS
370
25
 62
7
100
AcDbLine
 10
143.3317872325057
 20
-21.77885744650114
 30
0.0
 11
144.9976808487586
 21
-20.11296383024828
 31
0.0
  0
LINE
  5
D2D
330
1F
100
AcDbEntity
  8
2
  6
CONTINUOUS
370
25
 62
7
100
AcDbLine
 10
142.9782338419125
 20
-21.70814676838249
 30
0.0
 11
144.4673507628687
 21
-20.21902984742626
 31
0.0
  0
LINE
  5
D2E
330
1F
100
AcDbEntity
  8
2
  6
CONTINUOUS
370
25
 62
7
100
AcDbLine
 10
142.6246804513192
 20
-21.63743609026383
 30
0.0
 11
143.9370206769788
 21
-20.32509586460425
 31
0.0
  0
LINE
  5
D2F
330
1F
100
AcDbEntity
  8
2
  6
CONTINUOUS
370
25
 62
7
100
AcDbLine
 10
142.2711270607259
 20
-21.56672541214517
 30
0.0
 11
143.4066905910889
 21
-20.43116188178223
 31
0.0
  0
LINE
  5
D30
330
1F
100
AcDbEntity
  8
2
  6
CONTINUOUS
370
25
 62
7
100
AcDbLine
 10
141.9175736701326
 20
-21.49601473402652
 30
0.0
 11
142.8763605051989
 21
-20.53722789896021
 31
0.0
  0
LINE
  5
D31
330
1F
100
AcDbEntity
  8
2
  6
CONTINUOUS
370
25
 62
7
100
AcDbLine
 10
141.5640202795394
 20
-21.42530405590787
 30
0.0
 11
142.346030419309
 21
-20.64329391613819
 31
0.0
  0
LINE
  5
D32
330
1F
100
AcDbEntity
  8
2
  6
CONTINUOUS
370
25
 62
7
100
AcDbLine
 10
141.2104668889461
 20
-21.35459337778921
 30
0.0
 11
141.8157003334192
 21
-20.74935993331617
 31
0.0
  0
LINE
  5
D33
330
1F
100
AcDbEntity
  8
2
  6
CONTINUOUS
370
25
 62
7
100
AcDbLine
 10
140.8569134983528
 20
-21.28388269967056
 30
0.0
 11
141.2853702475292
 21
-20.85542595049415
 31
0.0
  0
LINE
  5
D34
330
1F
100
AcDbEntity
  8
2
  6
CONTINUOUS
370
25
 62
7
100
AcDbLine
 10
140.5033601077596
 20
-21.21317202155191
 30
0.0
 11
140.7550401616393
 21
-20.96149196767213
 31
0.0
  0
LINE
  5
D35
330
1F
100
AcDbEntity
  8
2
  6
CONTINUOUS
370
25
 62
7
100
AcDbLine
 10
140.1498067171663
 20
-21.14246134343325
 30
0.0
 11
140.2247100757494
 21
-21.06755798485011
 31
0.0
  0
LINE
  5
D36
330
1F
100
AcDbEntity
  8
2
  6
CONTINUOUS
370
25
 62
7
100
AcDbLine
 10
140.2235478896155
 20
-21.06779042207688
 30
0.0
 11
140.3353218344233
 21
-21.17956436688466
 31
0.0
  0
LINE
  5
D37
330
1F
100
AcDbEntity
  8
2
  6
CONTINUOUS
370
25
 62
7
100
AcDbLine
 10
140.5771012802088
 20
-20.99707974395822
 30
0.0
 11
140.8656519203132
 21
-21.28563038406264
 31
0.0
  0
LINE
  5
D38
330
1F
100
AcDbEntity
  8
2
  6
CONTINUOUS
370
25
 62
7
100
AcDbLine
 10
140.930654670802
 20
-20.92636906583958
 30
0.0
 11
141.3959820062031
 21
-21.39169640124062
 31
0.0
  0
LINE
  5
D39
330
1F
100
AcDbEntity
  8
2
  6
CONTINUOUS
370
25
 62
7
100
AcDbLine
 10
141.2842080613953
 20
-20.85565838772092
 30
0.0
 11
141.926312092093
 21
-21.4977624184186
 31
0.0
  0
LINE
  5
D3A
330
1F
100
AcDbEntity
  8
2
  6
CONTINUOUS
370
25
 62
7
100
AcDbLine
 10
141.6377614519886
 20
-20.78494770960226
 30
0.0
 11
142.4566421779829
 21
-21.60382843559658
 31
0.0
  0
LINE
  5
D3B
330
1F
100
AcDbEntity
  8
2
  6
CONTINUOUS
370
25
 62
7
100
AcDbLine
 10
141.9913148425819
 20
-20.71423703148362
 30
0.0
 11
142.9869722638728
 21
-21.70989445277456
 31
0.0
  0
LINE
  5
D3C
330
1F
100
AcDbEntity
  8
2
  6
CONTINUOUS
370
25
 62
7
100
AcDbLine
 10
142.3448682331751
 20
-20.64352635336496
 30
0.0
 11
143.5173023497627
 21
-21.81596046995254
 31
0.0
  0
LINE
  5
D3D
330
1F
100
AcDbEntity
  8
2
  6
CONTINUOUS
370
25
 62
7
100
AcDbLine
 10
142.6984216237684
 20
-20.57281567524632
 30
0.0
 11
144.0476324356526
 21
-21.92202648713052
 31
0.0
  0
LINE
  5
D3E
330
1F
100
AcDbEntity
  8
2
  6
CONTINUOUS
370
25
 62
7
100
AcDbLine
 10
143.0519750143617
 20
-20.50210499712765
 30
0.0
 11
144.5779625215425
 21
-22.02809250430852
 31
0.0
  0
LINE
  5
D3F
330
1F
100
AcDbEntity
  8
2
  6
CONTINUOUS
370
25
 62
7
100
AcDbLine
 10
143.4055284049549
 20
-20.431394319009
 30
0.0
 11
145.0
 21
-22.02586591405407
 31
0.0
  0
LINE
  5
D40
330
1F
100
AcDbEntity
  8
2
  6
CONTINUOUS
370
25
 62
7
100
AcDbLine
 10
143.7590817955482
 20
-20.36068364089034
 30
0.0
 11
145.0
 21
-21.60160184534215
 31
0.0
  0
LINE
  5
D41
330
1F
100
AcDbEntity
  8
2
  6
CONTINUOUS
370
25
 62
7
100
AcDbLine
 10
144.1126351861415
 20
-20.2899729627717
 30
0.0
 11
145.0
 21
-21.17733777663022
 31
0.0
  0
LINE
  5
D42
330
1F
100
AcDbEntity
  8
2
  6
CONTINUOUS
370
25
 62
7
100
AcDbLine
 10
144.4661885767347
 20
-20.21926228465304
 30
0.0
 11
145.0
 21
-20.7530737079183
 31
0.0
  0
LINE
  5
D43
330
1F
100
AcDbEntity
  8
2
  6
CONTINUOUS
370
25
 62
7
100
AcDbLine
 10
144.819741967328
 20
-20.14855160653437
 30
0.0
 11
145.0
 21
-20.32880963920637
 31
0.0
  0
TEXT
  5
D44
330
1F
100
AcDbEntity
  8
2
  6
CONTINUOUS
370
25
 62
7
100
AcDbText
 10
123.45
 20
-20.1125
 30
0.0
 40
3.5
  1
22.6
 72
     1
 11
128.7
 21
-20.1125
 31
0.0
100
AcDbText
  0
LINE
  5
D45
330
1F
100
AcDbEntity
  8
4
  6
LONGDASH_DASH
370
25
 62
2
100
AcDbLine
 10
36.0
 20
0.0
 30
0.0
 11
140.0
 21
0.0
 31
0.0
  0
LINE
  5
D46
330
1F
100
AcDbEntity
  8
SK4
  6
LONGDASH_DASH
370
25
 62
2
100
AcDbLine
 10
-5.0
 20
0.0
 30
0.0
 11
145.0
 21
0.0
 31
0.0
  0
LINE
  5
D47
330
1F
100
AcDbEntity
  8
INFTOTAL
  6
CONTINUOUS
370
18
 62
9
100
AcDbLine
 10
-26.400011
 20
-46.32374924100001
 30
0.0
 11
180.400011
 21
-46.32374924100001
 31
0.0
  0
LINE
  5
D48
330
1F
100
AcDbEntity
  8
INFTOTAL
  6
CONTINUOUS
370
18
 62
9
100
AcDbLine
 10
180.400011
 20
-46.32374924100001
 30
0.0
 11
180.400011
 21
61.723638394
 31
0.0
  0
LINE
  5
D49
330
1F
100
AcDbEntity
  8
INFTOTAL
  6
CONTINUOUS
370
18
 62
9
100
AcDbLine
 10
180.400011
 20
61.723638394
 30
0.0
 11
-26.40001100000001
 21
61.723638394
 31
0.0
  0
LINE
  5
D4A
330
1F
100
AcDbEntity
  8
INFTOTAL
  6
CONTINUOUS
370
18
 62
9
100
AcDbLine
 10
-26.40001100000001
 20
61.723638394
 30
0.0
 11
-26.40001100000001
 21
-46.32374924100001
 31
0.0
  0
ARC
  5
D4B
330
1F
100
AcDbEntity
  8
SK6
  6
CONTINUOUS
370
25
 62
5
100
AcDbCircle
 10
280.7613910083765
 20
-44.57023337338786
 30
0.0
 40
2.76048912849221
100
AcDbArc
 50
338.9379403434233
 51
90.44457437511392
  0
LINE
  5
D4C
330
1F
100
AcDbEntity
  8
SK6
  6
CONTINUOUS
370
25
 62
5
100
AcDbLine
 10
280.7399717969598
 20
-41.80982734421281
 30
0.0
 11
280.7399717969598
 21
-42.91288597613463
 31
0.0
  0
ARC
  5
D4D
330
1F
100
AcDbEntity
  8
SK6
  6
CONTINUOUS
370
25
 62
5
100
AcDbCircle
 10
280.7505180293692
 20
-44.59022686566821
 30
0.0
 40
1.677374043771805
100
AcDbArc
 50
243.4214706017851
 51
90.3602408122618
  0
ARC
  5
D4E
330
1F
100
AcDbEntity
  8
SK6
  6
CONTINUOUS
370
25
 62
5
100
AcDbCircle
 10
283.2727688968496
 20
-44.15881961215561
 30
0.0
 40
3.800217030022783
100
AcDbArc
 50
210.5483731288537
 51
236.9780169366801
  0
LINE
  5
D4F
330
1F
100
AcDbEntity
  8
SK6
  6
CONTINUOUS
370
25
 62
5
100
AcDbLine
 10
281.2017996851249
 20
-47.34515543867535
 30
0.0
 11
285.3437399674267
 21
-47.34515543867535
 31
0.0
  0
ARC
  5
D50
330
1F
100
AcDbEntity
  8
SK6
  6
CONTINUOUS
370
25
 62
5
100
AcDbCircle
 10
283.2727708387725
 20
-44.1588197137346
 30
0.0
 40
3.800216899582474
100
AcDbArc
 50
303.0219828477962
 51
326.3732153033481
  0
LINE
  5
D51
330
1F
100
AcDbEntity
  8
SK6
  6
CONTINUOUS
370
25
 62
5
100
AcDbLine
 10
286.4370687513572
 20
-46.2633071107709
 30
0.0
 11
283.0797707057546
 21
-46.2633071107709
 31
0.0
  0
LINE
  5
D52
330
1F
100
AcDbEntity
  8
SK6
  6
CONTINUOUS
370
25
 62
5
100
AcDbLine
 10
283.0797707057546
 20
-46.2633071107709
 30
0.0
 11
286.9996300977199
 21
-44.90190591641694
 31
0.0
  0
ARC
  5
D53
330
1F
100
AcDbEntity
  8
SK6
  6
CONTINUOUS
370
25
 62
5
100
AcDbCircle
 10
283.2727715615721
 20
-44.1588202248594
 30
0.0
 40
3.800217216614765
100
AcDbArc
 50
348.7238644184696
 51
53.46910512608785
  0
LINE
  5
D54
330
1F
100
AcDbEntity
  8
SK6
  6
CONTINUOUS
370
25
 62
5
100
AcDbLine
 10
285.5348742453855
 20
-41.10520886429967
 30
0.0
 11
283.3374594788273
 21
-45.56229735507058
 31
0.0
  0
ENDSEC
  0
SECTION
  2
OBJECTS
  0
DICTIONARY
  5
C
330
0
100
AcDbDictionary
281
     1
  3
ACAD_GROUP
350
D
  3
ACAD_LAYOUT
350
1A
  3
ACAD_MATERIAL
350
3B
  3
ACAD_MLEADERSTYLE
350
D57
  3
ACAD_MLINESTYLE
350
17
  3
ACAD_PLOTSETTINGS
350
19
  3
ACAD_PLOTSTYLENAME
350
E
  3
ACAD_SCALELIST
350
5C4
  3
ACAD_VISUALSTYLE
350
2A
  3
AcDbVariableDictionary
350
D55
  0
DICTIONARY
  5
D
102
{ACAD_REACTORS
330
C
102
}
330
C
100
AcDbDictionary
281
     1
  0
DICTIONARY
  5
1A
102
{ACAD_REACTORS
330
C
102
}
330
C
100
AcDbDictionary
281
     1
  3
Layout1
350
1E
  3
Layout2
350
26
  3
Model
350
22
  0
DICTIONARY
  5
3B
102
{ACAD_REACTORS
330
C
102
}
330
C
100
AcDbDictionary
281
     1
  3
ByBlock
350
3D
  3
ByLayer
350
3C
  3
Global
350
3E
  0
DICTIONARY
  5
D57
102
{ACAD_REACTORS
330
C
102
}
330
C
100
AcDbDictionary
281
     1
  0
DICTIONARY
  5
17
102
{ACAD_REACTORS
330
C
102
}
330
C
100
AcDbDictionary
281
     1
  3
Standard
350
18
  0
DICTIONARY
  5
19
102
{ACAD_REACTORS
330
C
102
}
330
C
100
AcDbDictionary
281
     1
  0
ACDBDICTIONARYWDFLT
  5
E
102
{ACAD_REACTORS
330
C
102
}
330
C
100
AcDbDictionary
281
     1
  3
Normal
350
F
100
AcDbDictionaryWithDefault
340
F
  0
DICTIONARY
  5
5C4
102
{ACAD_REACTORS
330
C
102
}
330
C
100
AcDbDictionary
281
     1
  3
A0
350
5C5
  3
A1
350
5C6
  3
A2
350
5C7
  3
A3
350
5C8
  3
A4
350
5C9
  3
A5
350
5CA
  3
A6
350
5CB
  3
A7
350
5CC
  3
A8
350
5CD
  3
A9
350
5CE
  3
B0
350
5CF
  3
B1
350
5D0
  3
B2
350
5D1
  3
B3
350
5D2
  3
B4
350
5D3
  3
B5
350
5D4
  3
B6
350
5D5
  3
B7
350
5D6
  3
B8
350
5D7
  3
B9
350
5D8
  3
C0
350
5D9
  3
C1
350
5DA
  3
C2
350
5DB
  3
C3
350
5DC
  3
C4
350
5DD
  3
C5
350
5DE
  3
C6
350
5DF
  3
C7
350
5E0
  3
C8
350
5E1
  3
C9
350
5E2
  3
D0
350
5E3
  3
D1
350
5E4
  3
D2
350
5E5
  0
DICTIONARY
  5
2A
102
{ACAD_REACTORS
330
C
102
}
330
C
100
AcDbDictionary
281
     1
  3
2dWireframe
350
2F
  3
3D Hidden
350
31
  3
3dWireframe
350
30
  3
Basic
350
32
  3
Brighten
350
36
  3
ColorChange
350
3A
  3
Conceptual
350
34
  3
Dim
350
35
  3
Facepattern
350
39
  3
Flat
350
2B
  3
FlatWithEdges
350
2C
  3
Gouraud
350
2D
  3
GouraudWithEdges
350
2E
  3
Linepattern
350
38
  3
Realistic
350
33
  3
Thicken
350
37
  0
DICTIONARY
  5
D55
102
{ACAD_REACTORS
330
C
102
}
330
C
100
AcDbDictionary
281
     1
  3
CANNOSCALE
350
D5A
  3
DIMASSOC
350
D5B
  3
HIDETEXT
350
D5C
  3
PSOLHEIGHT
350
D59
  3
PSOLWIDTH
350
D58
  0
LAYOUT
  5
1E
102
{ACAD_REACTORS
330
1A
102
}
330
1A
100
AcDbPlotSettings
  1

  2
none_device
  4

  6

 40
0.0
 41
0.0
 42
0.0
 43
0.0
 44
0.0
 45
0.0
 46
0.0
 47
0.0
 48
0.0
 49
0.0
140
0.0
141
0.0
142
1.0
143
1.0
 70
   688
 72
     0
 73
     0
 74
     5
  7

 75
    16
147
1.0
148
0.0
149
0.0
100
AcDbLayout
  1
Layout1
 70
     1
 71
     1
 10
0.0
 20
0.0
 11
420.0
 21
297.0
 12
0.0
 22
0.0
 32
0.0
 14
1.000000000000000E+20
 24
1.000000000000000E+20
 34
1.000000000000000E+20
 15
-1.000000000000000E+20
 25
-1.000000000000000E+20
 35
-1.000000000000000E+20
146
0.0
 13
0.0
 23
0.0
 33
0.0
 16
1.0
 26
0.0
 36
0.0
 17
0.0
 27
1.0
 37
0.0
 76
     0
330
1B
  0
LAYOUT
  5
26
102
{ACAD_REACTORS
330
1A
102
}
330
1A
100
AcDbPlotSettings
  1

  2
none_device
  4

  6

 40
0.0
 41
0.0
 42
0.0
 43
0.0
 44
0.0
 45
0.0
 46
0.0
 47
0.0
 48
0.0
 49
0.0
140
0.0
141
0.0
142
1.0
143
1.0
 70
   688
 72
     0
 73
     0
 74
     5
  7

 75
    16
147
1.0
148
0.0
149
0.0
100
AcDbLayout
  1
Layout2
 70
     1
 71
     2
 10
0.0
 20
0.0
 11
0.0
 21
0.0
 12
0.0
 22
0.0
 32
0.0
 14
0.0
 24
0.0
 34
0.0
 15
0.0
 25
0.0
 35
0.0
146
0.0
 13
0.0
 23
0.0
 33
0.0
 16
1.0
 26
0.0
 36
0.0
 17
0.0
 27
1.0
 37
0.0
 76
     0
330
23
  0
LAYOUT
  5
22
102
{ACAD_REACTORS
330
1A
102
}
330
1A
100
AcDbPlotSettings
  1

  2
none_device
  4

  6

 40
0.0
 41
0.0
 42
0.0
 43
0.0
 44
0.0
 45
0.0
 46
0.0
 47
0.0
 48
0.0
 49
0.0
140
0.0
141
0.0
142
1.0
143
1.0
 70
  1712
 72
     0
 73
     0
 74
     0
  7

 75
     0
147
1.0
148
0.0
149
0.0
100
AcDbLayout
  1
Model
 70
     1
 71
     0
 10
0.0
 20
0.0
 11
420.0
 21
297.0
 12
0.0
 22
0.0
 32
0.0
 14
0.0
 24
0.0
 34
0.0
 15
25.0
 25
35.0
 35
0.0
146
0.0
 13
0.0
 23
0.0
 33
0.0
 16
1.0
 26
0.0
 36
0.0
 17
0.0
 27
1.0
 37
0.0
 76
     0
330
1F
331
29
  0
MATERIAL
  5
3D
102
{ACAD_REACTORS
330
3B
102
}
102
{ACAD_XDICTIONARY
360
D7F
102
}
330
3B
100
AcDbMaterial
  1
ByBlock
  0
MATERIAL
  5
3C
102
{ACAD_REACTORS
330
3B
102
}
102
{ACAD_XDICTIONARY
360
D7D
102
}
330
3B
100
AcDbMaterial
  1
ByLayer
  0
MATERIAL
  5
3E
102
{ACAD_REACTORS
330
3B
102
}
102
{ACAD_XDICTIONARY
360
D81
102
}
330
3B
100
AcDbMaterial
  1
Global
  0
MLINESTYLE
  5
18
102
{ACAD_REACTORS
330
17
102
}
330
17
100
AcDbMlineStyle
  2
Standard
 70
     0
  3

 62
   256
 51
90.0
 52
90.0
 71
     2
 49
0.5
 62
   256
  6
BYLAYER
 49
-0.5
 62
   256
  6
BYLAYER
  0
ACDBPLACEHOLDER
  5
F
102
{ACAD_REACTORS
330
E
102
}
330
E
  0
SCALE
  5
5C5
102
{ACAD_REACTORS
330
5C4
102
}
330
5C4
100
AcDbScale
 70
     0
300
1:1
140
1.0
141
1.0
290
     1
  0
SCALE
  5
5C6
102
{ACAD_REACTORS
330
5C4
102
}
330
5C4
100
AcDbScale
 70
     0
300
1:2
140
1.0
141
2.0
290
     0
  0
SCALE
  5
5C7
102
{ACAD_REACTORS
330
5C4
102
}
330
5C4
100
AcDbScale
 70
     0
300
1:4
140
1.0
141
4.0
290
     0
  0
SCALE
  5
5C8
102
{ACAD_REACTORS
330
5C4
102
}
330
5C4
100
AcDbScale
 70
     0
300
1:5
140
1.0
141
5.0
290
     0
  0
SCALE
  5
5C9
102
{ACAD_REACTORS
330
5C4
102
}
330
5C4
100
AcDbScale
 70
     0
300
1:8
140
1.0
141
8.0
290
     0
  0
SCALE
  5
5CA
102
{ACAD_REACTORS
330
5C4
102
}
330
5C4
100
AcDbScale
 70
     0
300
1:10
140
1.0
141
10.0
290
     0
  0
SCALE
  5
5CB
102
{ACAD_REACTORS
330
5C4
102
}
330
5C4
100
AcDbScale
 70
     0
300
1:16
140
1.0
141
16.0
290
     0
  0
SCALE
  5
5CC
102
{ACAD_REACTORS
330
5C4
102
}
330
5C4
100
AcDbScale
 70
     0
300
1:20
140
1.0
141
20.0
290
     0
  0
SCALE
  5
5CD
102
{ACAD_REACTORS
330
5C4
102
}
330
5C4
100
AcDbScale
 70
     0
300
1:30
140
1.0
141
30.0
290
     0
  0
SCALE
  5
5CE
102
{ACAD_REACTORS
330
5C4
102
}
330
5C4
100
AcDbScale
 70
     0
300
1:40
140
1.0
141
40.0
290
     0
  0
SCALE
  5
5CF
102
{ACAD_REACTORS
330
5C4
102
}
330
5C4
100
AcDbScale
 70
     0
300
1:50
140
1.0
141
50.0
290
     0
  0
SCALE
  5
5D0
102
{ACAD_REACTORS
330
5C4
102
}
330
5C4
100
AcDbScale
 70
     0
300
1:100
140
1.0
141
100.0
290
     0
  0
SCALE
  5
5D1
102
{ACAD_REACTORS
330
5C4
102
}
330
5C4
100
AcDbScale
 70
     0
300
2:1
140
2.0
141
1.0
290
     0
  0
SCALE
  5
5D2
102
{ACAD_REACTORS
330
5C4
102
}
330
5C4
100
AcDbScale
 70
     0
300
4:1
140
4.0
141
1.0
290
     0
  0
SCALE
  5
5D3
102
{ACAD_REACTORS
330
5C4
102
}
330
5C4
100
AcDbScale
 70
     0
300
8:1
140
8.0
141
1.0
290
     0
  0
SCALE
  5
5D4
102
{ACAD_REACTORS
330
5C4
102
}
330
5C4
100
AcDbScale
 70
     0
300
10:1
140
10.0
141
1.0
290
     0
  0
SCALE
  5
5D5
102
{ACAD_REACTORS
330
5C4
102
}
330
5C4
100
AcDbScale
 70
     0
300
100:1
140
100.0
141
1.0
290
     0
  0
SCALE
  5
5D6
102
{ACAD_REACTORS
330
5C4
102
}
330
5C4
100
AcDbScale
 70
     0
300
1/128" = 1'-0"
140
0.0078125
141
12.0
290
     0
  0
SCALE
  5
5D7
102
{ACAD_REACTORS
330
5C4
102
}
330
5C4
100
AcDbScale
 70
     0
300
1/64" = 1'-0"
140
0.015625
141
12.0
290
     0
  0
SCALE
  5
5D8
102
{ACAD_REACTORS
330
5C4
102
}
330
5C4
100
AcDbScale
 70
     0
300
1/32" = 1'-0"
140
0.03125
141
12.0
290
     0
  0
SCALE
  5
5D9
102
{ACAD_REACTORS
330
5C4
102
}
330
5C4
100
AcDbScale
 70
     0
300
1/16" = 1'-0"
140
0.0625
141
12.0
290
     0
  0
SCALE
  5
5DA
102
{ACAD_REACTORS
330
5C4
102
}
330
5C4
100
AcDbScale
 70
     0
300
3/32" = 1'-0"
140
0.09375
141
12.0
290
     0
  0
SCALE
  5
5DB
102
{ACAD_REACTORS
330
5C4
102
}
330
5C4
100
AcDbScale
 70
     0
300
1/8" = 1'-0"
140
0.125
141
12.0
290
     0
  0
SCALE
  5
5DC
102
{ACAD_REACTORS
330
5C4
102
}
330
5C4
100
AcDbScale
 70
     0
300
3/16" = 1'-0"
140
0.1875
141
12.0
290
     0
  0
SCALE
  5
5DD
102
{ACAD_REACTORS
330
5C4
102
}
330
5C4
100
AcDbScale
 70
     0
300
1/4" = 1'-0"
140
0.25
141
12.0
290
     0
  0
SCALE
  5
5DE
102
{ACAD_REACTORS
330
5C4
102
}
330
5C4
100
AcDbScale
 70
     0
300
3/8" = 1'-0"
140
0.375
141
12.0
290
     0
  0
SCALE
  5
5DF
102
{ACAD_REACTORS
330
5C4
102
}
330
5C4
100
AcDbScale
 70
     0
300
1/2" = 1'-0"
140
0.5
141
12.0
290
     0
  0
SCALE
  5
5E0
102
{ACAD_REACTORS
330
5C4
102
}
330
5C4
100
AcDbScale
 70
     0
300
3/4" = 1'-0"
140
0.75
141
12.0
290
     0
  0
SCALE
  5
5E1
102
{ACAD_REACTORS
330
5C4
102
}
330
5C4
100
AcDbScale
 70
     0
300
1" = 1'-0"
140
1.0
141
12.0
290
     0
  0
SCALE
  5
5E2
102
{ACAD_REACTORS
330
5C4
102
}
330
5C4
100
AcDbScale
 70
     0
300
1-1/2" = 1'-0"
140
1.5
141
12.0
290
     0
  0
SCALE
  5
5E3
102
{ACAD_REACTORS
330
5C4
102
}
330
5C4
100
AcDbScale
 70
     0
300
3" = 1'-0"
140
3.0
141
12.0
290
     0
  0
SCALE
  5
5E4
102
{ACAD_REACTORS
330
5C4
102
}
330
5C4
100
AcDbScale
 70
     0
300
6" = 1'-0"
140
6.0
141
12.0
290
     0
  0
SCALE
  5
5E5
102
{ACAD_REACTORS
330
5C4
102
}
330
5C4
100
AcDbScale
 70
     0
300
1'-0" = 1'-0"
140
12.0
141
12.0
290
     0
  0
VISUALSTYLE
  5
2F
102
{ACAD_REACTORS
330
2A
102
}
102
{ACAD_XDICTIONARY
360
D65
102
}
330
2A
100
AcDbVisualStyle
  2
2dWireframe
 70
     4
 71
     0
 72
     2
 73
     0
 90
        0
 40
-0.6
 41
-30.0
 62
     5
 63
     7
 74
     1
 91
        4
 64
     7
 65
   257
 75
     1
175
     1
 42
1.0
 92
        0
 66
   257
 43
1.0
 76
     1
 77
     6
 78
     2
 67
     7
 79
     5
170
     0
171
     0
290
     0
174
     0
 93
        1
 44
0.0
173
     0
291
     0
 45
0.0
1001
ACAD
1000
AcDbSavedByObjectVersion
1070
     0
  0
VISUALSTYLE
  5
31
102
{ACAD_REACTORS
330
2A
102
}
102
{ACAD_XDICTIONARY
360
D69
102
}
330
2A
100
AcDbVisualStyle
  2
3D Hidden
 70
     6
 71
     1
 72
     2
 73
     2
 90
        0
 40
-0.6
 41
-30.0
 62
     5
 63
     7
 74
     2
 91
        2
 64
     7
 65
   257
 75
     2
175
     1
 42
40.0
 92
        0
 66
   257
 43
1.0
 76
     1
 77
     6
 78
     2
 67
     7
 79
     3
170
     0
171
     0
290
     0
174
     0
 93
        1
 44
0.0
173
     0
291
     0
 45
0.0
1001
ACAD
1000
AcDbSavedByObjectVersion
1070
     0
  0
VISUALSTYLE
  5
30
102
{ACAD_REACTORS
330
2A
102
}
102
{ACAD_XDICTIONARY
360
D67
102
}
330
2A
100
AcDbVisualStyle
  2
3dWireframe
 70
     5
 71
     0
 72
     2
 73
     0
 90
        0
 40
-0.6
 41
-30.0
 62
     5
 63
     7
 74
     1
 91
        4
 64
     7
 65
   257
 75
     1
175
     1
 42
1.0
 92
        0
 66
   257
 43
1.0
 76
     1
 77
     6
 78
     2
 67
     7
 79
     5
170
     0
171
     0
290
     0
174
     0
 93
        1
 44
0.0
173
     0
291
     0
 45
0.0
1001
ACAD
1000
AcDbSavedByObjectVersion
1070
     0
  0
VISUALSTYLE
  5
32
102
{ACAD_REACTORS
330
2A
102
}
102
{ACAD_XDICTIONARY
360
D6B
102
}
330
2A
100
AcDbVisualStyle
  2
Basic
 70
     7
 71
     1
 72
     0
 73
     1
 90
        0
 40
-0.6
 41
-30.0
 62
     5
 63
     7
 74
     0
 91
        4
 64
     7
 65
   257
 75
     1
175
     1
 42
1.0
 92
        8
 66
     7
 43
1.0
 76
     1
 77
     6
 78
     2
 67
     7
 79
     5
170
     0
171
     0
290
     0
174
     0
 93
        1
 44
0.0
173
     0
291
     1
 45
0.0
1001
ACAD
1000
AcDbSavedByObjectVersion
1070
     0
  0
VISUALSTYLE
  5
36
102
{ACAD_REACTORS
330
2A
102
}
102
{ACAD_XDICTIONARY
360
D73
102
}
330
2A
100
AcDbVisualStyle
  2
Brighten
 70
    12
 71
     2
 72
     2
 73
     0
 90
        0
 40
-0.6
 41
-30.0
 62
     5
 63
     7
 74
     1
 91
        4
 64
     7
 65
   257
 75
     1
175
     1
 42
1.0
 92
        8
 66
     7
 43
1.0
 76
     1
 77
     6
 78
     2
 67
     7
 79
     5
170
     0
171
     0
290
     0
174
     0
 93
        1
 44
50.0
173
     0
291
     1
 45
0.0
1001
ACAD
1000
AcDbSavedByObjectVersion
1070
     0
  0
VISUALSTYLE
  5
3A
102
{ACAD_REACTORS
330
2A
102
}
102
{ACAD_XDICTIONARY
360
D7B
102
}
330
2A
100
AcDbVisualStyle
  2
ColorChange
 70
    16
 71
     2
 72
     2
 73
     3
 90
        0
 40
-0.6
 41
-30.0
 62
     5
 63
     8
 74
     1
 91
        4
 64
     7
 65
   257
 75
     1
175
     1
 42
1.0
 92
        8
 66
     8
 43
1.0
 76
     1
 77
     6
 78
     2
 67
     7
 79
     5
170
     0
171
     0
290
     0
174
     0
 93
        1
 44
0.0
173
     0
291
     1
 45
0.0
1001
ACAD
1000
AcDbSavedByObjectVersion
1070
     0
  0
VISUALSTYLE
  5
34
102
{ACAD_REACTORS
330
2A
102
}
102
{ACAD_XDICTIONARY
360
D6F
102
}
330
2A
100
AcDbVisualStyle
  2
Conceptual
 70
     9
 71
     3
 72
     2
 73
     0
 90
        0
 40
-0.6
 41
-30.0
 62
     5
 63
     7
 74
     2
 91
        2
 64
     7
 65
   257
 75
     1
175
     1
 42
40.0
 92
        8
 66
     7
 43
1.0
 76
     1
 77
     6
 78
     2
 67
     7
 79
     3
170
     0
171
     0
290
     0
174
     0
 93
        1
 44
0.0
173
     0
291
     0
 45
0.0
1001
ACAD
1000
AcDbSavedByObjectVersion
1070
     0
  0
VISUALSTYLE
  5
35
102
{ACAD_REACTORS
330
2A
102
}
102
{ACAD_XDICTIONARY
360
D71
102
}
330
2A
100
AcDbVisualStyle
  2
Dim
 70
    11
 71
     2
 72
     2
 73
     0
 90
        0
 40
-0.6
 41
-30.0
 62
     5
 63
     7
 74
     1
 91
        4
 64
     7
 65
   257
 75
     1
175
     1
 42
1.0
 92
        8
 66
     7
 43
1.0
 76
     1
 77
     6
 78
     2
 67
     7
 79
     5
170
     0
171
     0
290
     0
174
     0
 93
        1
 44
-50.0
173
     0
291
     1
 45
0.0
1001
ACAD
1000
AcDbSavedByObjectVersion
1070
     0
  0
VISUALSTYLE
  5
39
102
{ACAD_REACTORS
330
2A
102
}
102
{ACAD_XDICTIONARY
360
D79
102
}
330
2A
100
AcDbVisualStyle
  2
Facepattern
 70
    15
 71
     2
 72
     2
 73
     0
 90
        0
 40
-0.6
 41
-30.0
 62
     5
 63
     7
 74
     1
 91
        4
 64
     7
 65
   257
 75
     1
175
     1
 42
1.0
 92
        8
 66
     7
 43
1.0
 76
     1
 77
     6
 78
     2
 67
     7
 79
     5
170
     0
171
     0
290
     0
174
     0
 93
        1
 44
0.0
173
     0
291
     1
 45
0.0
1001
ACAD
1000
AcDbSavedByObjectVersion
1070
     0
  0
VISUALSTYLE
  5
2B
102
{ACAD_REACTORS
330
2A
102
}
102
{ACAD_XDICTIONARY
360
D5D
102
}
330
2A
100
AcDbVisualStyle
  2
Flat
 70
     0
 71
     2
 72
     1
 73
     1
 90
        2
 40
-0.6
 41
30.0
 62
     5
 63
     7
 74
     0
 91
        4
 64
     7
 65
   257
 75
     1
175
     1
 42
1.0
 92
        8
 66
     7
 43
1.0
 76
     1
 77
     6
 78
     2
 67
     7
 79
     5
170
     0
171
     0
290
     0
174
     0
 93
       13
 44
0.0
173
     0
291
     1
 45
0.0
1001
ACAD
1000
AcDbSavedByObjectVersion
1070
     0
  0
VISUALSTYLE
  5
2C
102
{ACAD_REACTORS
330
2A
102
}
102
{ACAD_XDICTIONARY
360
D5F
102
}
330
2A
100
AcDbVisualStyle
  2
FlatWithEdges
 70
     1
 71
     2
 72
     1
 73
     1
 90
        2
 40
-0.6
 41
30.0
 62
     5
 63
     7
 74
     1
 91
        4
 64
     7
 65
   257
 75
     1
175
     1
 42
1.0
 92
        0
 66
   257
 43
1.0
 76
     1
 77
     6
 78
     2
 67
     7
 79
     5
170
     0
171
     0
290
     0
174
     0
 93
       13
 44
0.0
173
     0
291
     1
 45
0.0
1001
ACAD
1000
AcDbSavedByObjectVersion
1070
     0
  0
VISUALSTYLE
  5
2D
102
{ACAD_REACTORS
330
2A
102
}
102
{ACAD_XDICTIONARY
360
D61
102
}
330
2A
100
AcDbVisualStyle
  2
Gouraud
 70
     2
 71
     2
 72
     2
 73
     1
 90
        2
 40
-0.6
 41
30.0
 62
     5
 63
     7
 74
     0
 91
        4
 64
     7
 65
   257
 75
     1
175
     1
 42
1.0
 92
        0
 66
     7
 43
1.0
 76
     1
 77
     6
 78
     2
 67
     7
 79
     5
170
     0
171
     0
290
     0
174
     0
 93
       13
 44
0.0
173
     0
291
     1
 45
0.0
1001
ACAD
1000
AcDbSavedByObjectVersion
1070
     0
  0
VISUALSTYLE
  5
2E
102
{ACAD_REACTORS
330
2A
102
}
102
{ACAD_XDICTIONARY
360
D63
102
}
330
2A
100
AcDbVisualStyle
  2
GouraudWithEdges
 70
     3
 71
     2
 72
     2
 73
     1
 90
        2
 40
-0.6
 41
30.0
 62
     5
 63
     7
 74
     1
 91
        4
 64
     7
 65
   257
 75
     1
175
     1
 42
1.0
 92
        0
 66
   257
 43
1.0
 76
     1
 77
     6
 78
     2
 67
     7
 79
     5
170
     0
171
     0
290
     0
174
     0
 93
       13
 44
0.0
173
     0
291
     1
 45
0.0
1001
ACAD
1000
AcDbSavedByObjectVersion
1070
     0
  0
VISUALSTYLE
  5
38
102
{ACAD_REACTORS
330
2A
102
}
102
{ACAD_XDICTIONARY
360
D77
102
}
330
2A
100
AcDbVisualStyle
  2
Linepattern
 70
    14
 71
     2
 72
     2
 73
     0
 90
        0
 40
-0.6
 41
-30.0
 62
     5
 63
     7
 74
     1
 91
        4
 64
     7
 65
   257
 75
     7
175
     7
 42
1.0
 92
        8
 66
     7
 43
1.0
 76
     1
 77
     6
 78
     2
 67
     7
 79
     5
170
     0
171
     0
290
     0
174
     0
 93
        1
 44
0.0
173
     0
291
     1
 45
0.0
1001
ACAD
1000
AcDbSavedByObjectVersion
1070
     0
  0
VISUALSTYLE
  5
33
102
{ACAD_REACTORS
330
2A
102
}
102
{ACAD_XDICTIONARY
360
D6D
102
}
330
2A
100
AcDbVisualStyle
  2
Realistic
 70
     8
 71
     2
 72
     2
 73
     0
 90
        0
 40
-0.6
 41
-30.0
 62
     5
 63
     7
 74
     1
 91
        0
 64
     7
 65
   257
 75
     1
175
     1
 42
1.0
 92
        8
 66
     8
 43
1.0
 76
     1
 77
     6
 78
     2
 67
     7
 79
     5
170
     0
171
     0
290
     0
174
     0
 93
       13
 44
0.0
173
     0
291
     0
 45
0.0
1001
ACAD
1000
AcDbSavedByObjectVersion
1070
     0
  0
VISUALSTYLE
  5
37
102
{ACAD_REACTORS
330
2A
102
}
102
{ACAD_XDICTIONARY
360
D75
102
}
330
2A
100
AcDbVisualStyle
  2
Thicken
 70
    13
 71
     2
 72
     2
 73
     0
 90
        0
 40
-0.6
 41
-30.0
 62
     5
 63
     7
 74
     1
 91
        4
 64
     7
 65
   257
 75
     1
175
     1
 42
1.0
 92
       12
 66
     7
 43
1.0
 76
     1
 77
     6
 78
     2
 67
     7
 79
     5
170
     0
171
     0
290
     0
174
     0
 93
        1
 44
0.0
173
     0
291
     1
 45
0.0
1001
ACAD
1000
AcDbSavedByObjectVersion
1070
     0
  0
DICTIONARYVAR
  5
D5A
102
{ACAD_REACTORS
330
D55
102
}
330
D55
100
DictionaryVariables
280
     0
  1
1:1
  0
DICTIONARYVAR
  5
D5B
102
{ACAD_REACTORS
330
D55
102
}
330
D55
100
DictionaryVariables
280
     0
  1
2
  0
DICTIONARYVAR
  5
D5C
102
{ACAD_REACTORS
330
D55
102
}
330
D55
100
DictionaryVariables
280
     0
  1
1
  0
DICTIONARYVAR
  5
D59
102
{ACAD_REACTORS
330
D55
102
}
330
D55
100
DictionaryVariables
280
     0
  1
80.000000
  0
DICTIONARYVAR
  5
D58
102
{ACAD_REACTORS
330
D55
102
}
330
D55
100
DictionaryVariables
280
     0
  1
5.000000
  0
DICTIONARY
  5
D7F
330
3D
100
AcDbDictionary
280
     1
281
     1
  3
ACAD_XREC_ROUNDTRIP
360
D80
  0
DICTIONARY
  5
D7D
330
3C
100
AcDbDictionary
280
     1
281
     1
  3
ACAD_XREC_ROUNDTRIP
360
D7E
  0
DICTIONARY
  5
D81
330
3E
100
AcDbDictionary
280
     1
281
     1
  3
ACAD_XREC_ROUNDTRIP
360
D82
  0
DICTIONARY
  5
D65
330
2F
100
AcDbDictionary
280
     1
281
     1
  3
ACAD_XREC_ROUNDTRIP
360
D66
  0
DICTIONARY
  5
D69
330
31
100
AcDbDictionary
280
     1
281
     1
  3
ACAD_XREC_ROUNDTRIP
360
D6A
  0
DICTIONARY
  5
D67
330
30
100
AcDbDictionary
280
     1
281
     1
  3
ACAD_XREC_ROUNDTRIP
360
D68
  0
DICTIONARY
  5
D6B
330
32
100
AcDbDictionary
280
     1
281
     1
  3
ACAD_XREC_ROUNDTRIP
360
D6C
  0
DICTIONARY
  5
D73
330
36
100
AcDbDictionary
280
     1
281
     1
  3
ACAD_XREC_ROUNDTRIP
360
D74
  0
DICTIONARY
  5
D7B
330
3A
100
AcDbDictionary
280
     1
281
     1
  3
ACAD_XREC_ROUNDTRIP
360
D7C
  0
DICTIONARY
  5
D6F
330
34
100
AcDbDictionary
280
     1
281
     1
  3
ACAD_XREC_ROUNDTRIP
360
D70
  0
DICTIONARY
  5
D71
330
35
100
AcDbDictionary
280
     1
281
     1
  3
ACAD_XREC_ROUNDTRIP
360
D72
  0
DICTIONARY
  5
D79
330
39
100
AcDbDictionary
280
     1
281
     1
  3
ACAD_XREC_ROUNDTRIP
360
D7A
  0
DICTIONARY
  5
D5D
330
2B
100
AcDbDictionary
280
     1
281
     1
  3
ACAD_XREC_ROUNDTRIP
360
D5E
  0
DICTIONARY
  5
D5F
330
2C
100
AcDbDictionary
280
     1
281
     1
  3
ACAD_XREC_ROUNDTRIP
360
D60
  0
DICTIONARY
  5
D61
330
2D
100
AcDbDictionary
280
     1
281
     1
  3
ACAD_XREC_ROUNDTRIP
360
D62
  0
DICTIONARY
  5
D63
330
2E
100
AcDbDictionary
280
     1
281
     1
  3
ACAD_XREC_ROUNDTRIP
360
D64
  0
DICTIONARY
  5
D77
330
38
100
AcDbDictionary
280
     1
281
     1
  3
ACAD_XREC_ROUNDTRIP
360
D78
  0
DICTIONARY
  5
D6D
330
33
100
AcDbDictionary
280
     1
281
     1
  3
ACAD_XREC_ROUNDTRIP
360
D6E
  0
DICTIONARY
  5
D75
330
37
100
AcDbDictionary
280
     1
281
     1
  3
ACAD_XREC_ROUNDTRIP
360
D76
  0
XRECORD
  5
D80
102
{ACAD_REACTORS
330
D7F
102
}
330
D7F
100
AcDbXrecord
280
     1
102
MATERIAL
148
0.0
149
0.0
149
0.0
 93
        0
 94
      127
282
     0
 72
     1
 77
     1
171
     1
175
     1
179
     1
273
     0
  0
XRECORD
  5
D7E
102
{ACAD_REACTORS
330
D7D
102
}
330
D7D
100
AcDbXrecord
280
     1
102
MATERIAL
148
0.0
149
0.0
149
0.0
 93
        0
 94
      127
282
     0
 72
     1
 77
     1
171
     1
175
     1
179
     1
273
     0
  0
XRECORD
  5
D82
102
{ACAD_REACTORS
330
D81
102
}
330
D81
100
AcDbXrecord
280
     1
102
MATERIAL
148
0.0
149
0.0
149
0.0
 93
        0
 94
      127
282
     0
 72
     1
 77
     1
171
     1
175
     1
179
     1
273
     0
  0
XRECORD
  5
D66
102
{ACAD_REACTORS
330
D65
102
}
330
D65
100
AcDbXrecord
280
     1
102
RTVSPropertyOp0
 70
     1
102
RTVSPropertyOp1
 70
     1
102
RTVSPropertyOp2
 70
     1
102
RTVSPropertyOp3
 70
     1
102
RTVSPropertyOp4
 70
     1
102
RTVSPropertyOp5
 70
     1
102
RTVSPropertyOp6
 70
     1
102
RTVSPropertyOp7
 70
     1
102
RTVSPropertyOp8
 70
     1
102
RTVSPropertyOp9
 70
     1
102
RTVSPropertyOp10
 70
     1
102
RTVSPropertyOp11
 70
     1
102
RTVSPropertyOp12
 70
     1
102
RTVSPropertyOp13
 70
     1
102
RTVSPropertyOp14
 70
     1
102
RTVSPropertyOp15
 70
     1
102
RTVSPropertyOp16
 70
     1
102
RTVSPropertyOp17
 70
     1
102
RTVSPropertyOp18
 70
     1
102
RTVSPropertyOp19
 70
     1
102
RTVSPropertyOp20
 70
     1
102
RTVSPropertyOp21
 70
     1
102
RTVSPropertyOp22
 70
     1
102
RTVSPropertyOp23
 70
     1
102
RTVSPropertyOp24
 70
     1
102
RTVSPropertyOp25
 70
     1
102
RTVSPropertyOp26
 70
     1
102
RTVSPropertyOp27
 70
     1
  0
XRECORD
  5
D6A
102
{ACAD_REACTORS
330
D69
102
}
330
D69
100
AcDbXrecord
280
     1
102
RTVSPropertyOp0
 70
     1
102
RTVSPropertyOp1
 70
     1
102
RTVSPropertyOp2
 70
     1
102
RTVSPropertyOp3
 70
     1
102
RTVSPropertyOp4
 70
     1
102
RTVSPropertyOp5
 70
     1
102
RTVSPropertyOp6
 70
     1
102
RTVSPropertyOp7
 70
     1
102
RTVSPropertyOp8
 70
     1
102
RTVSPropertyOp9
 70
     1
102
RTVSPropertyOp10
 70
     1
102
RTVSPropertyOp11
 70
     1
102
RTVSPropertyOp12
 70
     1
102
RTVSPropertyOp13
 70
     1
102
RTVSPropertyOp14
 70
     1
102
RTVSPropertyOp15
 70
     1
102
RTVSPropertyOp16
 70
     1
102
RTVSPropertyOp17
 70
     1
102
RTVSPropertyOp18
 70
     1
102
RTVSPropertyOp19
 70
     1
102
RTVSPropertyOp20
 70
     1
102
RTVSPropertyOp21
 70
     1
102
RTVSPropertyOp22
 70
     1
102
RTVSPropertyOp23
 70
     1
102
RTVSPropertyOp24
 70
     1
102
RTVSPropertyOp25
 70
     1
102
RTVSPropertyOp26
 70
     1
102
RTVSPropertyOp27
 70
     1
  0
XRECORD
  5
D68
102
{ACAD_REACTORS
330
D67
102
}
330
D67
100
AcDbXrecord
280
     1
102
RTVSPropertyOp0
 70
     1
102
RTVSPropertyOp1
 70
     1
102
RTVSPropertyOp2
 70
     1
102
RTVSPropertyOp3
 70
     1
102
RTVSPropertyOp4
 70
     1
102
RTVSPropertyOp5
 70
     1
102
RTVSPropertyOp6
 70
     1
102
RTVSPropertyOp7
 70
     1
102
RTVSPropertyOp8
 70
     1
102
RTVSPropertyOp9
 70
     1
102
RTVSPropertyOp10
 70
     1
102
RTVSPropertyOp11
 70
     1
102
RTVSPropertyOp12
 70
     1
102
RTVSPropertyOp13
 70
     1
102
RTVSPropertyOp14
 70
     1
102
RTVSPropertyOp15
 70
     1
102
RTVSPropertyOp16
 70
     1
102
RTVSPropertyOp17
 70
     1
102
RTVSPropertyOp18
 70
     1
102
RTVSPropertyOp19
 70
     1
102
RTVSPropertyOp20
 70
     1
102
RTVSPropertyOp21
 70
     1
102
RTVSPropertyOp22
 70
     1
102
RTVSPropertyOp23
 70
     1
102
RTVSPropertyOp24
 70
     1
102
RTVSPropertyOp25
 70
     1
102
RTVSPropertyOp26
 70
     1
102
RTVSPropertyOp27
 70
     1
  0
XRECORD
  5
D6C
102
{ACAD_REACTORS
330
D6B
102
}
330
D6B
100
AcDbXrecord
280
     1
102
RTVSPropertyOp0
 70
     1
102
RTVSPropertyOp1
 70
     1
102
RTVSPropertyOp2
 70
     1
102
RTVSPropertyOp3
 70
     1
102
RTVSPropertyOp4
 70
     1
102
RTVSPropertyOp5
 70
     1
102
RTVSPropertyOp6
 70
     1
102
RTVSPropertyOp7
 70
     1
102
RTVSPropertyOp8
 70
     1
102
RTVSPropertyOp9
 70
     1
102
RTVSPropertyOp10
 70
     1
102
RTVSPropertyOp11
 70
     1
102
RTVSPropertyOp12
 70
     1
102
RTVSPropertyOp13
 70
     1
102
RTVSPropertyOp14
 70
     1
102
RTVSPropertyOp15
 70
     1
102
RTVSPropertyOp16
 70
     1
102
RTVSPropertyOp17
 70
     1
102
RTVSPropertyOp18
 70
     1
102
RTVSPropertyOp19
 70
     1
102
RTVSPropertyOp20
 70
     1
102
RTVSPropertyOp21
 70
     1
102
RTVSPropertyOp22
 70
     1
102
RTVSPropertyOp23
 70
     1
102
RTVSPropertyOp24
 70
     1
102
RTVSPropertyOp25
 70
     1
102
RTVSPropertyOp26
 70
     1
102
RTVSPropertyOp27
 70
     1
  0
XRECORD
  5
D74
102
{ACAD_REACTORS
330
D73
102
}
330
D73
100
AcDbXrecord
280
     1
102
RTVSPropertyOp0
 70
     1
102
RTVSPropertyOp1
 70
     1
102
RTVSPropertyOp2
 70
     1
102
RTVSPropertyOp3
 70
     1
102
RTVSPropertyOp4
 70
     1
102
RTVSPropertyOp5
 70
     1
102
RTVSPropertyOp6
 70
     1
102
RTVSPropertyOp7
 70
     1
102
RTVSPropertyOp8
 70
     1
102
RTVSPropertyOp9
 70
     1
102
RTVSPropertyOp10
 70
     1
102
RTVSPropertyOp11
 70
     1
102
RTVSPropertyOp12
 70
     1
102
RTVSPropertyOp13
 70
     1
102
RTVSPropertyOp14
 70
     1
102
RTVSPropertyOp15
 70
     1
102
RTVSPropertyOp16
 70
     1
102
RTVSPropertyOp17
 70
     1
102
RTVSPropertyOp18
 70
     1
102
RTVSPropertyOp19
 70
     1
102
RTVSPropertyOp20
 70
     1
102
RTVSPropertyOp21
 70
     1
102
RTVSPropertyOp22
 70
     1
102
RTVSPropertyOp23
 70
     1
102
RTVSPropertyOp24
 70
     1
102
RTVSPropertyOp25
 70
     1
102
RTVSPropertyOp26
 70
     1
102
RTVSPropertyOp27
 70
     1
  0
XRECORD
  5
D7C
102
{ACAD_REACTORS
330
D7B
102
}
330
D7B
100
AcDbXrecord
280
     1
102
RTVSPropertyOp0
 70
     1
102
RTVSPropertyOp1
 70
     1
102
RTVSPropertyOp2
 70
     1
102
RTVSPropertyOp3
 70
     1
102
RTVSPropertyOp4
 70
     1
102
RTVSPropertyOp5
 70
     1
102
RTVSPropertyOp6
 70
     1
102
RTVSPropertyOp7
 70
     1
102
RTVSPropertyOp8
 70
     1
102
RTVSPropertyOp9
 70
     1
102
RTVSPropertyOp10
 70
     1
102
RTVSPropertyOp11
 70
     1
102
RTVSPropertyOp12
 70
     1
102
RTVSPropertyOp13
 70
     1
102
RTVSPropertyOp14
 70
     1
102
RTVSPropertyOp15
 70
     1
102
RTVSPropertyOp16
 70
     1
102
RTVSPropertyOp17
 70
     1
102
RTVSPropertyOp18
 70
     1
102
RTVSPropertyOp19
 70
     1
102
RTVSPropertyOp20
 70
     1
102
RTVSPropertyOp21
 70
     1
102
RTVSPropertyOp22
 70
     1
102
RTVSPropertyOp23
 70
     1
102
RTVSPropertyOp24
 70
     1
102
RTVSPropertyOp25
 70
     1
102
RTVSPropertyOp26
 70
     1
102
RTVSPropertyOp27
 70
     1
  0
XRECORD
  5
D70
102
{ACAD_REACTORS
330
D6F
102
}
330
D6F
100
AcDbXrecord
280
     1
102
RTVSPropertyOp0
 70
     1
102
RTVSPropertyOp1
 70
     1
102
RTVSPropertyOp2
 70
     1
102
RTVSPropertyOp3
 70
     1
102
RTVSPropertyOp4
 70
     1
102
RTVSPropertyOp5
 70
     1
102
RTVSPropertyOp6
 70
     1
102
RTVSPropertyOp7
 70
     1
102
RTVSPropertyOp8
 70
     1
102
RTVSPropertyOp9
 70
     1
102
RTVSPropertyOp10
 70
     1
102
RTVSPropertyOp11
 70
     1
102
RTVSPropertyOp12
 70
     1
102
RTVSPropertyOp13
 70
     1
102
RTVSPropertyOp14
 70
     1
102
RTVSPropertyOp15
 70
     1
102
RTVSPropertyOp16
 70
     1
102
RTVSPropertyOp17
 70
     1
102
RTVSPropertyOp18
 70
     1
102
RTVSPropertyOp19
 70
     1
102
RTVSPropertyOp20
 70
     1
102
RTVSPropertyOp21
 70
     1
102
RTVSPropertyOp22
 70
     1
102
RTVSPropertyOp23
 70
     1
102
RTVSPropertyOp24
 70
     1
102
RTVSPropertyOp25
 70
     1
102
RTVSPropertyOp26
 70
     1
102
RTVSPropertyOp27
 70
     1
  0
XRECORD
  5
D72
102
{ACAD_REACTORS
330
D71
102
}
330
D71
100
AcDbXrecord
280
     1
102
RTVSPropertyOp0
 70
     1
102
RTVSPropertyOp1
 70
     1
102
RTVSPropertyOp2
 70
     1
102
RTVSPropertyOp3
 70
     1
102
RTVSPropertyOp4
 70
     1
102
RTVSPropertyOp5
 70
     1
102
RTVSPropertyOp6
 70
     1
102
RTVSPropertyOp7
 70
     1
102
RTVSPropertyOp8
 70
     1
102
RTVSPropertyOp9
 70
     1
102
RTVSPropertyOp10
 70
     1
102
RTVSPropertyOp11
 70
     1
102
RTVSPropertyOp12
 70
     1
102
RTVSPropertyOp13
 70
     1
102
RTVSPropertyOp14
 70
     1
102
RTVSPropertyOp15
 70
     1
102
RTVSPropertyOp16
 70
     1
102
RTVSPropertyOp17
 70
     1
102
RTVSPropertyOp18
 70
     1
102
RTVSPropertyOp19
 70
     1
102
RTVSPropertyOp20
 70
     1
102
RTVSPropertyOp21
 70
     1
102
RTVSPropertyOp22
 70
     1
102
RTVSPropertyOp23
 70
     1
102
RTVSPropertyOp24
 70
     1
102
RTVSPropertyOp25
 70
     1
102
RTVSPropertyOp26
 70
     1
102
RTVSPropertyOp27
 70
     1
  0
XRECORD
  5
D7A
102
{ACAD_REACTORS
330
D79
102
}
330
D79
100
AcDbXrecord
280
     1
102
RTVSPropertyOp0
 70
     1
102
RTVSPropertyOp1
 70
     1
102
RTVSPropertyOp2
 70
     1
102
RTVSPropertyOp3
 70
     1
102
RTVSPropertyOp4
 70
     1
102
RTVSPropertyOp5
 70
     1
102
RTVSPropertyOp6
 70
     1
102
RTVSPropertyOp7
 70
     1
102
RTVSPropertyOp8
 70
     1
102
RTVSPropertyOp9
 70
     1
102
RTVSPropertyOp10
 70
     1
102
RTVSPropertyOp11
 70
     1
102
RTVSPropertyOp12
 70
     1
102
RTVSPropertyOp13
 70
     1
102
RTVSPropertyOp14
 70
     1
102
RTVSPropertyOp15
 70
     1
102
RTVSPropertyOp16
 70
     1
102
RTVSPropertyOp17
 70
     1
102
RTVSPropertyOp18
 70
     1
102
RTVSPropertyOp19
 70
     1
102
RTVSPropertyOp20
 70
     1
102
RTVSPropertyOp21
 70
     1
102
RTVSPropertyOp22
 70
     1
102
RTVSPropertyOp23
 70
     1
102
RTVSPropertyOp24
 70
     1
102
RTVSPropertyOp25
 70
     1
102
RTVSPropertyOp26
 70
     1
102
RTVSPropertyOp27
 70
     1
  0
XRECORD
  5
D5E
102
{ACAD_REACTORS
330
D5D
102
}
330
D5D
100
AcDbXrecord
280
     1
102
RTVSPropertyOp0
 70
     1
102
RTVSPropertyOp1
 70
     1
102
RTVSPropertyOp2
 70
     1
102
RTVSPropertyOp3
 70
     1
102
RTVSPropertyOp4
 70
     1
102
RTVSPropertyOp5
 70
     1
102
RTVSPropertyOp6
 70
     1
102
RTVSPropertyOp7
 70
     1
102
RTVSPropertyOp8
 70
     1
102
RTVSPropertyOp9
 70
     1
102
RTVSPropertyOp10
 70
     1
102
RTVSPropertyOp11
 70
     1
102
RTVSPropertyOp12
 70
     1
102
RTVSPropertyOp13
 70
     1
102
RTVSPropertyOp14
 70
     1
102
RTVSPropertyOp15
 70
     1
102
RTVSPropertyOp16
 70
     1
102
RTVSPropertyOp17
 70
     1
102
RTVSPropertyOp18
 70
     1
102
RTVSPropertyOp19
 70
     1
102
RTVSPropertyOp20
 70
     1
102
RTVSPropertyOp21
 70
     1
102
RTVSPropertyOp22
 70
     1
102
RTVSPropertyOp23
 70
     1
102
RTVSPropertyOp24
 70
     1
102
RTVSPropertyOp25
 70
     1
102
RTVSPropertyOp26
 70
     1
102
RTVSPropertyOp27
 70
     1
  0
XRECORD
  5
D60
102
{ACAD_REACTORS
330
D5F
102
}
330
D5F
100
AcDbXrecord
280
     1
102
RTVSPropertyOp0
 70
     1
102
RTVSPropertyOp1
 70
     1
102
RTVSPropertyOp2
 70
     1
102
RTVSPropertyOp3
 70
     1
102
RTVSPropertyOp4
 70
     1
102
RTVSPropertyOp5
 70
     1
102
RTVSPropertyOp6
 70
     1
102
RTVSPropertyOp7
 70
     1
102
RTVSPropertyOp8
 70
     1
102
RTVSPropertyOp9
 70
     1
102
RTVSPropertyOp10
 70
     1
102
RTVSPropertyOp11
 70
     1
102
RTVSPropertyOp12
 70
     1
102
RTVSPropertyOp13
 70
     1
102
RTVSPropertyOp14
 70
     1
102
RTVSPropertyOp15
 70
     1
102
RTVSPropertyOp16
 70
     1
102
RTVSPropertyOp17
 70
     1
102
RTVSPropertyOp18
 70
     1
102
RTVSPropertyOp19
 70
     1
102
RTVSPropertyOp20
 70
     1
102
RTVSPropertyOp21
 70
     1
102
RTVSPropertyOp22
 70
     1
102
RTVSPropertyOp23
 70
     1
102
RTVSPropertyOp24
 70
     1
102
RTVSPropertyOp25
 70
     1
102
RTVSPropertyOp26
 70
     1
102
RTVSPropertyOp27
 70
     1
  0
XRECORD
  5
D62
102
{ACAD_REACTORS
330
D61
102
}
330
D61
100
AcDbXrecord
280
     1
102
RTVSPropertyOp0
 70
     1
102
RTVSPropertyOp1
 70
     1
102
RTVSPropertyOp2
 70
     1
102
RTVSPropertyOp3
 70
     1
102
RTVSPropertyOp4
 70
     1
102
RTVSPropertyOp5
 70
     1
102
RTVSPropertyOp6
 70
     1
102
RTVSPropertyOp7
 70
     1
102
RTVSPropertyOp8
 70
     1
102
RTVSPropertyOp9
 70
     1
102
RTVSPropertyOp10
 70
     1
102
RTVSPropertyOp11
 70
     1
102
RTVSPropertyOp12
 70
     1
102
RTVSPropertyOp13
 70
     1
102
RTVSPropertyOp14
 70
     1
102
RTVSPropertyOp15
 70
     1
102
RTVSPropertyOp16
 70
     1
102
RTVSPropertyOp17
 70
     1
102
RTVSPropertyOp18
 70
     1
102
RTVSPropertyOp19
 70
     1
102
RTVSPropertyOp20
 70
     1
102
RTVSPropertyOp21
 70
     1
102
RTVSPropertyOp22
 70
     1
102
RTVSPropertyOp23
 70
     1
102
RTVSPropertyOp24
 70
     1
102
RTVSPropertyOp25
 70
     1
102
RTVSPropertyOp26
 70
     1
102
RTVSPropertyOp27
 70
     1
  0
XRECORD
  5
D64
102
{ACAD_REACTORS
330
D63
102
}
330
D63
100
AcDbXrecord
280
     1
102
RTVSPropertyOp0
 70
     1
102
RTVSPropertyOp1
 70
     1
102
RTVSPropertyOp2
 70
     1
102
RTVSPropertyOp3
 70
     1
102
RTVSPropertyOp4
 70
     1
102
RTVSPropertyOp5
 70
     1
102
RTVSPropertyOp6
 70
     1
102
RTVSPropertyOp7
 70
     1
102
RTVSPropertyOp8
 70
     1
102
RTVSPropertyOp9
 70
     1
102
RTVSPropertyOp10
 70
     1
102
RTVSPropertyOp11
 70
     1
102
RTVSPropertyOp12
 70
     1
102
RTVSPropertyOp13
 70
     1
102
RTVSPropertyOp14
 70
     1
102
RTVSPropertyOp15
 70
     1
102
RTVSPropertyOp16
 70
     1
102
RTVSPropertyOp17
 70
     1
102
RTVSPropertyOp18
 70
     1
102
RTVSPropertyOp19
 70
     1
102
RTVSPropertyOp20
 70
     1
102
RTVSPropertyOp21
 70
     1
102
RTVSPropertyOp22
 70
     1
102
RTVSPropertyOp23
 70
     1
102
RTVSPropertyOp24
 70
     1
102
RTVSPropertyOp25
 70
     1
102
RTVSPropertyOp26
 70
     1
102
RTVSPropertyOp27
 70
     1
  0
XRECORD
  5
D78
102
{ACAD_REACTORS
330
D77
102
}
330
D77
100
AcDbXrecord
280
     1
102
RTVSPropertyOp0
 70
     1
102
RTVSPropertyOp1
 70
     1
102
RTVSPropertyOp2
 70
     1
102
RTVSPropertyOp3
 70
     1
102
RTVSPropertyOp4
 70
     1
102
RTVSPropertyOp5
 70
     1
102
RTVSPropertyOp6
 70
     1
102
RTVSPropertyOp7
 70
     1
102
RTVSPropertyOp8
 70
     1
102
RTVSPropertyOp9
 70
     1
102
RTVSPropertyOp10
 70
     1
102
RTVSPropertyOp11
 70
     1
102
RTVSPropertyOp12
 70
     1
102
RTVSPropertyOp13
 70
     1
102
RTVSPropertyOp14
 70
     1
102
RTVSPropertyOp15
 70
     1
102
RTVSPropertyOp16
 70
     1
102
RTVSPropertyOp17
 70
     1
102
RTVSPropertyOp18
 70
     1
102
RTVSPropertyOp19
 70
     1
102
RTVSPropertyOp20
 70
     1
102
RTVSPropertyOp21
 70
     1
102
RTVSPropertyOp22
 70
     1
102
RTVSPropertyOp23
 70
     1
102
RTVSPropertyOp24
 70
     1
102
RTVSPropertyOp25
 70
     1
102
RTVSPropertyOp26
 70
     1
102
RTVSPropertyOp27
 70
     1
  0
XRECORD
  5
D6E
102
{ACAD_REACTORS
330
D6D
102
}
330
D6D
100
AcDbXrecord
280
     1
102
RTVSPropertyOp0
 70
     1
102
RTVSPropertyOp1
 70
     1
102
RTVSPropertyOp2
 70
     1
102
RTVSPropertyOp3
 70
     1
102
RTVSPropertyOp4
 70
     1
102
RTVSPropertyOp5
 70
     1
102
RTVSPropertyOp6
 70
     1
102
RTVSPropertyOp7
 70
     1
102
RTVSPropertyOp8
 70
     1
102
RTVSPropertyOp9
 70
     1
102
RTVSPropertyOp10
 70
     1
102
RTVSPropertyOp11
 70
     1
102
RTVSPropertyOp12
 70
     1
102
RTVSPropertyOp13
 70
     1
102
RTVSPropertyOp14
 70
     1
102
RTVSPropertyOp15
 70
     1
102
RTVSPropertyOp16
 70
     1
102
RTVSPropertyOp17
 70
     1
102
RTVSPropertyOp18
 70
     1
102
RTVSPropertyOp19
 70
     1
102
RTVSPropertyOp20
 70
     1
102
RTVSPropertyOp21
 70
     1
102
RTVSPropertyOp22
 70
     1
102
RTVSPropertyOp23
 70
     1
102
RTVSPropertyOp24
 70
     1
102
RTVSPropertyOp25
 70
     1
102
RTVSPropertyOp26
 70
     1
102
RTVSPropertyOp27
 70
     1
  0
XRECORD
  5
D76
102
{ACAD_REACTORS
330
D75
102
}
330
D75
100
AcDbXrecord
280
     1
102
RTVSPropertyOp0
 70
     1
102
RTVSPropertyOp1
 70
     1
102
RTVSPropertyOp2
 70
     1
102
RTVSPropertyOp3
 70
     1
102
RTVSPropertyOp4
 70
     1
102
RTVSPropertyOp5
 70
     1
102
RTVSPropertyOp6
 70
     1
102
RTVSPropertyOp7
 70
     1
102
RTVSPropertyOp8
 70
     1
102
RTVSPropertyOp9
 70
     1
102
RTVSPropertyOp10
 70
     1
102
RTVSPropertyOp11
 70
     1
102
RTVSPropertyOp12
 70
     1
102
RTVSPropertyOp13
 70
     1
102
RTVSPropertyOp14
 70
     1
102
RTVSPropertyOp15
 70
     1
102
RTVSPropertyOp16
 70
     1
102
RTVSPropertyOp17
 70
     1
102
RTVSPropertyOp18
 70
     1
102
RTVSPropertyOp19
 70
     1
102
RTVSPropertyOp20
 70
     1
102
RTVSPropertyOp21
 70
     1
102
RTVSPropertyOp22
 70
     1
102
RTVSPropertyOp23
 70
     1
102
RTVSPropertyOp24
 70
     1
102
RTVSPropertyOp25
 70
     1
102
RTVSPropertyOp26
 70
     1
102
RTVSPropertyOp27
 70
     1
  0
ENDSEC
  0
EOF
