  0
SECTION
  2
HEADER
  9
$ACADVER
  1
AC1015
  9
$ACADMAINTVER
 70
     6
  9
$DWGCODEPAGE
  3
ANSI_1252
  9
$INSBASE
 10
0.0
 20
0.0
 30
0.0
  9
$EXTMIN
 10
0.0
 20
0.0
 30
0.0
  9
$EXTMAX
 10
25.0
 20
35.0
 30
0.0
  9
$LIMMIN
 10
0.0
 20
0.0
  9
$LIMMAX
 10
420.0
 20
297.0
  9
$ORTHOMODE
 70
     0
  9
$REGENMODE
 70
     1
  9
$FILLMODE
 70
     1
  9
$QTEXTMODE
 70
     0
  9
$MIRRTEXT
 70
     1
  9
$LTSCALE
 40
5.15
  9
$ATTMODE
 70
     1
  9
$TEXTSIZE
 40
2.5
  9
$TRACEWID
 40
1.0
  9
$TEXTSTYLE
  7
Standard
  9
$CLAYER
  8
0
  9
$CELTYPE
  6
ByLayer
  9
$CECOLOR
 62
   256
  9
$CELTSCALE
 40
1.0
  9
$DISPSILH
 70
     0
  9
$DIMSCALE
 40
1.0
  9
$DIMASZ
 40
2.5
  9
$DIMEXO
 40
0.625
  9
$DIMDLI
 40
3.75
  9
$DIMRND
 40
0.0
  9
$DIMDLE
 40
0.0
  9
$DIMEXE
 40
1.25
  9
$DIMTP
 40
0.0
  9
$DIMTM
 40
0.0
  9
$DIMTXT
 40
2.5
  9
$DIMCEN
 40
2.5
  9
$DIMTSZ
 40
0.0
  9
$DIMTOL
 70
     0
  9
$DIMLIM
 70
     0
  9
$DIMTIH
 70
     0
  9
$DIMTOH
 70
     0
  9
$DIMSE1
 70
     0
  9
$DIMSE2
 70
     0
  9
$DIMTAD
 70
     1
  9
$DIMZIN
 70
     8
  9
$DIMBLK
  1

  9
$DIMASO
 70
     1
  9
$DIMSHO
 70
     1
  9
$DIMPOST
  1

  9
$DIMAPOST
  1

  9
$DIMALT
 70
     0
  9
$DIMALTD
 70
     3
  9
$DIMALTF
 40
0.03937007874016
  9
$DIMLFAC
 40
1.0
  9
$DIMTOFL
 70
     1
  9
$DIMTVP
 40
0.0
  9
$DIMTIX
 70
     0
  9
$DIMSOXD
 70
     0
  9
$DIMSAH
 70
     0
  9
$DIMBLK1
  1

  9
$DIMBLK2
  1

  9
$DIMSTYLE
  2
ISO-25
  9
$DIMCLRD
 70
     0
  9
$DIMCLRE
 70
     0
  9
$DIMCLRT
 70
     0
  9
$DIMTFAC
 40
1.0
  9
$DIMGAP
 40
0.625
  9
$DIMJUST
 70
     0
  9
$DIMSD1
 70
     0
  9
$DIMSD2
 70
     0
  9
$DIMTOLJ
 70
     0
  9
$DIMTZIN
 70
     8
  9
$DIMALTZ
 70
     0
  9
$DIMALTTZ
 70
     0
  9
$DIMUPT
 70
     0
  9
$DIMDEC
 70
     2
  9
$DIMTDEC
 70
     2
  9
$DIMALTU
 70
     2
  9
$DIMALTTD
 70
     3
  9
$DIMTXSTY
  7
Standard
  9
$DIMAUNIT
 70
     0
  9
$DIMADEC
 70
     0
  9
$DIMALTRND
 40
0.0
  9
$DIMAZIN
 70
     0
  9
$DIMDSEP
 70
    44
  9
$DIMATFIT
 70
     3
  9
$DIMFRAC
 70
     0
  9
$DIMLDRBLK
  1

  9
$DIMLUNIT
 70
     2
  9
$DIMLWD
 70
    -2
  9
$DIMLWE
 70
    -2
  9
$DIMTMOVE
 70
     0
  9
$LUNITS
 70
     2
  9
$LUPREC
 70
     4
  9
$SKETCHINC
 40
1.0
  9
$FILLETRAD
 40
10.0
  9
$AUNITS
 70
     0
  9
$AUPREC
 70
     0
  9
$MENU
  1
.
  9
$ELEVATION
 40
0.0
  9
$PELEVATION
 40
0.0
  9
$THICKNESS
 40
0.0
  9
$LIMCHECK
 70
     0
  9
$CHAMFERA
 40
10.0
  9
$CHAMFERB
 40
10.0
  9
$CHAMFERC
 40
20.0
  9
$CHAMFERD
 40
0.0
  9
$SKPOLY
 70
     0
  9
$TDCREATE
 40
2458578.302777778
  9
$TDUCREATE
 40
2458578.219444444
  9
$TDUPDATE
 40
2458578.30625
  9
$TDUUPDATE
 40
2458578.222916667
  9
$TDINDWG
 40
0.0000000116
  9
$TDUSRTIMER
 40
0.0000000116
  9
$USRTIMER
 70
     1
  9
$ANGBASE
 50
0.0
  9
$ANGDIR
 70
     0
  9
$PDMODE
 70
     0
  9
$PDSIZE
 40
0.0
  9
$PLINEWID
 40
0.0
  9
$SPLFRAME
 70
     0
  9
$SPLINETYPE
 70
     6
  9
$SPLINESEGS
 70
     8
  9
$HANDSEED
  5
640
  9
$SURFTAB1
 70
     6
  9
$SURFTAB2
 70
     6
  9
$SURFTYPE
 70
     6
  9
$SURFU
 70
     6
  9
$SURFV
 70
     6
  9
$UCSBASE
  2

  9
$UCSNAME
  2

  9
$UCSORG
 10
0.0
 20
0.0
 30
0.0
  9
$UCSXDIR
 10
1.0
 20
0.0
 30
0.0
  9
$UCSYDIR
 10
0.0
 20
1.0
 30
0.0
  9
$UCSORTHOREF
  2

  9
$UCSORTHOVIEW
 70
     0
  9
$UCSORGTOP
 10
0.0
 20
0.0
 30
0.0
  9
$UCSORGBOTTOM
 10
0.0
 20
0.0
 30
0.0
  9
$UCSORGLEFT
 10
0.0
 20
0.0
 30
0.0
  9
$UCSORGRIGHT
 10
0.0
 20
0.0
 30
0.0
  9
$UCSORGFRONT
 10
0.0
 20
0.0
 30
0.0
  9
$UCSORGBACK
 10
0.0
 20
0.0
 30
0.0
  9
$PUCSBASE
  2

  9
$PUCSNAME
  2

  9
$PUCSORG
 10
0.0
 20
0.0
 30
0.0
  9
$PUCSXDIR
 10
1.0
 20
0.0
 30
0.0
  9
$PUCSYDIR
 10
0.0
 20
1.0
 30
0.0
  9
$PUCSORTHOREF
  2

  9
$PUCSORTHOVIEW
 70
     0
  9
$PUCSORGTOP
 10
0.0
 20
0.0
 30
0.0
  9
$PUCSORGBOTTOM
 10
0.0
 20
0.0
 30
0.0
  9
$PUCSORGLEFT
 10
0.0
 20
0.0
 30
0.0
  9
$PUCSORGRIGHT
 10
0.0
 20
0.0
 30
0.0
  9
$PUCSORGFRONT
 10
0.0
 20
0.0
 30
0.0
  9
$PUCSORGBACK
 10
0.0
 20
0.0
 30
0.0
  9
$USERI1
 70
     0
  9
$USERI2
 70
     0
  9
$USERI3
 70
     0
  9
$USERI4
 70
     0
  9
$USERI5
 70
     0
  9
$USERR1
 40
0.0
  9
$USERR2
 40
0.0
  9
$USERR3
 40
0.0
  9
$USERR4
 40
0.0
  9
$USERR5
 40
0.0
  9
$WORLDVIEW
 70
     1
  9
$SHADEDGE
 70
     3
  9
$SHADEDIF
 70
    70
  9
$TILEMODE
 70
     1
  9
$MAXACTVP
 70
    64
  9
$PINSBASE
 10
0.0
 20
0.0
 30
0.0
  9
$PLIMCHECK
 70
     0
  9
$PEXTMIN
 10
1.000000000000000E+20
 20
1.000000000000000E+20
 30
1.000000000000000E+20
  9
$PEXTMAX
 10
-1.000000000000000E+20
 20
-1.000000000000000E+20
 30
-1.000000000000000E+20
  9
$PLIMMIN
 10
0.0
 20
0.0
  9
$PLIMMAX
 10
420.0
 20
297.0
  9
$UNITMODE
 70
     0
  9
$VISRETAIN
 70
     1
  9
$PLINEGEN
 70
     0
  9
$PSLTSCALE
 70
     1
  9
$TREEDEPTH
 70
  3020
  9
$CMLSTYLE
  2
Standard
  9
$CMLJUST
 70
     0
  9
$CMLSCALE
 40
20.0
  9
$PROXYGRAPHICS
 70
     1
  9
$MEASUREMENT
 70
     1
  9
$CELWEIGHT
370
    -1
  9
$ENDCAPS
280
     0
  9
$JOINSTYLE
280
     0
  9
$LWDISPLAY
290
     0
  9
$INSUNITS
 70
     4
  9
$HYPERLINKBASE
  1

  9
$STYLESHEET
  1

  9
$XEDIT
290
     1
  9
$CEPSNTYPE
380
     0
  9
$PSTYLEMODE
290
     1
  9
$FINGERPRINTGUID
  2
{11682C19-0524-4C69-9216-E292BA39F204}
  9
$VERSIONGUID
  2
{FAEB1C32-E019-11D5-929B-00C0DF256EC4}
  9
$EXTNAMES
290
     1
  9
$PSVPSCALE
 40
0.0
  9
$OLESTARTUP
290
     0
  0
ENDSEC
  0
SECTION
  2
CLASSES
  0
CLASS
  1
ACDBDICTIONARYWDFLT
  2
AcDbDictionaryWithDefault
  3
ObjectDBX Classes
 90
        0
280
     0
281
     0
  0
CLASS
  1
VISUALSTYLE
  2
AcDbVisualStyle
  3
ObjectDBX Classes
 90
     4095
280
     0
281
     0
  0
CLASS
  1
MATERIAL
  2
AcDbMaterial
  3
ObjectDBX Classes
 90
     1153
280
     0
281
     0
  0
CLASS
  1
SCALE
  2
AcDbScale
  3
ObjectDBX Classes
 90
     1153
280
     0
281
     0
  0
CLASS
  1
DICTIONARYVAR
  2
AcDbDictionaryVar
  3
ObjectDBX Classes
 90
        0
280
     0
281
     0
  0
CLASS
  1
ACDBPLACEHOLDER
  2
AcDbPlaceHolder
  3
ObjectDBX Classes
 90
        0
280
     0
281
     0
  0
CLASS
  1
LAYOUT
  2
AcDbLayout
  3
ObjectDBX Classes
 90
        0
280
     0
281
     0
  0
ENDSEC
  0
SECTION
  2
TABLES
  0
TABLE
  2
VPORT
  5
8
330
0
100
AcDbSymbolTable
 70
     1
  0
VPORT
  5
29
330
8
100
AcDbSymbolTableRecord
100
AcDbViewportTableRecord
  2
*Active
 70
     0
 10
0.0
 20
0.0
 11
1.0
 21
1.0
 12
11.26
 22
4.5
 13
0.0
 23
0.0
 14
10.0
 24
10.0
 15
10.0
 25
10.0
 16
0.0
 26
0.0
 36
1.0
 17
0.0
 27
0.0
 37
0.0
 40
9.0
 41
2.503333333333333
 42
50.0
 43
0.0
 44
0.0
 50
0.0
 51
0.0
 71
     0
 72
   100
 73
     1
 74
     3
 75
     0
 76
     0
 77
     0
 78
     0
281
     0
 65
     1
110
0.0
120
0.0
130
0.0
111
1.0
121
0.0
131
0.0
112
0.0
122
1.0
132
0.0
 79
     0
146
0.0
  0
ENDTAB
  0
TABLE
  2
LTYPE
  5
5
330
0
100
AcDbSymbolTable
 70
     9
  0
LTYPE
  5
14
330
5
100
AcDbSymbolTableRecord
100
AcDbLinetypeTableRecord
  2
ByBlock
 70
     0
  3

 72
    65
 73
     0
 40
0.0
  0
LTYPE
  5
15
330
5
100
AcDbSymbolTableRecord
100
AcDbLinetypeTableRecord
  2
ByLayer
 70
     0
  3

 72
    65
 73
     0
 40
0.0
  0
LTYPE
  5
16
330
5
100
AcDbSymbolTableRecord
100
AcDbLinetypeTableRecord
  2
Continuous
 70
     0
  3
Solid line
 72
    65
 73
     0
 40
0.0
  0
LTYPE
  5
45
330
5
100
AcDbSymbolTableRecord
100
AcDbLinetypeTableRecord
  2
phl_thick
 70
     0
  3
THICK
 72
    65
 73
     0
 40
0.0
  0
LTYPE
  5
54
330
5
100
AcDbSymbolTableRecord
100
AcDbLinetypeTableRecord
  2
ls_SK2
 70
     0
  3
THIN
 72
    65
 73
     0
 40
0.0
  0
LTYPE
  5
102
330
5
100
AcDbSymbolTableRecord
100
AcDbLinetypeTableRecord
  2
ls_2
 70
     0
  3
THIN
 72
    65
 73
     0
 40
0.0
  0
LTYPE
  5
18E
330
5
100
AcDbSymbolTableRecord
100
AcDbLinetypeTableRecord
  2
SK1
 70
     0
  3
THICK
 72
    65
 73
     0
 40
0.0
  0
LTYPE
  5
19C
330
5
100
AcDbSymbolTableRecord
100
AcDbLinetypeTableRecord
  2
NOCUT
 70
     0
  3
THICK
 72
    65
 73
     0
 40
0.0
  0
LTYPE
  5
1A1
330
5
100
AcDbSymbolTableRecord
100
AcDbLinetypeTableRecord
  2
ls1
 70
     0
  3
THICK
 72
    65
 73
     0
 40
0.0
  0
LTYPE
  5
277
330
5
100
AcDbSymbolTableRecord
100
AcDbLinetypeTableRecord
  2
LONGDASH_DASH
 70
     0
  3
THIN_DASHDOT
 72
    65
 73
     4
 40
0.85
 49
0.4
 74
     0
 49
-0.2
 74
     0
 49
0.05
 74
     0
 49
-0.2
 74
     0
  0
LTYPE
  5
301
330
5
100
AcDbSymbolTableRecord
100
AcDbLinetypeTableRecord
  2
ls_SK1
 70
     0
  3
THICK
 72
    65
 73
     0
 40
0.0
  0
ENDTAB
  0
TABLE
  2
LAYER
  5
2
330
0
100
AcDbSymbolTable
 70
    10
  0
LAYER
  5
10
330
2
100
AcDbSymbolTableRecord
100
AcDbLayerTableRecord
  2
0
 70
     0
 62
     7
  6
Continuous
370
    -3
390
F
  0
LAYER
  5
44
330
2
100
AcDbSymbolTableRecord
100
AcDbLayerTableRecord
  2
1
 70
     0
 62
4
  6
CONTINUOUS
370
50
370
    -3
390
F
  0
LAYER
  5
53
330
2
100
AcDbSymbolTableRecord
100
AcDbLayerTableRecord
  2
SK2
 70
     0
 62
7
  6
CONTINUOUS
370
25
370
    -3
390
F
  0
LAYER
  5
101
330
2
100
AcDbSymbolTableRecord
100
AcDbLayerTableRecord
  2
2
 70
     0
 62
7
  6
CONTINUOUS
370
25
370
    -3
390
F
  0
LAYER
  5
18D
330
2
100
AcDbSymbolTableRecord
100
AcDbLayerTableRecord
  2
SK1
 70
     0
 62
4
  6
CONTINUOUS
370
50
370
    -3
390
F
  0
LAYER
  5
19B
330
2
100
AcDbSymbolTableRecord
100
AcDbLayerTableRecord
  2
NOCUT
 70
     0
 62
7
  6
CONTINUOUS
370
25
370
    -3
390
F
  0
LAYER
  5
1A0
330
2
100
AcDbSymbolTableRecord
100
AcDbLayerTableRecord
  2
CUT
 70
     0
 62
1
  6
CONTINUOUS
370
25
370
    -3
390
F
  0
LAYER
  5
276
330
2
100
AcDbSymbolTableRecord
100
AcDbLayerTableRecord
  2
4
 70
     0
 62
2
  6
LONGDASH_DASH
370
25
370
    -3
390
F
  0
LAYER
  5
279
330
2
100
AcDbSymbolTableRecord
100
AcDbLayerTableRecord
  2
SK4
 70
     0
 62
2
  6
LONGDASH_DASH
370
25
370
    -3
390
F
  0
LAYER
  5
33A
330
2
100
AcDbSymbolTableRecord
100
AcDbLayerTableRecord
  2
SK6
 70
     0
 62
5
  6
CONTINUOUS
370
25
370
    -3
390
F
  0
ENDTAB
  0
TABLE
  2
STYLE
  5
3
330
0
100
AcDbSymbolTable
 70
     1
  0
STYLE
  5
11
330
3
100
AcDbSymbolTableRecord
100
AcDbTextStyleTableRecord
  2
Standard
 70
     0
 40
0.0
 41
1.0
 50
0.0
 71
     0
 42
2.5
  3
Monospac821 BT
  4

  0
ENDTAB
  0
TABLE
  2
VIEW
  5
6
330
0
100
AcDbSymbolTable
 70
     0
  0
ENDTAB
  0
TABLE
  2
UCS
  5
7
330
0
100
AcDbSymbolTable
 70
     0
  0
ENDTAB
  0
TABLE
  2
APPID
  5
9
330
0
100
AcDbSymbolTable
 70
     2
  0
APPID
  5
12
330
9
100
AcDbSymbolTableRecord
100
AcDbRegAppTableRecord
  2
ACAD
 70
     0
  0
APPID
  5
3F
330
9
100
AcDbSymbolTableRecord
100
AcDbRegAppTableRecord
  2
ccLab
 70
     0
  0
ENDTAB
  0
TABLE
  2
DIMSTYLE
  5
A
330
0
100
AcDbSymbolTable
 70
     1
100
AcDbDimStyleTable
  0
DIMSTYLE
105
27
330
A
100
AcDbSymbolTableRecord
100
AcDbDimStyleTableRecord
  2
ISO-25
 70
     0
 41
2.5
 42
0.625
 43
3.75
 44
1.25
 73
     0
 74
     0
 77
     1
 78
     8
140
2.5
141
2.5
143
0.03937007874016
147
0.625
171
     3
172
     1
271
     2
272
     2
274
     3
278
    44
283
     0
284
     8
340
11
  0
ENDTAB
  0
TABLE
  2
BLOCK_RECORD
  5
1
330
0
100
AcDbSymbolTable
 70
     2
  0
BLOCK_RECORD
  5
1F
330
1
100
AcDbSymbolTableRecord
100
AcDbBlockTableRecord
  2
*Model_Space
340
22
  0
BLOCK_RECORD
  5
1B
330
1
100
AcDbSymbolTableRecord
100
AcDbBlockTableRecord
  2
*Paper_Space
340
1E
  0
BLOCK_RECORD
  5
23
330
1
100
AcDbSymbolTableRecord
100
AcDbBlockTableRecord
  2
*Paper_Space0
340
26
  0
ENDTAB
  0
ENDSEC
  0
SECTION
  2
BLOCKS
  0
BLOCK
  5
20
330
1F
100
AcDbEntity
  8
0
100
AcDbBlockBegin
  2
*Model_Space
 70
     0
 10
0.0
 20
0.0
 30
0.0
  3
*Model_Space
  1

  0
ENDBLK
  5
21
330
1F
100
AcDbEntity
  8
0
100
AcDbBlockEnd
  0
BLOCK
  5
1C
330
1B
100
AcDbEntity
 67
     1
  8
0
100
AcDbBlockBegin
  2
*Paper_Space
 70
     0
 10
0.0
 20
0.0
 30
0.0
  3
*Paper_Space
  1

  0
ENDBLK
  5
1D
330
1B
100
AcDbEntity
 67
     1
  8
0
100
AcDbBlockEnd
  0
BLOCK
  5
24
330
23
100
AcDbEntity
  8
0
100
AcDbBlockBegin
  2
*Paper_Space0
 70
     0
 10
0.0
 20
0.0
 30
0.0
  3
*Paper_Space0
  1

  0
ENDBLK
  5
25
330
23
100
AcDbEntity
  8
0
100
AcDbBlockEnd
  0
ENDSEC
  0
SECTION
  2
ENTITIES
  0
LINE
  5
344
330
1F
100
AcDbEntity
  8
1
  6
CONTINUOUS
370
50
 62
4
100
AcDbLine
 10
125.0
 20
-12.0
 30
0.0
 11
124.451515
 21
-9.0
 31
0.0
  0
LINE
  5
345
330
1F
100
AcDbEntity
  8
1
  6
CONTINUOUS
370
50
 62
4
100
AcDbLine
 10
140.0
 20
11.34
 30
0.0
 11
136.25
 21
12.0
 31
0.0
  0
LINE
  5
346
330
1F
100
AcDbEntity
  8
1
  6
CONTINUOUS
370
50
 62
4
100
AcDbLine
 10
125.0
 20
-12.0
 30
0.0
 11
136.25
 21
-12.0
 31
0.0
  0
LINE
  5
347
330
1F
100
AcDbEntity
  8
1
  6
CONTINUOUS
370
50
 62
4
100
AcDbLine
 10
68.0
 20
-9.0
 30
0.0
 11
124.451515
 21
-9.0
 31
0.0
  0
LINE
  5
348
330
1F
100
AcDbEntity
  8
1
  6
CONTINUOUS
370
50
 62
4
100
AcDbLine
 10
68.0
 20
9.0
 30
0.0
 11
124.451515
 21
9.0
 31
0.0
  0
LINE
  5
349
330
1F
100
AcDbEntity
  8
1
  6
CONTINUOUS
370
50
 62
4
100
AcDbLine
 10
125.0
 20
12.0
 30
0.0
 11
136.25
 21
12.0
 31
0.0
  0
LINE
  5
34A
330
1F
100
AcDbEntity
  8
1
  6
CONTINUOUS
370
50
 62
4
100
AcDbLine
 10
136.25
 20
-12.0
 30
0.0
 11
140.0
 21
-11.34
 31
0.0
  0
LINE
  5
34B
330
1F
100
AcDbEntity
  8
1
  6
CONTINUOUS
370
50
 62
4
100
AcDbLine
 10
124.451515
 20
9.0
 30
0.0
 11
125.0
 21
12.0
 31
0.0
  0
LINE
  5
34C
330
1F
100
AcDbEntity
  8
1
  6
CONTINUOUS
370
50
 62
4
100
AcDbLine
 10
68.0
 20
-9.0
 30
0.0
 11
68.0
 21
9.0
 31
0.0
  0
LINE
  5
34D
330
1F
100
AcDbEntity
  8
1
  6
CONTINUOUS
370
50
 62
4
100
AcDbLine
 10
124.451515
 20
-9.0
 30
0.0
 11
124.451515
 21
9.0
 31
0.0
  0
LINE
  5
34E
330
1F
100
AcDbEntity
  8
1
  6
CONTINUOUS
370
50
 62
4
100
AcDbLine
 10
125.0
 20
-12.0
 30
0.0
 11
125.0
 21
12.0
 31
0.0
  0
LINE
  5
34F
330
1F
100
AcDbEntity
  8
1
  6
CONTINUOUS
370
50
 62
4
100
AcDbLine
 10
136.25
 20
-12.0
 30
0.0
 11
136.25
 21
12.0
 31
0.0
  0
LINE
  5
350
330
1F
100
AcDbEntity
  8
1
  6
CONTINUOUS
370
50
 62
4
100
AcDbLine
 10
140.0
 20
-11.34
 30
0.0
 11
140.0
 21
11.34
 31
0.0
  0
LINE
  5
351
330
1F
100
AcDbEntity
  8
SK2
  6
CONTINUOUS
370
25
 62
7
100
AcDbLine
 10
0.0
 20
9.0
 30
0.0
 11
0.0
 21
25.00001
 31
0.0
  0
LINE
  5
352
330
1F
100
AcDbEntity
  8
SK2
  6
CONTINUOUS
370
25
 62
7
100
AcDbLine
 10
68.0
 20
25.00001
 30
0.0
 11
68.0
 21
9.0
 31
0.0
  0
LINE
  5
353
330
1F
100
AcDbEntity
  8
SK2
  6
CONTINUOUS
370
25
 62
7
100
AcDbLine
 10
0.0
 20
24.00001
 30
0.0
 11
68.0
 21
24.00001
 31
0.0
  0
LINE
  5
354
330
1F
100
AcDbEntity
  8
SK2
  6
CONTINUOUS
370
25
 62
7
100
AcDbLine
 10
0.0
 20
24.00001
 30
0.0
 11
5.0
 21
25.00001
 31
0.0
  0
LINE
  5
355
330
1F
100
AcDbEntity
  8
SK2
  6
CONTINUOUS
370
25
 62
7
100
AcDbLine
 10
5.0
 20
25.00001
 30
0.0
 11
5.0
 21
23.00001
 31
0.0
  0
LINE
  5
356
330
1F
100
AcDbEntity
  8
SK2
  6
CONTINUOUS
370
25
 62
7
100
AcDbLine
 10
5.0
 20
23.00001
 30
0.0
 11
0.0
 21
24.00001
 31
0.0
  0
LINE
  5
357
330
1F
100
AcDbEntity
  8
SK2
  6
CONTINUOUS
370
25
 62
7
100
AcDbLine
 10
4.895336709565434
 20
23.0209426580869
 30
0.0
 11
5.0
 21
23.12560594852147
 31
0.0
  0
LINE
  5
358
330
1F
100
AcDbEntity
  8
SK2
  6
CONTINUOUS
370
25
 62
7
100
AcDbLine
 10
4.541783318972143
 20
23.09165333620556
 30
0.0
 11
5.0
 21
23.54987001723342
 31
0.0
  0
LINE
  5
359
330
1F
100
AcDbEntity
  8
SK2
  6
CONTINUOUS
370
25
 62
7
100
AcDbLine
 10
4.188229928378881
 20
23.16236401432422
 30
0.0
 11
5.0
 21
23.97413408594534
 31
0.0
  0
LINE
  5
35A
330
1F
100
AcDbEntity
  8
SK2
  6
CONTINUOUS
370
25
 62
7
100
AcDbLine
 10
3.834676537785612
 20
23.23307469244287
 30
0.0
 11
5.0
 21
24.39839815465727
 31
0.0
  0
LINE
  5
35B
330
1F
100
AcDbEntity
  8
SK2
  6
CONTINUOUS
370
25
 62
7
100
AcDbLine
 10
3.481123147192335
 20
23.30378537056153
 30
0.0
 11
5.0
 21
24.8226622233692
 31
0.0
  0
LINE
  5
35C
330
1F
100
AcDbEntity
  8
SK2
  6
CONTINUOUS
370
25
 62
7
100
AcDbLine
 10
3.127569756599058
 20
23.37449604868019
 30
0.0
 11
4.691354634898588
 21
24.93828092697972
 31
0.0
  0
LINE
  5
35D
330
1F
100
AcDbEntity
  8
SK2
  6
CONTINUOUS
370
25
 62
7
100
AcDbLine
 10
2.774016366005796
 20
23.44520672679883
 30
0.0
 11
4.161024549008687
 21
24.83221490980173
 31
0.0
  0
LINE
  5
35E
330
1F
100
AcDbEntity
  8
SK2
  6
CONTINUOUS
370
25
 62
7
100
AcDbLine
 10
2.420462975412519
 20
23.51591740491749
 30
0.0
 11
3.630694463118772
 21
24.72614889262375
 31
0.0
  0
LINE
  5
35F
330
1F
100
AcDbEntity
  8
SK2
  6
CONTINUOUS
370
25
 62
7
100
AcDbLine
 10
2.066909584819257
 20
23.58662808303615
 30
0.0
 11
3.100364377228885
 21
24.62008287544579
 31
0.0
  0
LINE
  5
360
330
1F
100
AcDbEntity
  8
SK2
  6
CONTINUOUS
370
25
 62
7
100
AcDbLine
 10
1.71335619422598
 20
23.6573387611548
 30
0.0
 11
2.57003429133897
 21
24.51401685826779
 31
0.0
  0
LINE
  5
361
330
1F
100
AcDbEntity
  8
SK2
  6
CONTINUOUS
370
25
 62
7
100
AcDbLine
 10
1.359802803632704
 20
23.72804943927345
 30
0.0
 11
2.039704205449056
 21
24.40795084108981
 31
0.0
  0
LINE
  5
362
330
1F
100
AcDbEntity
  8
SK2
  6
CONTINUOUS
370
25
 62
7
100
AcDbLine
 10
1.006249413039427
 20
23.79876011739211
 30
0.0
 11
1.509374119559141
 21
24.30188482391182
 31
0.0
  0
LINE
  5
363
330
1F
100
AcDbEntity
  8
SK2
  6
CONTINUOUS
370
25
 62
7
100
AcDbLine
 10
0.6526960224461646
 20
23.86947079551075
 30
0.0
 11
0.9790440336692541
 21
24.19581880673385
 31
0.0
  0
LINE
  5
364
330
1F
100
AcDbEntity
  8
SK2
  6
CONTINUOUS
370
25
 62
7
100
AcDbLine
 10
0.2991426318528738
 20
23.94018147362941
 30
0.0
 11
0.4487139477793249
 21
24.08975278955586
 31
0.0
  0
LINE
  5
365
330
1F
100
AcDbEntity
  8
SK2
  6
CONTINUOUS
370
25
 62
7
100
AcDbLine
 10
0.1168593625398557
 20
24.02338187250797
 30
0.0
 11
0.1752890438097836
 21
23.96495219123804
 31
0.0
  0
LINE
  5
366
330
1F
100
AcDbEntity
  8
SK2
  6
CONTINUOUS
370
25
 62
7
100
AcDbLine
 10
0.4704127531331324
 20
24.09409255062663
 30
0.0
 11
0.7056191296996985
 21
23.85888617406006
 31
0.0
  0
LINE
  5
367
330
1F
100
AcDbEntity
  8
SK2
  6
CONTINUOUS
370
25
 62
7
100
AcDbLine
 10
0.823966143726409
 20
24.16480322874526
 30
0.0
 11
1.235949215589599
 21
23.75282015688209
 31
0.0
  0
LINE
  5
368
330
1F
100
AcDbEntity
  8
SK2
  6
CONTINUOUS
370
25
 62
7
100
AcDbLine
 10
1.177519534319686
 20
24.23551390686393
 30
0.0
 11
1.766279301479528
 21
23.64675413970409
 31
0.0
  0
LINE
  5
369
330
1F
100
AcDbEntity
  8
SK2
  6
CONTINUOUS
370
25
 62
7
100
AcDbLine
 10
1.531072924912948
 20
24.3062245849826
 30
0.0
 11
2.296609387369443
 21
23.54068812252611
 31
0.0
  0
LINE
  5
36A
330
1F
100
AcDbEntity
  8
SK2
  6
CONTINUOUS
370
25
 62
7
100
AcDbLine
 10
1.884626315506239
 20
24.37693526310123
 30
0.0
 11
2.826939473259358
 21
23.43462210534813
 31
0.0
  0
LINE
  5
36B
330
1F
100
AcDbEntity
  8
SK2
  6
CONTINUOUS
370
25
 62
7
100
AcDbLine
 10
2.238179706099501
 20
24.4476459412199
 30
0.0
 11
3.357269559149259
 21
23.32855608817015
 31
0.0
  0
LINE
  5
36C
330
1F
100
AcDbEntity
  8
SK2
  6
CONTINUOUS
370
25
 62
7
100
AcDbLine
 10
2.591733096692778
 20
24.51835661933855
 30
0.0
 11
3.887599645039188
 21
23.22249007099215
 31
0.0
  0
LINE
  5
36D
330
1F
100
AcDbEntity
  8
SK2
  6
CONTINUOUS
370
25
 62
7
100
AcDbLine
 10
2.945286487286054
 20
24.58906729745721
 30
0.0
 11
4.41792973092911
 21
23.11642405381417
 31
0.0
  0
LINE
  5
36E
330
1F
100
AcDbEntity
  8
SK2
  6
CONTINUOUS
370
25
 62
7
100
AcDbLine
 10
3.298839877879317
 20
24.65977797557586
 30
0.0
 11
4.948259816819004
 21
23.0103580366362
 31
0.0
  0
LINE
  5
36F
330
1F
100
AcDbEntity
  8
SK2
  6
CONTINUOUS
370
25
 62
7
100
AcDbLine
 10
3.652393268472608
 20
24.73048865369451
 30
0.0
 11
5.0
 21
23.38288192216714
 31
0.0
  0
LINE
  5
370
330
1F
100
AcDbEntity
  8
SK2
  6
CONTINUOUS
370
25
 62
7
100
AcDbLine
 10
4.005946659065877
 20
24.80119933181317
 30
0.0
 11
5.0
 21
23.80714599087906
 31
0.0
  0
LINE
  5
371
330
1F
100
AcDbEntity
  8
SK2
  6
CONTINUOUS
370
25
 62
7
100
AcDbLine
 10
4.359500049659147
 20
24.87191000993183
 30
0.0
 11
5.0
 21
24.23141005959098
 31
0.0
  0
LINE
  5
372
330
1F
100
AcDbEntity
  8
SK2
  6
CONTINUOUS
370
25
 62
7
100
AcDbLine
 10
4.713053440252416
 20
24.94262068805048
 30
0.0
 11
5.0
 21
24.6556741283029
 31
0.0
  0
LINE
  5
373
330
1F
100
AcDbEntity
  8
SK2
  6
CONTINUOUS
370
25
 62
7
100
AcDbLine
 10
68.0
 20
24.00001
 30
0.0
 11
63.0
 21
23.00001
 31
0.0
  0
LINE
  5
374
330
1F
100
AcDbEntity
  8
SK2
  6
CONTINUOUS
370
25
 62
7
100
AcDbLine
 10
63.0
 20
23.00001
 30
0.0
 11
63.0
 21
25.00001
 31
0.0
  0
LINE
  5
375
330
1F
100
AcDbEntity
  8
SK2
  6
CONTINUOUS
370
25
 62
7
100
AcDbLine
 10
63.0
 20
25.00001
 30
0.0
 11
68.0
 21
24.00001
 31
0.0
  0
LINE
  5
376
330
1F
100
AcDbEntity
  8
SK2
  6
CONTINUOUS
370
25
 62
7
100
AcDbLine
 10
67.77119760427513
 20
23.95424952085503
 30
0.0
 11
67.84746506951674
 21
24.03051698609665
 31
0.0
  0
LINE
  5
377
330
1F
100
AcDbEntity
  8
SK2
  6
CONTINUOUS
370
25
 62
7
100
AcDbLine
 10
67.24086751838522
 20
23.84818350367704
 30
0.0
 11
67.49391167892348
 21
24.1012276642153
 31
0.0
  0
LINE
  5
378
330
1F
100
AcDbEntity
  8
SK2
  6
CONTINUOUS
370
25
 62
7
100
AcDbLine
 10
66.7105374324953
 20
23.74211748649906
 30
0.0
 11
67.1403582883302
 21
24.17193834233396
 31
0.0
  0
LINE
  5
379
330
1F
100
AcDbEntity
  8
SK2
  6
CONTINUOUS
370
25
 62
7
100
AcDbLine
 10
66.1802073466054
 20
23.63605146932108
 30
0.0
 11
66.78680489773693
 21
24.24264902045261
 31
0.0
  0
LINE
  5
37A
330
1F
100
AcDbEntity
  8
SK2
  6
CONTINUOUS
370
25
 62
7
100
AcDbLine
 10
65.64987726071548
 20
23.5299854521431
 30
0.0
 11
66.43325150714367
 21
24.31335969857127
 31
0.0
  0
LINE
  5
37B
330
1F
100
AcDbEntity
  8
SK2
  6
CONTINUOUS
370
25
 62
7
100
AcDbLine
 10
65.11954717482557
 20
23.42391943496511
 30
0.0
 11
66.07969811655039
 21
24.38407037668992
 31
0.0
  0
LINE
  5
37C
330
1F
100
AcDbEntity
  8
SK2
  6
CONTINUOUS
370
25
 62
7
100
AcDbLine
 10
64.58921708893567
 20
23.31785341778713
 30
0.0
 11
65.72614472595711
 21
24.45478105480858
 31
0.0
  0
LINE
  5
37D
330
1F
100
AcDbEntity
  8
SK2
  6
CONTINUOUS
370
25
 62
7
100
AcDbLine
 10
64.05888700304575
 20
23.21178740060915
 30
0.0
 11
65.37259133536384
 21
24.52549173292723
 31
0.0
  0
LINE
  5
37E
330
1F
100
AcDbEntity
  8
SK2
  6
CONTINUOUS
370
25
 62
7
100
AcDbLine
 10
63.52855691715585
 20
23.10572138343117
 30
0.0
 11
65.01903794477056
 21
24.59620241104589
 31
0.0
  0
LINE
  5
37F
330
1F
100
AcDbEntity
  8
SK2
  6
CONTINUOUS
370
25
 62
7
100
AcDbLine
 10
63.0
 20
23.00142853498725
 30
0.0
 11
64.6654845541773
 21
24.66691308916454
 31
0.0
  0
LINE
  5
380
330
1F
100
AcDbEntity
  8
SK2
  6
CONTINUOUS
370
25
 62
7
100
AcDbLine
 10
63.0
 20
23.42569260369918
 30
0.0
 11
64.31193116358402
 21
24.7376237672832
 31
0.0
  0
LINE
  5
381
330
1F
100
AcDbEntity
  8
SK2
  6
CONTINUOUS
370
25
 62
7
100
AcDbLine
 10
63.0
 20
23.84995667241111
 30
0.0
 11
63.95837777299074
 21
24.80833444540185
 31
0.0
  0
LINE
  5
382
330
1F
100
AcDbEntity
  8
SK2
  6
CONTINUOUS
370
25
 62
7
100
AcDbLine
 10
63.0
 20
24.27422074112303
 30
0.0
 11
63.60482438239747
 21
24.87904512352051
 31
0.0
  0
LINE
  5
383
330
1F
100
AcDbEntity
  8
SK2
  6
CONTINUOUS
370
25
 62
7
100
AcDbLine
 10
63.0
 20
24.69848480983496
 30
0.0
 11
63.2512709918042
 21
24.94975580163916
 31
0.0
  0
LINE
  5
384
330
1F
100
AcDbEntity
  8
SK2
  6
CONTINUOUS
370
25
 62
7
100
AcDbLine
 10
63.0
 20
23.24335495461288
 30
0.0
 11
63.2027874621774
 21
23.04056749243548
 31
0.0
  0
LINE
  5
385
330
1F
100
AcDbEntity
  8
SK2
  6
CONTINUOUS
370
25
 62
7
100
AcDbLine
 10
63.0
 20
23.66761902332481
 30
0.0
 11
63.55634085277067
 21
23.11127817055414
 31
0.0
  0
LINE
  5
386
330
1F
100
AcDbEntity
  8
SK2
  6
CONTINUOUS
370
25
 62
7
100
AcDbLine
 10
63.0
 20
24.09188309203674
 30
0.0
 11
63.90989424336395
 21
23.18198884867279
 31
0.0
  0
LINE
  5
387
330
1F
100
AcDbEntity
  8
SK2
  6
CONTINUOUS
370
25
 62
7
100
AcDbLine
 10
63.0
 20
24.51614716074867
 30
0.0
 11
64.26344763395723
 21
23.25269952679145
 31
0.0
  0
LINE
  5
388
330
1F
100
AcDbEntity
  8
SK2
  6
CONTINUOUS
370
25
 62
7
100
AcDbLine
 10
63.0
 20
24.94041122946059
 30
0.0
 11
64.61700102455049
 21
23.3234102049101
 31
0.0
  0
LINE
  5
389
330
1F
100
AcDbEntity
  8
SK2
  6
CONTINUOUS
370
25
 62
7
100
AcDbLine
 10
63.45583162271565
 20
24.90884367545687
 30
0.0
 11
64.97055441514377
 21
23.39412088302876
 31
0.0
  0
LINE
  5
38A
330
1F
100
AcDbEntity
  8
SK2
  6
CONTINUOUS
370
25
 62
7
100
AcDbLine
 10
63.98616170860556
 20
24.80277765827889
 30
0.0
 11
65.32410780573704
 21
23.46483156114741
 31
0.0
  0
LINE
  5
38B
330
1F
100
AcDbEntity
  8
SK2
  6
CONTINUOUS
370
25
 62
7
100
AcDbLine
 10
64.51649179449548
 20
24.6967116411009
 30
0.0
 11
65.67766119633032
 21
23.53554223926606
 31
0.0
  0
LINE
  5
38C
330
1F
100
AcDbEntity
  8
SK2
  6
CONTINUOUS
370
25
 62
7
100
AcDbLine
 10
65.04682188038538
 20
24.59064562392292
 30
0.0
 11
66.0312145869236
 21
23.60625291738472
 31
0.0
  0
LINE
  5
38D
330
1F
100
AcDbEntity
  8
SK2
  6
CONTINUOUS
370
25
 62
7
100
AcDbLine
 10
65.5771519662753
 20
24.48457960674494
 30
0.0
 11
66.38476797751686
 21
23.67696359550337
 31
0.0
  0
LINE
  5
38E
330
1F
100
AcDbEntity
  8
SK2
  6
CONTINUOUS
370
25
 62
7
100
AcDbLine
 10
66.10748205216521
 20
24.37851358956696
 30
0.0
 11
66.73832136811014
 21
23.74767427362203
 31
0.0
  0
LINE
  5
38F
330
1F
100
AcDbEntity
  8
SK2
  6
CONTINUOUS
370
25
 62
7
100
AcDbLine
 10
66.63781213805511
 20
24.27244757238898
 30
0.0
 11
67.09187475870341
 21
23.81838495174068
 31
0.0
  0
LINE
  5
390
330
1F
100
AcDbEntity
  8
SK2
  6
CONTINUOUS
370
25
 62
7
100
AcDbLine
 10
67.16814222394503
 20
24.16638155521099
 30
0.0
 11
67.44542814929669
 21
23.88909562985934
 31
0.0
  0
LINE
  5
391
330
1F
100
AcDbEntity
  8
SK2
  6
CONTINUOUS
370
25
 62
7
100
AcDbLine
 10
67.69847230983494
 20
24.06031553803301
 30
0.0
 11
67.79898153988997
 21
23.95980630797799
 31
0.0
  0
TEXT
  5
392
330
1F
100
AcDbEntity
  8
SK2
  6
CONTINUOUS
370
25
 62
7
100
AcDbText
 10
31.08333333333333
 20
25.50001
 30
0.0
 40
3.5
  1
68
 72
     1
 11
34.0
 21
25.50001
 31
0.0
100
AcDbText
  0
LINE
  5
393
330
1F
100
AcDbEntity
  8
SK2
  6
CONTINUOUS
370
25
 62
7
100
AcDbLine
 10
-22.0000002
 20
-9.000001
 30
0.0
 11
-23.00000000000009
 21
-9.000001
 31
0.0
  0
LINE
  5
394
330
1F
100
AcDbEntity
  8
SK2
  6
CONTINUOUS
370
25
 62
7
100
AcDbLine
 10
-12.35
 20
-9.000001
 30
0.0
 11
-21.9999998
 21
-9.000001
 31
0.0
  0
LINE
  5
395
330
1F
100
AcDbEntity
  8
SK2
  6
CONTINUOUS
370
25
 62
7
100
AcDbLine
 10
0.0
 20
-9.0
 30
0.0
 11
-11.65
 21
-9.0
 31
0.0
  0
LINE
  5
396
330
1F
100
AcDbEntity
  8
SK2
  6
CONTINUOUS
370
25
 62
7
100
AcDbLine
 10
-23.0
 20
9.0
 30
0.0
 11
-12.35
 21
9.0
 31
0.0
  0
LINE
  5
397
330
1F
100
AcDbEntity
  8
SK2
  6
CONTINUOUS
370
25
 62
7
100
AcDbLine
 10
-11.65
 20
9.0
 30
0.0
 11
0.0
 21
9.0
 31
0.0
  0
LINE
  5
398
330
1F
100
AcDbEntity
  8
SK2
  6
CONTINUOUS
370
25
 62
7
100
AcDbLine
 10
-22.0
 20
-16.0
 30
0.0
 11
-22.0
 21
16.0
 31
0.0
  0
LINE
  5
399
330
1F
100
AcDbEntity
  8
SK2
  6
CONTINUOUS
370
25
 62
7
100
AcDbLine
 10
-22.0
 20
-9.0
 30
0.0
 11
-21.0
 21
-14.0
 31
0.0
  0
LINE
  5
39A
330
1F
100
AcDbEntity
  8
SK2
  6
CONTINUOUS
370
25
 62
7
100
AcDbLine
 10
-21.0
 20
-14.0
 30
0.0
 11
-23.0
 21
-14.0
 31
0.0
  0
LINE
  5
39B
330
1F
100
AcDbEntity
  8
SK2
  6
CONTINUOUS
370
25
 62
7
100
AcDbLine
 10
-23.0
 20
-14.0
 30
0.0
 11
-22.0
 21
-9.0
 31
0.0
  0
LINE
  5
39C
330
1F
100
AcDbEntity
  8
SK2
  6
CONTINUOUS
370
25
 62
7
100
AcDbLine
 10
-21.09474016201173
 20
-14.0
 30
0.0
 11
-21.01579002700196
 21
-13.92104986499022
 31
0.0
  0
LINE
  5
39D
330
1F
100
AcDbEntity
  8
SK2
  6
CONTINUOUS
370
25
 62
7
100
AcDbLine
 10
-21.51900423072365
 20
-14.0
 30
0.0
 11
-21.08650070512061
 21
-13.56749647439696
 31
0.0
  0
LINE
  5
39E
330
1F
100
AcDbEntity
  8
SK2
  6
CONTINUOUS
370
25
 62
7
100
AcDbLine
 10
-21.94326829943559
 20
-14.0
 30
0.0
 11
-21.15721138323926
 21
-13.21394308380367
 31
0.0
  0
LINE
  5
39F
330
1F
100
AcDbEntity
  8
SK2
  6
CONTINUOUS
370
25
 62
7
100
AcDbLine
 10
-22.36753236814751
 20
-14.0
 30
0.0
 11
-21.22792206135792
 21
-12.86038969321041
 31
0.0
  0
LINE
  5
3A0
330
1F
100
AcDbEntity
  8
SK2
  6
CONTINUOUS
370
25
 62
7
100
AcDbLine
 10
-22.79179643685943
 20
-14.0
 30
0.0
 11
-21.29863273947656
 21
-12.50683630261713
 31
0.0
  0
LINE
  5
3A1
330
1F
100
AcDbEntity
  8
SK2
  6
CONTINUOUS
370
25
 62
7
100
AcDbLine
 10
-22.94598487360716
 20
-13.72992436803581
 30
0.0
 11
-21.36934341759523
 21
-12.15328291202388
 31
0.0
  0
LINE
  5
3A2
330
1F
100
AcDbEntity
  8
SK2
  6
CONTINUOUS
370
25
 62
7
100
AcDbLine
 10
-22.83991885642919
 20
-13.19959428214592
 30
0.0
 11
-21.44005409571388
 21
-11.79972952143061
 31
0.0
  0
LINE
  5
3A3
330
1F
100
AcDbEntity
  8
SK2
  6
CONTINUOUS
370
25
 62
7
100
AcDbLine
 10
-22.7338528392512
 20
-12.66926419625599
 30
0.0
 11
-21.51076477383253
 21
-11.44617613083733
 31
0.0
  0
LINE
  5
3A4
330
1F
100
AcDbEntity
  8
SK2
  6
CONTINUOUS
370
25
 62
7
100
AcDbLine
 10
-22.62778682207322
 20
-12.13893411036609
 30
0.0
 11
-21.58147545195118
 21
-11.09262274024405
 31
0.0
  0
LINE
  5
3A5
330
1F
100
AcDbEntity
  8
SK2
  6
CONTINUOUS
370
25
 62
7
100
AcDbLine
 10
-22.52172080489524
 20
-11.60860402447619
 30
0.0
 11
-21.65218613006984
 21
-10.73906934965079
 31
0.0
  0
LINE
  5
3A6
330
1F
100
AcDbEntity
  8
SK2
  6
CONTINUOUS
370
25
 62
7
100
AcDbLine
 10
-22.41565478771726
 20
-11.07827393858628
 30
0.0
 11
-21.72289680818851
 21
-10.38551595905753
 31
0.0
  0
LINE
  5
3A7
330
1F
100
AcDbEntity
  8
SK2
  6
CONTINUOUS
370
25
 62
7
100
AcDbLine
 10
-22.30958877053928
 20
-10.54794385269638
 30
0.0
 11
-21.79360748630715
 21
-10.03196256846425
 31
0.0
  0
LINE
  5
3A8
330
1F
100
AcDbEntity
  8
SK2
  6
CONTINUOUS
370
25
 62
7
100
AcDbLine
 10
-22.2035227533613
 20
-10.01761376680648
 30
0.0
 11
-21.8643181644258
 21
-9.678409177870975
 31
0.0
  0
LINE
  5
3A9
330
1F
100
AcDbEntity
  8
SK2
  6
CONTINUOUS
370
25
 62
7
100
AcDbLine
 10
-22.09745673618332
 20
-9.487283680916576
 30
0.0
 11
-21.93502884254445
 21
-9.324855787277713
 31
0.0
  0
LINE
  5
3AA
330
1F
100
AcDbEntity
  8
SK2
  6
CONTINUOUS
370
25
 62
7
100
AcDbLine
 10
-22.98117886899902
 20
-13.90589434499512
 30
0.0
 11
-22.88707321399414
 21
-14.0
 31
0.0
  0
LINE
  5
3AB
330
1F
100
AcDbEntity
  8
SK2
  6
CONTINUOUS
370
25
 62
7
100
AcDbLine
 10
-22.91046819088037
 20
-13.55234095440186
 30
0.0
 11
-22.46280914528222
 21
-14.0
 31
0.0
  0
LINE
  5
3AC
330
1F
100
AcDbEntity
  8
SK2
  6
CONTINUOUS
370
25
 62
7
100
AcDbLine
 10
-22.83975751276172
 20
-13.19878756380858
 30
0.0
 11
-22.0385450765703
 21
-14.0
 31
0.0
  0
LINE
  5
3AD
330
1F
100
AcDbEntity
  8
SK2
  6
CONTINUOUS
370
25
 62
7
100
AcDbLine
 10
-22.76904683464306
 20
-12.8452341732153
 30
0.0
 11
-21.61428100785837
 21
-14.0
 31
0.0
  0
LINE
  5
3AE
330
1F
100
AcDbEntity
  8
SK2
  6
CONTINUOUS
370
25
 62
7
100
AcDbLine
 10
-22.69833615652442
 20
-12.49168078262203
 30
0.0
 11
-21.19001693914643
 21
-14.0
 31
0.0
  0
LINE
  5
3AF
330
1F
100
AcDbEntity
  8
SK2
  6
CONTINUOUS
370
25
 62
7
100
AcDbLine
 10
-22.62762547840576
 20
-12.13812739202876
 30
0.0
 11
-21.05856178239138
 21
-13.70719108804315
 31
0.0
  0
LINE
  5
3B0
330
1F
100
AcDbEntity
  8
SK2
  6
CONTINUOUS
370
25
 62
7
100
AcDbLine
 10
-22.55691480028709
 20
-11.7845740014355
 30
0.0
 11
-21.16462779956936
 21
-13.17686100215323
 31
0.0
  0
LINE
  5
3B1
330
1F
100
AcDbEntity
  8
SK2
  6
CONTINUOUS
370
25
 62
7
100
AcDbLine
 10
-22.48620412216844
 20
-11.43102061084222
 30
0.0
 11
-21.27069381674734
 21
-12.64653091626333
 31
0.0
  0
LINE
  5
3B2
330
1F
100
AcDbEntity
  8
SK2
  6
CONTINUOUS
370
25
 62
7
100
AcDbLine
 10
-22.41549344404979
 20
-11.07746722024896
 30
0.0
 11
-21.37675983392532
 21
-12.11620083037343
 31
0.0
  0
LINE
  5
3B3
330
1F
100
AcDbEntity
  8
SK2
  6
CONTINUOUS
370
25
 62
7
100
AcDbLine
 10
-22.34478276593114
 20
-10.72391382965569
 30
0.0
 11
-21.48282585110329
 21
-11.58587074448354
 31
0.0
  0
LINE
  5
3B4
330
1F
100
AcDbEntity
  8
SK2
  6
CONTINUOUS
370
25
 62
7
100
AcDbLine
 10
-22.27407208781248
 20
-10.37036043906241
 30
0.0
 11
-21.58889186828128
 21
-11.05554065859361
 31
0.0
  0
LINE
  5
3B5
330
1F
100
AcDbEntity
  8
SK2
  6
CONTINUOUS
370
25
 62
7
100
AcDbLine
 10
-22.20336140969384
 20
-10.01680704846913
 30
0.0
 11
-21.69495788545926
 21
-10.52521057270371
 31
0.0
  0
LINE
  5
3B6
330
1F
100
AcDbEntity
  8
SK2
  6
CONTINUOUS
370
25
 62
7
100
AcDbLine
 10
-22.13265073157517
 20
-9.663253657875885
 30
0.0
 11
-21.80102390263724
 21
-9.994880486813813
 31
0.0
  0
LINE
  5
3B7
330
1F
100
AcDbEntity
  8
SK2
  6
CONTINUOUS
370
25
 62
7
100
AcDbLine
 10
-22.06194005345652
 20
-9.309700267282594
 30
0.0
 11
-21.90708991981522
 21
-9.464550400923898
 31
0.0
  0
LINE
  5
3B8
330
1F
100
AcDbEntity
  8
SK2
  6
CONTINUOUS
370
25
 62
7
100
AcDbLine
 10
-22.0
 20
9.0
 30
0.0
 11
-23.0
 21
14.0
 31
0.0
  0
LINE
  5
3B9
330
1F
100
AcDbEntity
  8
SK2
  6
CONTINUOUS
370
25
 62
7
100
AcDbLine
 10
-23.0
 20
14.0
 30
0.0
 11
-21.0
 21
14.0
 31
0.0
  0
LINE
  5
3BA
330
1F
100
AcDbEntity
  8
SK2
  6
CONTINUOUS
370
25
 62
7
100
AcDbLine
 10
-21.0
 20
14.0
 30
0.0
 11
-22.0
 21
9.0
 31
0.0
  0
LINE
  5
3BB
330
1F
100
AcDbEntity
  8
SK2
  6
CONTINUOUS
370
25
 62
7
100
AcDbLine
 10
-22.04629867976526
 20
9.231493398826302
 30
0.0
 11
-21.93055198035211
 21
9.347240098239453
 31
0.0
  0
LINE
  5
3BC
330
1F
100
AcDbEntity
  8
SK2
  6
CONTINUOUS
370
25
 62
7
100
AcDbLine
 10
-22.1170093578839
 20
9.585046789419579
 30
0.0
 11
-21.82448596317413
 21
9.877570184129354
 31
0.0
  0
LINE
  5
3BD
330
1F
100
AcDbEntity
  8
SK2
  6
CONTINUOUS
370
25
 62
7
100
AcDbLine
 10
-22.18772003600257
 20
9.938600180012827
 30
0.0
 11
-21.71841994599615
 21
10.40790027001925
 31
0.0
  0
LINE
  5
3BE
330
1F
100
AcDbEntity
  8
SK2
  6
CONTINUOUS
370
25
 62
7
100
AcDbLine
 10
-22.25843071412123
 20
10.2921535706061
 30
0.0
 11
-21.61235392881817
 21
10.93823035590917
 31
0.0
  0
LINE
  5
3BF
330
1F
100
AcDbEntity
  8
SK2
  6
CONTINUOUS
370
25
 62
7
100
AcDbLine
 10
-22.32914139223988
 20
10.64570696119938
 30
0.0
 11
-21.50628791164019
 21
11.46856044179907
 31
0.0
  0
LINE
  5
3C0
330
1F
100
AcDbEntity
  8
SK2
  6
CONTINUOUS
370
25
 62
7
100
AcDbLine
 10
-22.39985207035852
 20
10.99926035179266
 30
0.0
 11
-21.40022189446221
 21
11.99889052768897
 31
0.0
  0
LINE
  5
3C1
330
1F
100
AcDbEntity
  8
SK2
  6
CONTINUOUS
370
25
 62
7
100
AcDbLine
 10
-22.47056274847718
 20
11.35281374238592
 30
0.0
 11
-21.29415587728423
 21
12.52922061357887
 31
0.0
  0
LINE
  5
3C2
330
1F
100
AcDbEntity
  8
SK2
  6
CONTINUOUS
370
25
 62
7
100
AcDbLine
 10
-22.54127342659585
 20
11.70636713297918
 30
0.0
 11
-21.18808986010625
 21
13.05955069946879
 31
0.0
  0
LINE
  5
3C3
330
1F
100
AcDbEntity
  8
SK2
  6
CONTINUOUS
370
25
 62
7
100
AcDbLine
 10
-22.61198410471449
 20
12.05992052357246
 30
0.0
 11
-21.08202384292827
 21
13.58988078535869
 31
0.0
  0
LINE
  5
3C4
330
1F
100
AcDbEntity
  8
SK2
  6
CONTINUOUS
370
25
 62
7
100
AcDbLine
 10
-22.68269478283315
 20
12.41347391416572
 30
0.0
 11
-21.09616869699887
 21
14.0
 31
0.0
  0
LINE
  5
3C5
330
1F
100
AcDbEntity
  8
SK2
  6
CONTINUOUS
370
25
 62
7
100
AcDbLine
 10
-22.7534054609518
 20
12.767027304759
 30
0.0
 11
-21.52043276571079
 21
14.0
 31
0.0
  0
LINE
  5
3C6
330
1F
100
AcDbEntity
  8
SK2
  6
CONTINUOUS
370
25
 62
7
100
AcDbLine
 10
-22.82411613907045
 20
13.12058069535227
 30
0.0
 11
-21.94469683442273
 21
14.0
 31
0.0
  0
LINE
  5
3C7
330
1F
100
AcDbEntity
  8
SK2
  6
CONTINUOUS
370
25
 62
7
100
AcDbLine
 10
-22.8948268171891
 20
13.47413408594554
 30
0.0
 11
-22.36896090313464
 21
14.0
 31
0.0
  0
LINE
  5
3C8
330
1F
100
AcDbEntity
  8
SK2
  6
CONTINUOUS
370
25
 62
7
100
AcDbLine
 10
-22.96553749530774
 20
13.82768747653881
 30
0.0
 11
-22.79322497184656
 21
14.0
 31
0.0
  0
LINE
  5
3C9
330
1F
100
AcDbEntity
  8
SK2
  6
CONTINUOUS
370
25
 62
7
100
AcDbLine
 10
-22.01279880324641
 20
9.063994016232115
 30
0.0
 11
-21.99146746450239
 21
9.042662677488096
 31
0.0
  0
LINE
  5
3CA
330
1F
100
AcDbEntity
  8
SK2
  6
CONTINUOUS
370
25
 62
7
100
AcDbLine
 10
-22.11886482042439
 20
9.594324102122002
 30
0.0
 11
-21.92075678638373
 21
9.396216068081344
 31
0.0
  0
LINE
  5
3CB
330
1F
100
AcDbEntity
  8
SK2
  6
CONTINUOUS
370
25
 62
7
100
AcDbLine
 10
-22.22493083760237
 20
10.1246541880119
 30
0.0
 11
-21.85004610826509
 21
9.74976945867462
 31
0.0
  0
LINE
  5
3CC
330
1F
100
AcDbEntity
  8
SK2
  6
CONTINUOUS
370
25
 62
7
100
AcDbLine
 10
-22.33099685478035
 20
10.6549842739018
 30
0.0
 11
-21.77933543014642
 21
10.10332284926787
 31
0.0
  0
LINE
  5
3CD
330
1F
100
AcDbEntity
  8
SK2
  6
CONTINUOUS
370
25
 62
7
100
AcDbLine
 10
-22.43706287195835
 20
11.18531435979175
 30
0.0
 11
-21.70862475202776
 21
10.45687623986116
 31
0.0
  0
LINE
  5
3CE
330
1F
100
AcDbEntity
  8
SK2
  6
CONTINUOUS
370
25
 62
7
100
AcDbLine
 10
-22.54312888913633
 20
11.71564444568165
 30
0.0
 11
-21.63791407390912
 21
10.81042963045444
 31
0.0
  0
LINE
  5
3CF
330
1F
100
AcDbEntity
  8
SK2
  6
CONTINUOUS
370
25
 62
7
100
AcDbLine
 10
-22.64919490631431
 20
12.24597453157155
 30
0.0
 11
-21.56720339579046
 21
11.1639830210477
 31
0.0
  0
LINE
  5
3D0
330
1F
100
AcDbEntity
  8
SK2
  6
CONTINUOUS
370
25
 62
7
100
AcDbLine
 10
-22.75526092349229
 20
12.77630461746145
 30
0.0
 11
-21.49649271767181
 21
11.51753641164098
 31
0.0
  0
LINE
  5
3D1
330
1F
100
AcDbEntity
  8
SK2
  6
CONTINUOUS
370
25
 62
7
100
AcDbLine
 10
-22.86132694067028
 20
13.30663470335136
 30
0.0
 11
-21.42578203955314
 21
11.87108980223422
 31
0.0
  0
LINE
  5
3D2
330
1F
100
AcDbEntity
  8
SK2
  6
CONTINUOUS
370
25
 62
7
100
AcDbLine
 10
-22.96739295784825
 20
13.83696478924125
 30
0.0
 11
-21.35507136143451
 21
12.22464319282751
 31
0.0
  0
LINE
  5
3D3
330
1F
100
AcDbEntity
  8
SK2
  6
CONTINUOUS
370
25
 62
7
100
AcDbLine
 10
-22.70616409989508
 20
14.0
 30
0.0
 11
-21.28436068331585
 21
12.57819658342078
 31
0.0
  0
LINE
  5
3D4
330
1F
100
AcDbEntity
  8
SK2
  6
CONTINUOUS
370
25
 62
7
100
AcDbLine
 10
-22.28190003118316
 20
14.0
 30
0.0
 11
-21.21365000519718
 21
12.93174997401402
 31
0.0
  0
LINE
  5
3D5
330
1F
100
AcDbEntity
  8
SK2
  6
CONTINUOUS
370
25
 62
7
100
AcDbLine
 10
-21.85763596247122
 20
14.0
 30
0.0
 11
-21.14293932707854
 21
13.28530336460732
 31
0.0
  0
LINE
  5
3D6
330
1F
100
AcDbEntity
  8
SK2
  6
CONTINUOUS
370
25
 62
7
100
AcDbLine
 10
-21.43337189375929
 20
14.0
 30
0.0
 11
-21.07222864895988
 21
13.63885675520059
 31
0.0
  0
LINE
  5
3D7
330
1F
100
AcDbEntity
  8
SK2
  6
CONTINUOUS
370
25
 62
7
100
AcDbLine
 10
-21.00910782504737
 20
14.0
 30
0.0
 11
-21.00151797084123
 21
13.99241014579387
 31
0.0
  0
TEXT
  5
3D8
330
1F
100
AcDbEntity
  8
SK2
  6
CONTINUOUS
370
25
 62
7
100
AcDbText
 10
-23.5
 20
-0.0583333333333336
 30
0.0
 40
3.5
  1
18
 50
90.0
 72
     1
 11
-23.5
 21
2.275
 31
0.0
100
AcDbText
  0
CIRCLE
  5
3D9
330
1F
100
AcDbEntity
  8
SK2
  6
CONTINUOUS
370
25
 62
7
100
AcDbCircle
 10
-25.25
 20
-2.625
 30
0.0
 40
1.4
  0
LINE
  5
3DA
330
1F
100
AcDbEntity
  8
SK2
  6
CONTINUOUS
370
25
 62
7
100
AcDbLine
 10
-23.84999999999999
 20
-4.024999999999999
 30
0.0
 11
-26.65000000000001
 21
-1.224999999999999
 31
0.0
  0
LINE
  5
3DB
330
1F
100
AcDbEntity
  8
2
  6
CONTINUOUS
370
25
 62
7
100
AcDbLine
 10
68.0
 20
-9.0
 30
0.0
 11
68.0
 21
-25.00001
 31
0.0
  0
LINE
  5
3DC
330
1F
100
AcDbEntity
  8
2
  6
CONTINUOUS
370
25
 62
7
100
AcDbLine
 10
84.0
 20
-25.00001
 30
0.0
 11
84.0
 21
-9.0
 31
0.0
  0
LINE
  5
3DD
330
1F
100
AcDbEntity
  8
2
  6
CONTINUOUS
370
25
 62
7
100
AcDbLine
 10
68.0
 20
-24.00001
 30
0.0
 11
84.0
 21
-24.00001
 31
0.0
  0
LINE
  5
3DE
330
1F
100
AcDbEntity
  8
2
  6
CONTINUOUS
370
25
 62
7
100
AcDbLine
 10
68.0
 20
-24.00001
 30
0.0
 11
73.0
 21
-23.00001
 31
0.0
  0
LINE
  5
3DF
330
1F
100
AcDbEntity
  8
2
  6
CONTINUOUS
370
25
 62
7
100
AcDbLine
 10
73.0
 20
-23.00001
 30
0.0
 11
73.0
 21
-25.00001
 31
0.0
  0
LINE
  5
3E0
330
1F
100
AcDbEntity
  8
2
  6
CONTINUOUS
370
25
 62
7
100
AcDbLine
 10
73.0
 20
-25.00001
 30
0.0
 11
68.0
 21
-24.00001
 31
0.0
  0
LINE
  5
3E1
330
1F
100
AcDbEntity
  8
2
  6
CONTINUOUS
370
25
 62
7
100
AcDbLine
 10
72.98485281333828
 20
-24.99698056266766
 30
0.0
 11
73.0
 21
-24.98183337600593
 31
0.0
  0
LINE
  5
3E2
330
1F
100
AcDbEntity
  8
2
  6
CONTINUOUS
370
25
 62
7
100
AcDbLine
 10
72.631299422745
 20
-24.926269884549
 30
0.0
 11
73.0
 21
-24.55756930729401
 31
0.0
  0
LINE
  5
3E3
330
1F
100
AcDbEntity
  8
2
  6
CONTINUOUS
370
25
 62
7
100
AcDbLine
 10
72.27774603215174
 20
-24.85555920643035
 30
0.0
 11
73.0
 21
-24.13330523858208
 31
0.0
  0
LINE
  5
3E4
330
1F
100
AcDbEntity
  8
2
  6
CONTINUOUS
370
25
 62
7
100
AcDbLine
 10
71.92419264155846
 20
-24.78484852831169
 30
0.0
 11
73.0
 21
-23.70904116987015
 31
0.0
  0
LINE
  5
3E5
330
1F
100
AcDbEntity
  8
2
  6
CONTINUOUS
370
25
 62
7
100
AcDbLine
 10
71.57063925096519
 20
-24.71413785019304
 30
0.0
 11
73.0
 21
-23.28477710115823
 31
0.0
  0
LINE
  5
3E6
330
1F
100
AcDbEntity
  8
2
  6
CONTINUOUS
370
25
 62
7
100
AcDbLine
 10
71.21708586037191
 20
-24.64342717207438
 30
0.0
 11
72.82562879055787
 21
-23.03488424188842
 31
0.0
  0
LINE
  5
3E7
330
1F
100
AcDbEntity
  8
2
  6
CONTINUOUS
370
25
 62
7
100
AcDbLine
 10
70.86353246977865
 20
-24.57271649395573
 30
0.0
 11
72.29529870466797
 21
-23.14095025906641
 31
0.0
  0
LINE
  5
3E8
330
1F
100
AcDbEntity
  8
2
  6
CONTINUOUS
370
25
 62
7
100
AcDbLine
 10
70.50997907918537
 20
-24.50200581583707
 30
0.0
 11
71.76496861877806
 21
-23.24701627624439
 31
0.0
  0
LINE
  5
3E9
330
1F
100
AcDbEntity
  8
2
  6
CONTINUOUS
370
25
 62
7
100
AcDbLine
 10
70.1564256885921
 20
-24.43129513771842
 30
0.0
 11
71.23463853288814
 21
-23.35308229342237
 31
0.0
  0
LINE
  5
3EA
330
1F
100
AcDbEntity
  8
2
  6
CONTINUOUS
370
25
 62
7
100
AcDbLine
 10
69.80287229799882
 20
-24.36058445959976
 30
0.0
 11
70.70430844699824
 21
-23.45914831060035
 31
0.0
  0
LINE
  5
3EB
330
1F
100
AcDbEntity
  8
2
  6
CONTINUOUS
370
25
 62
7
100
AcDbLine
 10
69.44931890740556
 20
-24.28987378148111
 30
0.0
 11
70.17397836110833
 21
-23.56521432777834
 31
0.0
  0
LINE
  5
3EC
330
1F
100
AcDbEntity
  8
2
  6
CONTINUOUS
370
25
 62
7
100
AcDbLine
 10
69.09576551681228
 20
-24.21916310336245
 30
0.0
 11
69.64364827521841
 21
-23.67128034495632
 31
0.0
  0
LINE
  5
3ED
330
1F
100
AcDbEntity
  8
2
  6
CONTINUOUS
370
25
 62
7
100
AcDbLine
 10
68.742212126219
 20
-24.1484524252438
 30
0.0
 11
69.11331818932851
 21
-23.7773463621343
 31
0.0
  0
LINE
  5
3EE
330
1F
100
AcDbEntity
  8
2
  6
CONTINUOUS
370
25
 62
7
100
AcDbLine
 10
68.38865873562573
 20
-24.07774174712515
 30
0.0
 11
68.5829881034386
 21
-23.88341237931228
 31
0.0
  0
LINE
  5
3EF
330
1F
100
AcDbEntity
  8
2
  6
CONTINUOUS
370
25
 62
7
100
AcDbLine
 10
68.03510534503245
 20
-24.00703106900649
 30
0.0
 11
68.05265801754868
 21
-23.98947839649026
 31
0.0
  0
LINE
  5
3F0
330
1F
100
AcDbEntity
  8
2
  6
CONTINUOUS
370
25
 62
7
100
AcDbLine
 10
68.16650000465557
 20
-23.96670999906888
 30
0.0
 11
68.24975000698338
 21
-24.04996000139667
 31
0.0
  0
LINE
  5
3F1
330
1F
100
AcDbEntity
  8
2
  6
CONTINUOUS
370
25
 62
7
100
AcDbLine
 10
68.52005339524885
 20
-23.89599932095023
 30
0.0
 11
68.78008009287328
 21
-24.15602601857466
 31
0.0
  0
LINE
  5
3F2
330
1F
100
AcDbEntity
  8
2
  6
CONTINUOUS
370
25
 62
7
100
AcDbLine
 10
68.87360678584213
 20
-23.82528864283157
 30
0.0
 11
69.31041017876319
 21
-24.26209203575264
 31
0.0
  0
LINE
  5
3F3
330
1F
100
AcDbEntity
  8
2
  6
CONTINUOUS
370
25
 62
7
100
AcDbLine
 10
69.2271601764354
 20
-23.75457796471292
 30
0.0
 11
69.8407402646531
 21
-24.36815805293062
 31
0.0
  0
LINE
  5
3F4
330
1F
100
AcDbEntity
  8
2
  6
CONTINUOUS
370
25
 62
7
100
AcDbLine
 10
69.58071356702868
 20
-23.68386728659426
 30
0.0
 11
70.37107035054302
 21
-24.4742240701086
 31
0.0
  0
LINE
  5
3F5
330
1F
100
AcDbEntity
  8
2
  6
CONTINUOUS
370
25
 62
7
100
AcDbLine
 10
69.93426695762194
 20
-23.61315660847561
 30
0.0
 11
70.90140043643292
 21
-24.58029008728658
 31
0.0
  0
LINE
  5
3F6
330
1F
100
AcDbEntity
  8
2
  6
CONTINUOUS
370
25
 62
7
100
AcDbLine
 10
70.28782034821522
 20
-23.54244593035695
 30
0.0
 11
71.43173052232284
 21
-24.68635610446456
 31
0.0
  0
LINE
  5
3F7
330
1F
100
AcDbEntity
  8
2
  6
CONTINUOUS
370
25
 62
7
100
AcDbLine
 10
70.6413737388085
 20
-23.4717352522383
 30
0.0
 11
71.96206060821275
 21
-24.79242212164255
 31
0.0
  0
LINE
  5
3F8
330
1F
100
AcDbEntity
  8
2
  6
CONTINUOUS
370
25
 62
7
100
AcDbLine
 10
70.99492712940177
 20
-23.40102457411965
 30
0.0
 11
72.49239069410265
 21
-24.89848813882053
 31
0.0
  0
LINE
  5
3F9
330
1F
100
AcDbEntity
  8
2
  6
CONTINUOUS
370
25
 62
7
100
AcDbLine
 10
71.34848051999504
 20
-23.33031389600099
 30
0.0
 11
73.0
 21
-24.98183337600594
 31
0.0
  0
LINE
  5
3FA
330
1F
100
AcDbEntity
  8
2
  6
CONTINUOUS
370
25
 62
7
100
AcDbLine
 10
71.70203391058831
 20
-23.25960321788234
 30
0.0
 11
73.0
 21
-24.55756930729402
 31
0.0
  0
LINE
  5
3FB
330
1F
100
AcDbEntity
  8
2
  6
CONTINUOUS
370
25
 62
7
100
AcDbLine
 10
72.05558730118159
 20
-23.18889253976368
 30
0.0
 11
73.0
 21
-24.1333052385821
 31
0.0
  0
LINE
  5
3FC
330
1F
100
AcDbEntity
  8
2
  6
CONTINUOUS
370
25
 62
7
100
AcDbLine
 10
72.40914069177487
 20
-23.11818186164503
 30
0.0
 11
73.0
 21
-23.70904116987017
 31
0.0
  0
LINE
  5
3FD
330
1F
100
AcDbEntity
  8
2
  6
CONTINUOUS
370
25
 62
7
100
AcDbLine
 10
72.76269408236814
 20
-23.04747118352637
 30
0.0
 11
73.0
 21
-23.28477710115824
 31
0.0
  0
LINE
  5
3FE
330
1F
100
AcDbEntity
  8
2
  6
CONTINUOUS
370
25
 62
7
100
AcDbLine
 10
84.0
 20
-24.00001
 30
0.0
 11
79.0
 21
-25.00001
 31
0.0
  0
LINE
  5
3FF
330
1F
100
AcDbEntity
  8
2
  6
CONTINUOUS
370
25
 62
7
100
AcDbLine
 10
79.0
 20
-25.00001
 30
0.0
 11
79.0
 21
-23.00001
 31
0.0
  0
LINE
  5
400
330
1F
100
AcDbEntity
  8
2
  6
CONTINUOUS
370
25
 62
7
100
AcDbLine
 10
79.0
 20
-23.00001
 30
0.0
 11
84.0
 21
-24.00001
 31
0.0
  0
LINE
  5
401
330
1F
100
AcDbEntity
  8
2
  6
CONTINUOUS
370
25
 62
7
100
AcDbLine
 10
83.59770672919998
 20
-24.08046865416
 30
0.0
 11
83.73180448613331
 21
-23.94637089722666
 31
0.0
  0
LINE
  5
402
330
1F
100
AcDbEntity
  8
2
  6
CONTINUOUS
370
25
 62
7
100
AcDbLine
 10
83.06737664331008
 20
-24.18653467133798
 30
0.0
 11
83.37825109554005
 21
-23.87566021910801
 31
0.0
  0
LINE
  5
403
330
1F
100
AcDbEntity
  8
2
  6
CONTINUOUS
370
25
 62
7
100
AcDbLine
 10
82.53704655742017
 20
-24.29260068851597
 30
0.0
 11
83.02469770494677
 21
-23.80494954098936
 31
0.0
  0
LINE
  5
404
330
1F
100
AcDbEntity
  8
2
  6
CONTINUOUS
370
25
 62
7
100
AcDbLine
 10
82.00671647153027
 20
-24.39866670569395
 30
0.0
 11
82.67114431435351
 21
-23.7342388628707
 31
0.0
  0
LINE
  5
405
330
1F
100
AcDbEntity
  8
2
  6
CONTINUOUS
370
25
 62
7
100
AcDbLine
 10
81.47638638564034
 20
-24.50473272287193
 30
0.0
 11
82.31759092376024
 21
-23.66352818475205
 31
0.0
  0
LINE
  5
406
330
1F
100
AcDbEntity
  8
2
  6
CONTINUOUS
370
25
 62
7
100
AcDbLine
 10
80.94605629975044
 20
-24.61079874004991
 30
0.0
 11
81.96403753316696
 21
-23.59281750663339
 31
0.0
  0
LINE
  5
407
330
1F
100
AcDbEntity
  8
2
  6
CONTINUOUS
370
25
 62
7
100
AcDbLine
 10
80.41572621386052
 20
-24.7168647572279
 30
0.0
 11
81.61048414257368
 21
-23.52210682851474
 31
0.0
  0
LINE
  5
408
330
1F
100
AcDbEntity
  8
2
  6
CONTINUOUS
370
25
 62
7
100
AcDbLine
 10
79.88539612797062
 20
-24.82293077440588
 30
0.0
 11
81.25693075198042
 21
-23.45139615039608
 31
0.0
  0
LINE
  5
409
330
1F
100
AcDbEntity
  8
2
  6
CONTINUOUS
370
25
 62
7
100
AcDbLine
 10
79.35506604208071
 20
-24.92899679158386
 30
0.0
 11
80.90337736138713
 21
-23.38068547227743
 31
0.0
  0
LINE
  5
40A
330
1F
100
AcDbEntity
  8
2
  6
CONTINUOUS
370
25
 62
7
100
AcDbLine
 10
79.0
 20
-24.85979876495264
 30
0.0
 11
80.54982397079387
 21
-23.30997479415877
 31
0.0
  0
LINE
  5
40B
330
1F
100
AcDbEntity
  8
2
  6
CONTINUOUS
370
25
 62
7
100
AcDbLine
 10
79.0
 20
-24.43553469624071
 30
0.0
 11
80.19627058020059
 21
-23.23926411604012
 31
0.0
  0
LINE
  5
40C
330
1F
100
AcDbEntity
  8
2
  6
CONTINUOUS
370
25
 62
7
100
AcDbLine
 10
79.0
 20
-24.01127062752879
 30
0.0
 11
79.84271718960733
 21
-23.16855343792146
 31
0.0
  0
LINE
  5
40D
330
1F
100
AcDbEntity
  8
2
  6
CONTINUOUS
370
25
 62
7
100
AcDbLine
 10
79.0
 20
-23.58700655881685
 30
0.0
 11
79.48916379901405
 21
-23.09784275980281
 31
0.0
  0
LINE
  5
40E
330
1F
100
AcDbEntity
  8
2
  6
CONTINUOUS
370
25
 62
7
100
AcDbLine
 10
79.0
 20
-23.16274249010493
 30
0.0
 11
79.13561040842077
 21
-23.02713208168415
 31
0.0
  0
LINE
  5
40F
330
1F
100
AcDbEntity
  8
2
  6
CONTINUOUS
370
25
 62
7
100
AcDbLine
 10
79.0
 20
-24.67960391834731
 30
0.0
 11
79.26700506804391
 21
-24.94660898639122
 31
0.0
  0
LINE
  5
410
330
1F
100
AcDbEntity
  8
2
  6
CONTINUOUS
370
25
 62
7
100
AcDbLine
 10
79.0
 20
-24.25533984963538
 30
0.0
 11
79.62055845863718
 21
-24.87589830827256
 31
0.0
  0
LINE
  5
411
330
1F
100
AcDbEntity
  8
2
  6
CONTINUOUS
370
25
 62
7
100
AcDbLine
 10
79.0
 20
-23.83107578092346
 30
0.0
 11
79.97411184923045
 21
-24.80518763015391
 31
0.0
  0
LINE
  5
412
330
1F
100
AcDbEntity
  8
2
  6
CONTINUOUS
370
25
 62
7
100
AcDbLine
 10
79.0
 20
-23.40681171221153
 30
0.0
 11
80.32766523982373
 21
-24.73447695203525
 31
0.0
  0
LINE
  5
413
330
1F
100
AcDbEntity
  8
2
  6
CONTINUOUS
370
25
 62
7
100
AcDbLine
 10
79.0218279456255
 20
-23.0043755891251
 30
0.0
 11
80.681218630417
 21
-24.6637662739166
 31
0.0
  0
LINE
  5
414
330
1F
100
AcDbEntity
  8
2
  6
CONTINUOUS
370
25
 62
7
100
AcDbLine
 10
79.5521580315154
 20
-23.11044160630308
 30
0.0
 11
81.03477202101027
 21
-24.59305559579795
 31
0.0
  0
LINE
  5
415
330
1F
100
AcDbEntity
  8
2
  6
CONTINUOUS
370
25
 62
7
100
AcDbLine
 10
80.08248811740532
 20
-23.21650762348106
 30
0.0
 11
81.38832541160355
 21
-24.52234491767929
 31
0.0
  0
LINE
  5
416
330
1F
100
AcDbEntity
  8
2
  6
CONTINUOUS
370
25
 62
7
100
AcDbLine
 10
80.61281820329523
 20
-23.32257364065904
 30
0.0
 11
81.74187880219682
 21
-24.45163423956063
 31
0.0
  0
LINE
  5
417
330
1F
100
AcDbEntity
  8
2
  6
CONTINUOUS
370
25
 62
7
100
AcDbLine
 10
81.14314828918513
 20
-23.42863965783702
 30
0.0
 11
82.0954321927901
 21
-24.38092356144198
 31
0.0
  0
LINE
  5
418
330
1F
100
AcDbEntity
  8
2
  6
CONTINUOUS
370
25
 62
7
100
AcDbLine
 10
81.67347837507505
 20
-23.53470567501501
 30
0.0
 11
82.44898558338338
 21
-24.31021288332332
 31
0.0
  0
LINE
  5
419
330
1F
100
AcDbEntity
  8
2
  6
CONTINUOUS
370
25
 62
7
100
AcDbLine
 10
82.20380846096496
 20
-23.64077169219299
 30
0.0
 11
82.80253897397664
 21
-24.23950220520467
 31
0.0
  0
LINE
  5
41A
330
1F
100
AcDbEntity
  8
2
  6
CONTINUOUS
370
25
 62
7
100
AcDbLine
 10
82.73413854685487
 20
-23.74683770937097
 30
0.0
 11
83.15609236456991
 21
-24.16879152708601
 31
0.0
  0
LINE
  5
41B
330
1F
100
AcDbEntity
  8
2
  6
CONTINUOUS
370
25
 62
7
100
AcDbLine
 10
83.26446863274478
 20
-23.85290372654896
 30
0.0
 11
83.50964575516319
 21
-24.09808084896736
 31
0.0
  0
LINE
  5
41C
330
1F
100
AcDbEntity
  8
2
  6
CONTINUOUS
370
25
 62
7
100
AcDbLine
 10
83.7947987186347
 20
-23.95896974372694
 30
0.0
 11
83.86319914575645
 21
-24.02737017084871
 31
0.0
  0
TEXT
  5
41D
330
1F
100
AcDbEntity
  8
2
  6
CONTINUOUS
370
25
 62
7
100
AcDbText
 10
73.66666666666667
 20
-22.50001
 30
0.0
 40
3.5
  1
16
 72
     1
 11
76.0
 21
-22.50001
 31
0.0
100
AcDbText
  0
LINE
  5
41E
330
1F
100
AcDbEntity
  8
SK2
  6
CONTINUOUS
370
25
 62
7
100
AcDbLine
 10
-12.0000002
 20
-7.250001
 30
0.0
 11
-13.00000000000008
 21
-7.250001
 31
0.0
  0
LINE
  5
41F
330
1F
100
AcDbEntity
  8
SK2
  6
CONTINUOUS
370
25
 62
7
100
AcDbLine
 10
0.0
 20
-7.250001
 30
0.0
 11
-11.9999998
 21
-7.250001
 31
0.0
  0
LINE
  5
420
330
1F
100
AcDbEntity
  8
SK2
  6
CONTINUOUS
370
25
 62
7
100
AcDbLine
 10
-13.0
 20
7.25
 30
0.0
 11
0.0
 21
7.25
 31
0.0
  0
LINE
  5
421
330
1F
100
AcDbEntity
  8
SK2
  6
CONTINUOUS
370
25
 62
7
100
AcDbLine
 10
-12.0
 20
-14.25
 30
0.0
 11
-12.0
 21
29.65
 31
0.0
  0
LINE
  5
422
330
1F
100
AcDbEntity
  8
SK2
  6
CONTINUOUS
370
25
 62
7
100
AcDbLine
 10
-12.0
 20
-7.25
 30
0.0
 11
-11.0
 21
-12.25
 31
0.0
  0
LINE
  5
423
330
1F
100
AcDbEntity
  8
SK2
  6
CONTINUOUS
370
25
 62
7
100
AcDbLine
 10
-11.0
 20
-12.25
 30
0.0
 11
-13.0
 21
-12.25
 31
0.0
  0
LINE
  5
424
330
1F
100
AcDbEntity
  8
SK2
  6
CONTINUOUS
370
25
 62
7
100
AcDbLine
 10
-13.0
 20
-12.25
 30
0.0
 11
-12.0
 21
-7.25
 31
0.0
  0
LINE
  5
425
330
1F
100
AcDbEntity
  8
SK2
  6
CONTINUOUS
370
25
 62
7
100
AcDbLine
 10
-11.28372285648503
 20
-12.25
 30
0.0
 11
-11.04728714274751
 21
-12.01356428626248
 31
0.0
  0
LINE
  5
426
330
1F
100
AcDbEntity
  8
SK2
  6
CONTINUOUS
370
25
 62
7
100
AcDbLine
 10
-11.70798692519695
 20
-12.25
 30
0.0
 11
-11.11799782086617
 21
-11.66001089566922
 31
0.0
  0
LINE
  5
427
330
1F
100
AcDbEntity
  8
SK2
  6
CONTINUOUS
370
25
 62
7
100
AcDbLine
 10
-12.13225099390887
 20
-12.25
 30
0.0
 11
-11.18870849898481
 21
-11.30645750507594
 31
0.0
  0
LINE
  5
428
330
1F
100
AcDbEntity
  8
SK2
  6
CONTINUOUS
370
25
 62
7
100
AcDbLine
 10
-12.5565150626208
 20
-12.25
 30
0.0
 11
-11.25941917710347
 21
-10.95290411448266
 31
0.0
  0
LINE
  5
429
330
1F
100
AcDbEntity
  8
SK2
  6
CONTINUOUS
370
25
 62
7
100
AcDbLine
 10
-12.98077913133272
 20
-12.25
 30
0.0
 11
-11.33012985522213
 21
-10.5993507238894
 31
0.0
  0
LINE
  5
42A
330
1F
100
AcDbEntity
  8
SK2
  6
CONTINUOUS
370
25
 62
7
100
AcDbLine
 10
-12.89873919998884
 20
-11.74369599994419
 30
0.0
 11
-11.40084053334077
 21
-10.24579733329612
 31
0.0
  0
LINE
  5
42B
330
1F
100
AcDbEntity
  8
SK2
  6
CONTINUOUS
370
25
 62
7
100
AcDbLine
 10
-12.79267318281086
 20
-11.21336591405429
 30
0.0
 11
-11.47155121145943
 21
-9.892243942702862
 31
0.0
  0
LINE
  5
42C
330
1F
100
AcDbEntity
  8
SK2
  6
CONTINUOUS
370
25
 62
7
100
AcDbLine
 10
-12.68660716563288
 20
-10.68303582816439
 30
0.0
 11
-11.54226188957809
 21
-9.5386905521096
 31
0.0
  0
LINE
  5
42D
330
1F
100
AcDbEntity
  8
SK2
  6
CONTINUOUS
370
25
 62
7
100
AcDbLine
 10
-12.5805411484549
 20
-10.15270574227448
 30
0.0
 11
-11.61297256769673
 21
-9.185137161516309
 31
0.0
  0
LINE
  5
42E
330
1F
100
AcDbEntity
  8
SK2
  6
CONTINUOUS
370
25
 62
7
100
AcDbLine
 10
-12.47447513127692
 20
-9.622375656384577
 30
0.0
 11
-11.68368324581539
 21
-8.831583770923046
 31
0.0
  0
LINE
  5
42F
330
1F
100
AcDbEntity
  8
SK2
  6
CONTINUOUS
370
25
 62
7
100
AcDbLine
 10
-12.36840911409894
 20
-9.092045570494676
 30
0.0
 11
-11.75439392393405
 21
-8.478030380329784
 31
0.0
  0
LINE
  5
430
330
1F
100
AcDbEntity
  8
SK2
  6
CONTINUOUS
370
25
 62
7
100
AcDbLine
 10
-12.26234309692094
 20
-8.561715484604747
 30
0.0
 11
-11.8251046020527
 21
-8.124476989736507
 31
0.0
  0
LINE
  5
431
330
1F
100
AcDbEntity
  8
SK2
  6
CONTINUOUS
370
25
 62
7
100
AcDbLine
 10
-12.15627707974298
 20
-8.03138539871486
 30
0.0
 11
-11.89581528017135
 21
-7.770923599143231
 31
0.0
  0
LINE
  5
432
330
1F
100
AcDbEntity
  8
SK2
  6
CONTINUOUS
370
25
 62
7
100
AcDbLine
 10
-12.05021106256498
 20
-7.501055312824946
 30
0.0
 11
-11.96652595829001
 21
-7.417370208549968
 31
0.0
  0
LINE
  5
433
330
1F
100
AcDbEntity
  8
SK2
  6
CONTINUOUS
370
25
 62
7
100
AcDbLine
 10
-12.93203384486939
 20
-11.91016922434697
 30
0.0
 11
-12.59220306921637
 21
-12.25
 31
0.0
  0
LINE
  5
434
330
1F
100
AcDbEntity
  8
SK2
  6
CONTINUOUS
370
25
 62
7
100
AcDbLine
 10
-12.86132316675075
 20
-11.5566158337537
 30
0.0
 11
-12.16793900050445
 21
-12.25
 31
0.0
  0
LINE
  5
435
330
1F
100
AcDbEntity
  8
SK2
  6
CONTINUOUS
370
25
 62
7
100
AcDbLine
 10
-12.79061248863208
 20
-11.20306244316043
 30
0.0
 11
-11.74367493179251
 21
-12.25
 31
0.0
  0
LINE
  5
436
330
1F
100
AcDbEntity
  8
SK2
  6
CONTINUOUS
370
25
 62
7
100
AcDbLine
 10
-12.71990181051343
 20
-10.84950905256716
 30
0.0
 11
-11.31941086308059
 21
-12.25
 31
0.0
  0
LINE
  5
437
330
1F
100
AcDbEntity
  8
SK2
  6
CONTINUOUS
370
25
 62
7
100
AcDbLine
 10
-12.64919113239478
 20
-10.49595566197389
 30
0.0
 11
-11.02621330140784
 21
-12.11893349296083
 31
0.0
  0
LINE
  5
438
330
1F
100
AcDbEntity
  8
SK2
  6
CONTINUOUS
370
25
 62
7
100
AcDbLine
 10
-12.57848045427613
 20
-10.1424022713806
 30
0.0
 11
-11.13227931858582
 21
-11.58860340707093
 31
0.0
  0
LINE
  5
439
330
1F
100
AcDbEntity
  8
SK2
  6
CONTINUOUS
370
25
 62
7
100
AcDbLine
 10
-12.50776977615747
 20
-9.788848880787341
 30
0.0
 11
-11.2383453357638
 21
-11.05827332118103
 31
0.0
  0
LINE
  5
43A
330
1F
100
AcDbEntity
  8
SK2
  6
CONTINUOUS
370
25
 62
7
100
AcDbLine
 10
-12.43705909803883
 20
-9.435295490194065
 30
0.0
 11
-11.34441135294178
 21
-10.52794323529113
 31
0.0
  0
LINE
  5
43B
330
1F
100
AcDbEntity
  8
SK2
  6
CONTINUOUS
370
25
 62
7
100
AcDbLine
 10
-12.36634841992016
 20
-9.081742099600802
 30
0.0
 11
-11.45047737011976
 21
-9.997613149401204
 31
0.0
  0
LINE
  5
43C
330
1F
100
AcDbEntity
  8
SK2
  6
CONTINUOUS
370
25
 62
7
100
AcDbLine
 10
-12.2956377418015
 20
-8.72818870900754
 30
0.0
 11
-11.55654338729774
 21
-9.467283063511303
 31
0.0
  0
LINE
  5
43D
330
1F
100
AcDbEntity
  8
SK2
  6
CONTINUOUS
370
25
 62
7
100
AcDbLine
 10
-12.22492706368286
 20
-8.374635318414263
 30
0.0
 11
-11.66260940447572
 21
-8.936952977621402
 31
0.0
  0
LINE
  5
43E
330
1F
100
AcDbEntity
  8
SK2
  6
CONTINUOUS
370
25
 62
7
100
AcDbLine
 10
-12.1542163855642
 20
-8.021081927820987
 30
0.0
 11
-11.7686754216537
 21
-8.406622891731487
 31
0.0
  0
LINE
  5
43F
330
1F
100
AcDbEntity
  8
SK2
  6
CONTINUOUS
370
25
 62
7
100
AcDbLine
 10
-12.08350570744554
 20
-7.667528537227724
 30
0.0
 11
-11.87474143883168
 21
-7.876292805841587
 31
0.0
  0
LINE
  5
440
330
1F
100
AcDbEntity
  8
SK2
  6
CONTINUOUS
370
25
 62
7
100
AcDbLine
 10
-12.0127950293269
 20
-7.313975146634448
 30
0.0
 11
-11.98080745600966
 21
-7.345962719951686
 31
0.0
  0
LINE
  5
441
330
1F
100
AcDbEntity
  8
SK2
  6
CONTINUOUS
370
25
 62
7
100
AcDbLine
 10
-12.0
 20
7.25
 30
0.0
 11
-13.0
 21
12.25
 31
0.0
  0
LINE
  5
442
330
1F
100
AcDbEntity
  8
SK2
  6
CONTINUOUS
370
25
 62
7
100
AcDbLine
 10
-13.0
 20
12.25
 30
0.0
 11
-11.0
 21
12.25
 31
0.0
  0
LINE
  5
443
330
1F
100
AcDbEntity
  8
SK2
  6
CONTINUOUS
370
25
 62
7
100
AcDbLine
 10
-11.0
 20
12.25
 30
0.0
 11
-12.0
 21
7.25
 31
0.0
  0
LINE
  5
444
330
1F
100
AcDbEntity
  8
SK2
  6
CONTINUOUS
370
25
 62
7
100
AcDbLine
 10
-12.02473302577626
 20
7.373665128881299
 30
0.0
 11
-11.96290046133562
 21
7.435497693321935
 31
0.0
  0
LINE
  5
445
330
1F
100
AcDbEntity
  8
SK2
  6
CONTINUOUS
370
25
 62
7
100
AcDbLine
 10
-12.0954437038949
 20
7.727218519474576
 30
0.0
 11
-11.85683444415764
 21
7.965827779211835
 31
0.0
  0
LINE
  5
446
330
1F
100
AcDbEntity
  8
SK2
  6
CONTINUOUS
370
25
 62
7
100
AcDbLine
 10
-12.16615438201357
 20
8.080771910067838
 30
0.0
 11
-11.75076842697965
 21
8.496157865101765
 31
0.0
  0
LINE
  5
447
330
1F
100
AcDbEntity
  8
SK2
  6
CONTINUOUS
370
25
 62
7
100
AcDbLine
 10
-12.23686506013222
 20
8.434325300661115
 30
0.0
 11
-11.64470240980168
 21
9.026487950991651
 31
0.0
  0
LINE
  5
448
330
1F
100
AcDbEntity
  8
SK2
  6
CONTINUOUS
370
25
 62
7
100
AcDbLine
 10
-12.30757573825088
 20
8.787878691254377
 30
0.0
 11
-11.53863639262369
 21
9.556818036881566
 31
0.0
  0
LINE
  5
449
330
1F
100
AcDbEntity
  8
SK2
  6
CONTINUOUS
370
25
 62
7
100
AcDbLine
 10
-12.37828641636952
 20
9.141432081847654
 30
0.0
 11
-11.43257037544572
 21
10.08714812277145
 31
0.0
  0
LINE
  5
44A
330
1F
100
AcDbEntity
  8
SK2
  6
CONTINUOUS
370
25
 62
7
100
AcDbLine
 10
-12.44899709448818
 20
9.49498547244093
 30
0.0
 11
-11.32650435826773
 21
10.61747820866138
 31
0.0
  0
LINE
  5
44B
330
1F
100
AcDbEntity
  8
SK2
  6
CONTINUOUS
370
25
 62
7
100
AcDbLine
 10
-12.51970777260684
 20
9.848538863034193
 30
0.0
 11
-11.22043834108975
 21
11.14780829455128
 31
0.0
  0
LINE
  5
44C
330
1F
100
AcDbEntity
  8
SK2
  6
CONTINUOUS
370
25
 62
7
100
AcDbLine
 10
-12.59041845072549
 20
10.20209225362746
 30
0.0
 11
-11.11437232391177
 21
11.67813838044118
 31
0.0
  0
LINE
  5
44D
330
1F
100
AcDbEntity
  8
SK2
  6
CONTINUOUS
370
25
 62
7
100
AcDbLine
 10
-12.66112912884414
 20
10.55564564422073
 30
0.0
 11
-11.00830630673379
 21
12.20846846633108
 31
0.0
  0
LINE
  5
44E
330
1F
100
AcDbEntity
  8
SK2
  6
CONTINUOUS
370
25
 62
7
100
AcDbLine
 10
-12.7318398069628
 20
10.90919903481401
 30
0.0
 11
-11.3910388417768
 21
12.25
 31
0.0
  0
LINE
  5
44F
330
1F
100
AcDbEntity
  8
SK2
  6
CONTINUOUS
370
25
 62
7
100
AcDbLine
 10
-12.80255048508145
 20
11.26275242540727
 30
0.0
 11
-11.81530291048873
 21
12.25
 31
0.0
  0
LINE
  5
450
330
1F
100
AcDbEntity
  8
SK2
  6
CONTINUOUS
370
25
 62
7
100
AcDbLine
 10
-12.8732611632001
 20
11.61630581600055
 30
0.0
 11
-12.23956697920065
 21
12.25
 31
0.0
  0
LINE
  5
451
330
1F
100
AcDbEntity
  8
SK2
  6
CONTINUOUS
370
25
 62
7
100
AcDbLine
 10
-12.94397184131876
 20
11.96985920659381
 30
0.0
 11
-12.66383104791257
 21
12.25
 31
0.0
  0
LINE
  5
452
330
1F
100
AcDbEntity
  8
SK2
  6
CONTINUOUS
370
25
 62
7
100
AcDbLine
 10
-12.06004447686473
 20
7.550222384323661
 30
0.0
 11
-11.95997034875684
 21
7.450148256215769
 31
0.0
  0
LINE
  5
453
330
1F
100
AcDbEntity
  8
SK2
  6
CONTINUOUS
370
25
 62
7
100
AcDbLine
 10
-12.16611049404271
 20
8.080552470213561
 30
0.0
 11
-11.8892596706382
 21
7.803701646809046
 31
0.0
  0
LINE
  5
454
330
1F
100
AcDbEntity
  8
SK2
  6
CONTINUOUS
370
25
 62
7
100
AcDbLine
 10
-12.27217651122069
 20
8.610882556103462
 30
0.0
 11
-11.81854899251954
 21
8.157255037402308
 31
0.0
  0
LINE
  5
455
330
1F
100
AcDbEntity
  8
SK2
  6
CONTINUOUS
370
25
 62
7
100
AcDbLine
 10
-12.37824252839867
 20
9.141212641993349
 30
0.0
 11
-11.74783831440088
 21
8.510808427995556
 31
0.0
  0
LINE
  5
456
330
1F
100
AcDbEntity
  8
SK2
  6
CONTINUOUS
370
25
 62
7
100
AcDbLine
 10
-12.48430854557667
 20
9.671542727883278
 30
0.0
 11
-11.67712763628222
 21
8.864361818588833
 31
0.0
  0
LINE
  5
457
330
1F
100
AcDbEntity
  8
SK2
  6
CONTINUOUS
370
25
 62
7
100
AcDbLine
 10
-12.59037456275465
 20
10.20187281377319
 30
0.0
 11
-11.60641695816356
 21
9.21791520918211
 31
0.0
  0
LINE
  5
458
330
1F
100
AcDbEntity
  8
SK2
  6
CONTINUOUS
370
25
 62
7
100
AcDbLine
 10
-12.69644057993263
 20
10.73220289966309
 30
0.0
 11
-11.53570628004492
 21
9.571468599775386
 31
0.0
  0
LINE
  5
459
330
1F
100
AcDbEntity
  8
SK2
  6
CONTINUOUS
370
25
 62
7
100
AcDbLine
 10
-12.80250659711058
 20
11.26253298555295
 30
0.0
 11
-11.46499560192628
 21
9.925021990368663
 31
0.0
  0
LINE
  5
45A
330
1F
100
AcDbEntity
  8
SK2
  6
CONTINUOUS
370
25
 62
7
100
AcDbLine
 10
-12.90857261428856
 20
11.79286307144287
 30
0.0
 11
-11.39428492380762
 21
10.27857538096193
 31
0.0
  0
LINE
  5
45B
330
1F
100
AcDbEntity
  8
SK2
  6
CONTINUOUS
370
25
 62
7
100
AcDbLine
 10
-12.94144547413377
 20
12.25
 30
0.0
 11
-11.32357424568896
 21
10.63212877155519
 31
0.0
  0
LINE
  5
45C
330
1F
100
AcDbEntity
  8
SK2
  6
CONTINUOUS
370
25
 62
7
100
AcDbLine
 10
-12.51718140542185
 20
12.25
 30
0.0
 11
-11.25286356757032
 21
10.98568216214846
 31
0.0
  0
LINE
  5
45D
330
1F
100
AcDbEntity
  8
SK2
  6
CONTINUOUS
370
25
 62
7
100
AcDbLine
 10
-12.09291733670993
 20
12.25
 30
0.0
 11
-11.18215288945166
 21
11.33923555274173
 31
0.0
  0
LINE
  5
45E
330
1F
100
AcDbEntity
  8
SK2
  6
CONTINUOUS
370
25
 62
7
100
AcDbLine
 10
-11.66865326799801
 20
12.25
 30
0.0
 11
-11.111442211333
 21
11.69278894333499
 31
0.0
  0
LINE
  5
45F
330
1F
100
AcDbEntity
  8
SK2
  6
CONTINUOUS
370
25
 62
7
100
AcDbLine
 10
-11.24438919928608
 20
12.25
 30
0.0
 11
-11.04073153321434
 21
12.04634233392828
 31
0.0
  0
TEXT
  5
460
330
1F
100
AcDbEntity
  8
SK2
  6
CONTINUOUS
370
25
 62
7
100
AcDbText
 10
-13.5
 20
18.55833333333333
 30
0.0
 40
3.5
  1
14.5
 50
89.99999999999997
 72
     1
 11
-13.5
 21
23.225
 31
0.0
100
AcDbText
  0
LINE
  5
461
330
1F
100
AcDbEntity
  8
SK2
  6
CONTINUOUS
370
25
 62
7
100
AcDbLine
 10
-13.84999999999999
 20
13.775
 30
0.0
 11
-13.84999999999999
 21
16.575
 31
0.0
  0
LINE
  5
462
330
1F
100
AcDbEntity
  8
SK2
  6
CONTINUOUS
370
25
 62
7
100
AcDbLine
 10
-13.84999999999999
 20
16.575
 30
0.0
 11
-16.65000000000001
 21
16.575
 31
0.0
  0
LINE
  5
463
330
1F
100
AcDbEntity
  8
SK2
  6
CONTINUOUS
370
25
 62
7
100
AcDbLine
 10
-16.65000000000001
 20
16.575
 30
0.0
 11
-16.65000000000001
 21
13.775
 31
0.0
  0
LINE
  5
464
330
1F
100
AcDbEntity
  8
SK2
  6
CONTINUOUS
370
25
 62
7
100
AcDbLine
 10
-16.65000000000001
 20
13.775
 30
0.0
 11
-13.84999999999999
 21
13.775
 31
0.0
  0
LINE
  5
465
330
1F
100
AcDbEntity
  8
SK1
  6
CONTINUOUS
370
50
 62
4
100
AcDbLine
 10
68.0
 20
9.0
 30
0.0
 11
17.0
 21
9.0
 31
0.0
  0
LINE
  5
466
330
1F
100
AcDbEntity
  8
SK1
  6
CONTINUOUS
370
50
 62
4
100
AcDbLine
 10
17.0
 20
9.0
 30
0.0
 11
17.0
 21
7.25
 31
0.0
  0
LINE
  5
467
330
1F
100
AcDbEntity
  8
SK1
  6
CONTINUOUS
370
50
 62
4
100
AcDbLine
 10
17.0
 20
7.25
 30
0.0
 11
0.0
 21
7.25
 31
0.0
  0
LINE
  5
468
330
1F
100
AcDbEntity
  8
SK1
  6
CONTINUOUS
370
50
 62
4
100
AcDbLine
 10
0.0
 20
7.25
 30
0.0
 11
0.0
 21
-7.25
 31
0.0
  0
LINE
  5
469
330
1F
100
AcDbEntity
  8
SK1
  6
CONTINUOUS
370
50
 62
4
100
AcDbLine
 10
0.0
 20
-7.25
 30
0.0
 11
17.0
 21
-7.25
 31
0.0
  0
LINE
  5
46A
330
1F
100
AcDbEntity
  8
SK1
  6
CONTINUOUS
370
50
 62
4
100
AcDbLine
 10
17.0
 20
-7.25
 30
0.0
 11
17.0
 21
-9.0
 31
0.0
  0
LINE
  5
46B
330
1F
100
AcDbEntity
  8
SK1
  6
CONTINUOUS
370
50
 62
4
100
AcDbLine
 10
17.0
 20
-9.0
 30
0.0
 11
68.0
 21
-9.0
 31
0.0
  0
LINE
  5
46C
330
1F
100
AcDbEntity
  8
SK1
  6
CONTINUOUS
370
50
 62
4
100
AcDbLine
 10
0.0
 20
5.332682251925386
 30
0.0
 11
17.0
 21
5.332682251925386
 31
0.0
  0
LINE
  5
46D
330
1F
100
AcDbEntity
  8
SK1
  6
CONTINUOUS
370
50
 62
4
100
AcDbLine
 10
17.0
 20
5.332682251925386
 30
0.0
 11
17.0
 21
-5.332682251925386
 31
0.0
  0
LINE
  5
46E
330
1F
100
AcDbEntity
  8
SK1
  6
CONTINUOUS
370
50
 62
4
100
AcDbLine
 10
17.0
 20
-5.332682251925386
 30
0.0
 11
0.0
 21
-5.332682251925386
 31
0.0
  0
LINE
  5
46F
330
1F
100
AcDbEntity
  8
SK1
  6
CONTINUOUS
370
50
 62
4
100
AcDbLine
 10
0.7999999999999972
 20
7.25
 30
0.0
 11
0.7999999999999972
 21
5.332682251925386
 31
0.0
  0
LINE
  5
470
330
1F
100
AcDbEntity
  8
SK1
  6
CONTINUOUS
370
50
 62
4
100
AcDbLine
 10
0.7999999999999972
 20
-7.25
 30
0.0
 11
0.7999999999999972
 21
-5.332682251925386
 31
0.0
  0
LINE
  5
471
330
1F
100
AcDbEntity
  8
NOCUT
  6
CONTINUOUS
370
25
 62
7
100
AcDbLine
 10
68.0
 20
0.0
 30
0.0
 11
68.0
 21
9.0
 31
0.0
  0
LINE
  5
472
330
1F
100
AcDbEntity
  8
NOCUT
  6
CONTINUOUS
370
25
 62
7
100
AcDbLine
 10
68.0
 20
9.0
 30
0.0
 11
84.0
 21
9.0
 31
0.0
  0
LINE
  5
473
330
1F
100
AcDbEntity
  8
NOCUT
  6
CONTINUOUS
370
25
 62
7
100
AcDbLine
 10
84.0
 20
0.0
 30
0.0
 11
68.0
 21
0.0
 31
0.0
  0
LINE
  5
474
330
1F
100
AcDbEntity
  8
CUT
  6
CONTINUOUS
370
25
 62
1
100
AcDbLine
 10
125.0
 20
10.069291065
 30
0.0
 11
139.4342439314601
 21
10.069291065
 31
0.0
  0
LINE
  5
475
330
1F
100
AcDbEntity
  8
CUT
  6
CONTINUOUS
370
25
 62
1
100
AcDbLine
 10
139.4342439314601
 20
10.069291065
 30
0.0
 11
140.0
 21
11.34
 31
0.0
  0
LINE
  5
476
330
1F
100
AcDbEntity
  8
CUT
  6
CONTINUOUS
370
25
 62
1
100
AcDbLine
 10
140.0
 20
11.34
 30
0.0
 11
136.25
 21
12.0
 31
0.0
  0
LINE
  5
477
330
1F
100
AcDbEntity
  8
CUT
  6
CONTINUOUS
370
25
 62
1
100
AcDbLine
 10
136.25
 20
12.0
 30
0.0
 11
125.0
 21
12.0
 31
0.0
  0
LINE
  5
478
330
1F
100
AcDbEntity
  8
CUT
  6
CONTINUOUS
370
25
 62
1
100
AcDbLine
 10
125.0
 20
12.0
 30
0.0
 11
125.0
 21
10.069291065
 31
0.0
  0
LINE
  5
479
330
1F
100
AcDbEntity
  8
NOCUT
  6
CONTINUOUS
370
25
 62
7
100
AcDbLine
 10
84.0
 20
0.0
 30
0.0
 11
140.0
 21
0.0
 31
0.0
  0
LINE
  5
47A
330
1F
100
AcDbEntity
  8
NOCUT
  6
CONTINUOUS
370
25
 62
7
100
AcDbLine
 10
140.0
 20
0.0
 30
0.0
 11
140.0
 21
11.34
 31
0.0
  0
LINE
  5
47B
330
1F
100
AcDbEntity
  8
NOCUT
  6
CONTINUOUS
370
25
 62
7
100
AcDbLine
 10
140.0
 20
11.34
 30
0.0
 11
139.4342439314601
 21
10.069291065
 31
0.0
  0
LINE
  5
47C
330
1F
100
AcDbEntity
  8
NOCUT
  6
CONTINUOUS
370
25
 62
7
100
AcDbLine
 10
139.4342439314601
 20
10.069291065
 30
0.0
 11
125.0
 21
10.069291065
 31
0.0
  0
LINE
  5
47D
330
1F
100
AcDbEntity
  8
NOCUT
  6
CONTINUOUS
370
25
 62
7
100
AcDbLine
 10
125.0
 20
10.069291065
 30
0.0
 11
125.0
 21
12.0
 31
0.0
  0
LINE
  5
47E
330
1F
100
AcDbEntity
  8
NOCUT
  6
CONTINUOUS
370
25
 62
7
100
AcDbLine
 10
125.0
 20
12.0
 30
0.0
 11
124.4515172442699
 21
9.0
 31
0.0
  0
LINE
  5
47F
330
1F
100
AcDbEntity
  8
NOCUT
  6
CONTINUOUS
370
25
 62
7
100
AcDbLine
 10
124.4515172442699
 20
9.0
 30
0.0
 11
84.0
 21
9.0
 31
0.0
  0
LINE
  5
480
330
1F
100
AcDbEntity
  8
2
  6
CONTINUOUS
370
25
 62
7
100
AcDbLine
 10
136.25
 20
-12.0
 30
0.0
 11
168.0
 21
-12.0
 31
0.0
  0
LINE
  5
481
330
1F
100
AcDbEntity
  8
2
  6
CONTINUOUS
370
25
 62
7
100
AcDbLine
 10
168.0
 20
12.0
 30
0.0
 11
136.25
 21
12.0
 31
0.0
  0
LINE
  5
482
330
1F
100
AcDbEntity
  8
2
  6
CONTINUOUS
370
25
 62
7
100
AcDbLine
 10
167.0
 20
-19.0
 30
0.0
 11
167.0
 21
45.77500000000001
 31
0.0
  0
LINE
  5
483
330
1F
100
AcDbEntity
  8
2
  6
CONTINUOUS
370
25
 62
7
100
AcDbLine
 10
167.0
 20
-12.0
 30
0.0
 11
168.0
 21
-17.0
 31
0.0
  0
LINE
  5
484
330
1F
100
AcDbEntity
  8
2
  6
CONTINUOUS
370
25
 62
7
100
AcDbLine
 10
168.0
 20
-17.0
 30
0.0
 11
166.0
 21
-17.0
 31
0.0
  0
LINE
  5
485
330
1F
100
AcDbEntity
  8
2
  6
CONTINUOUS
370
25
 62
7
100
AcDbLine
 10
166.0
 20
-17.0
 30
0.0
 11
167.0
 21
-12.0
 31
0.0
  0
LINE
  5
486
330
1F
100
AcDbEntity
  8
2
  6
CONTINUOUS
370
25
 62
7
100
AcDbLine
 10
167.5834152213482
 20
-17.0
 30
0.0
 11
167.930569203558
 21
-16.65284601779018
 31
0.0
  0
LINE
  5
487
330
1F
100
AcDbEntity
  8
2
  6
CONTINUOUS
370
25
 62
7
100
AcDbLine
 10
167.1591511526363
 20
-17.0
 30
0.0
 11
167.8598585254394
 21
-16.29929262719691
 31
0.0
  0
LINE
  5
488
330
1F
100
AcDbEntity
  8
2
  6
CONTINUOUS
370
25
 62
7
100
AcDbLine
 10
166.7348870839244
 20
-17.0
 30
0.0
 11
167.7891478473207
 21
-15.94573923660363
 31
0.0
  0
LINE
  5
489
330
1F
100
AcDbEntity
  8
2
  6
CONTINUOUS
370
25
 62
7
100
AcDbLine
 10
166.3106230152125
 20
-17.0
 30
0.0
 11
167.718437169202
 21
-15.59218584601038
 31
0.0
  0
LINE
  5
48A
330
1F
100
AcDbEntity
  8
2
  6
CONTINUOUS
370
25
 62
7
100
AcDbLine
 10
166.0284102633749
 20
-16.85794868312564
 30
0.0
 11
167.6477264910834
 21
-15.23863245541709
 31
0.0
  0
LINE
  5
48B
330
1F
100
AcDbEntity
  8
2
  6
CONTINUOUS
370
25
 62
7
100
AcDbLine
 10
166.1344762805529
 20
-16.32761859723573
 30
0.0
 11
167.5770158129648
 21
-14.88507906482383
 31
0.0
  0
LINE
  5
48C
330
1F
100
AcDbEntity
  8
2
  6
CONTINUOUS
370
25
 62
7
100
AcDbLine
 10
166.2405422977308
 20
-15.79728851134584
 30
0.0
 11
167.5063051348461
 21
-14.53152567423055
 31
0.0
  0
LINE
  5
48D
330
1F
100
AcDbEntity
  8
2
  6
CONTINUOUS
370
25
 62
7
100
AcDbLine
 10
166.3466083149088
 20
-15.26695842545593
 30
0.0
 11
167.4355944567275
 21
-14.17797228363729
 31
0.0
  0
LINE
  5
48E
330
1F
100
AcDbEntity
  8
2
  6
CONTINUOUS
370
25
 62
7
100
AcDbLine
 10
166.4526743320868
 20
-14.73662833956604
 30
0.0
 11
167.3648837786088
 21
-13.82441889304401
 31
0.0
  0
LINE
  5
48F
330
1F
100
AcDbEntity
  8
2
  6
CONTINUOUS
370
25
 62
7
100
AcDbLine
 10
166.5587403492648
 20
-14.20629825367611
 30
0.0
 11
167.2941731004901
 21
-13.47086550245075
 31
0.0
  0
LINE
  5
490
330
1F
100
AcDbEntity
  8
2
  6
CONTINUOUS
370
25
 62
7
100
AcDbLine
 10
166.6648063664427
 20
-13.67596816778621
 30
0.0
 11
167.2234624223715
 21
-13.11731211185747
 31
0.0
  0
LINE
  5
491
330
1F
100
AcDbEntity
  8
2
  6
CONTINUOUS
370
25
 62
7
100
AcDbLine
 10
166.7708723836207
 20
-13.14563808189631
 30
0.0
 11
167.1527517442528
 21
-12.76375872126421
 31
0.0
  0
LINE
  5
492
330
1F
100
AcDbEntity
  8
2
  6
CONTINUOUS
370
25
 62
7
100
AcDbLine
 10
166.8769384007987
 20
-12.61530799600639
 30
0.0
 11
167.0820410661342
 21
-12.41020533067093
 31
0.0
  0
LINE
  5
493
330
1F
100
AcDbEntity
  8
2
  6
CONTINUOUS
370
25
 62
7
100
AcDbLine
 10
166.9830044179767
 20
-12.08497791011649
 30
0.0
 11
167.0113303880156
 21
-12.05665194007766
 31
0.0
  0
LINE
  5
494
330
1F
100
AcDbEntity
  8
2
  6
CONTINUOUS
370
25
 62
7
100
AcDbLine
 10
166.0057395206632
 20
-16.97130239668425
 30
0.0
 11
166.0344371239789
 21
-17.0
 31
0.0
  0
LINE
  5
495
330
1F
100
AcDbEntity
  8
2
  6
CONTINUOUS
370
25
 62
7
100
AcDbLine
 10
166.0764501987818
 20
-16.61774900609099
 30
0.0
 11
166.4587011926908
 21
-17.0
 31
0.0
  0
LINE
  5
496
330
1F
100
AcDbEntity
  8
2
  6
CONTINUOUS
370
25
 62
7
100
AcDbLine
 10
166.1471608769004
 20
-16.26419561549771
 30
0.0
 11
166.8829652614027
 21
-17.0
 31
0.0
  0
LINE
  5
497
330
1F
100
AcDbEntity
  8
2
  6
CONTINUOUS
370
25
 62
7
100
AcDbLine
 10
166.2178715550191
 20
-15.91064222490444
 30
0.0
 11
167.3072293301147
 21
-17.0
 31
0.0
  0
LINE
  5
498
330
1F
100
AcDbEntity
  8
2
  6
CONTINUOUS
370
25
 62
7
100
AcDbLine
 10
166.2885822331378
 20
-15.55708883431116
 30
0.0
 11
167.7314933988266
 21
-17.0
 31
0.0
  0
LINE
  5
499
330
1F
100
AcDbEntity
  8
2
  6
CONTINUOUS
370
25
 62
7
100
AcDbLine
 10
166.3592929112564
 20
-15.20353544371791
 30
0.0
 11
167.9610606331154
 21
-16.80530316557683
 31
0.0
  0
LINE
  5
49A
330
1F
100
AcDbEntity
  8
2
  6
CONTINUOUS
370
25
 62
7
100
AcDbLine
 10
166.4300035893751
 20
-14.84998205312463
 30
0.0
 11
167.8549946159374
 21
-16.27497307968693
 31
0.0
  0
LINE
  5
49B
330
1F
100
AcDbEntity
  8
2
  6
CONTINUOUS
370
25
 62
7
100
AcDbLine
 10
166.5007142674937
 20
-14.49642866253136
 30
0.0
 11
167.7489285987594
 21
-15.74464299379702
 31
0.0
  0
LINE
  5
49C
330
1F
100
AcDbEntity
  8
2
  6
CONTINUOUS
370
25
 62
7
100
AcDbLine
 10
166.5714249456124
 20
-14.1428752719381
 30
0.0
 11
167.6428625815814
 21
-15.21431290790711
 31
0.0
  0
LINE
  5
49D
330
1F
100
AcDbEntity
  8
2
  6
CONTINUOUS
370
25
 62
7
100
AcDbLine
 10
166.642135623731
 20
-13.78932188134482
 30
0.0
 11
167.5367965644034
 21
-14.68398282201721
 31
0.0
  0
LINE
  5
49E
330
1F
100
AcDbEntity
  8
2
  6
CONTINUOUS
370
25
 62
7
100
AcDbLine
 10
166.7128463018497
 20
-13.43576849075154
 30
0.0
 11
167.4307305472254
 21
-14.15365273612731
 31
0.0
  0
LINE
  5
49F
330
1F
100
AcDbEntity
  8
2
  6
CONTINUOUS
370
25
 62
7
100
AcDbLine
 10
166.7835569799684
 20
-13.08221510015828
 30
0.0
 11
167.3246645300475
 21
-13.6233226502374
 31
0.0
  0
LINE
  5
4A0
330
1F
100
AcDbEntity
  8
2
  6
CONTINUOUS
370
25
 62
7
100
AcDbLine
 10
166.854267658087
 20
-12.72866170956502
 30
0.0
 11
167.2185985128695
 21
-13.0929925643475
 31
0.0
  0
LINE
  5
4A1
330
1F
100
AcDbEntity
  8
2
  6
CONTINUOUS
370
25
 62
7
100
AcDbLine
 10
166.9249783362056
 20
-12.37510831897174
 30
0.0
 11
167.1125324956915
 21
-12.5626624784576
 31
0.0
  0
LINE
  5
4A2
330
1F
100
AcDbEntity
  8
2
  6
CONTINUOUS
370
25
 62
7
100
AcDbLine
 10
166.9956890143243
 20
-12.02155492837848
 30
0.0
 11
167.0064664785135
 21
-12.0323323925677
 31
0.0
  0
LINE
  5
4A3
330
1F
100
AcDbEntity
  8
2
  6
CONTINUOUS
370
25
 62
7
100
AcDbLine
 10
167.0
 20
12.0
 30
0.0
 11
166.0
 21
17.0
 31
0.0
  0
LINE
  5
4A4
330
1F
100
AcDbEntity
  8
2
  6
CONTINUOUS
370
25
 62
7
100
AcDbLine
 10
166.0
 20
17.0
 30
0.0
 11
168.0
 21
17.0
 31
0.0
  0
LINE
  5
4A5
330
1F
100
AcDbEntity
  8
2
  6
CONTINUOUS
370
25
 62
7
100
AcDbLine
 10
168.0
 20
17.0
 30
0.0
 11
167.0
 21
12.0
 31
0.0
  0
LINE
  5
4A6
330
1F
100
AcDbEntity
  8
2
  6
CONTINUOUS
370
25
 62
7
100
AcDbLine
 10
166.9308072927226
 20
12.3459635363871
 30
0.0
 11
167.1037890609161
 21
12.51894530458063
 31
0.0
  0
LINE
  5
4A7
330
1F
100
AcDbEntity
  8
2
  6
CONTINUOUS
370
25
 62
7
100
AcDbLine
 10
166.8600966146039
 20
12.69951692698037
 30
0.0
 11
167.2098550780941
 21
13.04927539047054
 31
0.0
  0
LINE
  5
4A8
330
1F
100
AcDbEntity
  8
2
  6
CONTINUOUS
370
25
 62
7
100
AcDbLine
 10
166.7893859364853
 20
13.05307031757366
 30
0.0
 11
167.3159210952721
 21
13.57960547636046
 31
0.0
  0
LINE
  5
4A9
330
1F
100
AcDbEntity
  8
2
  6
CONTINUOUS
370
25
 62
7
100
AcDbLine
 10
166.7186752583666
 20
13.4066237081669
 30
0.0
 11
167.4219871124501
 21
14.10993556225036
 31
0.0
  0
LINE
  5
4AA
330
1F
100
AcDbEntity
  8
2
  6
CONTINUOUS
370
25
 62
7
100
AcDbLine
 10
166.647964580248
 20
13.76017709876018
 30
0.0
 11
167.5280531296281
 21
14.64026564814026
 31
0.0
  0
LINE
  5
4AB
330
1F
100
AcDbEntity
  8
2
  6
CONTINUOUS
370
25
 62
7
100
AcDbLine
 10
166.5772539021293
 20
14.11373048935344
 30
0.0
 11
167.634119146806
 21
15.17059573403016
 31
0.0
  0
LINE
  5
4AC
330
1F
100
AcDbEntity
  8
2
  6
CONTINUOUS
370
25
 62
7
100
AcDbLine
 10
166.5065432240107
 20
14.46728387994673
 30
0.0
 11
167.740185163984
 21
15.70092581992007
 31
0.0
  0
LINE
  5
4AD
330
1F
100
AcDbEntity
  8
2
  6
CONTINUOUS
370
25
 62
7
100
AcDbLine
 10
166.435832545892
 20
14.82083727054
 30
0.0
 11
167.846251181162
 21
16.23125590580997
 31
0.0
  0
LINE
  5
4AE
330
1F
100
AcDbEntity
  8
2
  6
CONTINUOUS
370
25
 62
7
100
AcDbLine
 10
166.3651218677733
 20
15.17439066113324
 30
0.0
 11
167.95231719834
 21
16.76158599169987
 31
0.0
  0
LINE
  5
4AF
330
1F
100
AcDbEntity
  8
2
  6
CONTINUOUS
370
25
 62
7
100
AcDbLine
 10
166.2944111896547
 20
15.52794405172652
 30
0.0
 11
167.7664671379282
 21
17.0
 31
0.0
  0
LINE
  5
4B0
330
1F
100
AcDbEntity
  8
2
  6
CONTINUOUS
370
25
 62
7
100
AcDbLine
 10
166.223700511536
 20
15.8814974423198
 30
0.0
 11
167.3422030692162
 21
17.0
 31
0.0
  0
LINE
  5
4B1
330
1F
100
AcDbEntity
  8
2
  6
CONTINUOUS
370
25
 62
7
100
AcDbLine
 10
166.1529898334174
 20
16.23505083291307
 30
0.0
 11
166.9179390005043
 21
17.0
 31
0.0
  0
LINE
  5
4B2
330
1F
100
AcDbEntity
  8
2
  6
CONTINUOUS
370
25
 62
7
100
AcDbLine
 10
166.0822791552987
 20
16.58860422350634
 30
0.0
 11
166.4936749317924
 21
17.0
 31
0.0
  0
LINE
  5
4B3
330
1F
100
AcDbEntity
  8
2
  6
CONTINUOUS
370
25
 62
7
100
AcDbLine
 10
166.0115684771801
 20
16.94215761409961
 30
0.0
 11
166.0694108630805
 21
17.0
 31
0.0
  0
LINE
  5
4B4
330
1F
100
AcDbEntity
  8
2
  6
CONTINUOUS
370
25
 62
7
100
AcDbLine
 10
166.9607034993686
 20
12.19648250315694
 30
0.0
 11
167.0261976670876
 21
12.13098833543796
 31
0.0
  0
LINE
  5
4B5
330
1F
100
AcDbEntity
  8
2
  6
CONTINUOUS
370
25
 62
7
100
AcDbLine
 10
166.8546374821906
 20
12.72681258904684
 30
0.0
 11
167.0969083452063
 21
12.48454172603121
 31
0.0
  0
LINE
  5
4B6
330
1F
100
AcDbEntity
  8
2
  6
CONTINUOUS
370
25
 62
7
100
AcDbLine
 10
166.7485714650126
 20
13.25714267493676
 30
0.0
 11
167.1676190233249
 21
12.8380951166245
 31
0.0
  0
LINE
  5
4B7
330
1F
100
AcDbEntity
  8
2
  6
CONTINUOUS
370
25
 62
7
100
AcDbLine
 10
166.6425054478347
 20
13.78747276082667
 30
0.0
 11
167.2383297014435
 21
13.19164850721776
 31
0.0
  0
LINE
  5
4B8
330
1F
100
AcDbEntity
  8
2
  6
CONTINUOUS
370
25
 62
7
100
AcDbLine
 10
166.5364394306567
 20
14.31780284671656
 30
0.0
 11
167.3090403795622
 21
13.54520189781104
 31
0.0
  0
LINE
  5
4B9
330
1F
100
AcDbEntity
  8
2
  6
CONTINUOUS
370
25
 62
7
100
AcDbLine
 10
166.4303734134787
 20
14.84813293260648
 30
0.0
 11
167.3797510576809
 21
13.8987552884043
 31
0.0
  0
LINE
  5
4BA
330
1F
100
AcDbEntity
  8
2
  6
CONTINUOUS
370
25
 62
7
100
AcDbLine
 10
166.3243073963007
 20
15.37846301849636
 30
0.0
 11
167.4504617357995
 21
14.25230867899758
 31
0.0
  0
LINE
  5
4BB
330
1F
100
AcDbEntity
  8
2
  6
CONTINUOUS
370
25
 62
7
100
AcDbLine
 10
166.2182413791227
 20
15.90879310438629
 30
0.0
 11
167.5211724139182
 21
14.60586206959084
 31
0.0
  0
LINE
  5
4BC
330
1F
100
AcDbEntity
  8
2
  6
CONTINUOUS
370
25
 62
7
100
AcDbLine
 10
166.1121753619448
 20
16.43912319027619
 30
0.0
 11
167.5918830920368
 21
14.95941546018412
 31
0.0
  0
LINE
  5
4BD
330
1F
100
AcDbEntity
  8
2
  6
CONTINUOUS
370
25
 62
7
100
AcDbLine
 10
166.0061093447668
 20
16.96945327616609
 30
0.0
 11
167.6625937701555
 21
15.31296885077738
 31
0.0
  0
LINE
  5
4BE
330
1F
100
AcDbEntity
  8
2
  6
CONTINUOUS
370
25
 62
7
100
AcDbLine
 10
166.3998266896448
 20
17.0
 30
0.0
 11
167.7333044482741
 21
15.66652224137067
 31
0.0
  0
LINE
  5
4BF
330
1F
100
AcDbEntity
  8
2
  6
CONTINUOUS
370
25
 62
7
100
AcDbLine
 10
166.8240907583567
 20
17.0
 30
0.0
 11
167.8040151263928
 21
16.02007563196393
 31
0.0
  0
LINE
  5
4C0
330
1F
100
AcDbEntity
  8
2
  6
CONTINUOUS
370
25
 62
7
100
AcDbLine
 10
167.2483548270686
 20
17.0
 30
0.0
 11
167.8747258045115
 21
16.37362902255718
 31
0.0
  0
LINE
  5
4C1
330
1F
100
AcDbEntity
  8
2
  6
CONTINUOUS
370
25
 62
7
100
AcDbLine
 10
167.6726188957805
 20
17.0
 30
0.0
 11
167.9454364826301
 21
16.72718241315046
 31
0.0
  0
TEXT
  5
4C2
330
1F
100
AcDbEntity
  8
2
  6
CONTINUOUS
370
25
 62
7
100
AcDbText
 10
165.5
 20
17.97083333333333
 30
0.0
 40
3.5
  1
M24 x 1.5
 50
90.00000000000001
 72
     1
 11
165.5
 21
31.3875
 31
0.0
100
AcDbText
  0
LINE
  5
4C3
330
1F
100
AcDbEntity
  8
SK2
  6
CONTINUOUS
370
25
 62
7
100
AcDbLine
 10
0.0
 20
9.0
 30
0.0
 11
0.0
 21
43.0
 31
0.0
  0
LINE
  5
4C4
330
1F
100
AcDbEntity
  8
SK2
  6
CONTINUOUS
370
25
 62
7
100
AcDbLine
 10
140.0
 20
43.0
 30
0.0
 11
140.0
 21
12.0
 31
0.0
  0
LINE
  5
4C5
330
1F
100
AcDbEntity
  8
SK2
  6
CONTINUOUS
370
25
 62
7
100
AcDbLine
 10
0.0
 20
42.0
 30
0.0
 11
140.0
 21
42.0
 31
0.0
  0
LINE
  5
4C6
330
1F
100
AcDbEntity
  8
SK2
  6
CONTINUOUS
370
25
 62
7
100
AcDbLine
 10
0.0
 20
42.0
 30
0.0
 11
5.0
 21
43.0
 31
0.0
  0
LINE
  5
4C7
330
1F
100
AcDbEntity
  8
SK2
  6
CONTINUOUS
370
25
 62
7
100
AcDbLine
 10
5.0
 20
43.0
 30
0.0
 11
5.0
 21
41.0
 31
0.0
  0
LINE
  5
4C8
330
1F
100
AcDbEntity
  8
SK2
  6
CONTINUOUS
370
25
 62
7
100
AcDbLine
 10
5.0
 20
41.0
 30
0.0
 11
0.0
 21
42.0
 31
0.0
  0
LINE
  5
4C9
330
1F
100
AcDbEntity
  8
SK2
  6
CONTINUOUS
370
25
 62
7
100
AcDbLine
 10
4.692532580721291
 20
41.06149348385573
 30
0.0
 11
5.0
 21
41.36896090313444
 31
0.0
  0
LINE
  5
4CA
330
1F
100
AcDbEntity
  8
SK2
  6
CONTINUOUS
370
25
 62
7
100
AcDbLine
 10
4.338979190128036
 20
41.13220416197439
 30
0.0
 11
5.0
 21
41.79322497184636
 31
0.0
  0
LINE
  5
4CB
330
1F
100
AcDbEntity
  8
SK2
  6
CONTINUOUS
370
25
 62
7
100
AcDbLine
 10
3.985425799534752
 20
41.20291484009306
 30
0.0
 11
5.0
 21
42.21748904055831
 31
0.0
  0
LINE
  5
4CC
330
1F
100
AcDbEntity
  8
SK2
  6
CONTINUOUS
370
25
 62
7
100
AcDbLine
 10
3.631872408941476
 20
41.27362551821172
 30
0.0
 11
5.0
 21
42.64175310927025
 31
0.0
  0
LINE
  5
4CD
330
1F
100
AcDbEntity
  8
SK2
  6
CONTINUOUS
370
25
 62
7
100
AcDbLine
 10
3.278319018348199
 20
41.34433619633036
 30
0.0
 11
4.917478527522299
 21
42.98349570550447
 31
0.0
  0
LINE
  5
4CE
330
1F
100
AcDbEntity
  8
SK2
  6
CONTINUOUS
370
25
 62
7
100
AcDbLine
 10
2.924765627754923
 20
41.415046874449
 30
0.0
 11
4.387148441632384
 21
42.87742968832648
 31
0.0
  0
LINE
  5
4CF
330
1F
100
AcDbEntity
  8
SK2
  6
CONTINUOUS
370
25
 62
7
100
AcDbLine
 10
2.571212237161646
 20
41.48575755256766
 30
0.0
 11
3.856818355742462
 21
42.77136367114849
 31
0.0
  0
LINE
  5
4D0
330
1F
100
AcDbEntity
  8
SK2
  6
CONTINUOUS
370
25
 62
7
100
AcDbLine
 10
2.217658846568369
 20
41.55646823068633
 30
0.0
 11
3.326488269852533
 21
42.66529765397051
 31
0.0
  0
LINE
  5
4D1
330
1F
100
AcDbEntity
  8
SK2
  6
CONTINUOUS
370
25
 62
7
100
AcDbLine
 10
1.864105455975107
 20
41.62717890880499
 30
0.0
 11
2.796158183962646
 21
42.55923163679253
 31
0.0
  0
LINE
  5
4D2
330
1F
100
AcDbEntity
  8
SK2
  6
CONTINUOUS
370
25
 62
7
100
AcDbLine
 10
1.51055206538183
 20
41.69788958692364
 30
0.0
 11
2.265828098072731
 21
42.45316561961455
 31
0.0
  0
LINE
  5
4D3
330
1F
100
AcDbEntity
  8
SK2
  6
CONTINUOUS
370
25
 62
7
100
AcDbLine
 10
1.156998674788539
 20
41.76860026504228
 30
0.0
 11
1.735498012182831
 21
42.34709960243657
 31
0.0
  0
LINE
  5
4D4
330
1F
100
AcDbEntity
  8
SK2
  6
CONTINUOUS
370
25
 62
7
100
AcDbLine
 10
0.8034452841952628
 20
41.83931094316094
 30
0.0
 11
1.205167926292901
 21
42.24103358525859
 31
0.0
  0
LINE
  5
4D5
330
1F
100
AcDbEntity
  8
SK2
  6
CONTINUOUS
370
25
 62
7
100
AcDbLine
 10
0.4498918936020004
 20
41.9100216212796
 30
0.0
 11
0.6748378404030007
 21
42.1349675680806
 31
0.0
  0
LINE
  5
4D6
330
1F
100
AcDbEntity
  8
SK2
  6
CONTINUOUS
370
25
 62
7
100
AcDbLine
 10
0.096338503008738
 20
41.98073229939826
 30
0.0
 11
0.1445077545130999
 21
42.02890155090262
 31
0.0
  0
LINE
  5
4D7
330
1F
100
AcDbEntity
  8
SK2
  6
CONTINUOUS
370
25
 62
7
100
AcDbLine
 10
0.2676086242891245
 20
42.05352172485783
 30
0.0
 11
0.4014129364336867
 21
41.91971741271327
 31
0.0
  0
LINE
  5
4D8
330
1F
100
AcDbEntity
  8
SK2
  6
CONTINUOUS
370
25
 62
7
100
AcDbLine
 10
0.6211620148823869
 20
42.12423240297648
 30
0.0
 11
0.9317430223236016
 21
41.81365139553528
 31
0.0
  0
LINE
  5
4D9
330
1F
100
AcDbEntity
  8
SK2
  6
CONTINUOUS
370
25
 62
7
100
AcDbLine
 10
0.9747154054756635
 20
42.19494308109515
 30
0.0
 11
1.462073108213517
 21
41.70758537835729
 31
0.0
  0
LINE
  5
4DA
330
1F
100
AcDbEntity
  8
SK2
  6
CONTINUOUS
370
25
 62
7
100
AcDbLine
 10
1.328268796068954
 20
42.26565375921378
 30
0.0
 11
1.992403194103446
 21
41.60151936117931
 31
0.0
  0
LINE
  5
4DB
330
1F
100
AcDbEntity
  8
SK2
  6
CONTINUOUS
370
25
 62
7
100
AcDbLine
 10
1.681822186662245
 20
42.33636443733243
 30
0.0
 11
2.522733279993361
 21
41.49545334400133
 31
0.0
  0
LINE
  5
4DC
330
1F
100
AcDbEntity
  8
SK2
  6
CONTINUOUS
370
25
 62
7
100
AcDbLine
 10
2.035375577255493
 20
42.40707511545111
 30
0.0
 11
3.053063365883276
 21
41.38938732682333
 31
0.0
  0
LINE
  5
4DD
330
1F
100
AcDbEntity
  8
SK2
  6
CONTINUOUS
370
25
 62
7
100
AcDbLine
 10
2.388928967848784
 20
42.47778579356975
 30
0.0
 11
3.58339345177319
 21
41.28332130964536
 31
0.0
  0
LINE
  5
4DE
330
1F
100
AcDbEntity
  8
SK2
  6
CONTINUOUS
370
25
 62
7
100
AcDbLine
 10
2.742482358442061
 20
42.54849647168842
 30
0.0
 11
4.11372353766312
 21
41.17725529246737
 31
0.0
  0
LINE
  5
4DF
330
1F
100
AcDbEntity
  8
SK2
  6
CONTINUOUS
370
25
 62
7
100
AcDbLine
 10
3.096035749035337
 20
42.61920714980707
 30
0.0
 11
4.64405362355302
 21
41.0711892752894
 31
0.0
  0
LINE
  5
4E0
330
1F
100
AcDbEntity
  8
SK2
  6
CONTINUOUS
370
25
 62
7
100
AcDbLine
 10
3.449589139628614
 20
42.68991782792572
 30
0.0
 11
5.0
 21
41.13950696755436
 31
0.0
  0
LINE
  5
4E1
330
1F
100
AcDbEntity
  8
SK2
  6
CONTINUOUS
370
25
 62
7
100
AcDbLine
 10
3.803142530221891
 20
42.76062850604437
 30
0.0
 11
5.0
 21
41.56377103626628
 31
0.0
  0
LINE
  5
4E2
330
1F
100
AcDbEntity
  8
SK2
  6
CONTINUOUS
370
25
 62
7
100
AcDbLine
 10
4.156695920815167
 20
42.83133918416303
 30
0.0
 11
5.0
 21
41.98803510497822
 31
0.0
  0
LINE
  5
4E3
330
1F
100
AcDbEntity
  8
SK2
  6
CONTINUOUS
370
25
 62
7
100
AcDbLine
 10
4.510249311408451
 20
42.90204986228169
 30
0.0
 11
5.0
 21
42.41229917369015
 31
0.0
  0
LINE
  5
4E4
330
1F
100
AcDbEntity
  8
SK2
  6
CONTINUOUS
370
25
 62
7
100
AcDbLine
 10
4.86380270200172
 20
42.97276054040035
 30
0.0
 11
5.0
 21
42.83656324240207
 31
0.0
  0
LINE
  5
4E5
330
1F
100
AcDbEntity
  8
SK2
  6
CONTINUOUS
370
25
 62
7
100
AcDbLine
 10
140.0
 20
42.0
 30
0.0
 11
135.0
 21
41.0
 31
0.0
  0
LINE
  5
4E6
330
1F
100
AcDbEntity
  8
SK2
  6
CONTINUOUS
370
25
 62
7
100
AcDbLine
 10
135.0
 20
41.0
 30
0.0
 11
135.0
 21
43.0
 31
0.0
  0
LINE
  5
4E7
330
1F
100
AcDbEntity
  8
SK2
  6
CONTINUOUS
370
25
 62
7
100
AcDbLine
 10
135.0
 20
43.0
 30
0.0
 11
140.0
 21
42.0
 31
0.0
  0
LINE
  5
4E8
330
1F
100
AcDbEntity
  8
SK2
  6
CONTINUOUS
370
25
 62
7
100
AcDbLine
 10
139.8256162905571
 20
41.96512325811142
 30
0.0
 11
139.8837441937047
 21
42.02325116125905
 31
0.0
  0
LINE
  5
4E9
330
1F
100
AcDbEntity
  8
SK2
  6
CONTINUOUS
370
25
 62
7
100
AcDbLine
 10
139.2952862046672
 20
41.85905724093343
 30
0.0
 11
139.5301908031115
 21
42.09396183937771
 31
0.0
  0
LINE
  5
4EA
330
1F
100
AcDbEntity
  8
SK2
  6
CONTINUOUS
370
25
 62
7
100
AcDbLine
 10
138.7649561187773
 20
41.75299122375546
 30
0.0
 11
139.1766374125182
 21
42.16467251749637
 31
0.0
  0
LINE
  5
4EB
330
1F
100
AcDbEntity
  8
SK2
  6
CONTINUOUS
370
25
 62
7
100
AcDbLine
 10
138.2346260328874
 20
41.64692520657747
 30
0.0
 11
138.8230840219249
 21
42.23538319561502
 31
0.0
  0
LINE
  5
4EC
330
1F
100
AcDbEntity
  8
SK2
  6
CONTINUOUS
370
25
 62
7
100
AcDbLine
 10
137.7042959469975
 20
41.5408591893995
 30
0.0
 11
138.4695306313317
 21
42.30609387373367
 31
0.0
  0
LINE
  5
4ED
330
1F
100
AcDbEntity
  8
SK2
  6
CONTINUOUS
370
25
 62
7
100
AcDbLine
 10
137.1739658611075
 20
41.43479317222151
 30
0.0
 11
138.1159772407384
 21
42.37680455185232
 31
0.0
  0
LINE
  5
4EE
330
1F
100
AcDbEntity
  8
SK2
  6
CONTINUOUS
370
25
 62
7
100
AcDbLine
 10
136.6436357752177
 20
41.32872715504352
 30
0.0
 11
137.7624238501451
 21
42.44751522997099
 31
0.0
  0
LINE
  5
4EF
330
1F
100
AcDbEntity
  8
SK2
  6
CONTINUOUS
370
25
 62
7
100
AcDbLine
 10
136.1133056893277
 20
41.22266113786555
 30
0.0
 11
137.4088704595518
 21
42.51822590808964
 31
0.0
  0
LINE
  5
4F0
330
1F
100
AcDbEntity
  8
SK2
  6
CONTINUOUS
370
25
 62
7
100
AcDbLine
 10
135.5829756034378
 20
41.11659512068756
 30
0.0
 11
137.0553170689586
 21
42.58893658620829
 31
0.0
  0
LINE
  5
4F1
330
1F
100
AcDbEntity
  8
SK2
  6
CONTINUOUS
370
25
 62
7
100
AcDbLine
 10
135.0526455175479
 20
41.01052910350958
 30
0.0
 11
136.7017636783653
 21
42.65964726432694
 31
0.0
  0
LINE
  5
4F2
330
1F
100
AcDbEntity
  8
SK2
  6
CONTINUOUS
370
25
 62
7
100
AcDbLine
 10
135.0
 20
41.38214765467359
 30
0.0
 11
136.348210287772
 21
42.73035794244559
 31
0.0
  0
LINE
  5
4F3
330
1F
100
AcDbEntity
  8
SK2
  6
CONTINUOUS
370
25
 62
7
100
AcDbLine
 10
135.0
 20
41.80641172338553
 30
0.0
 11
135.9946568971787
 21
42.80106862056426
 31
0.0
  0
LINE
  5
4F4
330
1F
100
AcDbEntity
  8
SK2
  6
CONTINUOUS
370
25
 62
7
100
AcDbLine
 10
135.0
 20
42.23067579209746
 30
0.0
 11
135.6411035065854
 21
42.8717792986829
 31
0.0
  0
LINE
  5
4F5
330
1F
100
AcDbEntity
  8
SK2
  6
CONTINUOUS
370
25
 62
7
100
AcDbLine
 10
135.0
 20
42.65493986080939
 30
0.0
 11
135.2875501159922
 21
42.94248997680156
 31
0.0
  0
LINE
  5
4F6
330
1F
100
AcDbEntity
  8
SK2
  6
CONTINUOUS
370
25
 62
7
100
AcDbLine
 10
135.0
 20
41.18733752154192
 30
0.0
 11
135.1561146012849
 21
41.03122292025698
 31
0.0
  0
LINE
  5
4F7
330
1F
100
AcDbEntity
  8
SK2
  6
CONTINUOUS
370
25
 62
7
100
AcDbLine
 10
135.0
 20
41.61160159025385
 30
0.0
 11
135.5096679918782
 21
41.10193359837562
 31
0.0
  0
LINE
  5
4F8
330
1F
100
AcDbEntity
  8
SK2
  6
CONTINUOUS
370
25
 62
7
100
AcDbLine
 10
135.0
 20
42.03586565896579
 30
0.0
 11
135.8632213824715
 21
41.1726442764943
 31
0.0
  0
LINE
  5
4F9
330
1F
100
AcDbEntity
  8
SK2
  6
CONTINUOUS
370
25
 62
7
100
AcDbLine
 10
135.0
 20
42.46012972767772
 30
0.0
 11
136.2167747730648
 21
41.24335495461295
 31
0.0
  0
LINE
  5
4FA
330
1F
100
AcDbEntity
  8
SK2
  6
CONTINUOUS
370
25
 62
7
100
AcDbLine
 10
135.0
 20
42.88439379638965
 30
0.0
 11
136.570328163658
 21
41.31406563273161
 31
0.0
  0
LINE
  5
4FB
330
1F
100
AcDbEntity
  8
SK2
  6
CONTINUOUS
370
25
 62
7
100
AcDbLine
 10
135.385822331377
 20
42.92283553372461
 30
0.0
 11
136.9238815542513
 21
41.38477631085026
 31
0.0
  0
LINE
  5
4FC
330
1F
100
AcDbEntity
  8
SK2
  6
CONTINUOUS
370
25
 62
7
100
AcDbLine
 10
135.9161524172669
 20
42.81676951654663
 30
0.0
 11
137.2774349448446
 21
41.4554869889689
 31
0.0
  0
LINE
  5
4FD
330
1F
100
AcDbEntity
  8
SK2
  6
CONTINUOUS
370
25
 62
7
100
AcDbLine
 10
136.4464825031568
 20
42.71070349936865
 30
0.0
 11
137.6309883354378
 21
41.52619766708756
 31
0.0
  0
LINE
  5
4FE
330
1F
100
AcDbEntity
  8
SK2
  6
CONTINUOUS
370
25
 62
7
100
AcDbLine
 10
136.9768125890467
 20
42.60463748219065
 30
0.0
 11
137.9845417260311
 21
41.59690834520622
 31
0.0
  0
LINE
  5
4FF
330
1F
100
AcDbEntity
  8
SK2
  6
CONTINUOUS
370
25
 62
7
100
AcDbLine
 10
137.5071426749366
 20
42.49857146501267
 30
0.0
 11
138.3380951166244
 21
41.66761902332489
 31
0.0
  0
LINE
  5
500
330
1F
100
AcDbEntity
  8
SK2
  6
CONTINUOUS
370
25
 62
7
100
AcDbLine
 10
138.0374727608265
 20
42.39250544783469
 30
0.0
 11
138.6916485072177
 21
41.73832970144353
 31
0.0
  0
LINE
  5
501
330
1F
100
AcDbEntity
  8
SK2
  6
CONTINUOUS
370
25
 62
7
100
AcDbLine
 10
138.5678028467164
 20
42.28643943065671
 30
0.0
 11
139.045201897811
 21
41.80904037956221
 31
0.0
  0
LINE
  5
502
330
1F
100
AcDbEntity
  8
SK2
  6
CONTINUOUS
370
25
 62
7
100
AcDbLine
 10
139.0981329326063
 20
42.18037341347873
 30
0.0
 11
139.3987552884042
 21
41.87975105768085
 31
0.0
  0
LINE
  5
503
330
1F
100
AcDbEntity
  8
SK2
  6
CONTINUOUS
370
25
 62
7
100
AcDbLine
 10
139.6284630184962
 20
42.07430739630075
 30
0.0
 11
139.7523086789975
 21
41.95046173579948
 31
0.0
  0
TEXT
  5
504
330
1F
100
AcDbEntity
  8
SK2
  6
CONTINUOUS
370
25
 62
7
100
AcDbText
 10
66.20833333333333
 20
43.5
 30
0.0
 40
3.5
  1
140
 72
     1
 11
70.0
 21
43.5
 31
0.0
100
AcDbText
  0
LINE
  5
505
330
1F
100
AcDbEntity
  8
2
  6
CONTINUOUS
370
25
 62
7
100
AcDbLine
 10
125.0
 20
-0.6600000000000001
 30
0.0
 11
125.0
 21
-25.0
 31
0.0
  0
LINE
  5
506
330
1F
100
AcDbEntity
  8
2
  6
CONTINUOUS
370
25
 62
7
100
AcDbLine
 10
140.0
 20
-25.0
 30
0.0
 11
140.0
 21
-0.6600000000000001
 31
0.0
  0
LINE
  5
507
330
1F
100
AcDbEntity
  8
2
  6
CONTINUOUS
370
25
 62
7
100
AcDbLine
 10
118.0
 20
-24.0
 30
0.0
 11
147.0
 21
-24.0
 31
0.0
  0
LINE
  5
508
330
1F
100
AcDbEntity
  8
2
  6
CONTINUOUS
370
25
 62
7
100
AcDbLine
 10
125.0
 20
-24.0
 30
0.0
 11
120.0
 21
-25.0
 31
0.0
  0
LINE
  5
509
330
1F
100
AcDbEntity
  8
2
  6
CONTINUOUS
370
25
 62
7
100
AcDbLine
 10
120.0
 20
-25.0
 30
0.0
 11
120.0
 21
-23.0
 31
0.0
  0
LINE
  5
50A
330
1F
100
AcDbEntity
  8
2
  6
CONTINUOUS
370
25
 62
7
100
AcDbLine
 10
120.0
 20
-23.0
 30
0.0
 11
125.0
 21
-24.0
 31
0.0
  0
LINE
  5
50B
330
1F
100
AcDbEntity
  8
2
  6
CONTINUOUS
370
25
 62
7
100
AcDbLine
 10
124.9360059837685
 20
-24.0127988032463
 30
0.0
 11
124.9573373225123
 21
-23.99146746450246
 31
0.0
  0
LINE
  5
50C
330
1F
100
AcDbEntity
  8
2
  6
CONTINUOUS
370
25
 62
7
100
AcDbLine
 10
124.4056758978786
 20
-24.11886482042428
 30
0.0
 11
124.6037839319191
 21
-23.92075678638381
 31
0.0
  0
LINE
  5
50D
330
1F
100
AcDbEntity
  8
2
  6
CONTINUOUS
370
25
 62
7
100
AcDbLine
 10
123.8753458119887
 20
-24.22493083760227
 30
0.0
 11
124.2502305413258
 21
-23.85004610826515
 31
0.0
  0
LINE
  5
50E
330
1F
100
AcDbEntity
  8
2
  6
CONTINUOUS
370
25
 62
7
100
AcDbLine
 10
123.3450157260988
 20
-24.33099685478025
 30
0.0
 11
123.8966771507325
 21
-23.7793354301465
 31
0.0
  0
LINE
  5
50F
330
1F
100
AcDbEntity
  8
2
  6
CONTINUOUS
370
25
 62
7
100
AcDbLine
 10
122.8146856402089
 20
-24.43706287195823
 30
0.0
 11
123.5431237601393
 21
-23.70862475202784
 31
0.0
  0
LINE
  5
510
330
1F
100
AcDbEntity
  8
2
  6
CONTINUOUS
370
25
 62
7
100
AcDbLine
 10
122.2843555543189
 20
-24.54312888913621
 30
0.0
 11
123.189570369546
 21
-23.63791407390919
 31
0.0
  0
LINE
  5
511
330
1F
100
AcDbEntity
  8
2
  6
CONTINUOUS
370
25
 62
7
100
AcDbLine
 10
121.754025468429
 20
-24.64919490631419
 30
0.0
 11
122.8360169789527
 21
-23.56720339579053
 31
0.0
  0
LINE
  5
512
330
1F
100
AcDbEntity
  8
2
  6
CONTINUOUS
370
25
 62
7
100
AcDbLine
 10
121.2236953825391
 20
-24.75526092349218
 30
0.0
 11
122.4824635883594
 21
-23.49649271767188
 31
0.0
  0
LINE
  5
513
330
1F
100
AcDbEntity
  8
2
  6
CONTINUOUS
370
25
 62
7
100
AcDbLine
 10
120.6933652966492
 20
-24.86132694067016
 30
0.0
 11
122.1289101977661
 21
-23.42578203955322
 31
0.0
  0
LINE
  5
514
330
1F
100
AcDbEntity
  8
2
  6
CONTINUOUS
370
25
 62
7
100
AcDbLine
 10
120.1630352107593
 20
-24.96739295784814
 30
0.0
 11
121.7753568071729
 21
-23.35507136143457
 31
0.0
  0
LINE
  5
515
330
1F
100
AcDbEntity
  8
2
  6
CONTINUOUS
370
25
 62
7
100
AcDbLine
 10
120.0
 20
-24.7061640998955
 30
0.0
 11
121.4218034165796
 21
-23.28436068331591
 31
0.0
  0
LINE
  5
516
330
1F
100
AcDbEntity
  8
2
  6
CONTINUOUS
370
25
 62
7
100
AcDbLine
 10
120.0
 20
-24.28190003118357
 30
0.0
 11
121.0682500259863
 21
-23.21365000519726
 31
0.0
  0
LINE
  5
517
330
1F
100
AcDbEntity
  8
2
  6
CONTINUOUS
370
25
 62
7
100
AcDbLine
 10
120.0
 20
-23.85763596247165
 30
0.0
 11
120.714696635393
 21
-23.14293932707861
 31
0.0
  0
LINE
  5
518
330
1F
100
AcDbEntity
  8
2
  6
CONTINUOUS
370
25
 62
7
100
AcDbLine
 10
120.0
 20
-23.43337189375971
 30
0.0
 11
120.3611432447998
 21
-23.07222864895995
 31
0.0
  0
LINE
  5
519
330
1F
100
AcDbEntity
  8
2
  6
CONTINUOUS
370
25
 62
7
100
AcDbLine
 10
120.0
 20
-23.00910782504778
 30
0.0
 11
120.0075898542065
 21
-23.0015179708413
 31
0.0
  0
LINE
  5
51A
330
1F
100
AcDbEntity
  8
2
  6
CONTINUOUS
370
25
 62
7
100
AcDbLine
 10
120.0
 20
-24.84709960243656
 30
0.0
 11
120.1274169979695
 21
-24.97451660040609
 31
0.0
  0
LINE
  5
51B
330
1F
100
AcDbEntity
  8
2
  6
CONTINUOUS
370
25
 62
7
100
AcDbLine
 10
120.0
 20
-24.42283553372463
 30
0.0
 11
120.4809703885628
 21
-24.90380592228744
 31
0.0
  0
LINE
  5
51C
330
1F
100
AcDbEntity
  8
2
  6
CONTINUOUS
370
25
 62
7
100
AcDbLine
 10
120.0
 20
-23.9985714650127
 30
0.0
 11
120.8345237791561
 21
-24.83309524416878
 31
0.0
  0
LINE
  5
51D
330
1F
100
AcDbEntity
  8
2
  6
CONTINUOUS
370
25
 62
7
100
AcDbLine
 10
120.0
 20
-23.57430739630077
 30
0.0
 11
121.1880771697493
 21
-24.76238456605012
 31
0.0
  0
LINE
  5
51E
330
1F
100
AcDbEntity
  8
2
  6
CONTINUOUS
370
25
 62
7
100
AcDbLine
 10
120.0
 20
-23.15004332758884
 30
0.0
 11
121.5416305603426
 21
-24.69167388793147
 31
0.0
  0
LINE
  5
51F
330
1F
100
AcDbEntity
  8
2
  6
CONTINUOUS
370
25
 62
7
100
AcDbLine
 10
120.3427759264039
 20
-23.06855518528078
 30
0.0
 11
121.8951839509359
 21
-24.62096320981282
 31
0.0
  0
LINE
  5
520
330
1F
100
AcDbEntity
  8
2
  6
CONTINUOUS
370
25
 62
7
100
AcDbLine
 10
120.8731060122938
 20
-23.17462120245876
 30
0.0
 11
122.2487373415292
 21
-24.55025253169416
 31
0.0
  0
LINE
  5
521
330
1F
100
AcDbEntity
  8
2
  6
CONTINUOUS
370
25
 62
7
100
AcDbLine
 10
121.4034360981837
 20
-23.28068721963674
 30
0.0
 11
122.6022907321225
 21
-24.4795418535755
 31
0.0
  0
LINE
  5
522
330
1F
100
AcDbEntity
  8
2
  6
CONTINUOUS
370
25
 62
7
100
AcDbLine
 10
121.9337661840736
 20
-23.38675323681473
 30
0.0
 11
122.9558441227157
 21
-24.40883117545685
 31
0.0
  0
LINE
  5
523
330
1F
100
AcDbEntity
  8
2
  6
CONTINUOUS
370
25
 62
7
100
AcDbLine
 10
122.4640962699635
 20
-23.4928192539927
 30
0.0
 11
123.309397513309
 21
-24.3381204973382
 31
0.0
  0
LINE
  5
524
330
1F
100
AcDbEntity
  8
2
  6
CONTINUOUS
370
25
 62
7
100
AcDbLine
 10
122.9944263558534
 20
-23.59888527117069
 30
0.0
 11
123.6629509039023
 21
-24.26740981921954
 31
0.0
  0
LINE
  5
525
330
1F
100
AcDbEntity
  8
2
  6
CONTINUOUS
370
25
 62
7
100
AcDbLine
 10
123.5247564417433
 20
-23.70495128834867
 30
0.0
 11
124.0165042944956
 21
-24.19669914110089
 31
0.0
  0
LINE
  5
526
330
1F
100
AcDbEntity
  8
2
  6
CONTINUOUS
370
25
 62
7
100
AcDbLine
 10
124.0550865276333
 20
-23.81101730552666
 30
0.0
 11
124.3700576850888
 21
-24.12598846298224
 31
0.0
  0
LINE
  5
527
330
1F
100
AcDbEntity
  8
2
  6
CONTINUOUS
370
25
 62
7
100
AcDbLine
 10
124.5854166135232
 20
-23.91708332270464
 30
0.0
 11
124.7236110756821
 21
-24.05527778486357
 31
0.0
  0
LINE
  5
528
330
1F
100
AcDbEntity
  8
2
  6
CONTINUOUS
370
25
 62
7
100
AcDbLine
 10
140.0
 20
-24.0
 30
0.0
 11
145.0
 21
-23.0
 31
0.0
  0
LINE
  5
529
330
1F
100
AcDbEntity
  8
2
  6
CONTINUOUS
370
25
 62
7
100
AcDbLine
 10
145.0
 20
-23.0
 30
0.0
 11
145.0
 21
-25.0
 31
0.0
  0
LINE
  5
52A
330
1F
100
AcDbEntity
  8
2
  6
CONTINUOUS
370
25
 62
7
100
AcDbLine
 10
145.0
 20
-25.0
 30
0.0
 11
140.0
 21
-24.0
 31
0.0
  0
LINE
  5
52B
330
1F
100
AcDbEntity
  8
2
  6
CONTINUOUS
370
25
 62
7
100
AcDbLine
 10
144.8807680791482
 20
-24.97615361582962
 30
0.0
 11
145.0
 21
-24.85692169497779
 31
0.0
  0
LINE
  5
52C
330
1F
100
AcDbEntity
  8
2
  6
CONTINUOUS
370
25
 62
7
100
AcDbLine
 10
144.5272146885549
 20
-24.90544293771097
 30
0.0
 11
145.0
 21
-24.43265762626586
 31
0.0
  0
LINE
  5
52D
330
1F
100
AcDbEntity
  8
2
  6
CONTINUOUS
370
25
 62
7
100
AcDbLine
 10
144.1736612979616
 20
-24.83473225959231
 30
0.0
 11
145.0
 21
-24.00839355755393
 31
0.0
  0
LINE
  5
52E
330
1F
100
AcDbEntity
  8
2
  6
CONTINUOUS
370
25
 62
7
100
AcDbLine
 10
143.8201079073684
 20
-24.76402158147366
 30
0.0
 11
145.0
 21
-23.58412948884201
 31
0.0
  0
LINE
  5
52F
330
1F
100
AcDbEntity
  8
2
  6
CONTINUOUS
370
25
 62
7
100
AcDbLine
 10
143.4665545167751
 20
-24.69331090335501
 30
0.0
 11
145.0
 21
-23.15986542013009
 31
0.0
  0
LINE
  5
530
330
1F
100
AcDbEntity
  8
2
  6
CONTINUOUS
370
25
 62
7
100
AcDbLine
 10
143.1130011261818
 20
-24.62260022523635
 30
0.0
 11
144.6695016892727
 21
-23.06609966214546
 31
0.0
  0
LINE
  5
531
330
1F
100
AcDbEntity
  8
2
  6
CONTINUOUS
370
25
 62
7
100
AcDbLine
 10
142.7594477355885
 20
-24.5518895471177
 30
0.0
 11
144.1391716033828
 21
-23.17216567932344
 31
0.0
  0
LINE
  5
532
330
1F
100
AcDbEntity
  8
2
  6
CONTINUOUS
370
25
 62
7
100
AcDbLine
 10
142.4058943449953
 20
-24.48117886899904
 30
0.0
 11
143.6088415174929
 21
-23.27823169650142
 31
0.0
  0
LINE
  5
533
330
1F
100
AcDbEntity
  8
2
  6
CONTINUOUS
370
25
 62
7
100
AcDbLine
 10
142.052340954402
 20
-24.41046819088039
 30
0.0
 11
143.078511431603
 21
-23.3842977136794
 31
0.0
  0
LINE
  5
534
330
1F
100
AcDbEntity
  8
2
  6
CONTINUOUS
370
25
 62
7
100
AcDbLine
 10
141.6987875638087
 20
-24.33975751276174
 30
0.0
 11
142.5481813457131
 21
-23.49036373085738
 31
0.0
  0
LINE
  5
535
330
1F
100
AcDbEntity
  8
2
  6
CONTINUOUS
370
25
 62
7
100
AcDbLine
 10
141.3452341732155
 20
-24.26904683464308
 30
0.0
 11
142.0178512598232
 21
-23.59642974803536
 31
0.0
  0
LINE
  5
536
330
1F
100
AcDbEntity
  8
2
  6
CONTINUOUS
370
25
 62
7
100
AcDbLine
 10
140.9916807826222
 20
-24.19833615652443
 30
0.0
 11
141.4875211739333
 21
-23.70249576521334
 31
0.0
  0
LINE
  5
537
330
1F
100
AcDbEntity
  8
2
  6
CONTINUOUS
370
25
 62
7
100
AcDbLine
 10
140.6381273920289
 20
-24.12762547840578
 30
0.0
 11
140.9571910880434
 21
-23.80856178239132
 31
0.0
  0
LINE
  5
538
330
1F
100
AcDbEntity
  8
2
  6
CONTINUOUS
370
25
 62
7
100
AcDbLine
 10
140.2845740014357
 20
-24.05691480028712
 30
0.0
 11
140.4268610021534
 21
-23.91462779956932
 31
0.0
  0
LINE
  5
539
330
1F
100
AcDbEntity
  8
2
  6
CONTINUOUS
370
25
 62
7
100
AcDbLine
 10
140.3050865276336
 20
-23.93898269447328
 30
0.0
 11
140.4576297914504
 21
-24.09152595829009
 31
0.0
  0
LINE
  5
53A
330
1F
100
AcDbEntity
  8
2
  6
CONTINUOUS
370
25
 62
7
100
AcDbLine
 10
140.6586399182269
 20
-23.86827201635462
 30
0.0
 11
140.9879598773403
 21
-24.19759197546806
 31
0.0
  0
LINE
  5
53B
330
1F
100
AcDbEntity
  8
2
  6
CONTINUOUS
370
25
 62
7
100
AcDbLine
 10
141.0121933088201
 20
-23.79756133823597
 30
0.0
 11
141.5182899632302
 21
-24.30365799264605
 31
0.0
  0
LINE
  5
53C
330
1F
100
AcDbEntity
  8
2
  6
CONTINUOUS
370
25
 62
7
100
AcDbLine
 10
141.3657466994134
 20
-23.72685066011731
 30
0.0
 11
142.0486200491201
 21
-24.40972400982403
 31
0.0
  0
LINE
  5
53D
330
1F
100
AcDbEntity
  8
2
  6
CONTINUOUS
370
25
 62
7
100
AcDbLine
 10
141.7193000900066
 20
-23.65613998199865
 30
0.0
 11
142.57895013501
 21
-24.51579002700201
 31
0.0
  0
LINE
  5
53E
330
1F
100
AcDbEntity
  8
2
  6
CONTINUOUS
370
25
 62
7
100
AcDbLine
 10
142.0728534805999
 20
-23.58542930388001
 30
0.0
 11
143.1092802208999
 21
-24.62185604418
 31
0.0
  0
LINE
  5
53F
330
1F
100
AcDbEntity
  8
2
  6
CONTINUOUS
370
25
 62
7
100
AcDbLine
 10
142.4264068711932
 20
-23.51471862576136
 30
0.0
 11
143.6396103067898
 21
-24.72792206135797
 31
0.0
  0
LINE
  5
540
330
1F
100
AcDbEntity
  8
2
  6
CONTINUOUS
370
25
 62
7
100
AcDbLine
 10
142.7799602617865
 20
-23.4440079476427
 30
0.0
 11
144.1699403926797
 21
-24.83398807853595
 31
0.0
  0
LINE
  5
541
330
1F
100
AcDbEntity
  8
2
  6
CONTINUOUS
370
25
 62
7
100
AcDbLine
 10
143.1335136523797
 20
-23.37329726952404
 30
0.0
 11
144.7002704785696
 21
-24.94005409571393
 31
0.0
  0
LINE
  5
542
330
1F
100
AcDbEntity
  8
2
  6
CONTINUOUS
370
25
 62
7
100
AcDbLine
 10
143.487067042973
 20
-23.30258659140539
 30
0.0
 11
145.0
 21
-24.81551954843237
 31
0.0
  0
LINE
  5
543
330
1F
100
AcDbEntity
  8
2
  6
CONTINUOUS
370
25
 62
7
100
AcDbLine
 10
143.8406204335663
 20
-23.23187591328673
 30
0.0
 11
145.0
 21
-24.39125547972044
 31
0.0
  0
LINE
  5
544
330
1F
100
AcDbEntity
  8
2
  6
CONTINUOUS
370
25
 62
7
100
AcDbLine
 10
144.1941738241596
 20
-23.16116523516808
 30
0.0
 11
145.0
 21
-23.96699141100852
 31
0.0
  0
LINE
  5
545
330
1F
100
AcDbEntity
  8
2
  6
CONTINUOUS
370
25
 62
7
100
AcDbLine
 10
144.5477272147528
 20
-23.09045455704943
 30
0.0
 11
145.0
 21
-23.5427273422966
 31
0.0
  0
LINE
  5
546
330
1F
100
AcDbEntity
  8
2
  6
CONTINUOUS
370
25
 62
7
100
AcDbLine
 10
144.9012806053461
 20
-23.01974387893078
 30
0.0
 11
145.0
 21
-23.11846327358467
 31
0.0
  0
TEXT
  5
547
330
1F
100
AcDbEntity
  8
2
  6
CONTINUOUS
370
25
 62
7
100
AcDbText
 10
130.1666666666667
 20
-22.5
 30
0.0
 40
3.5
  1
15
 72
     1
 11
132.5
 21
-22.5
 31
0.0
100
AcDbText
  0
LINE
  5
548
330
1F
100
AcDbEntity
  8
4
  6
LONGDASH_DASH
370
25
 62
2
100
AcDbLine
 10
68.0
 20
0.0
 30
0.0
 11
140.0
 21
0.0
 31
0.0
  0
LINE
  5
549
330
1F
100
AcDbEntity
  8
SK4
  6
LONGDASH_DASH
370
25
 62
2
100
AcDbLine
 10
-6.0
 20
0.0
 30
0.0
 11
146.0
 21
0.0
 31
0.0
  0
LINE
  5
54A
330
1F
100
AcDbEntity
  8
2
  6
CONTINUOUS
370
25
 62
7
100
AcDbLine
 10
68.0
 20
11.34
 30
0.0
 11
68.0
 21
25.0
 31
0.0
  0
LINE
  5
54B
330
1F
100
AcDbEntity
  8
2
  6
CONTINUOUS
370
25
 62
7
100
AcDbLine
 10
140.0
 20
25.0
 30
0.0
 11
140.0
 21
9.0
 31
0.0
  0
LINE
  5
54C
330
1F
100
AcDbEntity
  8
2
  6
CONTINUOUS
370
25
 62
7
100
AcDbLine
 10
68.0
 20
24.0
 30
0.0
 11
140.0
 21
24.0
 31
0.0
  0
LINE
  5
54D
330
1F
100
AcDbEntity
  8
2
  6
CONTINUOUS
370
25
 62
7
100
AcDbLine
 10
68.0
 20
24.0
 30
0.0
 11
73.0
 21
25.0
 31
0.0
  0
LINE
  5
54E
330
1F
100
AcDbEntity
  8
2
  6
CONTINUOUS
370
25
 62
7
100
AcDbLine
 10
73.0
 20
25.0
 30
0.0
 11
73.0
 21
23.0
 31
0.0
  0
LINE
  5
54F
330
1F
100
AcDbEntity
  8
2
  6
CONTINUOUS
370
25
 62
7
100
AcDbLine
 10
73.0
 20
23.0
 30
0.0
 11
68.0
 21
24.0
 31
0.0
  0
LINE
  5
550
330
1F
100
AcDbEntity
  8
2
  6
CONTINUOUS
370
25
 62
7
100
AcDbLine
 10
72.79720420448926
 20
23.04055915910215
 30
0.0
 11
73.0
 21
23.24335495461289
 31
0.0
  0
LINE
  5
551
330
1F
100
AcDbEntity
  8
2
  6
CONTINUOUS
370
25
 62
7
100
AcDbLine
 10
72.44365081389599
 20
23.1112698372208
 30
0.0
 11
73.0
 21
23.66761902332482
 31
0.0
  0
LINE
  5
552
330
1F
100
AcDbEntity
  8
2
  6
CONTINUOUS
370
25
 62
7
100
AcDbLine
 10
72.09009742330271
 20
23.18198051533946
 30
0.0
 11
73.0
 21
24.09188309203675
 31
0.0
  0
LINE
  5
553
330
1F
100
AcDbEntity
  8
2
  6
CONTINUOUS
370
25
 62
7
100
AcDbLine
 10
71.73654403270945
 20
23.25269119345811
 30
0.0
 11
73.0
 21
24.51614716074867
 31
0.0
  0
LINE
  5
554
330
1F
100
AcDbEntity
  8
2
  6
CONTINUOUS
370
25
 62
7
100
AcDbLine
 10
71.38299064211617
 20
23.32340187157677
 30
0.0
 11
73.0
 21
24.9404112294606
 31
0.0
  0
LINE
  5
555
330
1F
100
AcDbEntity
  8
2
  6
CONTINUOUS
370
25
 62
7
100
AcDbLine
 10
71.02943725152289
 20
23.39411254969542
 30
0.0
 11
72.54415587728434
 21
24.90883117545687
 31
0.0
  0
LINE
  5
556
330
1F
100
AcDbEntity
  8
2
  6
CONTINUOUS
370
25
 62
7
100
AcDbLine
 10
70.67588386092962
 20
23.46482322781408
 30
0.0
 11
72.01382579139444
 21
24.80276515827889
 31
0.0
  0
LINE
  5
557
330
1F
100
AcDbEntity
  8
2
  6
CONTINUOUS
370
25
 62
7
100
AcDbLine
 10
70.32233047033635
 20
23.53553390593273
 30
0.0
 11
71.48349570550452
 21
24.6966991411009
 31
0.0
  0
LINE
  5
558
330
1F
100
AcDbEntity
  8
2
  6
CONTINUOUS
370
25
 62
7
100
AcDbLine
 10
69.96877707974308
 20
23.60624458405139
 30
0.0
 11
70.95316561961461
 21
24.59063312392292
 31
0.0
  0
LINE
  5
559
330
1F
100
AcDbEntity
  8
2
  6
CONTINUOUS
370
25
 62
7
100
AcDbLine
 10
69.6152236891498
 20
23.67695526217004
 30
0.0
 11
70.42283553372471
 21
24.48456710674494
 31
0.0
  0
LINE
  5
55A
330
1F
100
AcDbEntity
  8
2
  6
CONTINUOUS
370
25
 62
7
100
AcDbLine
 10
69.26167029855652
 20
23.74766594028869
 30
0.0
 11
69.8925054478348
 21
24.37850108956696
 31
0.0
  0
LINE
  5
55B
330
1F
100
AcDbEntity
  8
2
  6
CONTINUOUS
370
25
 62
7
100
AcDbLine
 10
68.90811690796326
 20
23.81837661840735
 30
0.0
 11
69.36217536194488
 21
24.27243507238898
 31
0.0
  0
LINE
  5
55C
330
1F
100
AcDbEntity
  8
2
  6
CONTINUOUS
370
25
 62
7
100
AcDbLine
 10
68.55456351736998
 20
23.889087296526
 30
0.0
 11
68.83184527605498
 21
24.166369055211
 31
0.0
  0
LINE
  5
55D
330
1F
100
AcDbEntity
  8
2
  6
CONTINUOUS
370
25
 62
7
100
AcDbLine
 10
68.20101012677671
 20
23.95979797464466
 30
0.0
 11
68.30151519016506
 21
24.06030303803301
 31
0.0
  0
LINE
  5
55E
330
1F
100
AcDbEntity
  8
2
  6
CONTINUOUS
370
25
 62
7
100
AcDbLine
 10
68.15254326381657
 20
24.03050865276332
 30
0.0
 11
68.22881489572487
 21
23.95423702085503
 31
0.0
  0
LINE
  5
55F
330
1F
100
AcDbEntity
  8
2
  6
CONTINUOUS
370
25
 62
7
100
AcDbLine
 10
68.50609665440984
 20
24.10121933088197
 30
0.0
 11
68.75914498161477
 21
23.84817100367705
 31
0.0
  0
LINE
  5
560
330
1F
100
AcDbEntity
  8
2
  6
CONTINUOUS
370
25
 62
7
100
AcDbLine
 10
68.85965004500312
 20
24.17193000900063
 30
0.0
 11
69.28947506750468
 21
23.74210498649906
 31
0.0
  0
LINE
  5
561
330
1F
100
AcDbEntity
  8
2
  6
CONTINUOUS
370
25
 62
7
100
AcDbLine
 10
69.2132034355964
 20
24.24264068711928
 30
0.0
 11
69.8198051533946
 21
23.63603896932108
 31
0.0
  0
LINE
  5
562
330
1F
100
AcDbEntity
  8
2
  6
CONTINUOUS
370
25
 62
7
100
AcDbLine
 10
69.56675682618966
 20
24.31335136523793
 30
0.0
 11
70.3501352392845
 21
23.5299729521431
 31
0.0
  0
LINE
  5
563
330
1F
100
AcDbEntity
  8
2
  6
CONTINUOUS
370
25
 62
7
100
AcDbLine
 10
69.92031021678294
 20
24.38406204335659
 30
0.0
 11
70.88046532517441
 21
23.42390693496512
 31
0.0
  0
LINE
  5
564
330
1F
100
AcDbEntity
  8
2
  6
CONTINUOUS
370
25
 62
7
100
AcDbLine
 10
70.27386360737621
 20
24.45477272147524
 30
0.0
 11
71.41079541106433
 21
23.31784091778714
 31
0.0
  0
LINE
  5
565
330
1F
100
AcDbEntity
  8
2
  6
CONTINUOUS
370
25
 62
7
100
AcDbLine
 10
70.62741699796949
 20
24.5254833995939
 30
0.0
 11
71.94112549695423
 21
23.21177490060915
 31
0.0
  0
LINE
  5
566
330
1F
100
AcDbEntity
  8
2
  6
CONTINUOUS
370
25
 62
7
100
AcDbLine
 10
70.98097038856277
 20
24.59619407771255
 30
0.0
 11
72.47145558284414
 21
23.10570888343117
 31
0.0
  0
LINE
  5
567
330
1F
100
AcDbEntity
  8
2
  6
CONTINUOUS
370
25
 62
7
100
AcDbLine
 10
71.33452377915603
 20
24.66690475583121
 30
0.0
 11
73.0
 21
23.00142853498724
 31
0.0
  0
LINE
  5
568
330
1F
100
AcDbEntity
  8
2
  6
CONTINUOUS
370
25
 62
7
100
AcDbLine
 10
71.6880771697493
 20
24.73761543394986
 30
0.0
 11
73.0
 21
23.42569260369917
 31
0.0
  0
LINE
  5
569
330
1F
100
AcDbEntity
  8
2
  6
CONTINUOUS
370
25
 62
7
100
AcDbLine
 10
72.04163056034258
 20
24.80832611206852
 30
0.0
 11
73.0
 21
23.8499566724111
 31
0.0
  0
LINE
  5
56A
330
1F
100
AcDbEntity
  8
2
  6
CONTINUOUS
370
25
 62
7
100
AcDbLine
 10
72.39518395093586
 20
24.87903679018717
 30
0.0
 11
73.0
 21
24.27422074112302
 31
0.0
  0
LINE
  5
56B
330
1F
100
AcDbEntity
  8
2
  6
CONTINUOUS
370
25
 62
7
100
AcDbLine
 10
72.74873734152912
 20
24.94974746830583
 30
0.0
 11
73.0
 21
24.69848480983495
 31
0.0
  0
LINE
  5
56C
330
1F
100
AcDbEntity
  8
2
  6
CONTINUOUS
370
25
 62
7
100
AcDbLine
 10
140.0
 20
24.0
 30
0.0
 11
135.0
 21
23.0
 31
0.0
  0
LINE
  5
56D
330
1F
100
AcDbEntity
  8
2
  6
CONTINUOUS
370
25
 62
7
100
AcDbLine
 10
135.0
 20
23.0
 30
0.0
 11
135.0
 21
25.0
 31
0.0
  0
LINE
  5
56E
330
1F
100
AcDbEntity
  8
2
  6
CONTINUOUS
370
25
 62
7
100
AcDbLine
 10
135.0
 20
25.0
 30
0.0
 11
140.0
 21
24.0
 31
0.0
  0
LINE
  5
56F
330
1F
100
AcDbEntity
  8
2
  6
CONTINUOUS
370
25
 62
7
100
AcDbLine
 10
139.5214225972911
 20
23.90428451945822
 30
0.0
 11
139.6809483981941
 21
24.06381032036118
 31
0.0
  0
LINE
  5
570
330
1F
100
AcDbEntity
  8
2
  6
CONTINUOUS
370
25
 62
7
100
AcDbLine
 10
138.9910925114012
 20
23.79821850228024
 30
0.0
 11
139.3273950076008
 21
24.13452099847984
 31
0.0
  0
LINE
  5
571
330
1F
100
AcDbEntity
  8
2
  6
CONTINUOUS
370
25
 62
7
100
AcDbLine
 10
138.4607624255113
 20
23.69215248510226
 30
0.0
 11
138.9738416170075
 21
24.20523167659849
 31
0.0
  0
LINE
  5
572
330
1F
100
AcDbEntity
  8
2
  6
CONTINUOUS
370
25
 62
7
100
AcDbLine
 10
137.9304323396214
 20
23.58608646792428
 30
0.0
 11
138.6202882264142
 21
24.27594235471715
 31
0.0
  0
LINE
  5
573
330
1F
100
AcDbEntity
  8
2
  6
CONTINUOUS
370
25
 62
7
100
AcDbLine
 10
137.4001022537315
 20
23.48002045074629
 30
0.0
 11
138.266734835821
 21
24.3466530328358
 31
0.0
  0
LINE
  5
574
330
1F
100
AcDbEntity
  8
2
  6
CONTINUOUS
370
25
 62
7
100
AcDbLine
 10
136.8697721678416
 20
23.37395443356831
 30
0.0
 11
137.9131814452277
 21
24.41736371095445
 31
0.0
  0
LINE
  5
575
330
1F
100
AcDbEntity
  8
2
  6
CONTINUOUS
370
25
 62
7
100
AcDbLine
 10
136.3394420819517
 20
23.26788841639033
 30
0.0
 11
137.5596280546344
 21
24.48807438907309
 31
0.0
  0
LINE
  5
576
330
1F
100
AcDbEntity
  8
2
  6
CONTINUOUS
370
25
 62
7
100
AcDbLine
 10
135.8091119960617
 20
23.16182239921235
 30
0.0
 11
137.2060746640412
 21
24.55878506719175
 31
0.0
  0
LINE
  5
577
330
1F
100
AcDbEntity
  8
2
  6
CONTINUOUS
370
25
 62
7
100
AcDbLine
 10
135.2787819101719
 20
23.05575638203437
 30
0.0
 11
136.8525212734479
 21
24.62949574531041
 31
0.0
  0
LINE
  5
578
330
1F
100
AcDbEntity
  8
2
  6
CONTINUOUS
370
25
 62
7
100
AcDbLine
 10
135.0
 20
23.20123854057445
 30
0.0
 11
136.4989678828546
 21
24.70020642342907
 31
0.0
  0
LINE
  5
579
330
1F
100
AcDbEntity
  8
2
  6
CONTINUOUS
370
25
 62
7
100
AcDbLine
 10
135.0
 20
23.62550260928638
 30
0.0
 11
136.1454144922614
 21
24.77091710154773
 31
0.0
  0
LINE
  5
57A
330
1F
100
AcDbEntity
  8
2
  6
CONTINUOUS
370
25
 62
7
100
AcDbLine
 10
135.0
 20
24.04976667799831
 30
0.0
 11
135.7918611016681
 21
24.84162777966638
 31
0.0
  0
LINE
  5
57B
330
1F
100
AcDbEntity
  8
2
  6
CONTINUOUS
370
25
 62
7
100
AcDbLine
 10
135.0
 20
24.47403074671023
 30
0.0
 11
135.4383077110748
 21
24.91233845778504
 31
0.0
  0
LINE
  5
57C
330
1F
100
AcDbEntity
  8
2
  6
CONTINUOUS
370
25
 62
7
100
AcDbLine
 10
135.0
 20
24.89829481542216
 30
0.0
 11
135.0847543204815
 21
24.9830491359037
 31
0.0
  0
LINE
  5
57D
330
1F
100
AcDbEntity
  8
2
  6
CONTINUOUS
370
25
 62
7
100
AcDbLine
 10
135.0
 20
23.36824663564101
 30
0.0
 11
135.3068721963675
 21
23.06137443927349
 31
0.0
  0
LINE
  5
57E
330
1F
100
AcDbEntity
  8
2
  6
CONTINUOUS
370
25
 62
7
100
AcDbLine
 10
135.0
 20
23.79251070435294
 30
0.0
 11
135.6604255869608
 21
23.13208511739215
 31
0.0
  0
LINE
  5
57F
330
1F
100
AcDbEntity
  8
2
  6
CONTINUOUS
370
25
 62
7
100
AcDbLine
 10
135.0
 20
24.21677477306486
 30
0.0
 11
136.013978977554
 21
23.20279579551081
 31
0.0
  0
LINE
  5
580
330
1F
100
AcDbEntity
  8
2
  6
CONTINUOUS
370
25
 62
7
100
AcDbLine
 10
135.0
 20
24.64103884177679
 30
0.0
 11
136.3675323681473
 21
23.27350647362947
 31
0.0
  0
LINE
  5
581
330
1F
100
AcDbEntity
  8
2
  6
CONTINUOUS
370
25
 62
7
100
AcDbLine
 10
135.0816286381109
 20
24.98367427237783
 30
0.0
 11
136.7210857587406
 21
23.34421715174811
 31
0.0
  0
LINE
  5
582
330
1F
100
AcDbEntity
  8
2
  6
CONTINUOUS
370
25
 62
7
100
AcDbLine
 10
135.6119587240008
 20
24.87760825519985
 30
0.0
 11
137.0746391493338
 21
23.41492782986677
 31
0.0
  0
LINE
  5
583
330
1F
100
AcDbEntity
  8
2
  6
CONTINUOUS
370
25
 62
7
100
AcDbLine
 10
136.1422888098907
 20
24.77154223802185
 30
0.0
 11
137.4281925399271
 21
23.48563850798543
 31
0.0
  0
LINE
  5
584
330
1F
100
AcDbEntity
  8
2
  6
CONTINUOUS
370
25
 62
7
100
AcDbLine
 10
136.6726188957806
 20
24.66547622084387
 30
0.0
 11
137.7817459305204
 21
23.55634918610407
 31
0.0
  0
LINE
  5
585
330
1F
100
AcDbEntity
  8
2
  6
CONTINUOUS
370
25
 62
7
100
AcDbLine
 10
137.2029489816705
 20
24.55941020366591
 30
0.0
 11
138.1352993211137
 21
23.62705986422273
 31
0.0
  0
LINE
  5
586
330
1F
100
AcDbEntity
  8
2
  6
CONTINUOUS
370
25
 62
7
100
AcDbLine
 10
137.7332790675604
 20
24.45334418648793
 30
0.0
 11
138.488852711707
 21
23.69777054234139
 31
0.0
  0
LINE
  5
587
330
1F
100
AcDbEntity
  8
2
  6
CONTINUOUS
370
25
 62
7
100
AcDbLine
 10
138.2636091534503
 20
24.34727816930994
 30
0.0
 11
138.8424061023002
 21
23.76848122046003
 31
0.0
  0
LINE
  5
588
330
1F
100
AcDbEntity
  8
2
  6
CONTINUOUS
370
25
 62
7
100
AcDbLine
 10
138.7939392393402
 20
24.24121215213195
 30
0.0
 11
139.1959594928935
 21
23.83919189857869
 31
0.0
  0
LINE
  5
589
330
1F
100
AcDbEntity
  8
2
  6
CONTINUOUS
370
25
 62
7
100
AcDbLine
 10
139.3242693252301
 20
24.13514613495397
 30
0.0
 11
139.5495128834868
 21
23.90990257669735
 31
0.0
  0
LINE
  5
58A
330
1F
100
AcDbEntity
  8
2
  6
CONTINUOUS
370
25
 62
7
100
AcDbLine
 10
139.85459941112
 20
24.02908011777599
 30
0.0
 11
139.90306627408
 21
23.98061325481599
 31
0.0
  0
TEXT
  5
58B
330
1F
100
AcDbEntity
  8
2
  6
CONTINUOUS
370
25
 62
7
100
AcDbText
 10
101.0833333333333
 20
25.5
 30
0.0
 40
3.5
  1
72
 72
     1
 11
104.0
 21
25.5
 31
0.0
100
AcDbText
  0
LINE
  5
58C
330
1F
100
AcDbEntity
  8
2
  6
CONTINUOUS
370
25
 62
7
100
AcDbLine
 10
140.0
 20
-11.34
 30
0.0
 11
153.0
 21
-11.34
 31
0.0
  0
LINE
  5
58D
330
1F
100
AcDbEntity
  8
2
  6
CONTINUOUS
370
25
 62
7
100
AcDbLine
 10
153.0
 20
11.34
 30
0.0
 11
140.0
 21
11.34
 31
0.0
  0
LINE
  5
58E
330
1F
100
AcDbEntity
  8
2
  6
CONTINUOUS
370
25
 62
7
100
AcDbLine
 10
152.0
 20
-18.34
 30
0.0
 11
152.0
 21
18.34
 31
0.0
  0
LINE
  5
58F
330
1F
100
AcDbEntity
  8
2
  6
CONTINUOUS
370
25
 62
7
100
AcDbLine
 10
152.0
 20
-11.34
 30
0.0
 11
153.0
 21
-16.34
 31
0.0
  0
LINE
  5
590
330
1F
100
AcDbEntity
  8
2
  6
CONTINUOUS
370
25
 62
7
100
AcDbLine
 10
153.0
 20
-16.34
 30
0.0
 11
151.0
 21
-16.34
 31
0.0
  0
LINE
  5
591
330
1F
100
AcDbEntity
  8
2
  6
CONTINUOUS
370
25
 62
7
100
AcDbLine
 10
151.0
 20
-16.34
 30
0.0
 11
152.0
 21
-11.34
 31
0.0
  0
LINE
  5
592
330
1F
100
AcDbEntity
  8
2
  6
CONTINUOUS
370
25
 62
7
100
AcDbLine
 10
152.6211857636898
 20
-16.34
 30
0.0
 11
152.9368642939483
 21
-16.02432146974147
 31
0.0
  0
LINE
  5
593
330
1F
100
AcDbEntity
  8
2
  6
CONTINUOUS
370
25
 62
7
100
AcDbLine
 10
152.1969216949778
 20
-16.34
 30
0.0
 11
152.8661536158297
 21
-15.67076807914819
 31
0.0
  0
LINE
  5
594
330
1F
100
AcDbEntity
  8
2
  6
CONTINUOUS
370
25
 62
7
100
AcDbLine
 10
151.7726576262659
 20
-16.34
 30
0.0
 11
152.795442937711
 21
-15.31721468855491
 31
0.0
  0
LINE
  5
595
330
1F
100
AcDbEntity
  8
2
  6
CONTINUOUS
370
25
 62
7
100
AcDbLine
 10
151.348393557554
 20
-16.34
 30
0.0
 11
152.7247322595923
 21
-14.96366129796165
 31
0.0
  0
LINE
  5
596
330
1F
100
AcDbEntity
  8
2
  6
CONTINUOUS
370
25
 62
7
100
AcDbLine
 10
151.0189676277895
 20
-16.24516186105257
 30
0.0
 11
152.6540215814737
 21
-14.61010790736837
 31
0.0
  0
LINE
  5
597
330
1F
100
AcDbEntity
  8
2
  6
CONTINUOUS
370
25
 62
7
100
AcDbLine
 10
151.1250336449675
 20
-15.71483177516266
 30
0.0
 11
152.583310903355
 21
-14.25655451677511
 31
0.0
  0
LINE
  5
598
330
1F
100
AcDbEntity
  8
2
  6
CONTINUOUS
370
25
 62
7
100
AcDbLine
 10
151.2310996621455
 20
-15.18450168927276
 30
0.0
 11
152.5126002252364
 21
-13.90300112618185
 31
0.0
  0
LINE
  5
599
330
1F
100
AcDbEntity
  8
2
  6
CONTINUOUS
370
25
 62
7
100
AcDbLine
 10
151.3371656793234
 20
-14.65417160338285
 30
0.0
 11
152.4418895471177
 21
-13.54944773558856
 31
0.0
  0
LINE
  5
59A
330
1F
100
AcDbEntity
  8
2
  6
CONTINUOUS
370
25
 62
7
100
AcDbLine
 10
151.4432316965014
 20
-14.12384151749295
 30
0.0
 11
152.3711788689991
 21
-13.1958943449953
 31
0.0
  0
LINE
  5
59B
330
1F
100
AcDbEntity
  8
2
  6
CONTINUOUS
370
25
 62
7
100
AcDbLine
 10
151.5492977136794
 20
-13.59351143160305
 30
0.0
 11
152.3004681908804
 21
-12.84234095440203
 31
0.0
  0
LINE
  5
59C
330
1F
100
AcDbEntity
  8
2
  6
CONTINUOUS
370
25
 62
7
100
AcDbLine
 10
151.6553637308574
 20
-13.06318134571312
 30
0.0
 11
152.2297575127618
 21
-12.48878756380876
 31
0.0
  0
LINE
  5
59D
330
1F
100
AcDbEntity
  8
2
  6
CONTINUOUS
370
25
 62
7
100
AcDbLine
 10
151.7614297480354
 20
-12.53285125982323
 30
0.0
 11
152.1590468346431
 21
-12.13523417321548
 31
0.0
  0
LINE
  5
59E
330
1F
100
AcDbEntity
  8
2
  6
CONTINUOUS
370
25
 62
7
100
AcDbLine
 10
151.8674957652133
 20
-12.00252117393332
 30
0.0
 11
152.0883361565245
 21
-11.78168078262222
 31
0.0
  0
LINE
  5
59F
330
1F
100
AcDbEntity
  8
2
  6
CONTINUOUS
370
25
 62
7
100
AcDbLine
 10
151.9735617823913
 20
-11.47219108804343
 30
0.0
 11
152.0176254784058
 21
-11.42812739202894
 31
0.0
  0
LINE
  5
5A0
330
1F
100
AcDbEntity
  8
2
  6
CONTINUOUS
370
25
 62
7
100
AcDbLine
 10
151.0622871427475
 20
-16.02856428626235
 30
0.0
 11
151.3737228564852
 21
-16.34
 31
0.0
  0
LINE
  5
5A1
330
1F
100
AcDbEntity
  8
2
  6
CONTINUOUS
370
25
 62
7
100
AcDbLine
 10
151.1329978208662
 20
-15.67501089566909
 30
0.0
 11
151.7979869251971
 21
-16.34
 31
0.0
  0
LINE
  5
5A2
330
1F
100
AcDbEntity
  8
2
  6
CONTINUOUS
370
25
 62
7
100
AcDbLine
 10
151.2037084989848
 20
-15.32145750507581
 30
0.0
 11
152.222250993909
 21
-16.34
 31
0.0
  0
LINE
  5
5A3
330
1F
100
AcDbEntity
  8
2
  6
CONTINUOUS
370
25
 62
7
100
AcDbLine
 10
151.2744191771035
 20
-14.96790411448255
 30
0.0
 11
152.6465150626209
 21
-16.34
 31
0.0
  0
LINE
  5
5A4
330
1F
100
AcDbEntity
  8
2
  6
CONTINUOUS
370
25
 62
7
100
AcDbLine
 10
151.3451298552221
 20
-14.61435072388927
 30
0.0
 11
152.9823052171668
 21
-16.25152608583393
 31
0.0
  0
LINE
  5
5A5
330
1F
100
AcDbEntity
  8
2
  6
CONTINUOUS
370
25
 62
7
100
AcDbLine
 10
151.4158405333408
 20
-14.26079733329601
 30
0.0
 11
152.8762391999888
 21
-15.72119599994402
 31
0.0
  0
LINE
  5
5A6
330
1F
100
AcDbEntity
  8
2
  6
CONTINUOUS
370
25
 62
7
100
AcDbLine
 10
151.4865512114595
 20
-13.90724394270273
 30
0.0
 11
152.7701731828108
 21
-15.1908659140541
 31
0.0
  0
LINE
  5
5A7
330
1F
100
AcDbEntity
  8
2
  6
CONTINUOUS
370
25
 62
7
100
AcDbLine
 10
151.5572618895781
 20
-13.55369055210947
 30
0.0
 11
152.6641071656329
 21
-14.6605358281642
 31
0.0
  0
LINE
  5
5A8
330
1F
100
AcDbEntity
  8
2
  6
CONTINUOUS
370
25
 62
7
100
AcDbLine
 10
151.6279725676968
 20
-13.2001371615162
 30
0.0
 11
152.5580411484549
 21
-14.1302057422743
 31
0.0
  0
LINE
  5
5A9
330
1F
100
AcDbEntity
  8
2
  6
CONTINUOUS
370
25
 62
7
100
AcDbLine
 10
151.6986832458154
 20
-12.84658377092292
 30
0.0
 11
152.4519751312769
 21
-13.59987565638438
 31
0.0
  0
LINE
  5
5AA
330
1F
100
AcDbEntity
  8
2
  6
CONTINUOUS
370
25
 62
7
100
AcDbLine
 10
151.7693939239341
 20
-12.49303038032966
 30
0.0
 11
152.3459091140989
 21
-13.06954557049448
 31
0.0
  0
LINE
  5
5AB
330
1F
100
AcDbEntity
  8
2
  6
CONTINUOUS
370
25
 62
7
100
AcDbLine
 10
151.8401046020527
 20
-12.13947698973638
 30
0.0
 11
152.2398430969209
 21
-12.53921548460458
 31
0.0
  0
LINE
  5
5AC
330
1F
100
AcDbEntity
  8
2
  6
CONTINUOUS
370
25
 62
7
100
AcDbLine
 10
151.9108152801714
 20
-11.78592359914312
 30
0.0
 11
152.1337770797429
 21
-12.00888539871468
 31
0.0
  0
LINE
  5
5AD
330
1F
100
AcDbEntity
  8
2
  6
CONTINUOUS
370
25
 62
7
100
AcDbLine
 10
151.98152595829
 20
-11.43237020854986
 30
0.0
 11
152.0277110625649
 21
-11.47855531282478
 31
0.0
  0
LINE
  5
5AE
330
1F
100
AcDbEntity
  8
2
  6
CONTINUOUS
370
25
 62
7
100
AcDbLine
 10
152.0
 20
11.34
 30
0.0
 11
151.0
 21
16.34
 31
0.0
  0
LINE
  5
5AF
330
1F
100
AcDbEntity
  8
2
  6
CONTINUOUS
370
25
 62
7
100
AcDbLine
 10
151.0
 20
16.34
 30
0.0
 11
153.0
 21
16.34
 31
0.0
  0
LINE
  5
5B0
330
1F
100
AcDbEntity
  8
2
  6
CONTINUOUS
370
25
 62
7
100
AcDbLine
 10
153.0
 20
16.34
 30
0.0
 11
152.0
 21
11.34
 31
0.0
  0
LINE
  5
5B1
330
1F
100
AcDbEntity
  8
2
  6
CONTINUOUS
370
25
 62
7
100
AcDbLine
 10
151.9449703487568
 20
11.61514825621572
 30
0.0
 11
152.0825444768647
 21
11.7527223843236
 31
0.0
  0
LINE
  5
5B2
330
1F
100
AcDbEntity
  8
2
  6
CONTINUOUS
370
25
 62
7
100
AcDbLine
 10
151.8742596706382
 20
11.96870164680901
 30
0.0
 11
152.1886104940427
 21
12.28305247021352
 31
0.0
  0
LINE
  5
5B3
330
1F
100
AcDbEntity
  8
2
  6
CONTINUOUS
370
25
 62
7
100
AcDbLine
 10
151.8035489925196
 20
12.32225503740227
 30
0.0
 11
152.2946765112207
 21
12.81338255610342
 31
0.0
  0
LINE
  5
5B4
330
1F
100
AcDbEntity
  8
2
  6
CONTINUOUS
370
25
 62
7
100
AcDbLine
 10
151.7328383144009
 20
12.67580842799553
 30
0.0
 11
152.4007425283987
 21
13.34371264199332
 31
0.0
  0
LINE
  5
5B5
330
1F
100
AcDbEntity
  8
2
  6
CONTINUOUS
370
25
 62
7
100
AcDbLine
 10
151.6621276362822
 20
13.02936181858882
 30
0.0
 11
152.5068085455766
 21
13.87404272788324
 31
0.0
  0
LINE
  5
5B6
330
1F
100
AcDbEntity
  8
2
  6
CONTINUOUS
370
25
 62
7
100
AcDbLine
 10
151.5914169581636
 20
13.38291520918207
 30
0.0
 11
152.6128745627547
 21
14.40437281377315
 31
0.0
  0
LINE
  5
5B7
330
1F
100
AcDbEntity
  8
2
  6
CONTINUOUS
370
25
 62
7
100
AcDbLine
 10
151.5207062800449
 20
13.73646859977535
 30
0.0
 11
152.7189405799326
 21
14.93470289966304
 31
0.0
  0
LINE
  5
5B8
330
1F
100
AcDbEntity
  8
2
  6
CONTINUOUS
370
25
 62
7
100
AcDbLine
 10
151.4499956019263
 20
14.09002199036861
 30
0.0
 11
152.8250065971106
 21
15.46503298555295
 31
0.0
  0
LINE
  5
5B9
330
1F
100
AcDbEntity
  8
2
  6
CONTINUOUS
370
25
 62
7
100
AcDbLine
 10
151.3792849238076
 20
14.44357538096189
 30
0.0
 11
152.9310726142886
 21
15.99536307144284
 31
0.0
  0
LINE
  5
5BA
330
1F
100
AcDbEntity
  8
2
  6
CONTINUOUS
370
25
 62
7
100
AcDbLine
 10
151.308574245689
 20
14.79712877155517
 30
0.0
 11
152.8514454741338
 21
16.33999999999999
 31
0.0
  0
LINE
  5
5BB
330
1F
100
AcDbEntity
  8
2
  6
CONTINUOUS
370
25
 62
7
100
AcDbLine
 10
151.2378635675703
 20
15.15068216214843
 30
0.0
 11
152.4271814054219
 21
16.33999999999999
 31
0.0
  0
LINE
  5
5BC
330
1F
100
AcDbEntity
  8
2
  6
CONTINUOUS
370
25
 62
7
100
AcDbLine
 10
151.1671528894516
 20
15.50423555274169
 30
0.0
 11
152.0029173367099
 21
16.33999999999999
 31
0.0
  0
LINE
  5
5BD
330
1F
100
AcDbEntity
  8
2
  6
CONTINUOUS
370
25
 62
7
100
AcDbLine
 10
151.096442211333
 20
15.85778894333498
 30
0.0
 11
151.578653267998
 21
16.34
 31
0.0
  0
LINE
  5
5BE
330
1F
100
AcDbEntity
  8
2
  6
CONTINUOUS
370
25
 62
7
100
AcDbLine
 10
151.0257315332144
 20
16.21134233392824
 30
0.0
 11
151.1543891992861
 21
16.34
 31
0.0
  0
LINE
  5
5BF
330
1F
100
AcDbEntity
  8
2
  6
CONTINUOUS
370
25
 62
7
100
AcDbLine
 10
151.9701461349539
 20
11.48926932523031
 30
0.0
 11
152.0199025766973
 21
11.43951288348688
 31
0.0
  0
LINE
  5
5C0
330
1F
100
AcDbEntity
  8
2
  6
CONTINUOUS
370
25
 62
7
100
AcDbLine
 10
151.8640801177759
 20
12.01959941112023
 30
0.0
 11
152.090613254816
 21
11.79306627408013
 31
0.0
  0
LINE
  5
5C1
330
1F
100
AcDbEntity
  8
2
  6
CONTINUOUS
370
25
 62
7
100
AcDbLine
 10
151.758014100598
 20
12.54992949701014
 30
0.0
 11
152.1613239329347
 21
12.14661966467342
 31
0.0
  0
LINE
  5
5C2
330
1F
100
AcDbEntity
  8
2
  6
CONTINUOUS
370
25
 62
7
100
AcDbLine
 10
151.65194808342
 20
13.08025958290004
 30
0.0
 11
152.2320346110533
 21
12.50017305526669
 31
0.0
  0
LINE
  5
5C3
330
1F
100
AcDbEntity
  8
2
  6
CONTINUOUS
370
25
 62
7
100
AcDbLine
 10
151.545882066242
 20
13.61058966878994
 30
0.0
 11
152.302745289172
 21
12.85372644585995
 31
0.0
  0
LINE
  5
5C4
330
1F
100
AcDbEntity
  8
2
  6
CONTINUOUS
370
25
 62
7
100
AcDbLine
 10
151.439816049064
 20
14.14091975467986
 30
0.0
 11
152.3734559672906
 21
13.20727983645324
 31
0.0
  0
LINE
  5
5C5
330
1F
100
AcDbEntity
  8
2
  6
CONTINUOUS
370
25
 62
7
100
AcDbLine
 10
151.333750031886
 20
14.67124984056976
 30
0.0
 11
152.4441666454093
 21
13.5608332270465
 31
0.0
  0
LINE
  5
5C6
330
1F
100
AcDbEntity
  8
2
  6
CONTINUOUS
370
25
 62
7
100
AcDbLine
 10
151.2276840147081
 20
15.20157992645966
 30
0.0
 11
152.514877323528
 21
13.91438661763976
 31
0.0
  0
LINE
  5
5C7
330
1F
100
AcDbEntity
  8
2
  6
CONTINUOUS
370
25
 62
7
100
AcDbLine
 10
151.1216179975301
 20
15.73191001234954
 30
0.0
 11
152.5855880016466
 21
14.26794000823304
 31
0.0
  0
LINE
  5
5C8
330
1F
100
AcDbEntity
  8
2
  6
CONTINUOUS
370
25
 62
7
100
AcDbLine
 10
151.0155519803521
 20
16.26224009823945
 30
0.0
 11
152.6562986797653
 21
14.6214933988263
 31
0.0
  0
LINE
  5
5C9
330
1F
100
AcDbEntity
  8
2
  6
CONTINUOUS
370
25
 62
7
100
AcDbLine
 10
151.3620561473035
 20
16.33999999999999
 30
0.0
 11
152.7270093578839
 21
14.97504678941958
 31
0.0
  0
LINE
  5
5CA
330
1F
100
AcDbEntity
  8
2
  6
CONTINUOUS
370
25
 62
7
100
AcDbLine
 10
151.7863202160154
 20
16.33999999999999
 30
0.0
 11
152.7977200360025
 21
15.32860018001286
 31
0.0
  0
LINE
  5
5CB
330
1F
100
AcDbEntity
  8
2
  6
CONTINUOUS
370
25
 62
7
100
AcDbLine
 10
152.2105842847274
 20
16.33999999999999
 30
0.0
 11
152.8684307141212
 21
15.68215357060612
 31
0.0
  0
LINE
  5
5CC
330
1F
100
AcDbEntity
  8
2
  6
CONTINUOUS
370
25
 62
7
100
AcDbLine
 10
152.6348483534393
 20
16.34
 30
0.0
 11
152.9391413922399
 21
16.03570696119939
 31
0.0
  0
TEXT
  5
5CD
330
1F
100
AcDbEntity
  8
2
  6
CONTINUOUS
370
25
 62
7
100
AcDbText
 10
150.5
 20
-4.725
 30
0.0
 40
3.5
  1
22.68
 50
90.0
 72
     1
 11
150.5
 21
2.275
 31
0.0
100
AcDbText
  0
CIRCLE
  5
5CE
330
1F
100
AcDbEntity
  8
2
  6
CONTINUOUS
370
25
 62
7
100
AcDbCircle
 10
148.75
 20
-7.350000000000001
 30
0.0
 40
1.4
  0
LINE
  5
5CF
330
1F
100
AcDbEntity
  8
2
  6
CONTINUOUS
370
25
 62
7
100
AcDbLine
 10
150.15
 20
-8.75
 30
0.0
 11
147.35
 21
-5.949999999999999
 31
0.0
  0
LINE
  5
5D0
330
1F
100
AcDbEntity
  8
SK1
  6
CONTINUOUS
370
50
 62
4
100
AcDbLine
 10
68.0
 20
0.0
 30
0.0
 11
69.75
 21
0.0
 31
0.0
  0
LINE
  5
5D1
330
1F
100
AcDbEntity
  8
SK1
  6
CONTINUOUS
370
50
 62
4
100
AcDbLine
 10
68.0
 20
0.0
 30
0.0
 11
68.0
 21
1.75
 31
0.0
  0
ARC
  5
5D2
330
1F
100
AcDbEntity
  8
SK1
  6
CONTINUOUS
370
50
 62
4
100
AcDbCircle
 10
68.0
 20
0.0
 30
0.0
 40
1.75
100
AcDbArc
 50
0.0
 51
90.0
  0
LINE
  5
5D3
330
1F
100
AcDbEntity
  8
SK1
  6
CONTINUOUS
370
50
 62
4
100
AcDbLine
 10
68.0
 20
0.0
 30
0.0
 11
66.25
 21
0.0
 31
0.0
  0
ARC
  5
5D4
330
1F
100
AcDbEntity
  8
SK1
  6
CONTINUOUS
370
50
 62
4
100
AcDbCircle
 10
68.0
 20
0.0
 30
0.0
 40
1.75
100
AcDbArc
 50
180.0
 51
270.0
  0
LINE
  5
5D5
330
1F
100
AcDbEntity
  8
SK1
  6
CONTINUOUS
370
50
 62
4
100
AcDbLine
 10
68.0
 20
-1.75
 30
0.0
 11
68.0
 21
0.0
 31
0.0
  0
ARC
  5
5D6
330
1F
100
AcDbEntity
  8
SK1
  6
CONTINUOUS
370
50
 62
4
100
AcDbCircle
 10
68.0
 20
0.0
 30
0.0
 40
1.75
100
AcDbArc
 50
270.0
 51
0.0
  0
ARC
  5
5D7
330
1F
100
AcDbEntity
  8
SK1
  6
CONTINUOUS
370
50
 62
4
100
AcDbCircle
 10
68.0
 20
0.0
 30
0.0
 40
1.75
100
AcDbArc
 50
90.0
 51
180.0
  0
LINE
  5
5D8
330
1F
100
AcDbEntity
  8
SK1
  6
CONTINUOUS
370
50
 62
4
100
AcDbLine
 10
67.77717274741573
 20
-1.73564731720198
 30
0.0
 11
68.0
 21
-1.512820064617713
 31
0.0
  0
LINE
  5
5D9
330
1F
100
AcDbEntity
  8
SK1
  6
CONTINUOUS
370
50
 62
4
100
AcDbLine
 10
69.51282006461771
 20
0.0
 30
0.0
 11
69.73564731720198
 21
0.2228272525842674
 31
0.0
  0
LINE
  5
5DA
330
1F
100
AcDbEntity
  8
SK1
  6
CONTINUOUS
370
50
 62
4
100
AcDbLine
 10
67.56930380681874
 20
-1.69602888438369
 30
0.0
 11
68.0
 21
-1.265332691202421
 31
0.0
  0
LINE
  5
5DB
330
1F
100
AcDbEntity
  8
SK1
  6
CONTINUOUS
370
50
 62
4
100
AcDbLine
 10
69.26533269120242
 20
0.0
 30
0.0
 11
69.6960288843837
 21
0.4306961931812696
 31
0.0
  0
LINE
  5
5DC
330
1F
100
AcDbEntity
  8
SK1
  6
CONTINUOUS
370
50
 62
4
100
AcDbLine
 10
67.38148340435765
 20
-1.636361913429485
 30
0.0
 11
68.0
 21
-1.01784531778713
 31
0.0
  0
LINE
  5
5DD
330
1F
100
AcDbEntity
  8
SK1
  6
CONTINUOUS
370
50
 62
4
100
AcDbLine
 10
69.01784531778713
 20
0.0
 30
0.0
 11
69.63636191342948
 21
0.6185165956423557
 31
0.0
  0
LINE
  5
5DE
330
1F
100
AcDbEntity
  8
SK1
  6
CONTINUOUS
370
50
 62
4
100
AcDbLine
 10
67.2098551094628
 20
-1.560502834909039
 30
0.0
 11
68.0
 21
-0.7703579443718382
 31
0.0
  0
LINE
  5
5DF
330
1F
100
AcDbEntity
  8
SK1
  6
CONTINUOUS
370
50
 62
4
100
AcDbLine
 10
68.77035794437184
 20
0.0
 30
0.0
 11
69.56050283490904
 21
0.7901448905372013
 31
0.0
  0
LINE
  5
5E0
330
1F
100
AcDbEntity
  8
SK1
  6
CONTINUOUS
370
50
 62
4
100
AcDbLine
 10
67.05217783219447
 20
-1.470692738762079
 30
0.0
 11
68.0
 21
-0.5228705709565462
 31
0.0
  0
LINE
  5
5E1
330
1F
100
AcDbEntity
  8
SK1
  6
CONTINUOUS
370
50
 62
4
100
AcDbLine
 10
68.52287057095654
 20
0.0
 30
0.0
 11
69.47069273876208
 21
0.947822167805533
 31
0.0
  0
LINE
  5
5E2
330
1F
100
AcDbEntity
  8
SK1
  6
CONTINUOUS
370
50
 62
4
100
AcDbLine
 10
66.90842956711548
 20
-1.366953630425777
 30
0.0
 11
68.0
 21
-0.2753831975412551
 31
0.0
  0
LINE
  5
5E3
330
1F
100
AcDbEntity
  8
SK1
  6
CONTINUOUS
370
50
 62
4
100
AcDbLine
 10
68.27538319754126
 20
0.0
 30
0.0
 11
69.36695363042577
 21
1.091570432884522
 31
0.0
  0
LINE
  5
5E4
330
1F
100
AcDbEntity
  8
SK1
  6
CONTINUOUS
370
50
 62
4
100
AcDbLine
 10
66.77712164538164
 20
-1.25077417874432
 30
0.0
 11
68.0
 21
-0.0278958241259639
 31
0.0
  0
LINE
  5
5E5
330
1F
100
AcDbEntity
  8
SK1
  6
CONTINUOUS
370
50
 62
4
100
AcDbLine
 10
68.02789582412596
 20
0.0
 30
0.0
 11
69.25077417874432
 21
1.222878354618356
 31
0.0
  0
LINE
  5
5E6
330
1F
100
AcDbEntity
  8
SK1
  6
CONTINUOUS
370
50
 62
4
100
AcDbLine
 10
66.65784030371346
 20
-1.122568146997212
 30
0.0
 11
67.78040845071067
 21
0.0
 31
0.0
  0
LINE
  5
5E7
330
1F
100
AcDbEntity
  8
SK1
  6
CONTINUOUS
370
50
 62
4
100
AcDbLine
 10
68.0
 20
0.2195915492893277
 30
0.0
 11
69.12256814699721
 21
1.34215969628654
 31
0.0
  0
LINE
  5
5E8
330
1F
100
AcDbEntity
  8
SK1
  6
CONTINUOUS
370
50
 62
4
100
AcDbLine
 10
66.55188167231256
 20
-0.9810394049828186
 30
0.0
 11
67.53292107729538
 21
0.0
 31
0.0
  0
LINE
  5
5E9
330
1F
100
AcDbEntity
  8
SK1
  6
CONTINUOUS
370
50
 62
4
100
AcDbLine
 10
68.0
 20
0.4670789227046193
 30
0.0
 11
68.98103940498282
 21
1.448118327687438
 31
0.0
  0
LINE
  5
5EA
330
1F
100
AcDbEntity
  8
SK1
  6
CONTINUOUS
370
50
 62
4
100
AcDbLine
 10
66.45832908651575
 20
-0.8271046173643402
 30
0.0
 11
67.28543370388009
 21
0.0
 31
0.0
  0
LINE
  5
5EB
330
1F
100
AcDbEntity
  8
SK1
  6
CONTINUOUS
370
50
 62
4
100
AcDbLine
 10
68.0
 20
0.71456629611991
 30
0.0
 11
68.82710461736434
 21
1.54167091348425
 31
0.0
  0
LINE
  5
5EC
330
1F
100
AcDbEntity
  8
SK1
  6
CONTINUOUS
370
50
 62
4
100
AcDbLine
 10
66.37918473824205
 20
-0.6587615922227528
 30
0.0
 11
67.0379463304648
 21
0.0
 31
0.0
  0
LINE
  5
5ED
330
1F
100
AcDbEntity
  8
SK1
  6
CONTINUOUS
370
50
 62
4
100
AcDbLine
 10
68.0
 20
0.9620536695352015
 30
0.0
 11
68.65876159222275
 21
1.620815261757954
 31
0.0
  0
LINE
  5
5EE
330
1F
100
AcDbEntity
  8
SK1
  6
CONTINUOUS
370
50
 62
4
100
AcDbLine
 10
66.31629687706963
 20
-0.474162079979876
 30
0.0
 11
66.79045895704951
 21
0.0
 31
0.0
  0
LINE
  5
5EF
330
1F
100
AcDbEntity
  8
SK1
  6
CONTINUOUS
370
50
 62
4
100
AcDbLine
 10
68.0
 20
1.209541042950494
 30
0.0
 11
68.47416207997988
 21
1.683703122930369
 31
0.0
  0
LINE
  5
5F0
330
1F
100
AcDbEntity
  8
SK1
  6
CONTINUOUS
370
50
 62
4
100
AcDbLine
 10
66.27198100434272
 20
-0.2709905792915031
 30
0.0
 11
66.54297158363421
 21
0.0
 31
0.0
  0
LINE
  5
5F1
330
1F
100
AcDbEntity
  8
SK1
  6
CONTINUOUS
370
50
 62
4
100
AcDbLine
 10
68.0
 20
1.457028416365784
 30
0.0
 11
68.2709905792915
 21
1.728018995657286
 31
0.0
  0
LINE
  5
5F2
330
1F
100
AcDbEntity
  8
SK1
  6
CONTINUOUS
370
50
 62
4
100
AcDbLine
 10
66.2513858468978
 20
-0.0440983633211194
 30
0.0
 11
66.29548421021893
 21
0.0
 31
0.0
  0
LINE
  5
5F3
330
1F
100
AcDbEntity
  8
SK1
  6
CONTINUOUS
370
50
 62
4
100
AcDbLine
 10
68.0
 20
1.704515789781075
 30
0.0
 11
68.04409836332111
 21
1.748614153102194
 31
0.0
  0
LINE
  5
5F4
330
1F
100
AcDbEntity
  8
SK1
  6
CONTINUOUS
370
50
 62
4
100
AcDbLine
 10
66.36386517603681
 20
-0.6191473609004006
 30
0.0
 11
67.3808526390996
 21
-1.636134823963186
 31
0.0
  0
LINE
  5
5F5
330
1F
100
AcDbEntity
  8
SK1
  6
CONTINUOUS
370
50
 62
4
100
AcDbLine
 10
66.27363430643545
 20
-0.2814291178837463
 30
0.0
 11
67.71857088211625
 21
-1.726365693564548
 31
0.0
  0
LINE
  5
5F6
330
1F
100
AcDbEntity
  8
SK1
  6
CONTINUOUS
370
50
 62
4
100
AcDbLine
 10
66.2503344343115
 20
-0.0106418723445003
 30
0.0
 11
67.9893581276555
 21
-1.749665565688503
 31
0.0
  0
LINE
  5
5F7
330
1F
100
AcDbEntity
  8
SK1
  6
CONTINUOUS
370
50
 62
4
100
AcDbLine
 10
66.48717993538229
 20
0.0
 30
0.0
 11
68.0
 21
-1.51282006461771
 31
0.0
  0
LINE
  5
5F8
330
1F
100
AcDbEntity
  8
SK1
  6
CONTINUOUS
370
50
 62
4
100
AcDbLine
 10
66.73466730879758
 20
0.0
 30
0.0
 11
68.0
 21
-1.265332691202418
 31
0.0
  0
LINE
  5
5F9
330
1F
100
AcDbEntity
  8
SK1
  6
CONTINUOUS
370
50
 62
4
100
AcDbLine
 10
66.98215468221287
 20
0.0
 30
0.0
 11
68.0
 21
-1.017845317787128
 31
0.0
  0
LINE
  5
5FA
330
1F
100
AcDbEntity
  8
SK1
  6
CONTINUOUS
370
50
 62
4
100
AcDbLine
 10
67.22964205562816
 20
0.0
 30
0.0
 11
68.0
 21
-0.7703579443718369
 31
0.0
  0
LINE
  5
5FB
330
1F
100
AcDbEntity
  8
SK1
  6
CONTINUOUS
370
50
 62
4
100
AcDbLine
 10
67.47712942904346
 20
0.0
 30
0.0
 11
68.0
 21
-0.5228705709565453
 31
0.0
  0
LINE
  5
5FC
330
1F
100
AcDbEntity
  8
SK1
  6
CONTINUOUS
370
50
 62
4
100
AcDbLine
 10
67.72461680245874
 20
0.0
 30
0.0
 11
68.0
 21
-0.2753831975412537
 31
0.0
  0
LINE
  5
5FD
330
1F
100
AcDbEntity
  8
SK1
  6
CONTINUOUS
370
50
 62
4
100
AcDbLine
 10
67.97210417587404
 20
0.0
 30
0.0
 11
68.0
 21
-0.027895824125963
 31
0.0
  0
LINE
  5
5FE
330
1F
100
AcDbEntity
  8
SK1
  6
CONTINUOUS
370
50
 62
4
100
AcDbLine
 10
68.0
 20
0.219591549289329
 30
0.0
 11
68.21959154928933
 21
0.0
 31
0.0
  0
LINE
  5
5FF
330
1F
100
AcDbEntity
  8
SK1
  6
CONTINUOUS
370
50
 62
4
100
AcDbLine
 10
68.0
 20
0.4670789227046202
 30
0.0
 11
68.46707892270462
 21
0.0
 31
0.0
  0
LINE
  5
600
330
1F
100
AcDbEntity
  8
SK1
  6
CONTINUOUS
370
50
 62
4
100
AcDbLine
 10
68.0
 20
0.7145662961199113
 30
0.0
 11
68.71456629611991
 21
0.0
 31
0.0
  0
LINE
  5
601
330
1F
100
AcDbEntity
  8
SK1
  6
CONTINUOUS
370
50
 62
4
100
AcDbLine
 10
68.0
 20
0.9620536695352029
 30
0.0
 11
68.96205366953521
 21
0.0
 31
0.0
  0
LINE
  5
602
330
1F
100
AcDbEntity
  8
SK1
  6
CONTINUOUS
370
50
 62
4
100
AcDbLine
 10
68.0
 20
1.209541042950494
 30
0.0
 11
69.20954104295049
 21
0.0
 31
0.0
  0
LINE
  5
603
330
1F
100
AcDbEntity
  8
SK1
  6
CONTINUOUS
370
50
 62
4
100
AcDbLine
 10
68.0
 20
1.457028416365785
 30
0.0
 11
69.45702841636579
 21
0.0
 31
0.0
  0
LINE
  5
604
330
1F
100
AcDbEntity
  8
SK1
  6
CONTINUOUS
370
50
 62
4
100
AcDbLine
 10
68.0
 20
1.704515789781076
 30
0.0
 11
69.70451578978108
 21
0.0
 31
0.0
  0
LINE
  5
605
330
1F
100
AcDbEntity
  8
SK1
  6
CONTINUOUS
370
50
 62
4
100
AcDbLine
 10
68.21543384193566
 20
1.736569321260697
 30
0.0
 11
69.7365693212607
 21
0.2154338419356714
 31
0.0
  0
LINE
  5
606
330
1F
100
AcDbEntity
  8
SK1
  6
CONTINUOUS
370
50
 62
4
100
AcDbLine
 10
68.53283284728992
 20
1.666657689321729
 30
0.0
 11
69.66665768932172
 21
0.5328328472899322
 31
0.0
  0
LINE
  5
607
330
1F
100
AcDbEntity
  8
SK1
  6
CONTINUOUS
370
50
 62
4
100
AcDbLine
 10
69.04009874905674
 20
1.406879160970207
 30
0.0
 11
69.4068791609702
 21
1.040098749056747
 31
0.0
  0
ARC
  5
608
330
1F
100
AcDbEntity
  8
SK6
  6
CONTINUOUS
370
25
 62
5
100
AcDbCircle
 10
173.4613820083765
 20
-37.74524575338786
 30
0.0
 40
2.76048912849221
100
AcDbArc
 50
338.9379403434233
 51
90.44457437511392
  0
LINE
  5
609
330
1F
100
AcDbEntity
  8
SK6
  6
CONTINUOUS
370
25
 62
5
100
AcDbLine
 10
173.4399627969598
 20
-34.98483972421281
 30
0.0
 11
173.4399627969598
 21
-36.08789835613464
 31
0.0
  0
ARC
  5
60A
330
1F
100
AcDbEntity
  8
SK6
  6
CONTINUOUS
370
25
 62
5
100
AcDbCircle
 10
173.4505090293692
 20
-37.76523924566821
 30
0.0
 40
1.677374043771792
100
AcDbArc
 50
243.421470601786
 51
90.3602408122618
  0
ARC
  5
60B
330
1F
100
AcDbEntity
  8
SK6
  6
CONTINUOUS
370
25
 62
5
100
AcDbCircle
 10
175.9727598968496
 20
-37.3338319921556
 30
0.0
 40
3.800217030022762
100
AcDbArc
 50
210.548373128854
 51
236.9780169366803
  0
LINE
  5
60C
330
1F
100
AcDbEntity
  8
SK6
  6
CONTINUOUS
370
25
 62
5
100
AcDbLine
 10
173.9017906851249
 20
-40.52016781867535
 30
0.0
 11
178.0437309674267
 21
-40.52016781867535
 31
0.0
  0
ARC
  5
60D
330
1F
100
AcDbEntity
  8
SK6
  6
CONTINUOUS
370
25
 62
5
100
AcDbCircle
 10
175.9727618387726
 20
-37.33383209373459
 30
0.0
 40
3.800216899582486
100
AcDbArc
 50
303.021982847796
 51
326.3732153033475
  0
LINE
  5
60E
330
1F
100
AcDbEntity
  8
SK6
  6
CONTINUOUS
370
25
 62
5
100
AcDbLine
 10
179.1370597513572
 20
-39.4383194907709
 30
0.0
 11
175.7797617057546
 21
-39.4383194907709
 31
0.0
  0
LINE
  5
60F
330
1F
100
AcDbEntity
  8
SK6
  6
CONTINUOUS
370
25
 62
5
100
AcDbLine
 10
175.7797617057546
 20
-39.4383194907709
 30
0.0
 11
179.6996210977199
 21
-38.07691829641693
 31
0.0
  0
ARC
  5
610
330
1F
100
AcDbEntity
  8
SK6
  6
CONTINUOUS
370
25
 62
5
100
AcDbCircle
 10
175.9727625615721
 20
-37.3338326048594
 30
0.0
 40
3.800217216614737
100
AcDbArc
 50
348.7238644184696
 51
53.4691051260886
  0
LINE
  5
611
330
1F
100
AcDbEntity
  8
SK6
  6
CONTINUOUS
370
25
 62
5
100
AcDbLine
 10
178.2348652453854
 20
-34.28022124429967
 30
0.0
 11
176.0374504788273
 21
-38.73730973507057
 31
0.0
  0
ENDSEC
  0
SECTION
  2
OBJECTS
  0
DICTIONARY
  5
C
330
0
100
AcDbDictionary
281
     1
  3
ACAD_GROUP
350
D
  3
ACAD_LAYOUT
350
1A
  3
ACAD_MATERIAL
350
3B
  3
ACAD_MLEADERSTYLE
350
614
  3
ACAD_MLINESTYLE
350
17
  3
ACAD_PLOTSETTINGS
350
19
  3
ACAD_PLOTSTYLENAME
350
E
  3
ACAD_SCALELIST
350
96
  3
ACAD_VISUALSTYLE
350
2A
  3
AcDbVariableDictionary
350
612
  0
DICTIONARY
  5
D
102
{ACAD_REACTORS
330
C
102
}
330
C
100
AcDbDictionary
281
     1
  0
DICTIONARY
  5
1A
102
{ACAD_REACTORS
330
C
102
}
330
C
100
AcDbDictionary
281
     1
  3
Layout1
350
1E
  3
Layout2
350
26
  3
Model
350
22
  0
DICTIONARY
  5
3B
102
{ACAD_REACTORS
330
C
102
}
330
C
100
AcDbDictionary
281
     1
  3
ByBlock
350
3D
  3
ByLayer
350
3C
  3
Global
350
3E
  0
DICTIONARY
  5
614
102
{ACAD_REACTORS
330
C
102
}
330
C
100
AcDbDictionary
281
     1
  0
DICTIONARY
  5
17
102
{ACAD_REACTORS
330
C
102
}
330
C
100
AcDbDictionary
281
     1
  3
Standard
350
18
  0
DICTIONARY
  5
19
102
{ACAD_REACTORS
330
C
102
}
330
C
100
AcDbDictionary
281
     1
  0
ACDBDICTIONARYWDFLT
  5
E
102
{ACAD_REACTORS
330
C
102
}
330
C
100
AcDbDictionary
281
     1
  3
Normal
350
F
100
AcDbDictionaryWithDefault
340
F
  0
DICTIONARY
  5
96
102
{ACAD_REACTORS
330
C
102
}
330
C
100
AcDbDictionary
281
     1
  3
A0
350
97
  3
A1
350
98
  3
A2
350
99
  3
A3
350
9A
  3
A4
350
9B
  3
A5
350
9C
  3
A6
350
9D
  3
A7
350
9E
  3
A8
350
9F
  3
A9
350
A0
  3
B0
350
A1
  3
B1
350
A2
  3
B2
350
A3
  3
B3
350
A4
  3
B4
350
A5
  3
B5
350
A6
  3
B6
350
A7
  3
B7
350
A8
  3
B8
350
A9
  3
B9
350
AA
  3
C0
350
AB
  3
C1
350
AC
  3
C2
350
AD
  3
C3
350
AE
  3
C4
350
AF
  3
C5
350
B0
  3
C6
350
B1
  3
C7
350
B2
  3
C8
350
B3
  3
C9
350
B4
  3
D0
350
B5
  3
D1
350
B6
  3
D2
350
B7
  0
DICTIONARY
  5
2A
102
{ACAD_REACTORS
330
C
102
}
330
C
100
AcDbDictionary
281
     1
  3
2dWireframe
350
2F
  3
3D Hidden
350
31
  3
3dWireframe
350
30
  3
Basic
350
32
  3
Brighten
350
36
  3
ColorChange
350
3A
  3
Conceptual
350
34
  3
Dim
350
35
  3
Facepattern
350
39
  3
Flat
350
2B
  3
FlatWithEdges
350
2C
  3
Gouraud
350
2D
  3
GouraudWithEdges
350
2E
  3
Linepattern
350
38
  3
Realistic
350
33
  3
Thicken
350
37
  0
DICTIONARY
  5
612
102
{ACAD_REACTORS
330
C
102
}
330
C
100
AcDbDictionary
281
     1
  3
CANNOSCALE
350
617
  3
DIMASSOC
350
618
  3
HIDETEXT
350
619
  3
PSOLHEIGHT
350
616
  3
PSOLWIDTH
350
615
  0
LAYOUT
  5
1E
102
{ACAD_REACTORS
330
1A
102
}
330
1A
100
AcDbPlotSettings
  1

  2
none_device
  4

  6

 40
0.0
 41
0.0
 42
0.0
 43
0.0
 44
0.0
 45
0.0
 46
0.0
 47
0.0
 48
0.0
 49
0.0
140
0.0
141
0.0
142
1.0
143
1.0
 70
   688
 72
     0
 73
     0
 74
     5
  7

 75
    16
147
1.0
148
0.0
149
0.0
100
AcDbLayout
  1
Layout1
 70
     1
 71
     1
 10
0.0
 20
0.0
 11
420.0
 21
297.0
 12
0.0
 22
0.0
 32
0.0
 14
1.000000000000000E+20
 24
1.000000000000000E+20
 34
1.000000000000000E+20
 15
-1.000000000000000E+20
 25
-1.000000000000000E+20
 35
-1.000000000000000E+20
146
0.0
 13
0.0
 23
0.0
 33
0.0
 16
1.0
 26
0.0
 36
0.0
 17
0.0
 27
1.0
 37
0.0
 76
     0
330
1B
  0
LAYOUT
  5
26
102
{ACAD_REACTORS
330
1A
102
}
330
1A
100
AcDbPlotSettings
  1

  2
none_device
  4

  6

 40
0.0
 41
0.0
 42
0.0
 43
0.0
 44
0.0
 45
0.0
 46
0.0
 47
0.0
 48
0.0
 49
0.0
140
0.0
141
0.0
142
1.0
143
1.0
 70
   688
 72
     0
 73
     0
 74
     5
  7

 75
    16
147
1.0
148
0.0
149
0.0
100
AcDbLayout
  1
Layout2
 70
     1
 71
     2
 10
0.0
 20
0.0
 11
0.0
 21
0.0
 12
0.0
 22
0.0
 32
0.0
 14
0.0
 24
0.0
 34
0.0
 15
0.0
 25
0.0
 35
0.0
146
0.0
 13
0.0
 23
0.0
 33
0.0
 16
1.0
 26
0.0
 36
0.0
 17
0.0
 27
1.0
 37
0.0
 76
     0
330
23
  0
LAYOUT
  5
22
102
{ACAD_REACTORS
330
1A
102
}
330
1A
100
AcDbPlotSettings
  1

  2
none_device
  4

  6

 40
0.0
 41
0.0
 42
0.0
 43
0.0
 44
0.0
 45
0.0
 46
0.0
 47
0.0
 48
0.0
 49
0.0
140
0.0
141
0.0
142
1.0
143
1.0
 70
  1712
 72
     0
 73
     0
 74
     0
  7

 75
     0
147
1.0
148
0.0
149
0.0
100
AcDbLayout
  1
Model
 70
     1
 71
     0
 10
0.0
 20
0.0
 11
420.0
 21
297.0
 12
0.0
 22
0.0
 32
0.0
 14
0.0
 24
0.0
 34
0.0
 15
25.0
 25
35.0
 35
0.0
146
0.0
 13
0.0
 23
0.0
 33
0.0
 16
1.0
 26
0.0
 36
0.0
 17
0.0
 27
1.0
 37
0.0
 76
     0
330
1F
331
29
  0
MATERIAL
  5
3D
102
{ACAD_REACTORS
330
3B
102
}
102
{ACAD_XDICTIONARY
360
63C
102
}
330
3B
100
AcDbMaterial
  1
ByBlock
  0
MATERIAL
  5
3C
102
{ACAD_REACTORS
330
3B
102
}
102
{ACAD_XDICTIONARY
360
63A
102
}
330
3B
100
AcDbMaterial
  1
ByLayer
  0
MATERIAL
  5
3E
102
{ACAD_REACTORS
330
3B
102
}
102
{ACAD_XDICTIONARY
360
63E
102
}
330
3B
100
AcDbMaterial
  1
Global
  0
MLINESTYLE
  5
18
102
{ACAD_REACTORS
330
17
102
}
330
17
100
AcDbMlineStyle
  2
Standard
 70
     0
  3

 62
   256
 51
90.0
 52
90.0
 71
     2
 49
0.5
 62
   256
  6
BYLAYER
 49
-0.5
 62
   256
  6
BYLAYER
  0
ACDBPLACEHOLDER
  5
F
102
{ACAD_REACTORS
330
E
102
}
330
E
  0
SCALE
  5
97
102
{ACAD_REACTORS
330
96
102
}
330
96
100
AcDbScale
 70
     0
300
1:1
140
1.0
141
1.0
290
     1
  0
SCALE
  5
98
102
{ACAD_REACTORS
330
96
102
}
330
96
100
AcDbScale
 70
     0
300
1:2
140
1.0
141
2.0
290
     0
  0
SCALE
  5
99
102
{ACAD_REACTORS
330
96
102
}
330
96
100
AcDbScale
 70
     0
300
1:4
140
1.0
141
4.0
290
     0
  0
SCALE
  5
9A
102
{ACAD_REACTORS
330
96
102
}
330
96
100
AcDbScale
 70
     0
300
1:5
140
1.0
141
5.0
290
     0
  0
SCALE
  5
9B
102
{ACAD_REACTORS
330
96
102
}
330
96
100
AcDbScale
 70
     0
300
1:8
140
1.0
141
8.0
290
     0
  0
SCALE
  5
9C
102
{ACAD_REACTORS
330
96
102
}
330
96
100
AcDbScale
 70
     0
300
1:10
140
1.0
141
10.0
290
     0
  0
SCALE
  5
9D
102
{ACAD_REACTORS
330
96
102
}
330
96
100
AcDbScale
 70
     0
300
1:16
140
1.0
141
16.0
290
     0
  0
SCALE
  5
9E
102
{ACAD_REACTORS
330
96
102
}
330
96
100
AcDbScale
 70
     0
300
1:20
140
1.0
141
20.0
290
     0
  0
SCALE
  5
9F
102
{ACAD_REACTORS
330
96
102
}
330
96
100
AcDbScale
 70
     0
300
1:30
140
1.0
141
30.0
290
     0
  0
SCALE
  5
A0
102
{ACAD_REACTORS
330
96
102
}
330
96
100
AcDbScale
 70
     0
300
1:40
140
1.0
141
40.0
290
     0
  0
SCALE
  5
A1
102
{ACAD_REACTORS
330
96
102
}
330
96
100
AcDbScale
 70
     0
300
1:50
140
1.0
141
50.0
290
     0
  0
SCALE
  5
A2
102
{ACAD_REACTORS
330
96
102
}
330
96
100
AcDbScale
 70
     0
300
1:100
140
1.0
141
100.0
290
     0
  0
SCALE
  5
A3
102
{ACAD_REACTORS
330
96
102
}
330
96
100
AcDbScale
 70
     0
300
2:1
140
2.0
141
1.0
290
     0
  0
SCALE
  5
A4
102
{ACAD_REACTORS
330
96
102
}
330
96
100
AcDbScale
 70
     0
300
4:1
140
4.0
141
1.0
290
     0
  0
SCALE
  5
A5
102
{ACAD_REACTORS
330
96
102
}
330
96
100
AcDbScale
 70
     0
300
8:1
140
8.0
141
1.0
290
     0
  0
SCALE
  5
A6
102
{ACAD_REACTORS
330
96
102
}
330
96
100
AcDbScale
 70
     0
300
10:1
140
10.0
141
1.0
290
     0
  0
SCALE
  5
A7
102
{ACAD_REACTORS
330
96
102
}
330
96
100
AcDbScale
 70
     0
300
100:1
140
100.0
141
1.0
290
     0
  0
SCALE
  5
A8
102
{ACAD_REACTORS
330
96
102
}
330
96
100
AcDbScale
 70
     0
300
1/128" = 1'-0"
140
0.0078125
141
12.0
290
     0
  0
SCALE
  5
A9
102
{ACAD_REACTORS
330
96
102
}
330
96
100
AcDbScale
 70
     0
300
1/64" = 1'-0"
140
0.015625
141
12.0
290
     0
  0
SCALE
  5
AA
102
{ACAD_REACTORS
330
96
102
}
330
96
100
AcDbScale
 70
     0
300
1/32" = 1'-0"
140
0.03125
141
12.0
290
     0
  0
SCALE
  5
AB
102
{ACAD_REACTORS
330
96
102
}
330
96
100
AcDbScale
 70
     0
300
1/16" = 1'-0"
140
0.0625
141
12.0
290
     0
  0
SCALE
  5
AC
102
{ACAD_REACTORS
330
96
102
}
330
96
100
AcDbScale
 70
     0
300
3/32" = 1'-0"
140
0.09375
141
12.0
290
     0
  0
SCALE
  5
AD
102
{ACAD_REACTORS
330
96
102
}
330
96
100
AcDbScale
 70
     0
300
1/8" = 1'-0"
140
0.125
141
12.0
290
     0
  0
SCALE
  5
AE
102
{ACAD_REACTORS
330
96
102
}
330
96
100
AcDbScale
 70
     0
300
3/16" = 1'-0"
140
0.1875
141
12.0
290
     0
  0
SCALE
  5
AF
102
{ACAD_REACTORS
330
96
102
}
330
96
100
AcDbScale
 70
     0
300
1/4" = 1'-0"
140
0.25
141
12.0
290
     0
  0
SCALE
  5
B0
102
{ACAD_REACTORS
330
96
102
}
330
96
100
AcDbScale
 70
     0
300
3/8" = 1'-0"
140
0.375
141
12.0
290
     0
  0
SCALE
  5
B1
102
{ACAD_REACTORS
330
96
102
}
330
96
100
AcDbScale
 70
     0
300
1/2" = 1'-0"
140
0.5
141
12.0
290
     0
  0
SCALE
  5
B2
102
{ACAD_REACTORS
330
96
102
}
330
96
100
AcDbScale
 70
     0
300
3/4" = 1'-0"
140
0.75
141
12.0
290
     0
  0
SCALE
  5
B3
102
{ACAD_REACTORS
330
96
102
}
330
96
100
AcDbScale
 70
     0
300
1" = 1'-0"
140
1.0
141
12.0
290
     0
  0
SCALE
  5
B4
102
{ACAD_REACTORS
330
96
102
}
330
96
100
AcDbScale
 70
     0
300
1-1/2" = 1'-0"
140
1.5
141
12.0
290
     0
  0
SCALE
  5
B5
102
{ACAD_REACTORS
330
96
102
}
330
96
100
AcDbScale
 70
     0
300
3" = 1'-0"
140
3.0
141
12.0
290
     0
  0
SCALE
  5
B6
102
{ACAD_REACTORS
330
96
102
}
330
96
100
AcDbScale
 70
     0
300
6" = 1'-0"
140
6.0
141
12.0
290
     0
  0
SCALE
  5
B7
102
{ACAD_REACTORS
330
96
102
}
330
96
100
AcDbScale
 70
     0
300
1'-0" = 1'-0"
140
12.0
141
12.0
290
     0
  0
VISUALSTYLE
  5
2F
102
{ACAD_REACTORS
330
2A
102
}
102
{ACAD_XDICTIONARY
360
622
102
}
330
2A
100
AcDbVisualStyle
  2
2dWireframe
 70
     4
 71
     0
 72
     2
 73
     0
 90
        0
 40
-0.6
 41
-30.0
 62
     5
 63
     7
 74
     1
 91
        4
 64
     7
 65
   257
 75
     1
175
     1
 42
1.0
 92
        0
 66
   257
 43
1.0
 76
     1
 77
     6
 78
     2
 67
     7
 79
     5
170
     0
171
     0
290
     0
174
     0
 93
        1
 44
0.0
173
     0
291
     0
 45
0.0
1001
ACAD
1000
AcDbSavedByObjectVersion
1070
     0
  0
VISUALSTYLE
  5
31
102
{ACAD_REACTORS
330
2A
102
}
102
{ACAD_XDICTIONARY
360
626
102
}
330
2A
100
AcDbVisualStyle
  2
3D Hidden
 70
     6
 71
     1
 72
     2
 73
     2
 90
        0
 40
-0.6
 41
-30.0
 62
     5
 63
     7
 74
     2
 91
        2
 64
     7
 65
   257
 75
     2
175
     1
 42
40.0
 92
        0
 66
   257
 43
1.0
 76
     1
 77
     6
 78
     2
 67
     7
 79
     3
170
     0
171
     0
290
     0
174
     0
 93
        1
 44
0.0
173
     0
291
     0
 45
0.0
1001
ACAD
1000
AcDbSavedByObjectVersion
1070
     0
  0
VISUALSTYLE
  5
30
102
{ACAD_REACTORS
330
2A
102
}
102
{ACAD_XDICTIONARY
360
624
102
}
330
2A
100
AcDbVisualStyle
  2
3dWireframe
 70
     5
 71
     0
 72
     2
 73
     0
 90
        0
 40
-0.6
 41
-30.0
 62
     5
 63
     7
 74
     1
 91
        4
 64
     7
 65
   257
 75
     1
175
     1
 42
1.0
 92
        0
 66
   257
 43
1.0
 76
     1
 77
     6
 78
     2
 67
     7
 79
     5
170
     0
171
     0
290
     0
174
     0
 93
        1
 44
0.0
173
     0
291
     0
 45
0.0
1001
ACAD
1000
AcDbSavedByObjectVersion
1070
     0
  0
VISUALSTYLE
  5
32
102
{ACAD_REACTORS
330
2A
102
}
102
{ACAD_XDICTIONARY
360
628
102
}
330
2A
100
AcDbVisualStyle
  2
Basic
 70
     7
 71
     1
 72
     0
 73
     1
 90
        0
 40
-0.6
 41
-30.0
 62
     5
 63
     7
 74
     0
 91
        4
 64
     7
 65
   257
 75
     1
175
     1
 42
1.0
 92
        8
 66
     7
 43
1.0
 76
     1
 77
     6
 78
     2
 67
     7
 79
     5
170
     0
171
     0
290
     0
174
     0
 93
        1
 44
0.0
173
     0
291
     1
 45
0.0
1001
ACAD
1000
AcDbSavedByObjectVersion
1070
     0
  0
VISUALSTYLE
  5
36
102
{ACAD_REACTORS
330
2A
102
}
102
{ACAD_XDICTIONARY
360
630
102
}
330
2A
100
AcDbVisualStyle
  2
Brighten
 70
    12
 71
     2
 72
     2
 73
     0
 90
        0
 40
-0.6
 41
-30.0
 62
     5
 63
     7
 74
     1
 91
        4
 64
     7
 65
   257
 75
     1
175
     1
 42
1.0
 92
        8
 66
     7
 43
1.0
 76
     1
 77
     6
 78
     2
 67
     7
 79
     5
170
     0
171
     0
290
     0
174
     0
 93
        1
 44
50.0
173
     0
291
     1
 45
0.0
1001
ACAD
1000
AcDbSavedByObjectVersion
1070
     0
  0
VISUALSTYLE
  5
3A
102
{ACAD_REACTORS
330
2A
102
}
102
{ACAD_XDICTIONARY
360
638
102
}
330
2A
100
AcDbVisualStyle
  2
ColorChange
 70
    16
 71
     2
 72
     2
 73
     3
 90
        0
 40
-0.6
 41
-30.0
 62
     5
 63
     8
 74
     1
 91
        4
 64
     7
 65
   257
 75
     1
175
     1
 42
1.0
 92
        8
 66
     8
 43
1.0
 76
     1
 77
     6
 78
     2
 67
     7
 79
     5
170
     0
171
     0
290
     0
174
     0
 93
        1
 44
0.0
173
     0
291
     1
 45
0.0
1001
ACAD
1000
AcDbSavedByObjectVersion
1070
     0
  0
VISUALSTYLE
  5
34
102
{ACAD_REACTORS
330
2A
102
}
102
{ACAD_XDICTIONARY
360
62C
102
}
330
2A
100
AcDbVisualStyle
  2
Conceptual
 70
     9
 71
     3
 72
     2
 73
     0
 90
        0
 40
-0.6
 41
-30.0
 62
     5
 63
     7
 74
     2
 91
        2
 64
     7
 65
   257
 75
     1
175
     1
 42
40.0
 92
        8
 66
     7
 43
1.0
 76
     1
 77
     6
 78
     2
 67
     7
 79
     3
170
     0
171
     0
290
     0
174
     0
 93
        1
 44
0.0
173
     0
291
     0
 45
0.0
1001
ACAD
1000
AcDbSavedByObjectVersion
1070
     0
  0
VISUALSTYLE
  5
35
102
{ACAD_REACTORS
330
2A
102
}
102
{ACAD_XDICTIONARY
360
62E
102
}
330
2A
100
AcDbVisualStyle
  2
Dim
 70
    11
 71
     2
 72
     2
 73
     0
 90
        0
 40
-0.6
 41
-30.0
 62
     5
 63
     7
 74
     1
 91
        4
 64
     7
 65
   257
 75
     1
175
     1
 42
1.0
 92
        8
 66
     7
 43
1.0
 76
     1
 77
     6
 78
     2
 67
     7
 79
     5
170
     0
171
     0
290
     0
174
     0
 93
        1
 44
-50.0
173
     0
291
     1
 45
0.0
1001
ACAD
1000
AcDbSavedByObjectVersion
1070
     0
  0
VISUALSTYLE
  5
39
102
{ACAD_REACTORS
330
2A
102
}
102
{ACAD_XDICTIONARY
360
636
102
}
330
2A
100
AcDbVisualStyle
  2
Facepattern
 70
    15
 71
     2
 72
     2
 73
     0
 90
        0
 40
-0.6
 41
-30.0
 62
     5
 63
     7
 74
     1
 91
        4
 64
     7
 65
   257
 75
     1
175
     1
 42
1.0
 92
        8
 66
     7
 43
1.0
 76
     1
 77
     6
 78
     2
 67
     7
 79
     5
170
     0
171
     0
290
     0
174
     0
 93
        1
 44
0.0
173
     0
291
     1
 45
0.0
1001
ACAD
1000
AcDbSavedByObjectVersion
1070
     0
  0
VISUALSTYLE
  5
2B
102
{ACAD_REACTORS
330
2A
102
}
102
{ACAD_XDICTIONARY
360
61A
102
}
330
2A
100
AcDbVisualStyle
  2
Flat
 70
     0
 71
     2
 72
     1
 73
     1
 90
        2
 40
-0.6
 41
30.0
 62
     5
 63
     7
 74
     0
 91
        4
 64
     7
 65
   257
 75
     1
175
     1
 42
1.0
 92
        8
 66
     7
 43
1.0
 76
     1
 77
     6
 78
     2
 67
     7
 79
     5
170
     0
171
     0
290
     0
174
     0
 93
       13
 44
0.0
173
     0
291
     1
 45
0.0
1001
ACAD
1000
AcDbSavedByObjectVersion
1070
     0
  0
VISUALSTYLE
  5
2C
102
{ACAD_REACTORS
330
2A
102
}
102
{ACAD_XDICTIONARY
360
61C
102
}
330
2A
100
AcDbVisualStyle
  2
FlatWithEdges
 70
     1
 71
     2
 72
     1
 73
     1
 90
        2
 40
-0.6
 41
30.0
 62
     5
 63
     7
 74
     1
 91
        4
 64
     7
 65
   257
 75
     1
175
     1
 42
1.0
 92
        0
 66
   257
 43
1.0
 76
     1
 77
     6
 78
     2
 67
     7
 79
     5
170
     0
171
     0
290
     0
174
     0
 93
       13
 44
0.0
173
     0
291
     1
 45
0.0
1001
ACAD
1000
AcDbSavedByObjectVersion
1070
     0
  0
VISUALSTYLE
  5
2D
102
{ACAD_REACTORS
330
2A
102
}
102
{ACAD_XDICTIONARY
360
61E
102
}
330
2A
100
AcDbVisualStyle
  2
Gouraud
 70
     2
 71
     2
 72
     2
 73
     1
 90
        2
 40
-0.6
 41
30.0
 62
     5
 63
     7
 74
     0
 91
        4
 64
     7
 65
   257
 75
     1
175
     1
 42
1.0
 92
        0
 66
     7
 43
1.0
 76
     1
 77
     6
 78
     2
 67
     7
 79
     5
170
     0
171
     0
290
     0
174
     0
 93
       13
 44
0.0
173
     0
291
     1
 45
0.0
1001
ACAD
1000
AcDbSavedByObjectVersion
1070
     0
  0
VISUALSTYLE
  5
2E
102
{ACAD_REACTORS
330
2A
102
}
102
{ACAD_XDICTIONARY
360
620
102
}
330
2A
100
AcDbVisualStyle
  2
GouraudWithEdges
 70
     3
 71
     2
 72
     2
 73
     1
 90
        2
 40
-0.6
 41
30.0
 62
     5
 63
     7
 74
     1
 91
        4
 64
     7
 65
   257
 75
     1
175
     1
 42
1.0
 92
        0
 66
   257
 43
1.0
 76
     1
 77
     6
 78
     2
 67
     7
 79
     5
170
     0
171
     0
290
     0
174
     0
 93
       13
 44
0.0
173
     0
291
     1
 45
0.0
1001
ACAD
1000
AcDbSavedByObjectVersion
1070
     0
  0
VISUALSTYLE
  5
38
102
{ACAD_REACTORS
330
2A
102
}
102
{ACAD_XDICTIONARY
360
634
102
}
330
2A
100
AcDbVisualStyle
  2
Linepattern
 70
    14
 71
     2
 72
     2
 73
     0
 90
        0
 40
-0.6
 41
-30.0
 62
     5
 63
     7
 74
     1
 91
        4
 64
     7
 65
   257
 75
     7
175
     7
 42
1.0
 92
        8
 66
     7
 43
1.0
 76
     1
 77
     6
 78
     2
 67
     7
 79
     5
170
     0
171
     0
290
     0
174
     0
 93
        1
 44
0.0
173
     0
291
     1
 45
0.0
1001
ACAD
1000
AcDbSavedByObjectVersion
1070
     0
  0
VISUALSTYLE
  5
33
102
{ACAD_REACTORS
330
2A
102
}
102
{ACAD_XDICTIONARY
360
62A
102
}
330
2A
100
AcDbVisualStyle
  2
Realistic
 70
     8
 71
     2
 72
     2
 73
     0
 90
        0
 40
-0.6
 41
-30.0
 62
     5
 63
     7
 74
     1
 91
        0
 64
     7
 65
   257
 75
     1
175
     1
 42
1.0
 92
        8
 66
     8
 43
1.0
 76
     1
 77
     6
 78
     2
 67
     7
 79
     5
170
     0
171
     0
290
     0
174
     0
 93
       13
 44
0.0
173
     0
291
     0
 45
0.0
1001
ACAD
1000
AcDbSavedByObjectVersion
1070
     0
  0
VISUALSTYLE
  5
37
102
{ACAD_REACTORS
330
2A
102
}
102
{ACAD_XDICTIONARY
360
632
102
}
330
2A
100
AcDbVisualStyle
  2
Thicken
 70
    13
 71
     2
 72
     2
 73
     0
 90
        0
 40
-0.6
 41
-30.0
 62
     5
 63
     7
 74
     1
 91
        4
 64
     7
 65
   257
 75
     1
175
     1
 42
1.0
 92
       12
 66
     7
 43
1.0
 76
     1
 77
     6
 78
     2
 67
     7
 79
     5
170
     0
171
     0
290
     0
174
     0
 93
        1
 44
0.0
173
     0
291
     1
 45
0.0
1001
ACAD
1000
AcDbSavedByObjectVersion
1070
     0
  0
DICTIONARYVAR
  5
617
102
{ACAD_REACTORS
330
612
102
}
330
612
100
DictionaryVariables
280
     0
  1
1:1
  0
DICTIONARYVAR
  5
618
102
{ACAD_REACTORS
330
612
102
}
330
612
100
DictionaryVariables
280
     0
  1
2
  0
DICTIONARYVAR
  5
619
102
{ACAD_REACTORS
330
612
102
}
330
612
100
DictionaryVariables
280
     0
  1
1
  0
DICTIONARYVAR
  5
616
102
{ACAD_REACTORS
330
612
102
}
330
612
100
DictionaryVariables
280
     0
  1
80.000000
  0
DICTIONARYVAR
  5
615
102
{ACAD_REACTORS
330
612
102
}
330
612
100
DictionaryVariables
280
     0
  1
5.000000
  0
DICTIONARY
  5
63C
330
3D
100
AcDbDictionary
280
     1
281
     1
  3
ACAD_XREC_ROUNDTRIP
360
63D
  0
DICTIONARY
  5
63A
330
3C
100
AcDbDictionary
280
     1
281
     1
  3
ACAD_XREC_ROUNDTRIP
360
63B
  0
DICTIONARY
  5
63E
330
3E
100
AcDbDictionary
280
     1
281
     1
  3
ACAD_XREC_ROUNDTRIP
360
63F
  0
DICTIONARY
  5
622
330
2F
100
AcDbDictionary
280
     1
281
     1
  3
ACAD_XREC_ROUNDTRIP
360
623
  0
DICTIONARY
  5
626
330
31
100
AcDbDictionary
280
     1
281
     1
  3
ACAD_XREC_ROUNDTRIP
360
627
  0
DICTIONARY
  5
624
330
30
100
AcDbDictionary
280
     1
281
     1
  3
ACAD_XREC_ROUNDTRIP
360
625
  0
DICTIONARY
  5
628
330
32
100
AcDbDictionary
280
     1
281
     1
  3
ACAD_XREC_ROUNDTRIP
360
629
  0
DICTIONARY
  5
630
330
36
100
AcDbDictionary
280
     1
281
     1
  3
ACAD_XREC_ROUNDTRIP
360
631
  0
DICTIONARY
  5
638
330
3A
100
AcDbDictionary
280
     1
281
     1
  3
ACAD_XREC_ROUNDTRIP
360
639
  0
DICTIONARY
  5
62C
330
34
100
AcDbDictionary
280
     1
281
     1
  3
ACAD_XREC_ROUNDTRIP
360
62D
  0
DICTIONARY
  5
62E
330
35
100
AcDbDictionary
280
     1
281
     1
  3
ACAD_XREC_ROUNDTRIP
360
62F
  0
DICTIONARY
  5
636
330
39
100
AcDbDictionary
280
     1
281
     1
  3
ACAD_XREC_ROUNDTRIP
360
637
  0
DICTIONARY
  5
61A
330
2B
100
AcDbDictionary
280
     1
281
     1
  3
ACAD_XREC_ROUNDTRIP
360
61B
  0
DICTIONARY
  5
61C
330
2C
100
AcDbDictionary
280
     1
281
     1
  3
ACAD_XREC_ROUNDTRIP
360
61D
  0
DICTIONARY
  5
61E
330
2D
100
AcDbDictionary
280
     1
281
     1
  3
ACAD_XREC_ROUNDTRIP
360
61F
  0
DICTIONARY
  5
620
330
2E
100
AcDbDictionary
280
     1
281
     1
  3
ACAD_XREC_ROUNDTRIP
360
621
  0
DICTIONARY
  5
634
330
38
100
AcDbDictionary
280
     1
281
     1
  3
ACAD_XREC_ROUNDTRIP
360
635
  0
DICTIONARY
  5
62A
330
33
100
AcDbDictionary
280
     1
281
     1
  3
ACAD_XREC_ROUNDTRIP
360
62B
  0
DICTIONARY
  5
632
330
37
100
AcDbDictionary
280
     1
281
     1
  3
ACAD_XREC_ROUNDTRIP
360
633
  0
XRECORD
  5
63D
102
{ACAD_REACTORS
330
63C
102
}
330
63C
100
AcDbXrecord
280
     1
102
MATERIAL
148
0.0
149
0.0
149
0.0
 93
        0
 94
      127
282
     0
 72
     1
 77
     1
171
     1
175
     1
179
     1
273
     0
  0
XRECORD
  5
63B
102
{ACAD_REACTORS
330
63A
102
}
330
63A
100
AcDbXrecord
280
     1
102
MATERIAL
148
0.0
149
0.0
149
0.0
 93
        0
 94
      127
282
     0
 72
     1
 77
     1
171
     1
175
     1
179
     1
273
     0
  0
XRECORD
  5
63F
102
{ACAD_REACTORS
330
63E
102
}
330
63E
100
AcDbXrecord
280
     1
102
MATERIAL
148
0.0
149
0.0
149
0.0
 93
        0
 94
      127
282
     0
 72
     1
 77
     1
171
     1
175
     1
179
     1
273
     0
  0
XRECORD
  5
623
102
{ACAD_REACTORS
330
622
102
}
330
622
100
AcDbXrecord
280
     1
102
RTVSPropertyOp0
 70
     1
102
RTVSPropertyOp1
 70
     1
102
RTVSPropertyOp2
 70
     1
102
RTVSPropertyOp3
 70
     1
102
RTVSPropertyOp4
 70
     1
102
RTVSPropertyOp5
 70
     1
102
RTVSPropertyOp6
 70
     1
102
RTVSPropertyOp7
 70
     1
102
RTVSPropertyOp8
 70
     1
102
RTVSPropertyOp9
 70
     1
102
RTVSPropertyOp10
 70
     1
102
RTVSPropertyOp11
 70
     1
102
RTVSPropertyOp12
 70
     1
102
RTVSPropertyOp13
 70
     1
102
RTVSPropertyOp14
 70
     1
102
RTVSPropertyOp15
 70
     1
102
RTVSPropertyOp16
 70
     1
102
RTVSPropertyOp17
 70
     1
102
RTVSPropertyOp18
 70
     1
102
RTVSPropertyOp19
 70
     1
102
RTVSPropertyOp20
 70
     1
102
RTVSPropertyOp21
 70
     1
102
RTVSPropertyOp22
 70
     1
102
RTVSPropertyOp23
 70
     1
102
RTVSPropertyOp24
 70
     1
102
RTVSPropertyOp25
 70
     1
102
RTVSPropertyOp26
 70
     1
102
RTVSPropertyOp27
 70
     1
  0
XRECORD
  5
627
102
{ACAD_REACTORS
330
626
102
}
330
626
100
AcDbXrecord
280
     1
102
RTVSPropertyOp0
 70
     1
102
RTVSPropertyOp1
 70
     1
102
RTVSPropertyOp2
 70
     1
102
RTVSPropertyOp3
 70
     1
102
RTVSPropertyOp4
 70
     1
102
RTVSPropertyOp5
 70
     1
102
RTVSPropertyOp6
 70
     1
102
RTVSPropertyOp7
 70
     1
102
RTVSPropertyOp8
 70
     1
102
RTVSPropertyOp9
 70
     1
102
RTVSPropertyOp10
 70
     1
102
RTVSPropertyOp11
 70
     1
102
RTVSPropertyOp12
 70
     1
102
RTVSPropertyOp13
 70
     1
102
RTVSPropertyOp14
 70
     1
102
RTVSPropertyOp15
 70
     1
102
RTVSPropertyOp16
 70
     1
102
RTVSPropertyOp17
 70
     1
102
RTVSPropertyOp18
 70
     1
102
RTVSPropertyOp19
 70
     1
102
RTVSPropertyOp20
 70
     1
102
RTVSPropertyOp21
 70
     1
102
RTVSPropertyOp22
 70
     1
102
RTVSPropertyOp23
 70
     1
102
RTVSPropertyOp24
 70
     1
102
RTVSPropertyOp25
 70
     1
102
RTVSPropertyOp26
 70
     1
102
RTVSPropertyOp27
 70
     1
  0
XRECORD
  5
625
102
{ACAD_REACTORS
330
624
102
}
330
624
100
AcDbXrecord
280
     1
102
RTVSPropertyOp0
 70
     1
102
RTVSPropertyOp1
 70
     1
102
RTVSPropertyOp2
 70
     1
102
RTVSPropertyOp3
 70
     1
102
RTVSPropertyOp4
 70
     1
102
RTVSPropertyOp5
 70
     1
102
RTVSPropertyOp6
 70
     1
102
RTVSPropertyOp7
 70
     1
102
RTVSPropertyOp8
 70
     1
102
RTVSPropertyOp9
 70
     1
102
RTVSPropertyOp10
 70
     1
102
RTVSPropertyOp11
 70
     1
102
RTVSPropertyOp12
 70
     1
102
RTVSPropertyOp13
 70
     1
102
RTVSPropertyOp14
 70
     1
102
RTVSPropertyOp15
 70
     1
102
RTVSPropertyOp16
 70
     1
102
RTVSPropertyOp17
 70
     1
102
RTVSPropertyOp18
 70
     1
102
RTVSPropertyOp19
 70
     1
102
RTVSPropertyOp20
 70
     1
102
RTVSPropertyOp21
 70
     1
102
RTVSPropertyOp22
 70
     1
102
RTVSPropertyOp23
 70
     1
102
RTVSPropertyOp24
 70
     1
102
RTVSPropertyOp25
 70
     1
102
RTVSPropertyOp26
 70
     1
102
RTVSPropertyOp27
 70
     1
  0
XRECORD
  5
629
102
{ACAD_REACTORS
330
628
102
}
330
628
100
AcDbXrecord
280
     1
102
RTVSPropertyOp0
 70
     1
102
RTVSPropertyOp1
 70
     1
102
RTVSPropertyOp2
 70
     1
102
RTVSPropertyOp3
 70
     1
102
RTVSPropertyOp4
 70
     1
102
RTVSPropertyOp5
 70
     1
102
RTVSPropertyOp6
 70
     1
102
RTVSPropertyOp7
 70
     1
102
RTVSPropertyOp8
 70
     1
102
RTVSPropertyOp9
 70
     1
102
RTVSPropertyOp10
 70
     1
102
RTVSPropertyOp11
 70
     1
102
RTVSPropertyOp12
 70
     1
102
RTVSPropertyOp13
 70
     1
102
RTVSPropertyOp14
 70
     1
102
RTVSPropertyOp15
 70
     1
102
RTVSPropertyOp16
 70
     1
102
RTVSPropertyOp17
 70
     1
102
RTVSPropertyOp18
 70
     1
102
RTVSPropertyOp19
 70
     1
102
RTVSPropertyOp20
 70
     1
102
RTVSPropertyOp21
 70
     1
102
RTVSPropertyOp22
 70
     1
102
RTVSPropertyOp23
 70
     1
102
RTVSPropertyOp24
 70
     1
102
RTVSPropertyOp25
 70
     1
102
RTVSPropertyOp26
 70
     1
102
RTVSPropertyOp27
 70
     1
  0
XRECORD
  5
631
102
{ACAD_REACTORS
330
630
102
}
330
630
100
AcDbXrecord
280
     1
102
RTVSPropertyOp0
 70
     1
102
RTVSPropertyOp1
 70
     1
102
RTVSPropertyOp2
 70
     1
102
RTVSPropertyOp3
 70
     1
102
RTVSPropertyOp4
 70
     1
102
RTVSPropertyOp5
 70
     1
102
RTVSPropertyOp6
 70
     1
102
RTVSPropertyOp7
 70
     1
102
RTVSPropertyOp8
 70
     1
102
RTVSPropertyOp9
 70
     1
102
RTVSPropertyOp10
 70
     1
102
RTVSPropertyOp11
 70
     1
102
RTVSPropertyOp12
 70
     1
102
RTVSPropertyOp13
 70
     1
102
RTVSPropertyOp14
 70
     1
102
RTVSPropertyOp15
 70
     1
102
RTVSPropertyOp16
 70
     1
102
RTVSPropertyOp17
 70
     1
102
RTVSPropertyOp18
 70
     1
102
RTVSPropertyOp19
 70
     1
102
RTVSPropertyOp20
 70
     1
102
RTVSPropertyOp21
 70
     1
102
RTVSPropertyOp22
 70
     1
102
RTVSPropertyOp23
 70
     1
102
RTVSPropertyOp24
 70
     1
102
RTVSPropertyOp25
 70
     1
102
RTVSPropertyOp26
 70
     1
102
RTVSPropertyOp27
 70
     1
  0
XRECORD
  5
639
102
{ACAD_REACTORS
330
638
102
}
330
638
100
AcDbXrecord
280
     1
102
RTVSPropertyOp0
 70
     1
102
RTVSPropertyOp1
 70
     1
102
RTVSPropertyOp2
 70
     1
102
RTVSPropertyOp3
 70
     1
102
RTVSPropertyOp4
 70
     1
102
RTVSPropertyOp5
 70
     1
102
RTVSPropertyOp6
 70
     1
102
RTVSPropertyOp7
 70
     1
102
RTVSPropertyOp8
 70
     1
102
RTVSPropertyOp9
 70
     1
102
RTVSPropertyOp10
 70
     1
102
RTVSPropertyOp11
 70
     1
102
RTVSPropertyOp12
 70
     1
102
RTVSPropertyOp13
 70
     1
102
RTVSPropertyOp14
 70
     1
102
RTVSPropertyOp15
 70
     1
102
RTVSPropertyOp16
 70
     1
102
RTVSPropertyOp17
 70
     1
102
RTVSPropertyOp18
 70
     1
102
RTVSPropertyOp19
 70
     1
102
RTVSPropertyOp20
 70
     1
102
RTVSPropertyOp21
 70
     1
102
RTVSPropertyOp22
 70
     1
102
RTVSPropertyOp23
 70
     1
102
RTVSPropertyOp24
 70
     1
102
RTVSPropertyOp25
 70
     1
102
RTVSPropertyOp26
 70
     1
102
RTVSPropertyOp27
 70
     1
  0
XRECORD
  5
62D
102
{ACAD_REACTORS
330
62C
102
}
330
62C
100
AcDbXrecord
280
     1
102
RTVSPropertyOp0
 70
     1
102
RTVSPropertyOp1
 70
     1
102
RTVSPropertyOp2
 70
     1
102
RTVSPropertyOp3
 70
     1
102
RTVSPropertyOp4
 70
     1
102
RTVSPropertyOp5
 70
     1
102
RTVSPropertyOp6
 70
     1
102
RTVSPropertyOp7
 70
     1
102
RTVSPropertyOp8
 70
     1
102
RTVSPropertyOp9
 70
     1
102
RTVSPropertyOp10
 70
     1
102
RTVSPropertyOp11
 70
     1
102
RTVSPropertyOp12
 70
     1
102
RTVSPropertyOp13
 70
     1
102
RTVSPropertyOp14
 70
     1
102
RTVSPropertyOp15
 70
     1
102
RTVSPropertyOp16
 70
     1
102
RTVSPropertyOp17
 70
     1
102
RTVSPropertyOp18
 70
     1
102
RTVSPropertyOp19
 70
     1
102
RTVSPropertyOp20
 70
     1
102
RTVSPropertyOp21
 70
     1
102
RTVSPropertyOp22
 70
     1
102
RTVSPropertyOp23
 70
     1
102
RTVSPropertyOp24
 70
     1
102
RTVSPropertyOp25
 70
     1
102
RTVSPropertyOp26
 70
     1
102
RTVSPropertyOp27
 70
     1
  0
XRECORD
  5
62F
102
{ACAD_REACTORS
330
62E
102
}
330
62E
100
AcDbXrecord
280
     1
102
RTVSPropertyOp0
 70
     1
102
RTVSPropertyOp1
 70
     1
102
RTVSPropertyOp2
 70
     1
102
RTVSPropertyOp3
 70
     1
102
RTVSPropertyOp4
 70
     1
102
RTVSPropertyOp5
 70
     1
102
RTVSPropertyOp6
 70
     1
102
RTVSPropertyOp7
 70
     1
102
RTVSPropertyOp8
 70
     1
102
RTVSPropertyOp9
 70
     1
102
RTVSPropertyOp10
 70
     1
102
RTVSPropertyOp11
 70
     1
102
RTVSPropertyOp12
 70
     1
102
RTVSPropertyOp13
 70
     1
102
RTVSPropertyOp14
 70
     1
102
RTVSPropertyOp15
 70
     1
102
RTVSPropertyOp16
 70
     1
102
RTVSPropertyOp17
 70
     1
102
RTVSPropertyOp18
 70
     1
102
RTVSPropertyOp19
 70
     1
102
RTVSPropertyOp20
 70
     1
102
RTVSPropertyOp21
 70
     1
102
RTVSPropertyOp22
 70
     1
102
RTVSPropertyOp23
 70
     1
102
RTVSPropertyOp24
 70
     1
102
RTVSPropertyOp25
 70
     1
102
RTVSPropertyOp26
 70
     1
102
RTVSPropertyOp27
 70
     1
  0
XRECORD
  5
637
102
{ACAD_REACTORS
330
636
102
}
330
636
100
AcDbXrecord
280
     1
102
RTVSPropertyOp0
 70
     1
102
RTVSPropertyOp1
 70
     1
102
RTVSPropertyOp2
 70
     1
102
RTVSPropertyOp3
 70
     1
102
RTVSPropertyOp4
 70
     1
102
RTVSPropertyOp5
 70
     1
102
RTVSPropertyOp6
 70
     1
102
RTVSPropertyOp7
 70
     1
102
RTVSPropertyOp8
 70
     1
102
RTVSPropertyOp9
 70
     1
102
RTVSPropertyOp10
 70
     1
102
RTVSPropertyOp11
 70
     1
102
RTVSPropertyOp12
 70
     1
102
RTVSPropertyOp13
 70
     1
102
RTVSPropertyOp14
 70
     1
102
RTVSPropertyOp15
 70
     1
102
RTVSPropertyOp16
 70
     1
102
RTVSPropertyOp17
 70
     1
102
RTVSPropertyOp18
 70
     1
102
RTVSPropertyOp19
 70
     1
102
RTVSPropertyOp20
 70
     1
102
RTVSPropertyOp21
 70
     1
102
RTVSPropertyOp22
 70
     1
102
RTVSPropertyOp23
 70
     1
102
RTVSPropertyOp24
 70
     1
102
RTVSPropertyOp25
 70
     1
102
RTVSPropertyOp26
 70
     1
102
RTVSPropertyOp27
 70
     1
  0
XRECORD
  5
61B
102
{ACAD_REACTORS
330
61A
102
}
330
61A
100
AcDbXrecord
280
     1
102
RTVSPropertyOp0
 70
     1
102
RTVSPropertyOp1
 70
     1
102
RTVSPropertyOp2
 70
     1
102
RTVSPropertyOp3
 70
     1
102
RTVSPropertyOp4
 70
     1
102
RTVSPropertyOp5
 70
     1
102
RTVSPropertyOp6
 70
     1
102
RTVSPropertyOp7
 70
     1
102
RTVSPropertyOp8
 70
     1
102
RTVSPropertyOp9
 70
     1
102
RTVSPropertyOp10
 70
     1
102
RTVSPropertyOp11
 70
     1
102
RTVSPropertyOp12
 70
     1
102
RTVSPropertyOp13
 70
     1
102
RTVSPropertyOp14
 70
     1
102
RTVSPropertyOp15
 70
     1
102
RTVSPropertyOp16
 70
     1
102
RTVSPropertyOp17
 70
     1
102
RTVSPropertyOp18
 70
     1
102
RTVSPropertyOp19
 70
     1
102
RTVSPropertyOp20
 70
     1
102
RTVSPropertyOp21
 70
     1
102
RTVSPropertyOp22
 70
     1
102
RTVSPropertyOp23
 70
     1
102
RTVSPropertyOp24
 70
     1
102
RTVSPropertyOp25
 70
     1
102
RTVSPropertyOp26
 70
     1
102
RTVSPropertyOp27
 70
     1
  0
XRECORD
  5
61D
102
{ACAD_REACTORS
330
61C
102
}
330
61C
100
AcDbXrecord
280
     1
102
RTVSPropertyOp0
 70
     1
102
RTVSPropertyOp1
 70
     1
102
RTVSPropertyOp2
 70
     1
102
RTVSPropertyOp3
 70
     1
102
RTVSPropertyOp4
 70
     1
102
RTVSPropertyOp5
 70
     1
102
RTVSPropertyOp6
 70
     1
102
RTVSPropertyOp7
 70
     1
102
RTVSPropertyOp8
 70
     1
102
RTVSPropertyOp9
 70
     1
102
RTVSPropertyOp10
 70
     1
102
RTVSPropertyOp11
 70
     1
102
RTVSPropertyOp12
 70
     1
102
RTVSPropertyOp13
 70
     1
102
RTVSPropertyOp14
 70
     1
102
RTVSPropertyOp15
 70
     1
102
RTVSPropertyOp16
 70
     1
102
RTVSPropertyOp17
 70
     1
102
RTVSPropertyOp18
 70
     1
102
RTVSPropertyOp19
 70
     1
102
RTVSPropertyOp20
 70
     1
102
RTVSPropertyOp21
 70
     1
102
RTVSPropertyOp22
 70
     1
102
RTVSPropertyOp23
 70
     1
102
RTVSPropertyOp24
 70
     1
102
RTVSPropertyOp25
 70
     1
102
RTVSPropertyOp26
 70
     1
102
RTVSPropertyOp27
 70
     1
  0
XRECORD
  5
61F
102
{ACAD_REACTORS
330
61E
102
}
330
61E
100
AcDbXrecord
280
     1
102
RTVSPropertyOp0
 70
     1
102
RTVSPropertyOp1
 70
     1
102
RTVSPropertyOp2
 70
     1
102
RTVSPropertyOp3
 70
     1
102
RTVSPropertyOp4
 70
     1
102
RTVSPropertyOp5
 70
     1
102
RTVSPropertyOp6
 70
     1
102
RTVSPropertyOp7
 70
     1
102
RTVSPropertyOp8
 70
     1
102
RTVSPropertyOp9
 70
     1
102
RTVSPropertyOp10
 70
     1
102
RTVSPropertyOp11
 70
     1
102
RTVSPropertyOp12
 70
     1
102
RTVSPropertyOp13
 70
     1
102
RTVSPropertyOp14
 70
     1
102
RTVSPropertyOp15
 70
     1
102
RTVSPropertyOp16
 70
     1
102
RTVSPropertyOp17
 70
     1
102
RTVSPropertyOp18
 70
     1
102
RTVSPropertyOp19
 70
     1
102
RTVSPropertyOp20
 70
     1
102
RTVSPropertyOp21
 70
     1
102
RTVSPropertyOp22
 70
     1
102
RTVSPropertyOp23
 70
     1
102
RTVSPropertyOp24
 70
     1
102
RTVSPropertyOp25
 70
     1
102
RTVSPropertyOp26
 70
     1
102
RTVSPropertyOp27
 70
     1
  0
XRECORD
  5
621
102
{ACAD_REACTORS
330
620
102
}
330
620
100
AcDbXrecord
280
     1
102
RTVSPropertyOp0
 70
     1
102
RTVSPropertyOp1
 70
     1
102
RTVSPropertyOp2
 70
     1
102
RTVSPropertyOp3
 70
     1
102
RTVSPropertyOp4
 70
     1
102
RTVSPropertyOp5
 70
     1
102
RTVSPropertyOp6
 70
     1
102
RTVSPropertyOp7
 70
     1
102
RTVSPropertyOp8
 70
     1
102
RTVSPropertyOp9
 70
     1
102
RTVSPropertyOp10
 70
     1
102
RTVSPropertyOp11
 70
     1
102
RTVSPropertyOp12
 70
     1
102
RTVSPropertyOp13
 70
     1
102
RTVSPropertyOp14
 70
     1
102
RTVSPropertyOp15
 70
     1
102
RTVSPropertyOp16
 70
     1
102
RTVSPropertyOp17
 70
     1
102
RTVSPropertyOp18
 70
     1
102
RTVSPropertyOp19
 70
     1
102
RTVSPropertyOp20
 70
     1
102
RTVSPropertyOp21
 70
     1
102
RTVSPropertyOp22
 70
     1
102
RTVSPropertyOp23
 70
     1
102
RTVSPropertyOp24
 70
     1
102
RTVSPropertyOp25
 70
     1
102
RTVSPropertyOp26
 70
     1
102
RTVSPropertyOp27
 70
     1
  0
XRECORD
  5
635
102
{ACAD_REACTORS
330
634
102
}
330
634
100
AcDbXrecord
280
     1
102
RTVSPropertyOp0
 70
     1
102
RTVSPropertyOp1
 70
     1
102
RTVSPropertyOp2
 70
     1
102
RTVSPropertyOp3
 70
     1
102
RTVSPropertyOp4
 70
     1
102
RTVSPropertyOp5
 70
     1
102
RTVSPropertyOp6
 70
     1
102
RTVSPropertyOp7
 70
     1
102
RTVSPropertyOp8
 70
     1
102
RTVSPropertyOp9
 70
     1
102
RTVSPropertyOp10
 70
     1
102
RTVSPropertyOp11
 70
     1
102
RTVSPropertyOp12
 70
     1
102
RTVSPropertyOp13
 70
     1
102
RTVSPropertyOp14
 70
     1
102
RTVSPropertyOp15
 70
     1
102
RTVSPropertyOp16
 70
     1
102
RTVSPropertyOp17
 70
     1
102
RTVSPropertyOp18
 70
     1
102
RTVSPropertyOp19
 70
     1
102
RTVSPropertyOp20
 70
     1
102
RTVSPropertyOp21
 70
     1
102
RTVSPropertyOp22
 70
     1
102
RTVSPropertyOp23
 70
     1
102
RTVSPropertyOp24
 70
     1
102
RTVSPropertyOp25
 70
     1
102
RTVSPropertyOp26
 70
     1
102
RTVSPropertyOp27
 70
     1
  0
XRECORD
  5
62B
102
{ACAD_REACTORS
330
62A
102
}
330
62A
100
AcDbXrecord
280
     1
102
RTVSPropertyOp0
 70
     1
102
RTVSPropertyOp1
 70
     1
102
RTVSPropertyOp2
 70
     1
102
RTVSPropertyOp3
 70
     1
102
RTVSPropertyOp4
 70
     1
102
RTVSPropertyOp5
 70
     1
102
RTVSPropertyOp6
 70
     1
102
RTVSPropertyOp7
 70
     1
102
RTVSPropertyOp8
 70
     1
102
RTVSPropertyOp9
 70
     1
102
RTVSPropertyOp10
 70
     1
102
RTVSPropertyOp11
 70
     1
102
RTVSPropertyOp12
 70
     1
102
RTVSPropertyOp13
 70
     1
102
RTVSPropertyOp14
 70
     1
102
RTVSPropertyOp15
 70
     1
102
RTVSPropertyOp16
 70
     1
102
RTVSPropertyOp17
 70
     1
102
RTVSPropertyOp18
 70
     1
102
RTVSPropertyOp19
 70
     1
102
RTVSPropertyOp20
 70
     1
102
RTVSPropertyOp21
 70
     1
102
RTVSPropertyOp22
 70
     1
102
RTVSPropertyOp23
 70
     1
102
RTVSPropertyOp24
 70
     1
102
RTVSPropertyOp25
 70
     1
102
RTVSPropertyOp26
 70
     1
102
RTVSPropertyOp27
 70
     1
  0
XRECORD
  5
633
102
{ACAD_REACTORS
330
632
102
}
330
632
100
AcDbXrecord
280
     1
102
RTVSPropertyOp0
 70
     1
102
RTVSPropertyOp1
 70
     1
102
RTVSPropertyOp2
 70
     1
102
RTVSPropertyOp3
 70
     1
102
RTVSPropertyOp4
 70
     1
102
RTVSPropertyOp5
 70
     1
102
RTVSPropertyOp6
 70
     1
102
RTVSPropertyOp7
 70
     1
102
RTVSPropertyOp8
 70
     1
102
RTVSPropertyOp9
 70
     1
102
RTVSPropertyOp10
 70
     1
102
RTVSPropertyOp11
 70
     1
102
RTVSPropertyOp12
 70
     1
102
RTVSPropertyOp13
 70
     1
102
RTVSPropertyOp14
 70
     1
102
RTVSPropertyOp15
 70
     1
102
RTVSPropertyOp16
 70
     1
102
RTVSPropertyOp17
 70
     1
102
RTVSPropertyOp18
 70
     1
102
RTVSPropertyOp19
 70
     1
102
RTVSPropertyOp20
 70
     1
102
RTVSPropertyOp21
 70
     1
102
RTVSPropertyOp22
 70
     1
102
RTVSPropertyOp23
 70
     1
102
RTVSPropertyOp24
 70
     1
102
RTVSPropertyOp25
 70
     1
102
RTVSPropertyOp26
 70
     1
102
RTVSPropertyOp27
 70
     1
  0
ENDSEC
  0
EOF
