  0
SECTION
  2
HEADER
  9
$ACADVER
  1
AC1015
  9
$ACADMAINTVER
 70
     6
  9
$DWGCODEPAGE
  3
ANSI_1252
  9
$INSBASE
 10
0.0
 20
0.0
 30
0.0
  9
$EXTMIN
 10
0.0
 20
0.0
 30
0.0
  9
$EXTMAX
 10
25.0
 20
35.0
 30
0.0
  9
$LIMMIN
 10
0.0
 20
0.0
  9
$LIMMAX
 10
420.0
 20
297.0
  9
$ORTHOMODE
 70
     0
  9
$REGENMODE
 70
     1
  9
$FILLMODE
 70
     1
  9
$QTEXTMODE
 70
     0
  9
$MIRRTEXT
 70
     1
  9
$LTSCALE
 40
4.55
  9
$ATTMODE
 70
     1
  9
$TEXTSIZE
 40
2.5
  9
$TRACEWID
 40
1.0
  9
$TEXTSTYLE
  7
Standard
  9
$CLAYER
  8
0
  9
$CELTYPE
  6
ByLayer
  9
$CECOLOR
 62
   256
  9
$CELTSCALE
 40
1.0
  9
$DISPSILH
 70
     0
  9
$DIMSCALE
 40
1.0
  9
$DIMASZ
 40
2.5
  9
$DIMEXO
 40
0.625
  9
$DIMDLI
 40
3.75
  9
$DIMRND
 40
0.0
  9
$DIMDLE
 40
0.0
  9
$DIMEXE
 40
1.25
  9
$DIMTP
 40
0.0
  9
$DIMTM
 40
0.0
  9
$DIMTXT
 40
2.5
  9
$DIMCEN
 40
2.5
  9
$DIMTSZ
 40
0.0
  9
$DIMTOL
 70
     0
  9
$DIMLIM
 70
     0
  9
$DIMTIH
 70
     0
  9
$DIMTOH
 70
     0
  9
$DIMSE1
 70
     0
  9
$DIMSE2
 70
     0
  9
$DIMTAD
 70
     1
  9
$DIMZIN
 70
     8
  9
$DIMBLK
  1

  9
$DIMASO
 70
     1
  9
$DIMSHO
 70
     1
  9
$DIMPOST
  1

  9
$DIMAPOST
  1

  9
$DIMALT
 70
     0
  9
$DIMALTD
 70
     3
  9
$DIMALTF
 40
0.03937007874016
  9
$DIMLFAC
 40
1.0
  9
$DIMTOFL
 70
     1
  9
$DIMTVP
 40
0.0
  9
$DIMTIX
 70
     0
  9
$DIMSOXD
 70
     0
  9
$DIMSAH
 70
     0
  9
$DIMBLK1
  1

  9
$DIMBLK2
  1

  9
$DIMSTYLE
  2
ISO-25
  9
$DIMCLRD
 70
     0
  9
$DIMCLRE
 70
     0
  9
$DIMCLRT
 70
     0
  9
$DIMTFAC
 40
1.0
  9
$DIMGAP
 40
0.625
  9
$DIMJUST
 70
     0
  9
$DIMSD1
 70
     0
  9
$DIMSD2
 70
     0
  9
$DIMTOLJ
 70
     0
  9
$DIMTZIN
 70
     8
  9
$DIMALTZ
 70
     0
  9
$DIMALTTZ
 70
     0
  9
$DIMUPT
 70
     0
  9
$DIMDEC
 70
     2
  9
$DIMTDEC
 70
     2
  9
$DIMALTU
 70
     2
  9
$DIMALTTD
 70
     3
  9
$DIMTXSTY
  7
Standard
  9
$DIMAUNIT
 70
     0
  9
$DIMADEC
 70
     0
  9
$DIMALTRND
 40
0.0
  9
$DIMAZIN
 70
     0
  9
$DIMDSEP
 70
    44
  9
$DIMATFIT
 70
     3
  9
$DIMFRAC
 70
     0
  9
$DIMLDRBLK
  1

  9
$DIMLUNIT
 70
     2
  9
$DIMLWD
 70
    -2
  9
$DIMLWE
 70
    -2
  9
$DIMTMOVE
 70
     0
  9
$LUNITS
 70
     2
  9
$LUPREC
 70
     4
  9
$SKETCHINC
 40
1.0
  9
$FILLETRAD
 40
10.0
  9
$AUNITS
 70
     0
  9
$AUPREC
 70
     0
  9
$MENU
  1
.
  9
$ELEVATION
 40
0.0
  9
$PELEVATION
 40
0.0
  9
$THICKNESS
 40
0.0
  9
$LIMCHECK
 70
     0
  9
$CHAMFERA
 40
10.0
  9
$CHAMFERB
 40
10.0
  9
$CHAMFERC
 40
20.0
  9
$CHAMFERD
 40
0.0
  9
$SKPOLY
 70
     0
  9
$TDCREATE
 40
2457250.510416667
  9
$TDUCREATE
 40
2457250.427083333
  9
$TDUPDATE
 40
2457250.513888889
  9
$TDUUPDATE
 40
2457250.430555556
  9
$TDINDWG
 40
0.0000000116
  9
$TDUSRTIMER
 40
0.0000000116
  9
$USRTIMER
 70
     1
  9
$ANGBASE
 50
0.0
  9
$ANGDIR
 70
     0
  9
$PDMODE
 70
     0
  9
$PDSIZE
 40
0.0
  9
$PLINEWID
 40
0.0
  9
$SPLFRAME
 70
     0
  9
$SPLINETYPE
 70
     6
  9
$SPLINESEGS
 70
     8
  9
$HANDSEED
  5
B85
  9
$SURFTAB1
 70
     6
  9
$SURFTAB2
 70
     6
  9
$SURFTYPE
 70
     6
  9
$SURFU
 70
     6
  9
$SURFV
 70
     6
  9
$UCSBASE
  2

  9
$UCSNAME
  2

  9
$UCSORG
 10
0.0
 20
0.0
 30
0.0
  9
$UCSXDIR
 10
1.0
 20
0.0
 30
0.0
  9
$UCSYDIR
 10
0.0
 20
1.0
 30
0.0
  9
$UCSORTHOREF
  2

  9
$UCSORTHOVIEW
 70
     0
  9
$UCSORGTOP
 10
0.0
 20
0.0
 30
0.0
  9
$UCSORGBOTTOM
 10
0.0
 20
0.0
 30
0.0
  9
$UCSORGLEFT
 10
0.0
 20
0.0
 30
0.0
  9
$UCSORGRIGHT
 10
0.0
 20
0.0
 30
0.0
  9
$UCSORGFRONT
 10
0.0
 20
0.0
 30
0.0
  9
$UCSORGBACK
 10
0.0
 20
0.0
 30
0.0
  9
$PUCSBASE
  2

  9
$PUCSNAME
  2

  9
$PUCSORG
 10
0.0
 20
0.0
 30
0.0
  9
$PUCSXDIR
 10
1.0
 20
0.0
 30
0.0
  9
$PUCSYDIR
 10
0.0
 20
1.0
 30
0.0
  9
$PUCSORTHOREF
  2

  9
$PUCSORTHOVIEW
 70
     0
  9
$PUCSORGTOP
 10
0.0
 20
0.0
 30
0.0
  9
$PUCSORGBOTTOM
 10
0.0
 20
0.0
 30
0.0
  9
$PUCSORGLEFT
 10
0.0
 20
0.0
 30
0.0
  9
$PUCSORGRIGHT
 10
0.0
 20
0.0
 30
0.0
  9
$PUCSORGFRONT
 10
0.0
 20
0.0
 30
0.0
  9
$PUCSORGBACK
 10
0.0
 20
0.0
 30
0.0
  9
$USERI1
 70
     0
  9
$USERI2
 70
     0
  9
$USERI3
 70
     0
  9
$USERI4
 70
     0
  9
$USERI5
 70
     0
  9
$USERR1
 40
0.0
  9
$USERR2
 40
0.0
  9
$USERR3
 40
0.0
  9
$USERR4
 40
0.0
  9
$USERR5
 40
0.0
  9
$WORLDVIEW
 70
     1
  9
$SHADEDGE
 70
     3
  9
$SHADEDIF
 70
    70
  9
$TILEMODE
 70
     1
  9
$MAXACTVP
 70
    64
  9
$PINSBASE
 10
0.0
 20
0.0
 30
0.0
  9
$PLIMCHECK
 70
     0
  9
$PEXTMIN
 10
1.000000000000000E+20
 20
1.000000000000000E+20
 30
1.000000000000000E+20
  9
$PEXTMAX
 10
-1.000000000000000E+20
 20
-1.000000000000000E+20
 30
-1.000000000000000E+20
  9
$PLIMMIN
 10
0.0
 20
0.0
  9
$PLIMMAX
 10
420.0
 20
297.0
  9
$UNITMODE
 70
     0
  9
$VISRETAIN
 70
     1
  9
$PLINEGEN
 70
     0
  9
$PSLTSCALE
 70
     1
  9
$TREEDEPTH
 70
  3020
  9
$CMLSTYLE
  2
Standard
  9
$CMLJUST
 70
     0
  9
$CMLSCALE
 40
20.0
  9
$PROXYGRAPHICS
 70
     1
  9
$MEASUREMENT
 70
     1
  9
$CELWEIGHT
370
    -1
  9
$ENDCAPS
280
     0
  9
$JOINSTYLE
280
     0
  9
$LWDISPLAY
290
     0
  9
$INSUNITS
 70
     4
  9
$HYPERLINKBASE
  1

  9
$STYLESHEET
  1

  9
$XEDIT
290
     1
  9
$CEPSNTYPE
380
     0
  9
$PSTYLEMODE
290
     1
  9
$FINGERPRINTGUID
  2
{429CFCFE-682E-4E00-8147-E7B806217075}
  9
$VERSIONGUID
  2
{FAEB1C32-E019-11D5-929B-00C0DF256EC4}
  9
$EXTNAMES
290
     1
  9
$PSVPSCALE
 40
0.0
  9
$OLESTARTUP
290
     0
  0
ENDSEC
  0
SECTION
  2
CLASSES
  0
CLASS
  1
ACDBDICTIONARYWDFLT
  2
AcDbDictionaryWithDefault
  3
ObjectDBX Classes
 90
        0
280
     0
281
     0
  0
CLASS
  1
VISUALSTYLE
  2
AcDbVisualStyle
  3
ObjectDBX Classes
 90
     4095
280
     0
281
     0
  0
CLASS
  1
MATERIAL
  2
AcDbMaterial
  3
ObjectDBX Classes
 90
     1153
280
     0
281
     0
  0
CLASS
  1
SCALE
  2
AcDbScale
  3
ObjectDBX Classes
 90
     1153
280
     0
281
     0
  0
CLASS
  1
DICTIONARYVAR
  2
AcDbDictionaryVar
  3
ObjectDBX Classes
 90
        0
280
     0
281
     0
  0
CLASS
  1
ACDBPLACEHOLDER
  2
AcDbPlaceHolder
  3
ObjectDBX Classes
 90
        0
280
     0
281
     0
  0
CLASS
  1
LAYOUT
  2
AcDbLayout
  3
ObjectDBX Classes
 90
        0
280
     0
281
     0
  0
ENDSEC
  0
SECTION
  2
TABLES
  0
TABLE
  2
VPORT
  5
8
330
0
100
AcDbSymbolTable
 70
     1
  0
VPORT
  5
29
330
8
100
AcDbSymbolTableRecord
100
AcDbViewportTableRecord
  2
*Active
 70
     0
 10
0.0
 20
0.0
 11
1.0
 21
1.0
 12
11.26
 22
4.5
 13
0.0
 23
0.0
 14
10.0
 24
10.0
 15
10.0
 25
10.0
 16
0.0
 26
0.0
 36
1.0
 17
0.0
 27
0.0
 37
0.0
 40
9.0
 41
2.503333333333333
 42
50.0
 43
0.0
 44
0.0
 50
0.0
 51
0.0
 71
     0
 72
   100
 73
     1
 74
     3
 75
     0
 76
     0
 77
     0
 78
     0
281
     0
 65
     1
110
0.0
120
0.0
130
0.0
111
1.0
121
0.0
131
0.0
112
0.0
122
1.0
132
0.0
 79
     0
146
0.0
  0
ENDTAB
  0
TABLE
  2
LTYPE
  5
5
330
0
100
AcDbSymbolTable
 70
    11
  0
LTYPE
  5
14
330
5
100
AcDbSymbolTableRecord
100
AcDbLinetypeTableRecord
  2
ByBlock
 70
     0
  3

 72
    65
 73
     0
 40
0.0
  0
LTYPE
  5
15
330
5
100
AcDbSymbolTableRecord
100
AcDbLinetypeTableRecord
  2
ByLayer
 70
     0
  3

 72
    65
 73
     0
 40
0.0
  0
LTYPE
  5
16
330
5
100
AcDbSymbolTableRecord
100
AcDbLinetypeTableRecord
  2
Continuous
 70
     0
  3
Solid line
 72
    65
 73
     0
 40
0.0
  0
LTYPE
  5
45
330
5
100
AcDbSymbolTableRecord
100
AcDbLinetypeTableRecord
  2
phl_thick
 70
     0
  3
THICK
 72
    65
 73
     0
 40
0.0
  0
LTYPE
  5
369
330
5
100
AcDbSymbolTableRecord
100
AcDbLinetypeTableRecord
  2
ls1
 70
     0
  3
THICK
 72
    65
 73
     0
 40
0.0
  0
LTYPE
  5
376
330
5
100
AcDbSymbolTableRecord
100
AcDbLinetypeTableRecord
  2
SK1
 70
     0
  3
THICK
 72
    65
 73
     0
 40
0.0
  0
LTYPE
  5
37D
330
5
100
AcDbSymbolTableRecord
100
AcDbLinetypeTableRecord
  2
SK2
 70
     0
  3
THIN
 72
    65
 73
     0
 40
0.0
  0
LTYPE
  5
3E3
330
5
100
AcDbSymbolTableRecord
100
AcDbLinetypeTableRecord
  2
dim_text
 70
     0
  3
THICK
 72
    65
 73
     0
 40
0.0
  0
LTYPE
  5
42B
330
5
100
AcDbSymbolTableRecord
100
AcDbLinetypeTableRecord
  2
L2
 70
     0
  3
THIN
 72
    65
 73
     0
 40
0.0
  0
LTYPE
  5
57A
330
5
100
AcDbSymbolTableRecord
100
AcDbLinetypeTableRecord
  2
thin_line
 70
     0
  3
THIN
 72
    65
 73
     0
 40
0.0
  0
LTYPE
  5
59B
330
5
100
AcDbSymbolTableRecord
100
AcDbLinetypeTableRecord
  2
LONGDASH_DASH
 70
     0
  3
THIN_DASHDOT
 72
    65
 73
     4
 40
0.85
 49
0.4
 74
     0
 49
-0.2
 74
     0
 49
0.05
 74
     0
 49
-0.2
 74
     0
  0
LTYPE
  5
5A8
330
5
100
AcDbSymbolTableRecord
100
AcDbLinetypeTableRecord
  2
INFTOTAL
 70
     0
  3
THIN
 72
    65
 73
     0
 40
0.0
  0
LTYPE
  5
5B8
330
5
100
AcDbSymbolTableRecord
100
AcDbLinetypeTableRecord
  2
cc_dim_arrow
 70
     0
  3
THICK
 72
    65
 73
     0
 40
0.0
  0
ENDTAB
  0
TABLE
  2
LAYER
  5
2
330
0
100
AcDbSymbolTable
 70
    11
  0
LAYER
  5
10
330
2
100
AcDbSymbolTableRecord
100
AcDbLayerTableRecord
  2
0
 70
     0
 62
     7
  6
Continuous
370
    -3
390
F
  0
LAYER
  5
44
330
2
100
AcDbSymbolTableRecord
100
AcDbLayerTableRecord
  2
1
 70
     0
 62
4
  6
CONTINUOUS
370
50
370
    -3
390
F
  0
LAYER
  5
368
330
2
100
AcDbSymbolTableRecord
100
AcDbLayerTableRecord
  2
CUT
 70
     0
 62
1
  6
CONTINUOUS
370
25
370
    -3
390
F
  0
LAYER
  5
36F
330
2
100
AcDbSymbolTableRecord
100
AcDbLayerTableRecord
  2
NOCUT
 70
     0
 62
7
  6
CONTINUOUS
370
25
370
    -3
390
F
  0
LAYER
  5
375
330
2
100
AcDbSymbolTableRecord
100
AcDbLayerTableRecord
  2
SK1
 70
     0
 62
4
  6
CONTINUOUS
370
50
370
    -3
390
F
  0
LAYER
  5
37C
330
2
100
AcDbSymbolTableRecord
100
AcDbLayerTableRecord
  2
SK2
 70
     0
 62
7
  6
CONTINUOUS
370
25
370
    -3
390
F
  0
LAYER
  5
42A
330
2
100
AcDbSymbolTableRecord
100
AcDbLayerTableRecord
  2
2
 70
     0
 62
7
  6
CONTINUOUS
370
25
370
    -3
390
F
  0
LAYER
  5
59A
330
2
100
AcDbSymbolTableRecord
100
AcDbLayerTableRecord
  2
4
 70
     0
 62
2
  6
LONGDASH_DASH
370
25
370
    -3
390
F
  0
LAYER
  5
59D
330
2
100
AcDbSymbolTableRecord
100
AcDbLayerTableRecord
  2
SK4
 70
     0
 62
2
  6
LONGDASH_DASH
370
25
370
    -3
390
F
  0
LAYER
  5
5A7
330
2
100
AcDbSymbolTableRecord
100
AcDbLayerTableRecord
  2
INFTOTAL
 70
     0
 62
9
  6
CONTINUOUS
370
18
370
    -3
390
F
  0
LAYER
  5
5AD
330
2
100
AcDbSymbolTableRecord
100
AcDbLayerTableRecord
  2
SK6
 70
     0
 62
5
  6
CONTINUOUS
370
25
370
    -3
390
F
  0
ENDTAB
  0
TABLE
  2
STYLE
  5
3
330
0
100
AcDbSymbolTable
 70
     1
  0
STYLE
  5
11
330
3
100
AcDbSymbolTableRecord
100
AcDbTextStyleTableRecord
  2
Standard
 70
     0
 40
0.0
 41
1.0
 50
0.0
 71
     0
 42
2.5
  3
Monospac821 BT
  4

  0
ENDTAB
  0
TABLE
  2
VIEW
  5
6
330
0
100
AcDbSymbolTable
 70
     0
  0
ENDTAB
  0
TABLE
  2
UCS
  5
7
330
0
100
AcDbSymbolTable
 70
     0
  0
ENDTAB
  0
TABLE
  2
APPID
  5
9
330
0
100
AcDbSymbolTable
 70
     2
  0
APPID
  5
12
330
9
100
AcDbSymbolTableRecord
100
AcDbRegAppTableRecord
  2
ACAD
 70
     0
  0
APPID
  5
3F
330
9
100
AcDbSymbolTableRecord
100
AcDbRegAppTableRecord
  2
ccLab
 70
     0
  0
ENDTAB
  0
TABLE
  2
DIMSTYLE
  5
A
330
0
100
AcDbSymbolTable
 70
     1
100
AcDbDimStyleTable
  0
DIMSTYLE
105
27
330
A
100
AcDbSymbolTableRecord
100
AcDbDimStyleTableRecord
  2
ISO-25
 70
     0
 41
2.5
 42
0.625
 43
3.75
 44
1.25
 73
     0
 74
     0
 77
     1
 78
     8
140
2.5
141
2.5
143
0.03937007874016
147
0.625
171
     3
172
     1
271
     2
272
     2
274
     3
278
    44
283
     0
284
     8
340
11
  0
ENDTAB
  0
TABLE
  2
BLOCK_RECORD
  5
1
330
0
100
AcDbSymbolTable
 70
     2
  0
BLOCK_RECORD
  5
1F
330
1
100
AcDbSymbolTableRecord
100
AcDbBlockTableRecord
  2
*Model_Space
340
22
  0
BLOCK_RECORD
  5
1B
330
1
100
AcDbSymbolTableRecord
100
AcDbBlockTableRecord
  2
*Paper_Space
340
1E
  0
BLOCK_RECORD
  5
23
330
1
100
AcDbSymbolTableRecord
100
AcDbBlockTableRecord
  2
*Paper_Space0
340
26
  0
ENDTAB
  0
ENDSEC
  0
SECTION
  2
BLOCKS
  0
BLOCK
  5
20
330
1F
100
AcDbEntity
  8
0
100
AcDbBlockBegin
  2
*Model_Space
 70
     0
 10
0.0
 20
0.0
 30
0.0
  3
*Model_Space
  1

  0
ENDBLK
  5
21
330
1F
100
AcDbEntity
  8
0
100
AcDbBlockEnd
  0
BLOCK
  5
1C
330
1B
100
AcDbEntity
 67
     1
  8
0
100
AcDbBlockBegin
  2
*Paper_Space
 70
     0
 10
0.0
 20
0.0
 30
0.0
  3
*Paper_Space
  1

  0
ENDBLK
  5
1D
330
1B
100
AcDbEntity
 67
     1
  8
0
100
AcDbBlockEnd
  0
BLOCK
  5
24
330
23
100
AcDbEntity
  8
0
100
AcDbBlockBegin
  2
*Paper_Space0
 70
     0
 10
0.0
 20
0.0
 30
0.0
  3
*Paper_Space0
  1

  0
ENDBLK
  5
25
330
23
100
AcDbEntity
  8
0
100
AcDbBlockEnd
  0
ENDSEC
  0
SECTION
  2
ENTITIES
  0
LINE
  5
5E8
330
1F
100
AcDbEntity
  8
1
  6
CONTINUOUS
370
50
 62
4
100
AcDbLine
 10
148.452042
 20
0.278233
 30
0.0
 11
148.451996
 21
0.406674
 31
0.0
  0
LINE
  5
5E9
330
1F
100
AcDbEntity
  8
1
  6
CONTINUOUS
370
50
 62
4
100
AcDbLine
 10
149.998093
 20
2.453702
 30
0.0
 11
149.997528
 21
3.182721
 31
0.0
  0
LINE
  5
5EA
330
1F
100
AcDbEntity
  8
1
  6
CONTINUOUS
370
50
 62
4
100
AcDbLine
 10
149.998123
 20
2.431419
 30
0.0
 11
149.997528
 21
3.195125
 31
0.0
  0
LINE
  5
5EB
330
1F
100
AcDbEntity
  8
1
  6
CONTINUOUS
370
50
 62
4
100
AcDbLine
 10
149.998123
 20
1.17672
 30
0.0
 11
149.997528
 21
1.546326
 31
0.0
  0
LINE
  5
5EC
330
1F
100
AcDbEntity
  8
1
  6
CONTINUOUS
370
50
 62
4
100
AcDbLine
 10
149.992355
 20
2.706542
 30
0.0
 11
149.992142
 21
2.787015
 31
0.0
  0
LINE
  5
5ED
330
1F
100
AcDbEntity
  8
1
  6
CONTINUOUS
370
50
 62
4
100
AcDbLine
 10
149.991714
 20
2.947956
 30
0.0
 11
149.991501
 21
3.028423
 31
0.0
  0
LINE
  5
5EE
330
1F
100
AcDbEntity
  8
1
  6
CONTINUOUS
370
50
 62
4
100
AcDbLine
 10
149.991287
 20
3.108889
 30
0.0
 11
149.991074
 21
3.189353
 31
0.0
  0
LINE
  5
5EF
330
1F
100
AcDbEntity
  8
1
  6
CONTINUOUS
370
50
 62
4
100
AcDbLine
 10
149.992569
 20
2.626067
 30
0.0
 11
149.992355
 21
2.706542
 31
0.0
  0
LINE
  5
5F0
330
1F
100
AcDbEntity
  8
1
  6
CONTINUOUS
370
50
 62
4
100
AcDbLine
 10
149.992142
 20
2.787015
 30
0.0
 11
149.991928
 21
2.867486
 31
0.0
  0
LINE
  5
5F1
330
1F
100
AcDbEntity
  8
1
  6
CONTINUOUS
370
50
 62
4
100
AcDbLine
 10
149.991928
 20
2.867486
 30
0.0
 11
149.991714
 21
2.947956
 31
0.0
  0
LINE
  5
5F2
330
1F
100
AcDbEntity
  8
1
  6
CONTINUOUS
370
50
 62
4
100
AcDbLine
 10
149.991501
 20
3.028423
 30
0.0
 11
149.991287
 21
3.108889
 31
0.0
  0
LINE
  5
5F3
330
1F
100
AcDbEntity
  8
1
  6
CONTINUOUS
370
50
 62
4
100
AcDbLine
 10
149.992661
 20
2.60745
 30
0.0
 11
149.992569
 21
2.626067
 31
0.0
  0
LINE
  5
5F4
330
1F
100
AcDbEntity
  8
1
  6
CONTINUOUS
370
50
 62
4
100
AcDbLine
 10
149.991287
 20
1.615229
 30
0.0
 11
149.991074
 21
1.65691
 31
0.0
  0
LINE
  5
5F5
330
1F
100
AcDbEntity
  8
1
  6
CONTINUOUS
370
50
 62
4
100
AcDbLine
 10
149.991714
 20
1.531878
 30
0.0
 11
149.991501
 21
1.573552
 31
0.0
  0
LINE
  5
5F6
330
1F
100
AcDbEntity
  8
1
  6
CONTINUOUS
370
50
 62
4
100
AcDbLine
 10
149.992355
 20
1.406877
 30
0.0
 11
149.992142
 21
1.448541
 31
0.0
  0
LINE
  5
5F7
330
1F
100
AcDbEntity
  8
1
  6
CONTINUOUS
370
50
 62
4
100
AcDbLine
 10
149.991501
 20
1.573552
 30
0.0
 11
149.991287
 21
1.615229
 31
0.0
  0
LINE
  5
5F8
330
1F
100
AcDbEntity
  8
1
  6
CONTINUOUS
370
50
 62
4
100
AcDbLine
 10
149.991928
 20
1.490208
 30
0.0
 11
149.991714
 21
1.531878
 31
0.0
  0
LINE
  5
5F9
330
1F
100
AcDbEntity
  8
1
  6
CONTINUOUS
370
50
 62
4
100
AcDbLine
 10
149.992142
 20
1.448541
 30
0.0
 11
149.991928
 21
1.490208
 31
0.0
  0
LINE
  5
5FA
330
1F
100
AcDbEntity
  8
1
  6
CONTINUOUS
370
50
 62
4
100
AcDbLine
 10
149.992569
 20
1.365218
 30
0.0
 11
149.992355
 21
1.406877
 31
0.0
  0
LINE
  5
5FB
330
1F
100
AcDbEntity
  8
1
  6
CONTINUOUS
370
50
 62
4
100
AcDbLine
 10
150.0
 20
1.524701
 30
0.0
 11
149.999985
 21
1.526658
 31
0.0
  0
LINE
  5
5FC
330
1F
100
AcDbEntity
  8
1
  6
CONTINUOUS
370
50
 62
4
100
AcDbLine
 10
149.992661
 20
1.355033
 30
0.0
 11
149.992569
 21
1.365218
 31
0.0
  0
LINE
  5
5FD
330
1F
100
AcDbEntity
  8
1
  6
CONTINUOUS
370
50
 62
4
100
AcDbLine
 10
149.992844
 20
2.589339
 30
0.0
 11
149.992661
 21
2.60745
 31
0.0
  0
LINE
  5
5FE
330
1F
100
AcDbEntity
  8
1
  6
CONTINUOUS
370
50
 62
4
100
AcDbLine
 10
149.993103
 20
2.571759
 30
0.0
 11
149.992844
 21
2.589339
 31
0.0
  0
LINE
  5
5FF
330
1F
100
AcDbEntity
  8
1
  6
CONTINUOUS
370
50
 62
4
100
AcDbLine
 10
149.992844
 20
1.34402
 30
0.0
 11
149.992661
 21
1.355033
 31
0.0
  0
LINE
  5
600
330
1F
100
AcDbEntity
  8
1
  6
CONTINUOUS
370
50
 62
4
100
AcDbLine
 10
149.993454
 20
2.554732
 30
0.0
 11
149.993103
 21
2.571759
 31
0.0
  0
LINE
  5
601
330
1F
100
AcDbEntity
  8
1
  6
CONTINUOUS
370
50
 62
4
100
AcDbLine
 10
149.999985
 20
1.526658
 30
0.0
 11
149.999939
 21
1.528854
 31
0.0
  0
LINE
  5
602
330
1F
100
AcDbEntity
  8
1
  6
CONTINUOUS
370
50
 62
4
100
AcDbLine
 10
149.993103
 20
1.332198
 30
0.0
 11
149.992844
 21
1.34402
 31
0.0
  0
LINE
  5
603
330
1F
100
AcDbEntity
  8
1
  6
CONTINUOUS
370
50
 62
4
100
AcDbLine
 10
148.455185
 20
0.147303
 30
0.0
 11
148.452042
 21
0.278233
 31
0.0
  0
LINE
  5
604
330
1F
100
AcDbEntity
  8
1
  6
CONTINUOUS
370
50
 62
4
100
AcDbLine
 10
149.993881
 20
2.538284
 30
0.0
 11
149.993454
 21
2.554732
 31
0.0
  0
LINE
  5
605
330
1F
100
AcDbEntity
  8
1
  6
CONTINUOUS
370
50
 62
4
100
AcDbLine
 10
149.993454
 20
1.319585
 30
0.0
 11
149.993103
 21
1.332198
 31
0.0
  0
LINE
  5
606
330
1F
100
AcDbEntity
  8
1
  6
CONTINUOUS
370
50
 62
4
100
AcDbLine
 10
149.994385
 20
2.522445
 30
0.0
 11
149.993881
 21
2.538284
 31
0.0
  0
LINE
  5
607
330
1F
100
AcDbEntity
  8
1
  6
CONTINUOUS
370
50
 62
4
100
AcDbLine
 10
149.993881
 20
1.306202
 30
0.0
 11
149.993454
 21
1.319585
 31
0.0
  0
LINE
  5
608
330
1F
100
AcDbEntity
  8
1
  6
CONTINUOUS
370
50
 62
4
100
AcDbLine
 10
149.999939
 20
1.528854
 30
0.0
 11
149.999863
 21
1.531212
 31
0.0
  0
LINE
  5
609
330
1F
100
AcDbEntity
  8
1
  6
CONTINUOUS
370
50
 62
4
100
AcDbLine
 10
149.994385
 20
1.292074
 30
0.0
 11
149.993881
 21
1.306202
 31
0.0
  0
LINE
  5
60A
330
1F
100
AcDbEntity
  8
1
  6
CONTINUOUS
370
50
 62
4
100
AcDbLine
 10
149.99498
 20
2.507276
 30
0.0
 11
149.994385
 21
2.522445
 31
0.0
  0
LINE
  5
60B
330
1F
100
AcDbEntity
  8
1
  6
CONTINUOUS
370
50
 62
4
100
AcDbLine
 10
149.999863
 20
1.531212
 30
0.0
 11
149.999756
 21
1.533906
 31
0.0
  0
LINE
  5
60C
330
1F
100
AcDbEntity
  8
1
  6
CONTINUOUS
370
50
 62
4
100
AcDbLine
 10
149.99498
 20
1.277259
 30
0.0
 11
149.994385
 21
1.292074
 31
0.0
  0
LINE
  5
60D
330
1F
100
AcDbEntity
  8
1
  6
CONTINUOUS
370
50
 62
4
100
AcDbLine
 10
149.999756
 20
1.533906
 30
0.0
 11
149.999634
 21
1.53689
 31
0.0
  0
LINE
  5
60E
330
1F
100
AcDbEntity
  8
1
  6
CONTINUOUS
370
50
 62
4
100
AcDbLine
 10
149.995636
 20
1.26179
 30
0.0
 11
149.99498
 21
1.277259
 31
0.0
  0
LINE
  5
60F
330
1F
100
AcDbEntity
  8
1
  6
CONTINUOUS
370
50
 62
4
100
AcDbLine
 10
149.995636
 20
2.4928
 30
0.0
 11
149.99498
 21
2.507276
 31
0.0
  0
LINE
  5
610
330
1F
100
AcDbEntity
  8
1
  6
CONTINUOUS
370
50
 62
4
100
AcDbLine
 10
149.996384
 20
1.245691
 30
0.0
 11
149.995636
 21
1.26179
 31
0.0
  0
LINE
  5
611
330
1F
100
AcDbEntity
  8
1
  6
CONTINUOUS
370
50
 62
4
100
AcDbLine
 10
148.461517
 20
0.013954
 30
0.0
 11
148.455185
 21
0.147303
 31
0.0
  0
LINE
  5
612
330
1F
100
AcDbEntity
  8
1
  6
CONTINUOUS
370
50
 62
4
100
AcDbLine
 10
149.999634
 20
1.53689
 30
0.0
 11
149.999481
 21
1.540016
 31
0.0
  0
LINE
  5
613
330
1F
100
AcDbEntity
  8
1
  6
CONTINUOUS
370
50
 62
4
100
AcDbLine
 10
149.997208
 20
1.228988
 30
0.0
 11
149.996384
 21
1.245691
 31
0.0
  0
LINE
  5
614
330
1F
100
AcDbEntity
  8
1
  6
CONTINUOUS
370
50
 62
4
100
AcDbLine
 10
149.998093
 20
1.211707
 30
0.0
 11
149.997208
 21
1.228988
 31
0.0
  0
LINE
  5
615
330
1F
100
AcDbEntity
  8
1
  6
CONTINUOUS
370
50
 62
4
100
AcDbLine
 10
149.999481
 20
1.540016
 30
0.0
 11
149.999313
 21
1.54314
 31
0.0
  0
LINE
  5
616
330
1F
100
AcDbEntity
  8
1
  6
CONTINUOUS
370
50
 62
4
100
AcDbLine
 10
149.996384
 20
2.479035
 30
0.0
 11
149.995636
 21
2.4928
 31
0.0
  0
LINE
  5
617
330
1F
100
AcDbEntity
  8
1
  6
CONTINUOUS
370
50
 62
4
100
AcDbLine
 10
149.999313
 20
1.54314
 30
0.0
 11
149.99913
 21
1.546411
 31
0.0
  0
LINE
  5
618
330
1F
100
AcDbEntity
  8
1
  6
CONTINUOUS
370
50
 62
4
100
AcDbLine
 10
149.99913
 20
1.546411
 30
0.0
 11
149.998932
 21
1.549913
 31
0.0
  0
LINE
  5
619
330
1F
100
AcDbEntity
  8
1
  6
CONTINUOUS
370
50
 62
4
100
AcDbLine
 10
149.998932
 20
1.549913
 30
0.0
 11
149.998718
 21
1.553557
 31
0.0
  0
LINE
  5
61A
330
1F
100
AcDbEntity
  8
1
  6
CONTINUOUS
370
50
 62
4
100
AcDbLine
 10
149.998474
 20
1.557251
 30
0.0
 11
149.998245
 21
1.560906
 31
0.0
  0
LINE
  5
61B
330
1F
100
AcDbEntity
  8
1
  6
CONTINUOUS
370
50
 62
4
100
AcDbLine
 10
149.997208
 20
2.465996
 30
0.0
 11
149.996384
 21
2.479035
 31
0.0
  0
LINE
  5
61C
330
1F
100
AcDbEntity
  8
1
  6
CONTINUOUS
370
50
 62
4
100
AcDbLine
 10
149.998245
 20
1.560906
 30
0.0
 11
149.998016
 21
1.564448
 31
0.0
  0
LINE
  5
61D
330
1F
100
AcDbEntity
  8
1
  6
CONTINUOUS
370
50
 62
4
100
AcDbLine
 10
149.998718
 20
1.553557
 30
0.0
 11
149.998474
 21
1.557251
 31
0.0
  0
LINE
  5
61E
330
1F
100
AcDbEntity
  8
1
  6
CONTINUOUS
370
50
 62
4
100
AcDbLine
 10
149.997772
 20
1.568025
 30
0.0
 11
149.997528
 21
1.571682
 31
0.0
  0
LINE
  5
61F
330
1F
100
AcDbEntity
  8
1
  6
CONTINUOUS
370
50
 62
4
100
AcDbLine
 10
135.497772
 20
-1.349926
 30
0.0
 11
135.495773
 21
-1.320335
 31
0.0
  0
LINE
  5
620
330
1F
100
AcDbEntity
  8
1
  6
CONTINUOUS
370
50
 62
4
100
AcDbLine
 10
149.998016
 20
1.564448
 30
0.0
 11
149.997772
 21
1.568025
 31
0.0
  0
LINE
  5
621
330
1F
100
AcDbEntity
  8
1
  6
CONTINUOUS
370
50
 62
4
100
AcDbLine
 10
148.471024
 20
-0.1211
 30
0.0
 11
148.461517
 21
0.013954
 31
0.0
  0
LINE
  5
622
330
1F
100
AcDbEntity
  8
1
  6
CONTINUOUS
370
50
 62
4
100
AcDbLine
 10
149.998093
 20
2.453702
 30
0.0
 11
149.997208
 21
2.465996
 31
0.0
  0
LINE
  5
623
330
1F
100
AcDbEntity
  8
1
  6
CONTINUOUS
370
50
 62
4
100
AcDbLine
 10
149.991074
 20
1.65691
 30
0.0
 11
149.987915
 21
1.695545
 31
0.0
  0
LINE
  5
624
330
1F
100
AcDbEntity
  8
1
  6
CONTINUOUS
370
50
 62
4
100
AcDbLine
 10
149.987915
 20
1.695545
 30
0.0
 11
149.984589
 21
1.735071
 31
0.0
  0
LINE
  5
625
330
1F
100
AcDbEntity
  8
1
  6
CONTINUOUS
370
50
 62
4
100
AcDbLine
 10
149.984589
 20
1.735071
 30
0.0
 11
149.981232
 21
1.774134
 31
0.0
  0
LINE
  5
626
330
1F
100
AcDbEntity
  8
1
  6
CONTINUOUS
370
50
 62
4
100
AcDbLine
 10
149.981232
 20
1.774134
 30
0.0
 11
149.977982
 21
1.811384
 31
0.0
  0
LINE
  5
627
330
1F
100
AcDbEntity
  8
1
  6
CONTINUOUS
370
50
 62
4
100
AcDbLine
 10
149.977982
 20
1.811384
 30
0.0
 11
149.974823
 21
1.846987
 31
0.0
  0
LINE
  5
628
330
1F
100
AcDbEntity
  8
1
  6
CONTINUOUS
370
50
 62
4
100
AcDbLine
 10
149.974823
 20
1.846987
 30
0.0
 11
149.971619
 21
1.882789
 31
0.0
  0
LINE
  5
629
330
1F
100
AcDbEntity
  8
1
  6
CONTINUOUS
370
50
 62
4
100
AcDbLine
 10
149.971619
 20
1.882789
 30
0.0
 11
149.968353
 21
1.91875
 31
0.0
  0
LINE
  5
62A
330
1F
100
AcDbEntity
  8
1
  6
CONTINUOUS
370
50
 62
4
100
AcDbLine
 10
148.483673
 20
-0.257156
 30
0.0
 11
148.471024
 21
-0.1211
 31
0.0
  0
LINE
  5
62B
330
1F
100
AcDbEntity
  8
1
  6
CONTINUOUS
370
50
 62
4
100
AcDbLine
 10
148.49942
 20
-0.394085
 30
0.0
 11
148.483673
 21
-0.257156
 31
0.0
  0
LINE
  5
62C
330
1F
100
AcDbEntity
  8
1
  6
CONTINUOUS
370
50
 62
4
100
AcDbLine
 10
148.51825
 20
-0.531759
 30
0.0
 11
148.49942
 21
-0.394085
 31
0.0
  0
LINE
  5
62D
330
1F
100
AcDbEntity
  8
1
  6
CONTINUOUS
370
50
 62
4
100
AcDbLine
 10
149.304413
 20
-1.281849
 30
0.0
 11
149.276443
 21
-1.103799
 31
0.0
  0
LINE
  5
62E
330
1F
100
AcDbEntity
  8
1
  6
CONTINUOUS
370
50
 62
4
100
AcDbLine
 10
148.540131
 20
-0.670049
 30
0.0
 11
148.51825
 21
-0.531759
 31
0.0
  0
LINE
  5
62F
330
1F
100
AcDbEntity
  8
1
  6
CONTINUOUS
370
50
 62
4
100
AcDbLine
 10
149.335129
 20
-1.459508
 30
0.0
 11
149.304413
 21
-1.281849
 31
0.0
  0
LINE
  5
630
330
1F
100
AcDbEntity
  8
1
  6
CONTINUOUS
370
50
 62
4
100
AcDbLine
 10
148.565033
 20
-0.808827
 30
0.0
 11
148.540131
 21
-0.670049
 31
0.0
  0
LINE
  5
631
330
1F
100
AcDbEntity
  8
1
  6
CONTINUOUS
370
50
 62
4
100
AcDbLine
 10
149.368546
 20
-1.636512
 30
0.0
 11
149.335129
 21
-1.459508
 31
0.0
  0
LINE
  5
632
330
1F
100
AcDbEntity
  8
1
  6
CONTINUOUS
370
50
 62
4
100
AcDbLine
 10
148.592957
 20
-0.947963
 30
0.0
 11
148.565033
 21
-0.808827
 31
0.0
  0
LINE
  5
633
330
1F
100
AcDbEntity
  8
1
  6
CONTINUOUS
370
50
 62
4
100
AcDbLine
 10
149.404617
 20
-1.812577
 30
0.0
 11
149.368546
 21
-1.636512
 31
0.0
  0
LINE
  5
634
330
1F
100
AcDbEntity
  8
1
  6
CONTINUOUS
370
50
 62
4
100
AcDbLine
 10
149.44313
 20
-1.986784
 30
0.0
 11
149.404617
 21
-1.812577
 31
0.0
  0
LINE
  5
635
330
1F
100
AcDbEntity
  8
1
  6
CONTINUOUS
370
50
 62
4
100
AcDbLine
 10
148.62384
 20
-1.08733
 30
0.0
 11
148.592957
 21
-0.947963
 31
0.0
  0
LINE
  5
636
330
1F
100
AcDbEntity
  8
1
  6
CONTINUOUS
370
50
 62
4
100
AcDbLine
 10
149.483948
 20
-2.158573
 30
0.0
 11
149.44313
 21
-1.986784
 31
0.0
  0
LINE
  5
637
330
1F
100
AcDbEntity
  8
1
  6
CONTINUOUS
370
50
 62
4
100
AcDbLine
 10
148.657654
 20
-1.226763
 30
0.0
 11
148.62384
 21
-1.08733
 31
0.0
  0
LINE
  5
638
330
1F
100
AcDbEntity
  8
1
  6
CONTINUOUS
370
50
 62
4
100
AcDbLine
 10
149.991074
 20
3.189353
 30
0.0
 11
149.987686
 21
3.202958
 31
0.0
  0
LINE
  5
639
330
1F
100
AcDbEntity
  8
1
  6
CONTINUOUS
370
50
 62
4
100
AcDbLine
 10
149.526962
 20
-2.327718
 30
0.0
 11
149.483948
 21
-2.158573
 31
0.0
  0
LINE
  5
63A
330
1F
100
AcDbEntity
  8
1
  6
CONTINUOUS
370
50
 62
4
100
AcDbLine
 10
148.694214
 20
-1.365486
 30
0.0
 11
148.657654
 21
-1.226763
 31
0.0
  0
LINE
  5
63B
330
1F
100
AcDbEntity
  8
1
  6
CONTINUOUS
370
50
 62
4
100
AcDbLine
 10
149.572083
 20
-2.493988
 30
0.0
 11
149.526962
 21
-2.327718
 31
0.0
  0
LINE
  5
63C
330
1F
100
AcDbEntity
  8
1
  6
CONTINUOUS
370
50
 62
4
100
AcDbLine
 10
135.505646
 20
-1.378671
 30
0.0
 11
135.497772
 21
-1.349926
 31
0.0
  0
LINE
  5
63D
330
1F
100
AcDbEntity
  8
1
  6
CONTINUOUS
370
50
 62
4
100
AcDbLine
 10
149.619171
 20
-2.656933
 30
0.0
 11
149.572083
 21
-2.493988
 31
0.0
  0
LINE
  5
63E
330
1F
100
AcDbEntity
  8
1
  6
CONTINUOUS
370
50
 62
4
100
AcDbLine
 10
149.971619
 20
-3.145694
 30
0.0
 11
149.968353
 21
-3.134445
 31
0.0
  0
LINE
  5
63F
330
1F
100
AcDbEntity
  8
1
  6
CONTINUOUS
370
50
 62
4
100
AcDbLine
 10
149.987686
 20
3.202958
 30
0.0
 11
149.98378
 21
3.216302
 31
0.0
  0
LINE
  5
640
330
1F
100
AcDbEntity
  8
1
  6
CONTINUOUS
370
50
 62
4
100
AcDbLine
 10
149.968353
 20
1.91875
 30
0.0
 11
149.954041
 21
1.967408
 31
0.0
  0
LINE
  5
641
330
1F
100
AcDbEntity
  8
1
  6
CONTINUOUS
370
50
 62
4
100
AcDbLine
 10
149.66806
 20
-2.816114
 30
0.0
 11
149.619171
 21
-2.656933
 31
0.0
  0
LINE
  5
642
330
1F
100
AcDbEntity
  8
1
  6
CONTINUOUS
370
50
 62
4
100
AcDbLine
 10
149.954041
 20
1.967408
 30
0.0
 11
149.939377
 21
2.014455
 31
0.0
  0
LINE
  5
643
330
1F
100
AcDbEntity
  8
1
  6
CONTINUOUS
370
50
 62
4
100
AcDbLine
 10
149.974823
 20
-3.155915
 30
0.0
 11
149.971619
 21
-3.145694
 31
0.0
  0
LINE
  5
644
330
1F
100
AcDbEntity
  8
1
  6
CONTINUOUS
370
50
 62
4
100
AcDbLine
 10
149.939377
 20
2.014455
 30
0.0
 11
149.923233
 21
2.064032
 31
0.0
  0
LINE
  5
645
330
1F
100
AcDbEntity
  8
1
  6
CONTINUOUS
370
50
 62
4
100
AcDbLine
 10
149.718628
 20
-2.971354
 30
0.0
 11
149.66806
 21
-2.816114
 31
0.0
  0
LINE
  5
646
330
1F
100
AcDbEntity
  8
1
  6
CONTINUOUS
370
50
 62
4
100
AcDbLine
 10
149.923233
 20
2.064032
 30
0.0
 11
149.906708
 21
2.113106
 31
0.0
  0
LINE
  5
647
330
1F
100
AcDbEntity
  8
1
  6
CONTINUOUS
370
50
 62
4
100
AcDbLine
 10
149.98378
 20
3.216302
 30
0.0
 11
149.979355
 21
3.229375
 31
0.0
  0
LINE
  5
648
330
1F
100
AcDbEntity
  8
1
  6
CONTINUOUS
370
50
 62
4
100
AcDbLine
 10
149.977982
 20
-3.165065
 30
0.0
 11
149.974823
 21
-3.155915
 31
0.0
  0
LINE
  5
649
330
1F
100
AcDbEntity
  8
1
  6
CONTINUOUS
370
50
 62
4
100
AcDbLine
 10
149.906708
 20
2.113106
 30
0.0
 11
149.890778
 21
2.159003
 31
0.0
  0
LINE
  5
64A
330
1F
100
AcDbEntity
  8
1
  6
CONTINUOUS
370
50
 62
4
100
AcDbLine
 10
149.890778
 20
2.159003
 30
0.0
 11
149.874405
 21
2.204955
 31
0.0
  0
LINE
  5
64B
330
1F
100
AcDbEntity
  8
1
  6
CONTINUOUS
370
50
 62
4
100
AcDbLine
 10
149.874405
 20
2.204955
 30
0.0
 11
149.857437
 21
2.251549
 31
0.0
  0
LINE
  5
64C
330
1F
100
AcDbEntity
  8
1
  6
CONTINUOUS
370
50
 62
4
100
AcDbLine
 10
149.857437
 20
2.251549
 30
0.0
 11
149.840012
 21
2.298376
 31
0.0
  0
LINE
  5
64D
330
1F
100
AcDbEntity
  8
1
  6
CONTINUOUS
370
50
 62
4
100
AcDbLine
 10
149.991074
 20
1.656911
 30
0.0
 11
149.987686
 21
1.66586
 31
0.0
  0
LINE
  5
64E
330
1F
100
AcDbEntity
  8
1
  6
CONTINUOUS
370
50
 62
4
100
AcDbLine
 10
149.840012
 20
2.298376
 30
0.0
 11
149.822296
 21
2.345028
 31
0.0
  0
LINE
  5
64F
330
1F
100
AcDbEntity
  8
1
  6
CONTINUOUS
370
50
 62
4
100
AcDbLine
 10
149.822296
 20
2.345028
 30
0.0
 11
149.804459
 21
2.391103
 31
0.0
  0
LINE
  5
650
330
1F
100
AcDbEntity
  8
1
  6
CONTINUOUS
370
50
 62
4
100
AcDbLine
 10
149.979355
 20
3.229375
 30
0.0
 11
149.974396
 21
3.242163
 31
0.0
  0
LINE
  5
651
330
1F
100
AcDbEntity
  8
1
  6
CONTINUOUS
370
50
 62
4
100
AcDbLine
 10
149.981232
 20
-3.17341
 30
0.0
 11
149.977982
 21
-3.165065
 31
0.0
  0
LINE
  5
652
330
1F
100
AcDbEntity
  8
1
  6
CONTINUOUS
370
50
 62
4
100
AcDbLine
 10
149.804459
 20
2.391103
 30
0.0
 11
149.786667
 21
2.43624
 31
0.0
  0
LINE
  5
653
330
1F
100
AcDbEntity
  8
1
  6
CONTINUOUS
370
50
 62
4
100
AcDbLine
 10
149.786667
 20
2.43624
 30
0.0
 11
149.769089
 21
2.480093
 31
0.0
  0
LINE
  5
654
330
1F
100
AcDbEntity
  8
1
  6
CONTINUOUS
370
50
 62
4
100
AcDbLine
 10
149.769089
 20
2.480093
 30
0.0
 11
149.751892
 21
2.522318
 31
0.0
  0
LINE
  5
655
330
1F
100
AcDbEntity
  8
1
  6
CONTINUOUS
370
50
 62
4
100
AcDbLine
 10
149.751892
 20
2.522318
 30
0.0
 11
149.735229
 21
2.562579
 31
0.0
  0
LINE
  5
656
330
1F
100
AcDbEntity
  8
1
  6
CONTINUOUS
370
50
 62
4
100
AcDbLine
 10
149.735229
 20
2.562579
 30
0.0
 11
149.718628
 21
2.602103
 31
0.0
  0
LINE
  5
657
330
1F
100
AcDbEntity
  8
1
  6
CONTINUOUS
370
50
 62
4
100
AcDbLine
 10
149.987686
 20
1.66586
 30
0.0
 11
149.98378
 21
1.674993
 31
0.0
  0
LINE
  5
658
330
1F
100
AcDbEntity
  8
1
  6
CONTINUOUS
370
50
 62
4
100
AcDbLine
 10
149.974396
 20
3.242163
 30
0.0
 11
149.968948
 21
3.254626
 31
0.0
  0
LINE
  5
659
330
1F
100
AcDbEntity
  8
1
  6
CONTINUOUS
370
50
 62
4
100
AcDbLine
 10
135.500504
 20
3.76073
 30
0.0
 11
135.495972
 21
3.770988
 31
0.0
  0
LINE
  5
65A
330
1F
100
AcDbEntity
  8
1
  6
CONTINUOUS
370
50
 62
4
100
AcDbLine
 10
149.984589
 20
-3.180662
 30
0.0
 11
149.981232
 21
-3.17341
 31
0.0
  0
LINE
  5
65B
330
1F
100
AcDbEntity
  8
1
  6
CONTINUOUS
370
50
 62
4
100
AcDbLine
 10
149.98378
 20
1.674993
 30
0.0
 11
149.979355
 21
1.684304
 31
0.0
  0
LINE
  5
65C
330
1F
100
AcDbEntity
  8
1
  6
CONTINUOUS
370
50
 62
4
100
AcDbLine
 10
149.968948
 20
3.254626
 30
0.0
 11
149.963028
 21
3.266741
 31
0.0
  0
LINE
  5
65D
330
1F
100
AcDbEntity
  8
1
  6
CONTINUOUS
370
50
 62
4
100
AcDbLine
 10
135.519196
 20
-1.405942
 30
0.0
 11
135.505646
 21
-1.378671
 31
0.0
  0
LINE
  5
65E
330
1F
100
AcDbEntity
  8
1
  6
CONTINUOUS
370
50
 62
4
100
AcDbLine
 10
149.979355
 20
1.684304
 30
0.0
 11
149.974396
 21
1.693788
 31
0.0
  0
LINE
  5
65F
330
1F
100
AcDbEntity
  8
1
  6
CONTINUOUS
370
50
 62
4
100
AcDbLine
 10
149.963028
 20
3.266741
 30
0.0
 11
149.956619
 21
3.278501
 31
0.0
  0
LINE
  5
660
330
1F
100
AcDbEntity
  8
1
  6
CONTINUOUS
370
50
 62
4
100
AcDbLine
 10
149.974396
 20
1.693788
 30
0.0
 11
149.968948
 21
1.703416
 31
0.0
  0
LINE
  5
661
330
1F
100
AcDbEntity
  8
1
  6
CONTINUOUS
370
50
 62
4
100
AcDbLine
 10
149.987915
 20
-3.186186
 30
0.0
 11
149.984589
 21
-3.180662
 31
0.0
  0
LINE
  5
662
330
1F
100
AcDbEntity
  8
1
  6
CONTINUOUS
370
50
 62
4
100
AcDbLine
 10
149.956619
 20
3.278501
 30
0.0
 11
149.949753
 21
3.289898
 31
0.0
  0
LINE
  5
663
330
1F
100
AcDbEntity
  8
1
  6
CONTINUOUS
370
50
 62
4
100
AcDbLine
 10
149.968948
 20
1.703416
 30
0.0
 11
149.963028
 21
1.71317
 31
0.0
  0
LINE
  5
664
330
1F
100
AcDbEntity
  8
1
  6
CONTINUOUS
370
50
 62
4
100
AcDbLine
 10
149.718628
 20
2.602103
 30
0.0
 11
149.664169
 21
2.687222
 31
0.0
  0
LINE
  5
665
330
1F
100
AcDbEntity
  8
1
  6
CONTINUOUS
370
50
 62
4
100
AcDbLine
 10
149.963028
 20
1.71317
 30
0.0
 11
149.956619
 21
1.723043
 31
0.0
  0
LINE
  5
666
330
1F
100
AcDbEntity
  8
1
  6
CONTINUOUS
370
50
 62
4
100
AcDbLine
 10
149.949753
 20
3.289898
 30
0.0
 11
149.942444
 21
3.300926
 31
0.0
  0
LINE
  5
667
330
1F
100
AcDbEntity
  8
1
  6
CONTINUOUS
370
50
 62
4
100
AcDbLine
 10
149.664169
 20
2.687222
 30
0.0
 11
149.611694
 21
2.764106
 31
0.0
  0
LINE
  5
668
330
1F
100
AcDbEntity
  8
1
  6
CONTINUOUS
370
50
 62
4
100
AcDbLine
 10
149.956619
 20
1.723043
 30
0.0
 11
149.949753
 21
1.733026
 31
0.0
  0
LINE
  5
669
330
1F
100
AcDbEntity
  8
1
  6
CONTINUOUS
370
50
 62
4
100
AcDbLine
 10
148.52771
 20
-3.12044
 30
0.0
 11
148.505463
 21
-3.089139
 31
0.0
  0
LINE
  5
66A
330
1F
100
AcDbEntity
  8
1
  6
CONTINUOUS
370
50
 62
4
100
AcDbLine
 10
149.735229
 20
-2.994384
 30
0.0
 11
149.718628
 21
-2.971328
 31
0.0
  0
LINE
  5
66B
330
1F
100
AcDbEntity
  8
1
  6
CONTINUOUS
370
50
 62
4
100
AcDbLine
 10
149.949753
 20
1.733026
 30
0.0
 11
149.942444
 21
1.743114
 31
0.0
  0
LINE
  5
66C
330
1F
100
AcDbEntity
  8
1
  6
CONTINUOUS
370
50
 62
4
100
AcDbLine
 10
149.942444
 20
3.300926
 30
0.0
 11
149.934692
 21
3.311577
 31
0.0
  0
LINE
  5
66D
330
1F
100
AcDbEntity
  8
1
  6
CONTINUOUS
370
50
 62
4
100
AcDbLine
 10
135.537399
 20
-1.430803
 30
0.0
 11
135.519196
 21
-1.405942
 31
0.0
  0
LINE
  5
66E
330
1F
100
AcDbEntity
  8
1
  6
CONTINUOUS
370
50
 62
4
100
AcDbLine
 10
149.611694
 20
2.764106
 30
0.0
 11
149.561325
 21
2.832477
 31
0.0
  0
LINE
  5
66F
330
1F
100
AcDbEntity
  8
1
  6
CONTINUOUS
370
50
 62
4
100
AcDbLine
 10
149.942444
 20
1.743114
 30
0.0
 11
149.934692
 21
1.753299
 31
0.0
  0
LINE
  5
670
330
1F
100
AcDbEntity
  8
1
  6
CONTINUOUS
370
50
 62
4
100
AcDbLine
 10
149.751892
 20
-3.016251
 30
0.0
 11
149.735229
 21
-2.994384
 31
0.0
  0
LINE
  5
671
330
1F
100
AcDbEntity
  8
1
  6
CONTINUOUS
370
50
 62
4
100
AcDbLine
 10
149.934692
 20
1.753299
 30
0.0
 11
149.926498
 21
1.763573
 31
0.0
  0
LINE
  5
672
330
1F
100
AcDbEntity
  8
1
  6
CONTINUOUS
370
50
 62
4
100
AcDbLine
 10
149.934692
 20
3.311577
 30
0.0
 11
149.926498
 21
3.321843
 31
0.0
  0
LINE
  5
673
330
1F
100
AcDbEntity
  8
1
  6
CONTINUOUS
370
50
 62
4
100
AcDbLine
 10
149.561325
 20
2.832477
 30
0.0
 11
149.51329
 21
2.891939
 31
0.0
  0
LINE
  5
674
330
1F
100
AcDbEntity
  8
1
  6
CONTINUOUS
370
50
 62
4
100
AcDbLine
 10
149.769089
 20
-3.03749
 30
0.0
 11
149.751892
 21
-3.016251
 31
0.0
  0
LINE
  5
675
330
1F
100
AcDbEntity
  8
1
  6
CONTINUOUS
370
50
 62
4
100
AcDbLine
 10
149.926498
 20
1.763573
 30
0.0
 11
149.91095
 21
1.78198
 31
0.0
  0
LINE
  5
676
330
1F
100
AcDbEntity
  8
1
  6
CONTINUOUS
370
50
 62
4
100
AcDbLine
 10
149.786667
 20
-3.057759
 30
0.0
 11
149.769089
 21
-3.03749
 31
0.0
  0
LINE
  5
677
330
1F
100
AcDbEntity
  8
1
  6
CONTINUOUS
370
50
 62
4
100
AcDbLine
 10
149.926498
 20
3.321843
 30
0.0
 11
149.91095
 21
3.339076
 31
0.0
  0
LINE
  5
678
330
1F
100
AcDbEntity
  8
1
  6
CONTINUOUS
370
50
 62
4
100
AcDbLine
 10
149.91095
 20
1.78198
 30
0.0
 11
149.894196
 21
1.800517
 31
0.0
  0
LINE
  5
679
330
1F
100
AcDbEntity
  8
1
  6
CONTINUOUS
370
50
 62
4
100
AcDbLine
 10
149.51329
 20
2.891939
 30
0.0
 11
149.467728
 21
2.942221
 31
0.0
  0
LINE
  5
67A
330
1F
100
AcDbEntity
  8
1
  6
CONTINUOUS
370
50
 62
4
100
AcDbLine
 10
149.804459
 20
-3.07671
 30
0.0
 11
149.786667
 21
-3.057759
 31
0.0
  0
LINE
  5
67B
330
1F
100
AcDbEntity
  8
1
  6
CONTINUOUS
370
50
 62
4
100
AcDbLine
 10
149.894196
 20
1.800517
 30
0.0
 11
149.876312
 21
1.819137
 31
0.0
  0
LINE
  5
67C
330
1F
100
AcDbEntity
  8
1
  6
CONTINUOUS
370
50
 62
4
100
AcDbLine
 10
135.559418
 20
-1.453273
 30
0.0
 11
135.537399
 21
-1.430803
 31
0.0
  0
LINE
  5
67D
330
1F
100
AcDbEntity
  8
1
  6
CONTINUOUS
370
50
 62
4
100
AcDbLine
 10
149.991074
 20
-3.189345
 30
0.0
 11
149.987915
 21
-3.186186
 31
0.0
  0
LINE
  5
67E
330
1F
100
AcDbEntity
  8
1
  6
CONTINUOUS
370
50
 62
4
100
AcDbLine
 10
135.510712
 20
3.750564
 30
0.0
 11
135.500504
 21
3.76073
 31
0.0
  0
LINE
  5
67F
330
1F
100
AcDbEntity
  8
1
  6
CONTINUOUS
370
50
 62
4
100
AcDbLine
 10
149.876312
 20
1.819137
 30
0.0
 11
149.857422
 21
1.837749
 31
0.0
  0
LINE
  5
680
330
1F
100
AcDbEntity
  8
1
  6
CONTINUOUS
370
50
 62
4
100
AcDbLine
 10
149.822296
 20
-3.093995
 30
0.0
 11
149.804459
 21
-3.07671
 31
0.0
  0
LINE
  5
681
330
1F
100
AcDbEntity
  8
1
  6
CONTINUOUS
370
50
 62
4
100
AcDbLine
 10
149.467728
 20
2.942221
 30
0.0
 11
149.424789
 21
2.983121
 31
0.0
  0
LINE
  5
682
330
1F
100
AcDbEntity
  8
1
  6
CONTINUOUS
370
50
 62
4
100
AcDbLine
 10
149.91095
 20
3.339076
 30
0.0
 11
149.894196
 21
3.354974
 31
0.0
  0
LINE
  5
683
330
1F
100
AcDbEntity
  8
1
  6
CONTINUOUS
370
50
 62
4
100
AcDbLine
 10
148.553696
 20
-3.144861
 30
0.0
 11
148.52771
 21
-3.12044
 31
0.0
  0
LINE
  5
684
330
1F
100
AcDbEntity
  8
1
  6
CONTINUOUS
370
50
 62
4
100
AcDbLine
 10
149.857422
 20
1.837749
 30
0.0
 11
149.837601
 21
1.856284
 31
0.0
  0
LINE
  5
685
330
1F
100
AcDbEntity
  8
1
  6
CONTINUOUS
370
50
 62
4
100
AcDbLine
 10
142.201279
 20
0.871668
 30
0.0
 11
142.0
 21
1.059078
 31
0.0
  0
LINE
  5
686
330
1F
100
AcDbEntity
  8
1
  6
CONTINUOUS
370
50
 62
4
100
AcDbLine
 10
149.837601
 20
1.856284
 30
0.0
 11
149.816925
 21
1.8747
 31
0.0
  0
LINE
  5
687
330
1F
100
AcDbEntity
  8
1
  6
CONTINUOUS
370
50
 62
4
100
AcDbLine
 10
149.840012
 20
-3.10931
 30
0.0
 11
149.822296
 21
-3.093995
 31
0.0
  0
LINE
  5
688
330
1F
100
AcDbEntity
  8
1
  6
CONTINUOUS
370
50
 62
4
100
AcDbLine
 10
149.816925
 20
1.8747
 30
0.0
 11
149.795456
 21
1.892954
 31
0.0
  0
LINE
  5
689
330
1F
100
AcDbEntity
  8
1
  6
CONTINUOUS
370
50
 62
4
100
AcDbLine
 10
149.894196
 20
3.354974
 30
0.0
 11
149.876312
 21
3.369522
 31
0.0
  0
LINE
  5
68A
330
1F
100
AcDbEntity
  8
1
  6
CONTINUOUS
370
50
 62
4
100
AcDbLine
 10
149.795456
 20
1.892954
 30
0.0
 11
149.773254
 21
1.911003
 31
0.0
  0
LINE
  5
68B
330
1F
100
AcDbEntity
  8
1
  6
CONTINUOUS
370
50
 62
4
100
AcDbLine
 10
135.584488
 20
-1.473482
 30
0.0
 11
135.559418
 21
-1.453273
 31
0.0
  0
LINE
  5
68C
330
1F
100
AcDbEntity
  8
1
  6
CONTINUOUS
370
50
 62
4
100
AcDbLine
 10
142.417328
 20
0.6982389999999999
 30
0.0
 11
142.201279
 21
0.871668
 31
0.0
  0
LINE
  5
68D
330
1F
100
AcDbEntity
  8
1
  6
CONTINUOUS
370
50
 62
4
100
AcDbLine
 10
149.773254
 20
1.911003
 30
0.0
 11
149.750397
 21
1.928806
 31
0.0
  0
LINE
  5
68E
330
1F
100
AcDbEntity
  8
1
  6
CONTINUOUS
370
50
 62
4
100
AcDbLine
 10
149.424789
 20
2.983121
 30
0.0
 11
149.384567
 21
3.014425
 31
0.0
  0
LINE
  5
68F
330
1F
100
AcDbEntity
  8
1
  6
CONTINUOUS
370
50
 62
4
100
AcDbLine
 10
149.857437
 20
-3.122461
 30
0.0
 11
149.840012
 21
-3.10931
 31
0.0
  0
LINE
  5
690
330
1F
100
AcDbEntity
  8
1
  6
CONTINUOUS
370
50
 62
4
100
AcDbLine
 10
150.0
 20
0.0
 30
0.0
 11
148.514191
 21
1.121094
 31
0.0
  0
LINE
  5
691
330
1F
100
AcDbEntity
  8
1
  6
CONTINUOUS
370
50
 62
4
100
AcDbLine
 10
149.750397
 20
1.928806
 30
0.0
 11
149.726913
 21
1.946319
 31
0.0
  0
LINE
  5
692
330
1F
100
AcDbEntity
  8
1
  6
CONTINUOUS
370
50
 62
4
100
AcDbLine
 10
136.651215
 20
-2.217136
 30
0.0
 11
136.329697
 21
-1.984452
 31
0.0
  0
LINE
  5
693
330
1F
100
AcDbEntity
  8
1
  6
CONTINUOUS
370
50
 62
4
100
AcDbLine
 10
149.726913
 20
1.946319
 30
0.0
 11
149.702911
 21
1.963484
 31
0.0
  0
LINE
  5
694
330
1F
100
AcDbEntity
  8
1
  6
CONTINUOUS
370
50
 62
4
100
AcDbLine
 10
136.958984
 20
-2.437112
 30
0.0
 11
136.651215
 21
-2.217136
 31
0.0
  0
LINE
  5
695
330
1F
100
AcDbEntity
  8
1
  6
CONTINUOUS
370
50
 62
4
100
AcDbLine
 10
136.329697
 20
-1.984452
 30
0.0
 11
136.000626
 21
-1.749479
 31
0.0
  0
LINE
  5
696
330
1F
100
AcDbEntity
  8
1
  6
CONTINUOUS
370
50
 62
4
100
AcDbLine
 10
142.641159
 20
0.541426
 30
0.0
 11
142.417328
 21
0.6982389999999999
 31
0.0
  0
LINE
  5
697
330
1F
100
AcDbEntity
  8
1
  6
CONTINUOUS
370
50
 62
4
100
AcDbLine
 10
149.876312
 20
3.369522
 30
0.0
 11
149.857422
 21
3.382671
 31
0.0
  0
LINE
  5
698
330
1F
100
AcDbEntity
  8
1
  6
CONTINUOUS
370
50
 62
4
100
AcDbLine
 10
137.258438
 20
-2.643715
 30
0.0
 11
136.958984
 21
-2.437112
 31
0.0
  0
LINE
  5
699
330
1F
100
AcDbEntity
  8
1
  6
CONTINUOUS
370
50
 62
4
100
AcDbLine
 10
136.000626
 20
-1.749479
 30
0.0
 11
135.670166
 21
-1.522228
 31
0.0
  0
LINE
  5
69A
330
1F
100
AcDbEntity
  8
1
  6
CONTINUOUS
370
50
 62
4
100
AcDbLine
 10
149.702911
 20
1.963484
 30
0.0
 11
149.678482
 21
1.980235
 31
0.0
  0
LINE
  5
69B
330
1F
100
AcDbEntity
  8
1
  6
CONTINUOUS
370
50
 62
4
100
AcDbLine
 10
135.611862
 20
-1.491541
 30
0.0
 11
135.584488
 21
-1.473482
 31
0.0
  0
LINE
  5
69C
330
1F
100
AcDbEntity
  8
1
  6
CONTINUOUS
370
50
 62
4
100
AcDbLine
 10
149.678482
 20
1.980235
 30
0.0
 11
149.653671
 21
1.996535
 31
0.0
  0
LINE
  5
69D
330
1F
100
AcDbEntity
  8
1
  6
CONTINUOUS
370
50
 62
4
100
AcDbLine
 10
137.555099
 20
-2.836292
 30
0.0
 11
137.258438
 21
-2.643715
 31
0.0
  0
LINE
  5
69E
330
1F
100
AcDbEntity
  8
1
  6
CONTINUOUS
370
50
 62
4
100
AcDbLine
 10
143.986603
 20
-0.9026489999999999
 30
0.0
 11
143.849136
 21
-0.813618
 31
0.0
  0
LINE
  5
69F
330
1F
100
AcDbEntity
  8
1
  6
CONTINUOUS
370
50
 62
4
100
AcDbLine
 10
143.849136
 20
-0.813618
 30
0.0
 11
143.714081
 21
-0.7263029999999999
 31
0.0
  0
LINE
  5
6A0
330
1F
100
AcDbEntity
  8
1
  6
CONTINUOUS
370
50
 62
4
100
AcDbLine
 10
138.06752
 20
2.491463
 30
0.0
 11
137.754807
 21
2.692956
 31
0.0
  0
LINE
  5
6A1
330
1F
100
AcDbEntity
  8
1
  6
CONTINUOUS
370
50
 62
4
100
AcDbLine
 10
143.714081
 20
-0.7263029999999999
 30
0.0
 11
143.578781
 21
-0.639259
 31
0.0
  0
LINE
  5
6A2
330
1F
100
AcDbEntity
  8
1
  6
CONTINUOUS
370
50
 62
4
100
AcDbLine
 10
138.392395
 20
2.283231
 30
0.0
 11
138.06752
 21
2.491463
 31
0.0
  0
LINE
  5
6A3
330
1F
100
AcDbEntity
  8
1
  6
CONTINUOUS
370
50
 62
4
100
AcDbLine
 10
143.578781
 20
-0.639259
 30
0.0
 11
143.4431
 21
-0.552514
 31
0.0
  0
LINE
  5
6A4
330
1F
100
AcDbEntity
  8
1
  6
CONTINUOUS
370
50
 62
4
100
AcDbLine
 10
149.874405
 20
-3.133268
 30
0.0
 11
149.857437
 21
-3.122461
 31
0.0
  0
LINE
  5
6A5
330
1F
100
AcDbEntity
  8
1
  6
CONTINUOUS
370
50
 62
4
100
AcDbLine
 10
143.4431
 20
-0.552514
 30
0.0
 11
143.306885
 21
-0.466098
 31
0.0
  0
LINE
  5
6A6
330
1F
100
AcDbEntity
  8
1
  6
CONTINUOUS
370
50
 62
4
100
AcDbLine
 10
144.144241
 20
-1.00258
 30
0.0
 11
143.986603
 21
-0.9026489999999999
 31
0.0
  0
LINE
  5
6A7
330
1F
100
AcDbEntity
  8
1
  6
CONTINUOUS
370
50
 62
4
100
AcDbLine
 10
135.52597
 20
3.740909
 30
0.0
 11
135.510712
 21
3.750564
 31
0.0
  0
LINE
  5
6A8
330
1F
100
AcDbEntity
  8
1
  6
CONTINUOUS
370
50
 62
4
100
AcDbLine
 10
137.754807
 20
2.692956
 30
0.0
 11
137.448792
 21
2.885668
 31
0.0
  0
LINE
  5
6A9
330
1F
100
AcDbEntity
  8
1
  6
CONTINUOUS
370
50
 62
4
100
AcDbLine
 10
149.653671
 20
1.996535
 30
0.0
 11
149.62854
 21
2.012344
 31
0.0
  0
LINE
  5
6AA
330
1F
100
AcDbEntity
  8
1
  6
CONTINUOUS
370
50
 62
4
100
AcDbLine
 10
143.306885
 20
-0.466098
 30
0.0
 11
143.169617
 21
-0.379776
 31
0.0
  0
LINE
  5
6AB
330
1F
100
AcDbEntity
  8
1
  6
CONTINUOUS
370
50
 62
4
100
AcDbLine
 10
143.169617
 20
-0.379776
 30
0.0
 11
142.995697
 21
-0.271317
 31
0.0
  0
LINE
  5
6AC
330
1F
100
AcDbEntity
  8
1
  6
CONTINUOUS
370
50
 62
4
100
AcDbLine
 10
138.721756
 20
2.079858
 30
0.0
 11
138.392395
 21
2.283231
 31
0.0
  0
LINE
  5
6AD
330
1F
100
AcDbEntity
  8
1
  6
CONTINUOUS
370
50
 62
4
100
AcDbLine
 10
142.865204
 20
0.403366
 30
0.0
 11
142.641159
 21
0.541426
 31
0.0
  0
LINE
  5
6AE
330
1F
100
AcDbEntity
  8
1
  6
CONTINUOUS
370
50
 62
4
100
AcDbLine
 10
144.328644
 20
-1.114455
 30
0.0
 11
144.144241
 21
-1.00258
 31
0.0
  0
LINE
  5
6AF
330
1F
100
AcDbEntity
  8
1
  6
CONTINUOUS
370
50
 62
4
100
AcDbLine
 10
149.62854
 20
2.012344
 30
0.0
 11
149.603149
 21
2.027624
 31
0.0
  0
LINE
  5
6B0
330
1F
100
AcDbEntity
  8
1
  6
CONTINUOUS
370
50
 62
4
100
AcDbLine
 10
137.448792
 20
2.885668
 30
0.0
 11
137.143524
 21
3.067924
 31
0.0
  0
LINE
  5
6B1
330
1F
100
AcDbEntity
  8
1
  6
CONTINUOUS
370
50
 62
4
100
AcDbLine
 10
137.854431
 20
-3.01419
 30
0.0
 11
137.555099
 21
-2.836292
 31
0.0
  0
LINE
  5
6B2
330
1F
100
AcDbEntity
  8
1
  6
CONTINUOUS
370
50
 62
4
100
AcDbLine
 10
149.857422
 20
3.382671
 30
0.0
 11
149.837601
 21
3.394405
 31
0.0
  0
LINE
  5
6B3
330
1F
100
AcDbEntity
  8
1
  6
CONTINUOUS
370
50
 62
4
100
AcDbLine
 10
148.583405
 20
-3.162387
 30
0.0
 11
148.553696
 21
-3.144861
 31
0.0
  0
LINE
  5
6B4
330
1F
100
AcDbEntity
  8
1
  6
CONTINUOUS
370
50
 62
4
100
AcDbLine
 10
145.001022
 20
-0.7789809999999999
 30
0.0
 11
144.616394
 21
-0.5521969999999999
 31
0.0
  0
LINE
  5
6B5
330
1F
100
AcDbEntity
  8
1
  6
CONTINUOUS
370
50
 62
4
100
AcDbLine
 10
145.389511
 20
-1.005473
 30
0.0
 11
145.001022
 21
-0.7789809999999999
 31
0.0
  0
LINE
  5
6B6
330
1F
100
AcDbEntity
  8
1
  6
CONTINUOUS
370
50
 62
4
100
AcDbLine
 10
139.053345
 20
1.887936
 30
0.0
 11
138.721756
 21
2.079858
 31
0.0
  0
LINE
  5
6B7
330
1F
100
AcDbEntity
  8
1
  6
CONTINUOUS
370
50
 62
4
100
AcDbLine
 10
149.384567
 20
3.014425
 30
0.0
 11
149.347336
 21
3.035862
 31
0.0
  0
LINE
  5
6B8
330
1F
100
AcDbEntity
  8
1
  6
CONTINUOUS
370
50
 62
4
100
AcDbLine
 10
149.603149
 20
2.027624
 30
0.0
 11
149.57753
 21
2.042333
 31
0.0
  0
LINE
  5
6B9
330
1F
100
AcDbEntity
  8
1
  6
CONTINUOUS
370
50
 62
4
100
AcDbLine
 10
144.543732
 20
-1.237613
 30
0.0
 11
144.328644
 21
-1.114455
 31
0.0
  0
LINE
  5
6BA
330
1F
100
AcDbEntity
  8
1
  6
CONTINUOUS
370
50
 62
4
100
AcDbLine
 10
144.616394
 20
-0.5521969999999999
 30
0.0
 11
144.214523
 21
-0.325521
 31
0.0
  0
LINE
  5
6BB
330
1F
100
AcDbEntity
  8
1
  6
CONTINUOUS
370
50
 62
4
100
AcDbLine
 10
143.103775
 20
0.269968
 30
0.0
 11
142.865204
 21
0.403366
 31
0.0
  0
LINE
  5
6BC
330
1F
100
AcDbEntity
  8
1
  6
CONTINUOUS
370
50
 62
4
100
AcDbLine
 10
145.788239
 20
-1.228251
 30
0.0
 11
145.389511
 21
-1.005473
 31
0.0
  0
LINE
  5
6BD
330
1F
100
AcDbEntity
  8
1
  6
CONTINUOUS
370
50
 62
4
100
AcDbLine
 10
135.640762
 20
-1.50754
 30
0.0
 11
135.611862
 21
-1.491541
 31
0.0
  0
LINE
  5
6BE
330
1F
100
AcDbEntity
  8
1
  6
CONTINUOUS
370
50
 62
4
100
AcDbLine
 10
142.995697
 20
-0.271317
 30
0.0
 11
142.805969
 21
-0.166533
 31
0.0
  0
LINE
  5
6BF
330
1F
100
AcDbEntity
  8
1
  6
CONTINUOUS
370
50
 62
4
100
AcDbLine
 10
137.143524
 20
3.067924
 30
0.0
 11
136.833069
 21
3.238053
 31
0.0
  0
LINE
  5
6C0
330
1F
100
AcDbEntity
  8
1
  6
CONTINUOUS
370
50
 62
4
100
AcDbLine
 10
149.57753
 20
2.042333
 30
0.0
 11
149.551773
 21
2.056431
 31
0.0
  0
LINE
  5
6C1
330
1F
100
AcDbEntity
  8
1
  6
CONTINUOUS
370
50
 62
4
100
AcDbLine
 10
142.240097
 20
2.594842
 30
0.0
 11
142.0
 21
2.724704
 31
0.0
  0
LINE
  5
6C2
330
1F
100
AcDbEntity
  8
1
  6
CONTINUOUS
370
50
 62
4
100
AcDbLine
 10
143.354385
 20
0.134572
 30
0.0
 11
143.103775
 21
0.269968
 31
0.0
  0
LINE
  5
6C3
330
1F
100
AcDbEntity
  8
1
  6
CONTINUOUS
370
50
 62
4
100
AcDbLine
 10
146.19339
 20
-1.446932
 30
0.0
 11
145.788239
 21
-1.228251
 31
0.0
  0
LINE
  5
6C4
330
1F
100
AcDbEntity
  8
1
  6
CONTINUOUS
370
50
 62
4
100
AcDbLine
 10
144.214523
 20
-0.325521
 30
0.0
 11
143.874252
 21
-0.142816
 31
0.0
  0
LINE
  5
6C5
330
1F
100
AcDbEntity
  8
1
  6
CONTINUOUS
370
50
 62
4
100
AcDbLine
 10
144.793396
 20
-1.37139
 30
0.0
 11
144.543732
 21
-1.237613
 31
0.0
  0
LINE
  5
6C6
330
1F
100
AcDbEntity
  8
1
  6
CONTINUOUS
370
50
 62
4
100
AcDbLine
 10
143.60556
 20
0.0
 30
0.0
 11
143.354385
 21
0.134572
 31
0.0
  0
LINE
  5
6C7
330
1F
100
AcDbEntity
  8
1
  6
CONTINUOUS
370
50
 62
4
100
AcDbLine
 10
143.874252
 20
-0.142816
 30
0.0
 11
143.60556
 21
0.0
 31
0.0
  0
LINE
  5
6C8
330
1F
100
AcDbEntity
  8
1
  6
CONTINUOUS
370
50
 62
4
100
AcDbLine
 10
138.161926
 20
-3.176757
 30
0.0
 11
137.854431
 21
-3.01419
 31
0.0
  0
LINE
  5
6C9
330
1F
100
AcDbEntity
  8
1
  6
CONTINUOUS
370
50
 62
4
100
AcDbLine
 10
139.390442
 20
1.709805
 30
0.0
 11
139.053345
 21
1.887936
 31
0.0
  0
LINE
  5
6CA
330
1F
100
AcDbEntity
  8
1
  6
CONTINUOUS
370
50
 62
4
100
AcDbLine
 10
142.263336
 20
3.860939
 30
0.0
 11
142.0
 21
4.0
 31
0.0
  0
LINE
  5
6CB
330
1F
100
AcDbEntity
  8
1
  6
CONTINUOUS
370
50
 62
4
100
AcDbLine
 10
146.604126
 20
-1.662916
 30
0.0
 11
146.19339
 21
-1.446932
 31
0.0
  0
LINE
  5
6CC
330
1F
100
AcDbEntity
  8
1
  6
CONTINUOUS
370
50
 62
4
100
AcDbLine
 10
149.551773
 20
2.056431
 30
0.0
 11
149.525909
 21
2.069881
 31
0.0
  0
LINE
  5
6CD
330
1F
100
AcDbEntity
  8
1
  6
CONTINUOUS
370
50
 62
4
100
AcDbLine
 10
147.017471
 20
-1.875765
 30
0.0
 11
146.604126
 21
-1.662916
 31
0.0
  0
LINE
  5
6CE
330
1F
100
AcDbEntity
  8
1
  6
CONTINUOUS
370
50
 62
4
100
AcDbLine
 10
142.306503
 20
3.042406
 30
0.0
 11
142.0
 21
3.2
 31
0.0
  0
LINE
  5
6CF
330
1F
100
AcDbEntity
  8
1
  6
CONTINUOUS
370
50
 62
4
100
AcDbLine
 10
145.829697
 20
-1.892946
 30
0.0
 11
145.428421
 21
-1.689112
 31
0.0
  0
LINE
  5
6D0
330
1F
100
AcDbEntity
  8
1
  6
CONTINUOUS
370
50
 62
4
100
AcDbLine
 10
146.227814
 20
-2.094889
 30
0.0
 11
145.829697
 21
-1.892946
 31
0.0
  0
LINE
  5
6D1
330
1F
100
AcDbEntity
  8
1
  6
CONTINUOUS
370
50
 62
4
100
AcDbLine
 10
149.890778
 20
-3.141551
 30
0.0
 11
149.874405
 21
-3.133268
 31
0.0
  0
LINE
  5
6D2
330
1F
100
AcDbEntity
  8
1
  6
CONTINUOUS
370
50
 62
4
100
AcDbLine
 10
145.083023
 20
-1.517318
 30
0.0
 11
144.793396
 21
-1.37139
 31
0.0
  0
LINE
  5
6D3
330
1F
100
AcDbEntity
  8
1
  6
CONTINUOUS
370
50
 62
4
100
AcDbLine
 10
147.431778
 20
-2.082825
 30
0.0
 11
147.017471
 21
-1.875765
 31
0.0
  0
LINE
  5
6D4
330
1F
100
AcDbEntity
  8
1
  6
CONTINUOUS
370
50
 62
4
100
AcDbLine
 10
149.837601
 20
3.394405
 30
0.0
 11
149.816925
 21
3.404731
 31
0.0
  0
LINE
  5
6D5
330
1F
100
AcDbEntity
  8
1
  6
CONTINUOUS
370
50
 62
4
100
AcDbLine
 10
145.428421
 20
-1.689112
 30
0.0
 11
145.083023
 21
-1.517318
 31
0.0
  0
LINE
  5
6D6
330
1F
100
AcDbEntity
  8
1
  6
CONTINUOUS
370
50
 62
4
100
AcDbLine
 10
149.525909
 20
2.069881
 30
0.0
 11
149.5
 21
2.082646
 31
0.0
  0
LINE
  5
6D7
330
1F
100
AcDbEntity
  8
1
  6
CONTINUOUS
370
50
 62
4
100
AcDbLine
 10
146.632004
 20
-2.292559
 30
0.0
 11
146.227814
 21
-2.094889
 31
0.0
  0
LINE
  5
6D8
330
1F
100
AcDbEntity
  8
1
  6
CONTINUOUS
370
50
 62
4
100
AcDbLine
 10
136.833069
 20
3.238053
 30
0.0
 11
136.511459
 21
3.394382
 31
0.0
  0
LINE
  5
6D9
330
1F
100
AcDbEntity
  8
1
  6
CONTINUOUS
370
50
 62
4
100
AcDbLine
 10
147.846466
 20
-2.282853
 30
0.0
 11
147.431778
 21
-2.082825
 31
0.0
  0
LINE
  5
6DA
330
1F
100
AcDbEntity
  8
1
  6
CONTINUOUS
370
50
 62
4
100
AcDbLine
 10
135.670517
 20
-1.521614
 30
0.0
 11
135.640762
 21
-1.50754
 31
0.0
  0
LINE
  5
6DB
330
1F
100
AcDbEntity
  8
1
  6
CONTINUOUS
370
50
 62
4
100
AcDbLine
 10
149.5
 20
2.082646
 30
0.0
 11
149.072128
 21
2.284259
 31
0.0
  0
LINE
  5
6DC
330
1F
100
AcDbEntity
  8
1
  6
CONTINUOUS
370
50
 62
4
100
AcDbLine
 10
149.926498
 20
1.763578
 30
0.0
 11
149.662216
 21
1.887635
 31
0.0
  0
LINE
  5
6DD
330
1F
100
AcDbEntity
  8
1
  6
CONTINUOUS
370
50
 62
4
100
AcDbLine
 10
139.736252
 20
1.547805
 30
0.0
 11
139.390442
 21
1.709805
 31
0.0
  0
LINE
  5
6DE
330
1F
100
AcDbEntity
  8
1
  6
CONTINUOUS
370
50
 62
4
100
AcDbLine
 10
147.04216
 20
-2.483414
 30
0.0
 11
146.632004
 21
-2.292559
 31
0.0
  0
LINE
  5
6DF
330
1F
100
AcDbEntity
  8
1
  6
CONTINUOUS
370
50
 62
4
100
AcDbLine
 10
148.260986
 20
-2.475176
 30
0.0
 11
147.846466
 21
-2.282853
 31
0.0
  0
LINE
  5
6E0
330
1F
100
AcDbEntity
  8
1
  6
CONTINUOUS
370
50
 62
4
100
AcDbLine
 10
135.54538
 20
3.731947
 30
0.0
 11
135.52597
 21
3.740909
 31
0.0
  0
LINE
  5
6E1
330
1F
100
AcDbEntity
  8
1
  6
CONTINUOUS
370
50
 62
4
100
AcDbLine
 10
149.662216
 20
1.887635
 30
0.0
 11
149.397873
 21
2.00944
 31
0.0
  0
LINE
  5
6E2
330
1F
100
AcDbEntity
  8
1
  6
CONTINUOUS
370
50
 62
4
100
AcDbLine
 10
138.480698
 20
-3.322342
 30
0.0
 11
138.161926
 21
-3.176757
 31
0.0
  0
LINE
  5
6E3
330
1F
100
AcDbEntity
  8
1
  6
CONTINUOUS
370
50
 62
4
100
AcDbLine
 10
149.072128
 20
2.284259
 30
0.0
 11
148.644867
 21
2.479065
 31
0.0
  0
LINE
  5
6E4
330
1F
100
AcDbEntity
  8
1
  6
CONTINUOUS
370
50
 62
4
100
AcDbLine
 10
149.397873
 20
2.00944
 30
0.0
 11
149.13353
 21
2.12876
 31
0.0
  0
LINE
  5
6E5
330
1F
100
AcDbEntity
  8
1
  6
CONTINUOUS
370
50
 62
4
100
AcDbLine
 10
148.674805
 20
-2.659109
 30
0.0
 11
148.260986
 21
-2.475176
 31
0.0
  0
LINE
  5
6E6
330
1F
100
AcDbEntity
  8
1
  6
CONTINUOUS
370
50
 62
4
100
AcDbLine
 10
147.451675
 20
-2.66523
 30
0.0
 11
147.04216
 21
-2.483414
 31
0.0
  0
LINE
  5
6E7
330
1F
100
AcDbEntity
  8
1
  6
CONTINUOUS
370
50
 62
4
100
AcDbLine
 10
149.13353
 20
2.12876
 30
0.0
 11
148.869202
 21
2.245363
 31
0.0
  0
LINE
  5
6E8
330
1F
100
AcDbEntity
  8
1
  6
CONTINUOUS
370
50
 62
4
100
AcDbLine
 10
148.644867
 20
2.479065
 30
0.0
 11
148.220108
 21
2.666154
 31
0.0
  0
LINE
  5
6E9
330
1F
100
AcDbEntity
  8
1
  6
CONTINUOUS
370
50
 62
4
100
AcDbLine
 10
148.869202
 20
2.245363
 30
0.0
 11
148.60495
 21
2.359018
 31
0.0
  0
LINE
  5
6EA
330
1F
100
AcDbEntity
  8
1
  6
CONTINUOUS
370
50
 62
4
100
AcDbLine
 10
149.510925
 20
2.642765
 30
0.0
 11
149.5
 21
2.647429
 31
0.0
  0
LINE
  5
6EB
330
1F
100
AcDbEntity
  8
1
  6
CONTINUOUS
370
50
 62
4
100
AcDbLine
 10
149.5
 20
2.647429
 30
0.0
 11
149.013397
 21
2.853509
 31
0.0
  0
LINE
  5
6EC
330
1F
100
AcDbEntity
  8
1
  6
CONTINUOUS
370
50
 62
4
100
AcDbLine
 10
147.857391
 20
-2.837027
 30
0.0
 11
147.451675
 21
-2.66523
 31
0.0
  0
LINE
  5
6ED
330
1F
100
AcDbEntity
  8
1
  6
CONTINUOUS
370
50
 62
4
100
AcDbLine
 10
149.087463
 20
-2.833774
 30
0.0
 11
148.674805
 21
-2.659109
 31
0.0
  0
LINE
  5
6EE
330
1F
100
AcDbEntity
  8
1
  6
CONTINUOUS
370
50
 62
4
100
AcDbLine
 10
148.220108
 20
2.666154
 30
0.0
 11
147.799973
 21
2.843503
 31
0.0
  0
LINE
  5
6EF
330
1F
100
AcDbEntity
  8
1
  6
CONTINUOUS
370
50
 62
4
100
AcDbLine
 10
142.805969
 20
-0.166533
 30
0.0
 11
142.612061
 21
-0.084899
 31
0.0
  0
LINE
  5
6F0
330
1F
100
AcDbEntity
  8
1
  6
CONTINUOUS
370
50
 62
4
100
AcDbLine
 10
148.60495
 20
2.359018
 30
0.0
 11
148.340805
 21
2.469492
 31
0.0
  0
LINE
  5
6F1
330
1F
100
AcDbEntity
  8
1
  6
CONTINUOUS
370
50
 62
4
100
AcDbLine
 10
136.511459
 20
3.394382
 30
0.0
 11
136.175476
 21
3.534168
 31
0.0
  0
LINE
  5
6F2
330
1F
100
AcDbEntity
  8
1
  6
CONTINUOUS
370
50
 62
4
100
AcDbLine
 10
149.816925
 20
3.404731
 30
0.0
 11
149.795456
 21
3.413654
 31
0.0
  0
LINE
  5
6F3
330
1F
100
AcDbEntity
  8
1
  6
CONTINUOUS
370
50
 62
4
100
AcDbLine
 10
142.479675
 20
2.496522
 30
0.0
 11
142.240097
 21
2.594842
 31
0.0
  0
LINE
  5
6F4
330
1F
100
AcDbEntity
  8
1
  6
CONTINUOUS
370
50
 62
4
100
AcDbLine
 10
149.522049
 20
2.638248
 30
0.0
 11
149.510925
 21
2.642765
 31
0.0
  0
LINE
  5
6F5
330
1F
100
AcDbEntity
  8
1
  6
CONTINUOUS
370
50
 62
4
100
AcDbLine
 10
148.340805
 20
2.469492
 30
0.0
 11
148.076813
 21
2.576554
 31
0.0
  0
LINE
  5
6F6
330
1F
100
AcDbEntity
  8
1
  6
CONTINUOUS
370
50
 62
4
100
AcDbLine
 10
140.09404
 20
1.404276
 30
0.0
 11
139.736252
 21
1.547805
 31
0.0
  0
LINE
  5
6F7
330
1F
100
AcDbEntity
  8
1
  6
CONTINUOUS
370
50
 62
4
100
AcDbLine
 10
149.5
 20
-2.998519
 30
0.0
 11
149.087463
 21
-2.833774
 31
0.0
  0
LINE
  5
6F8
330
1F
100
AcDbEntity
  8
1
  6
CONTINUOUS
370
50
 62
4
100
AcDbLine
 10
148.263474
 20
-2.998577
 30
0.0
 11
147.857391
 21
-2.837027
 31
0.0
  0
LINE
  5
6F9
330
1F
100
AcDbEntity
  8
1
  6
CONTINUOUS
370
50
 62
4
100
AcDbLine
 10
147.799973
 20
2.843503
 30
0.0
 11
147.379395
 21
3.010572
 31
0.0
  0
LINE
  5
6FA
330
1F
100
AcDbEntity
  8
1
  6
CONTINUOUS
370
50
 62
4
100
AcDbLine
 10
149.013397
 20
2.853509
 30
0.0
 11
148.526306
 21
3.044809
 31
0.0
  0
LINE
  5
6FB
330
1F
100
AcDbEntity
  8
1
  6
CONTINUOUS
370
50
 62
4
100
AcDbLine
 10
148.076813
 20
2.576554
 30
0.0
 11
147.812912
 21
2.679932
 31
0.0
  0
LINE
  5
6FC
330
1F
100
AcDbEntity
  8
1
  6
CONTINUOUS
370
50
 62
4
100
AcDbLine
 10
138.801468
 20
-3.445651
 30
0.0
 11
138.480698
 21
-3.322342
 31
0.0
  0
LINE
  5
6FD
330
1F
100
AcDbEntity
  8
1
  6
CONTINUOUS
370
50
 62
4
100
AcDbLine
 10
149.533401
 20
2.633898
 30
0.0
 11
149.522049
 21
2.638248
 31
0.0
  0
LINE
  5
6FE
330
1F
100
AcDbEntity
  8
1
  6
CONTINUOUS
370
50
 62
4
100
AcDbLine
 10
147.812912
 20
2.679932
 30
0.0
 11
147.548859
 21
2.779332
 31
0.0
  0
LINE
  5
6FF
330
1F
100
AcDbEntity
  8
1
  6
CONTINUOUS
370
50
 62
4
100
AcDbLine
 10
149.992569
 20
1.365218
 30
0.0
 11
149.685135
 21
1.479744
 31
0.0
  0
LINE
  5
700
330
1F
100
AcDbEntity
  8
1
  6
CONTINUOUS
370
50
 62
4
100
AcDbLine
 10
147.379395
 20
3.010572
 30
0.0
 11
146.954895
 21
3.166862
 31
0.0
  0
LINE
  5
701
330
1F
100
AcDbEntity
  8
1
  6
CONTINUOUS
370
50
 62
4
100
AcDbLine
 10
148.674057
 20
-3.14945
 30
0.0
 11
148.263474
 21
-2.998577
 31
0.0
  0
LINE
  5
702
330
1F
100
AcDbEntity
  8
1
  6
CONTINUOUS
370
50
 62
4
100
AcDbLine
 10
149.685135
 20
1.479744
 30
0.0
 11
149.37764
 21
1.591876
 31
0.0
  0
LINE
  5
703
330
1F
100
AcDbEntity
  8
1
  6
CONTINUOUS
370
50
 62
4
100
AcDbLine
 10
142.525726
 20
3.765743
 30
0.0
 11
142.263336
 21
3.860939
 31
0.0
  0
LINE
  5
704
330
1F
100
AcDbEntity
  8
1
  6
CONTINUOUS
370
50
 62
4
100
AcDbLine
 10
149.510925
 20
-3.002472
 30
0.0
 11
149.5
 21
-2.998519
 31
0.0
  0
LINE
  5
705
330
1F
100
AcDbEntity
  8
1
  6
CONTINUOUS
370
50
 62
4
100
AcDbLine
 10
135.568161
 20
3.723706
 30
0.0
 11
135.54538
 21
3.731947
 31
0.0
  0
LINE
  5
706
330
1F
100
AcDbEntity
  8
1
  6
CONTINUOUS
370
50
 62
4
100
AcDbLine
 10
147.548859
 20
2.779332
 30
0.0
 11
147.284622
 21
2.874619
 31
0.0
  0
LINE
  5
707
330
1F
100
AcDbEntity
  8
1
  6
CONTINUOUS
370
50
 62
4
100
AcDbLine
 10
149.544937
 20
2.629739
 30
0.0
 11
149.533401
 21
2.633898
 31
0.0
  0
LINE
  5
708
330
1F
100
AcDbEntity
  8
1
  6
CONTINUOUS
370
50
 62
4
100
AcDbLine
 10
148.526306
 20
3.044809
 30
0.0
 11
148.03772
 21
3.22038
 31
0.0
  0
LINE
  5
709
330
1F
100
AcDbEntity
  8
1
  6
CONTINUOUS
370
50
 62
4
100
AcDbLine
 10
149.37764
 20
1.591876
 30
0.0
 11
149.070129
 21
1.701274
 31
0.0
  0
LINE
  5
70A
330
1F
100
AcDbEntity
  8
1
  6
CONTINUOUS
370
50
 62
4
100
AcDbLine
 10
149.906708
 20
-3.147171
 30
0.0
 11
149.890778
 21
-3.141551
 31
0.0
  0
LINE
  5
70B
330
1F
100
AcDbEntity
  8
1
  6
CONTINUOUS
370
50
 62
4
100
AcDbLine
 10
149.070129
 20
1.701274
 30
0.0
 11
148.762665
 21
1.807597
 31
0.0
  0
LINE
  5
70C
330
1F
100
AcDbEntity
  8
1
  6
CONTINUOUS
370
50
 62
4
100
AcDbLine
 10
147.284622
 20
2.874619
 30
0.0
 11
147.020203
 21
2.96567
 31
0.0
  0
LINE
  5
70D
330
1F
100
AcDbEntity
  8
1
  6
CONTINUOUS
370
50
 62
4
100
AcDbLine
 10
136.175476
 20
3.534168
 30
0.0
 11
135.837067
 21
3.650639
 31
0.0
  0
LINE
  5
70E
330
1F
100
AcDbEntity
  8
1
  6
CONTINUOUS
370
50
 62
4
100
AcDbLine
 10
146.954895
 20
3.166862
 30
0.0
 11
146.530426
 21
3.311347
 31
0.0
  0
LINE
  5
70F
330
1F
100
AcDbEntity
  8
1
  6
CONTINUOUS
370
50
 62
4
100
AcDbLine
 10
149.795456
 20
3.413654
 30
0.0
 11
149.773254
 21
3.421182
 31
0.0
  0
LINE
  5
710
330
1F
100
AcDbEntity
  8
1
  6
CONTINUOUS
370
50
 62
4
100
AcDbLine
 10
149.347336
 20
3.035862
 30
0.0
 11
149.313248
 21
3.047355
 31
0.0
  0
LINE
  5
711
330
1F
100
AcDbEntity
  8
1
  6
CONTINUOUS
370
50
 62
4
100
AcDbLine
 10
149.556656
 20
2.62579
 30
0.0
 11
149.544937
 21
2.629739
 31
0.0
  0
LINE
  5
712
330
1F
100
AcDbEntity
  8
1
  6
CONTINUOUS
370
50
 62
4
100
AcDbLine
 10
149.086777
 20
-3.288336
 30
0.0
 11
148.674057
 21
-3.14945
 31
0.0
  0
LINE
  5
713
330
1F
100
AcDbEntity
  8
1
  6
CONTINUOUS
370
50
 62
4
100
AcDbLine
 10
148.762665
 20
1.807597
 30
0.0
 11
148.455292
 21
1.910503
 31
0.0
  0
LINE
  5
714
330
1F
100
AcDbEntity
  8
1
  6
CONTINUOUS
370
50
 62
4
100
AcDbLine
 10
140.464096
 20
1.28245
 30
0.0
 11
140.09404
 21
1.404276
 31
0.0
  0
LINE
  5
715
330
1F
100
AcDbEntity
  8
1
  6
CONTINUOUS
370
50
 62
4
100
AcDbLine
 10
148.669739
 20
1.115326
 30
0.0
 11
148.362335
 21
1.216352
 31
0.0
  0
LINE
  5
716
330
1F
100
AcDbEntity
  8
1
  6
CONTINUOUS
370
50
 62
4
100
AcDbLine
 10
147.020203
 20
2.96567
 30
0.0
 11
146.755569
 21
3.052336
 31
0.0
  0
LINE
  5
717
330
1F
100
AcDbEntity
  8
1
  6
CONTINUOUS
370
50
 62
4
100
AcDbLine
 10
148.03772
 20
3.22038
 30
0.0
 11
147.548553
 21
3.379447
 31
0.0
  0
LINE
  5
718
330
1F
100
AcDbEntity
  8
1
  6
CONTINUOUS
370
50
 62
4
100
AcDbLine
 10
148.455292
 20
1.910503
 30
0.0
 11
148.148041
 21
2.009653
 31
0.0
  0
LINE
  5
719
330
1F
100
AcDbEntity
  8
1
  6
CONTINUOUS
370
50
 62
4
100
AcDbLine
 10
142.612106
 20
2.94424
 30
0.0
 11
142.306503
 21
3.042406
 31
0.0
  0
LINE
  5
71A
330
1F
100
AcDbEntity
  8
1
  6
CONTINUOUS
370
50
 62
4
100
AcDbLine
 10
148.362335
 20
1.216352
 30
0.0
 11
148.055115
 21
1.314775
 31
0.0
  0
LINE
  5
71B
330
1F
100
AcDbEntity
  8
1
  6
CONTINUOUS
370
50
 62
4
100
AcDbLine
 10
148.616791
 20
-3.173002
 30
0.0
 11
148.583405
 21
-3.162387
 31
0.0
  0
LINE
  5
71C
330
1F
100
AcDbEntity
  8
1
  6
CONTINUOUS
370
50
 62
4
100
AcDbLine
 10
139.125107
 20
-3.547952
 30
0.0
 11
138.801468
 21
-3.445651
 31
0.0
  0
LINE
  5
71D
330
1F
100
AcDbEntity
  8
1
  6
CONTINUOUS
370
50
 62
4
100
AcDbLine
 10
146.530426
 20
3.311347
 30
0.0
 11
146.11499
 21
3.441886
 31
0.0
  0
LINE
  5
71E
330
1F
100
AcDbEntity
  8
1
  6
CONTINUOUS
370
50
 62
4
100
AcDbLine
 10
149.522049
 20
-3.005953
 30
0.0
 11
149.510925
 21
-3.002472
 31
0.0
  0
LINE
  5
71F
330
1F
100
AcDbEntity
  8
1
  6
CONTINUOUS
370
50
 62
4
100
AcDbLine
 10
149.568497
 20
2.62209
 30
0.0
 11
149.556656
 21
2.62579
 31
0.0
  0
LINE
  5
720
330
1F
100
AcDbEntity
  8
1
  6
CONTINUOUS
370
50
 62
4
100
AcDbLine
 10
148.055115
 20
1.314775
 30
0.0
 11
147.74794
 21
1.410589
 31
0.0
  0
LINE
  5
721
330
1F
100
AcDbEntity
  8
1
  6
CONTINUOUS
370
50
 62
4
100
AcDbLine
 10
146.755569
 20
3.052336
 30
0.0
 11
146.490768
 21
3.134351
 31
0.0
  0
LINE
  5
722
330
1F
100
AcDbEntity
  8
1
  6
CONTINUOUS
370
50
 62
4
100
AcDbLine
 10
148.148041
 20
2.009653
 30
0.0
 11
147.840942
 21
2.104743
 31
0.0
  0
LINE
  5
723
330
1F
100
AcDbEntity
  8
1
  6
CONTINUOUS
370
50
 62
4
100
AcDbLine
 10
149.5
 20
-3.415053
 30
0.0
 11
149.086777
 21
-3.288336
 31
0.0
  0
LINE
  5
724
330
1F
100
AcDbEntity
  8
1
  6
CONTINUOUS
370
50
 62
4
100
AcDbLine
 10
135.583633
 20
3.718963
 30
0.0
 11
135.568161
 21
3.723706
 31
0.0
  0
LINE
  5
725
330
1F
100
AcDbEntity
  8
1
  6
CONTINUOUS
370
50
 62
4
100
AcDbLine
 10
135.837067
 20
3.650639
 30
0.0
 11
135.809311
 21
3.659146
 31
0.0
  0
LINE
  5
726
330
1F
100
AcDbEntity
  8
1
  6
CONTINUOUS
370
50
 62
4
100
AcDbLine
 10
147.74794
 20
1.410589
 30
0.0
 11
147.440582
 21
1.503748
 31
0.0
  0
LINE
  5
727
330
1F
100
AcDbEntity
  8
1
  6
CONTINUOUS
370
50
 62
4
100
AcDbLine
 10
135.809311
 20
3.659146
 30
0.0
 11
135.78154
 21
3.667506
 31
0.0
  0
LINE
  5
728
330
1F
100
AcDbEntity
  8
1
  6
CONTINUOUS
370
50
 62
4
100
AcDbLine
 10
147.840942
 20
2.104743
 30
0.0
 11
147.533691
 21
2.195697
 31
0.0
  0
LINE
  5
729
330
1F
100
AcDbEntity
  8
1
  6
CONTINUOUS
370
50
 62
4
100
AcDbLine
 10
135.78154
 20
3.667506
 30
0.0
 11
135.753738
 21
3.675721
 31
0.0
  0
LINE
  5
72A
330
1F
100
AcDbEntity
  8
1
  6
CONTINUOUS
370
50
 62
4
100
AcDbLine
 10
147.440582
 20
1.503748
 30
0.0
 11
147.133057
 21
1.593923
 31
0.0
  0
LINE
  5
72B
330
1F
100
AcDbEntity
  8
1
  6
CONTINUOUS
370
50
 62
4
100
AcDbLine
 10
146.490768
 20
3.134351
 30
0.0
 11
146.225815
 21
3.211411
 31
0.0
  0
LINE
  5
72C
330
1F
100
AcDbEntity
  8
1
  6
CONTINUOUS
370
50
 62
4
100
AcDbLine
 10
147.548553
 20
3.379447
 30
0.0
 11
147.059723
 21
3.52145
 31
0.0
  0
LINE
  5
72D
330
1F
100
AcDbEntity
  8
1
  6
CONTINUOUS
370
50
 62
4
100
AcDbLine
 10
135.753738
 20
3.675721
 30
0.0
 11
135.725906
 21
3.683792
 31
0.0
  0
LINE
  5
72E
330
1F
100
AcDbEntity
  8
1
  6
CONTINUOUS
370
50
 62
4
100
AcDbLine
 10
149.580399
 20
2.618662
 30
0.0
 11
149.568497
 21
2.62209
 31
0.0
  0
LINE
  5
72F
330
1F
100
AcDbEntity
  8
1
  6
CONTINUOUS
370
50
 62
4
100
AcDbLine
 10
136.776291
 20
3.380413
 30
0.0
 11
135.865021
 21
3.641871
 31
0.0
  0
LINE
  5
730
330
1F
100
AcDbEntity
  8
1
  6
CONTINUOUS
370
50
 62
4
100
AcDbLine
 10
135.725906
 20
3.683792
 30
0.0
 11
135.698059
 21
3.69172
 31
0.0
  0
LINE
  5
731
330
1F
100
AcDbEntity
  8
1
  6
CONTINUOUS
370
50
 62
4
100
AcDbLine
 10
147.133057
 20
1.593923
 30
0.0
 11
146.825363
 21
1.680781
 31
0.0
  0
LINE
  5
732
330
1F
100
AcDbEntity
  8
1
  6
CONTINUOUS
370
50
 62
4
100
AcDbLine
 10
147.533691
 20
2.195697
 30
0.0
 11
147.226242
 21
2.282327
 31
0.0
  0
LINE
  5
733
330
1F
100
AcDbEntity
  8
1
  6
CONTINUOUS
370
50
 62
4
100
AcDbLine
 10
146.11499
 20
3.441886
 30
0.0
 11
145.701187
 21
3.558223
 31
0.0
  0
LINE
  5
734
330
1F
100
AcDbEntity
  8
1
  6
CONTINUOUS
370
50
 62
4
100
AcDbLine
 10
142.719009
 20
2.429299
 30
0.0
 11
142.479675
 21
2.496522
 31
0.0
  0
LINE
  5
735
330
1F
100
AcDbEntity
  8
1
  6
CONTINUOUS
370
50
 62
4
100
AcDbLine
 10
142.612061
 20
-0.084899
 30
0.0
 11
142.409744
 21
-0.028222
 31
0.0
  0
LINE
  5
736
330
1F
100
AcDbEntity
  8
1
  6
CONTINUOUS
370
50
 62
4
100
AcDbLine
 10
135.698059
 20
3.69172
 30
0.0
 11
135.670166
 21
3.699508
 31
0.0
  0
LINE
  5
737
330
1F
100
AcDbEntity
  8
1
  6
CONTINUOUS
370
50
 62
4
100
AcDbLine
 10
135.599976
 20
3.714491
 30
0.0
 11
135.583633
 21
3.718963
 31
0.0
  0
LINE
  5
738
330
1F
100
AcDbEntity
  8
1
  6
CONTINUOUS
370
50
 62
4
100
AcDbLine
 10
146.225815
 20
3.211411
 30
0.0
 11
145.960754
 21
3.283233
 31
0.0
  0
LINE
  5
739
330
1F
100
AcDbEntity
  8
1
  6
CONTINUOUS
370
50
 62
4
100
AcDbLine
 10
146.825363
 20
1.680781
 30
0.0
 11
146.517532
 21
1.763989
 31
0.0
  0
LINE
  5
73A
330
1F
100
AcDbEntity
  8
1
  6
CONTINUOUS
370
50
 62
4
100
AcDbLine
 10
149.525909
 20
-3.42202
 30
0.0
 11
149.5
 21
-3.415053
 31
0.0
  0
LINE
  5
73B
330
1F
100
AcDbEntity
  8
1
  6
CONTINUOUS
370
50
 62
4
100
AcDbLine
 10
149.773254
 20
3.421182
 30
0.0
 11
149.750397
 21
3.427321
 31
0.0
  0
LINE
  5
73C
330
1F
100
AcDbEntity
  8
1
  6
CONTINUOUS
370
50
 62
4
100
AcDbLine
 10
147.226242
 20
2.282327
 30
0.0
 11
146.918594
 21
2.364413
 31
0.0
  0
LINE
  5
73D
330
1F
100
AcDbEntity
  8
1
  6
CONTINUOUS
370
50
 62
4
100
AcDbLine
 10
149.592361
 20
2.615517
 30
0.0
 11
149.580399
 21
2.618662
 31
0.0
  0
LINE
  5
73E
330
1F
100
AcDbEntity
  8
1
  6
CONTINUOUS
370
50
 62
4
100
AcDbLine
 10
149.533401
 20
-3.008928
 30
0.0
 11
149.522049
 21
-3.005953
 31
0.0
  0
LINE
  5
73F
330
1F
100
AcDbEntity
  8
1
  6
CONTINUOUS
370
50
 62
4
100
AcDbLine
 10
146.517532
 20
1.763989
 30
0.0
 11
146.209549
 21
1.843213
 31
0.0
  0
LINE
  5
740
330
1F
100
AcDbEntity
  8
1
  6
CONTINUOUS
370
50
 62
4
100
AcDbLine
 10
145.960754
 20
3.283233
 30
0.0
 11
145.69635
 21
3.350985
 31
0.0
  0
LINE
  5
741
330
1F
100
AcDbEntity
  8
1
  6
CONTINUOUS
370
50
 62
4
100
AcDbLine
 10
140.840607
 20
1.186062
 30
0.0
 11
140.464096
 21
1.28245
 31
0.0
  0
LINE
  5
742
330
1F
100
AcDbEntity
  8
1
  6
CONTINUOUS
370
50
 62
4
100
AcDbLine
 10
147.059723
 20
3.52145
 30
0.0
 11
146.572128
 21
3.645537
 31
0.0
  0
LINE
  5
743
330
1F
100
AcDbEntity
  8
1
  6
CONTINUOUS
370
50
 62
4
100
AcDbLine
 10
139.454605
 20
-3.631564
 30
0.0
 11
139.125107
 21
-3.547952
 31
0.0
  0
LINE
  5
744
330
1F
100
AcDbEntity
  8
1
  6
CONTINUOUS
370
50
 62
4
100
AcDbLine
 10
146.918594
 20
2.364413
 30
0.0
 11
146.610718
 21
2.441659
 31
0.0
  0
LINE
  5
745
330
1F
100
AcDbEntity
  8
1
  6
CONTINUOUS
370
50
 62
4
100
AcDbLine
 10
135.616989
 20
3.710289
 30
0.0
 11
135.599976
 21
3.714491
 31
0.0
  0
LINE
  5
746
330
1F
100
AcDbEntity
  8
1
  6
CONTINUOUS
370
50
 62
4
100
AcDbLine
 10
145.69635
 20
3.350985
 30
0.0
 11
145.432938
 21
3.415902
 31
0.0
  0
LINE
  5
747
330
1F
100
AcDbEntity
  8
1
  6
CONTINUOUS
370
50
 62
4
100
AcDbLine
 10
146.209549
 20
1.843213
 30
0.0
 11
145.901505
 21
1.918267
 31
0.0
  0
LINE
  5
748
330
1F
100
AcDbEntity
  8
1
  6
CONTINUOUS
370
50
 62
4
100
AcDbLine
 10
145.701187
 20
3.558223
 30
0.0
 11
145.298203
 21
3.655736
 31
0.0
  0
LINE
  5
749
330
1F
100
AcDbEntity
  8
1
  6
CONTINUOUS
370
50
 62
4
100
AcDbLine
 10
145.432938
 20
3.415902
 30
0.0
 11
145.170303
 21
3.478541
 31
0.0
  0
LINE
  5
74A
330
1F
100
AcDbEntity
  8
1
  6
CONTINUOUS
370
50
 62
4
100
AcDbLine
 10
149.60437
 20
2.612665
 30
0.0
 11
149.592361
 21
2.615517
 31
0.0
  0
LINE
  5
74B
330
1F
100
AcDbEntity
  8
1
  6
CONTINUOUS
370
50
 62
4
100
AcDbLine
 10
145.901505
 20
1.918267
 30
0.0
 11
145.594193
 21
1.991249
 31
0.0
  0
LINE
  5
74C
330
1F
100
AcDbEntity
  8
1
  6
CONTINUOUS
370
50
 62
4
100
AcDbLine
 10
146.643906
 20
3.628765
 30
0.0
 11
146.572159
 21
3.645695
 31
0.0
  0
LINE
  5
74D
330
1F
100
AcDbEntity
  8
1
  6
CONTINUOUS
370
50
 62
4
100
AcDbLine
 10
145.594193
 20
1.991249
 30
0.0
 11
145.287689
 21
2.063417
 31
0.0
  0
LINE
  5
74E
330
1F
100
AcDbEntity
  8
1
  6
CONTINUOUS
370
50
 62
4
100
AcDbLine
 10
146.715668
 20
3.611881
 30
0.0
 11
146.643906
 21
3.628765
 31
0.0
  0
LINE
  5
74F
330
1F
100
AcDbEntity
  8
1
  6
CONTINUOUS
370
50
 62
4
100
AcDbLine
 10
145.287689
 20
2.063417
 30
0.0
 11
144.981796
 21
2.135371
 31
0.0
  0
LINE
  5
750
330
1F
100
AcDbEntity
  8
1
  6
CONTINUOUS
370
50
 62
4
100
AcDbLine
 10
146.787415
 20
3.595045
 30
0.0
 11
146.715668
 21
3.611881
 31
0.0
  0
LINE
  5
751
330
1F
100
AcDbEntity
  8
1
  6
CONTINUOUS
370
50
 62
4
100
AcDbLine
 10
146.859161
 20
3.57826
 30
0.0
 11
146.787415
 21
3.595045
 31
0.0
  0
LINE
  5
752
330
1F
100
AcDbEntity
  8
1
  6
CONTINUOUS
370
50
 62
4
100
AcDbLine
 10
137.724121
 20
3.158954
 30
0.0
 11
136.776291
 21
3.380413
 31
0.0
  0
LINE
  5
753
330
1F
100
AcDbEntity
  8
1
  6
CONTINUOUS
370
50
 62
4
100
AcDbLine
 10
146.610718
 20
2.441659
 30
0.0
 11
146.302673
 21
2.513614
 31
0.0
  0
LINE
  5
754
330
1F
100
AcDbEntity
  8
1
  6
CONTINUOUS
370
50
 62
4
100
AcDbLine
 10
146.930908
 20
3.561529
 30
0.0
 11
146.859161
 21
3.57826
 31
0.0
  0
LINE
  5
755
330
1F
100
AcDbEntity
  8
1
  6
CONTINUOUS
370
50
 62
4
100
AcDbLine
 10
147.00264
 20
3.544855
 30
0.0
 11
146.930908
 21
3.561529
 31
0.0
  0
LINE
  5
756
330
1F
100
AcDbEntity
  8
1
  6
CONTINUOUS
370
50
 62
4
100
AcDbLine
 10
147.074387
 20
3.528241
 30
0.0
 11
147.00264
 21
3.544855
 31
0.0
  0
LINE
  5
757
330
1F
100
AcDbEntity
  8
1
  6
CONTINUOUS
370
50
 62
4
100
AcDbLine
 10
147.146118
 20
3.51169
 30
0.0
 11
147.074387
 21
3.528241
 31
0.0
  0
LINE
  5
758
330
1F
100
AcDbEntity
  8
1
  6
CONTINUOUS
370
50
 62
4
100
AcDbLine
 10
145.170303
 20
3.478541
 30
0.0
 11
144.908081
 21
3.539002
 31
0.0
  0
LINE
  5
759
330
1F
100
AcDbEntity
  8
1
  6
CONTINUOUS
370
50
 62
4
100
AcDbLine
 10
147.20752
 20
3.497574
 30
0.0
 11
147.146118
 21
3.51169
 31
0.0
  0
LINE
  5
75A
330
1F
100
AcDbEntity
  8
1
  6
CONTINUOUS
370
50
 62
4
100
AcDbLine
 10
147.268936
 20
3.483509
 30
0.0
 11
147.20752
 21
3.497574
 31
0.0
  0
LINE
  5
75B
330
1F
100
AcDbEntity
  8
1
  6
CONTINUOUS
370
50
 62
4
100
AcDbLine
 10
147.330338
 20
3.469497
 30
0.0
 11
147.268936
 21
3.483509
 31
0.0
  0
LINE
  5
75C
330
1F
100
AcDbEntity
  8
1
  6
CONTINUOUS
370
50
 62
4
100
AcDbLine
 10
147.391739
 20
3.455541
 30
0.0
 11
147.330338
 21
3.469497
 31
0.0
  0
LINE
  5
75D
330
1F
100
AcDbEntity
  8
1
  6
CONTINUOUS
370
50
 62
4
100
AcDbLine
 10
147.453125
 20
3.441644
 30
0.0
 11
147.391739
 21
3.455541
 31
0.0
  0
LINE
  5
75E
330
1F
100
AcDbEntity
  8
1
  6
CONTINUOUS
370
50
 62
4
100
AcDbLine
 10
147.514511
 20
3.427808
 30
0.0
 11
147.453125
 21
3.441644
 31
0.0
  0
LINE
  5
75F
330
1F
100
AcDbEntity
  8
1
  6
CONTINUOUS
370
50
 62
4
100
AcDbLine
 10
142.237473
 20
-3.910625
 30
0.0
 11
142.0
 21
-3.857247
 31
0.0
  0
LINE
  5
760
330
1F
100
AcDbEntity
  8
1
  6
CONTINUOUS
370
50
 62
4
100
AcDbLine
 10
147.575897
 20
3.414037
 30
0.0
 11
147.514511
 21
3.427808
 31
0.0
  0
LINE
  5
761
330
1F
100
AcDbEntity
  8
1
  6
CONTINUOUS
370
50
 62
4
100
AcDbLine
 10
135.634521
 20
3.706357
 30
0.0
 11
135.616989
 21
3.710289
 31
0.0
  0
LINE
  5
762
330
1F
100
AcDbEntity
  8
1
  6
CONTINUOUS
370
50
 62
4
100
AcDbLine
 10
147.637283
 20
3.400331
 30
0.0
 11
147.575897
 21
3.414037
 31
0.0
  0
LINE
  5
763
330
1F
100
AcDbEntity
  8
1
  6
CONTINUOUS
370
50
 62
4
100
AcDbLine
 10
149.551773
 20
-3.427768
 30
0.0
 11
149.525909
 21
-3.42202
 31
0.0
  0
LINE
  5
764
330
1F
100
AcDbEntity
  8
1
  6
CONTINUOUS
370
50
 62
4
100
AcDbLine
 10
147.728821
 20
3.380022
 30
0.0
 11
147.637283
 21
3.400331
 31
0.0
  0
LINE
  5
765
330
1F
100
AcDbEntity
  8
1
  6
CONTINUOUS
370
50
 62
4
100
AcDbLine
 10
147.820343
 20
3.359878
 30
0.0
 11
147.728821
 21
3.380022
 31
0.0
  0
LINE
  5
766
330
1F
100
AcDbEntity
  8
1
  6
CONTINUOUS
370
50
 62
4
100
AcDbLine
 10
147.91185
 20
3.339909
 30
0.0
 11
147.820343
 21
3.359878
 31
0.0
  0
LINE
  5
767
330
1F
100
AcDbEntity
  8
1
  6
CONTINUOUS
370
50
 62
4
100
AcDbLine
 10
144.981796
 20
2.135371
 30
0.0
 11
144.675064
 21
2.201787
 31
0.0
  0
LINE
  5
768
330
1F
100
AcDbEntity
  8
1
  6
CONTINUOUS
370
50
 62
4
100
AcDbLine
 10
148.003342
 20
3.320125
 30
0.0
 11
147.91185
 21
3.339909
 31
0.0
  0
LINE
  5
769
330
1F
100
AcDbEntity
  8
1
  6
CONTINUOUS
370
50
 62
4
100
AcDbLine
 10
146.302673
 20
2.513614
 30
0.0
 11
145.994507
 21
2.579813
 31
0.0
  0
LINE
  5
76A
330
1F
100
AcDbEntity
  8
1
  6
CONTINUOUS
370
50
 62
4
100
AcDbLine
 10
148.097885
 20
3.299823
 30
0.0
 11
148.003342
 21
3.320125
 31
0.0
  0
LINE
  5
76B
330
1F
100
AcDbEntity
  8
1
  6
CONTINUOUS
370
50
 62
4
100
AcDbLine
 10
146.572128
 20
3.645537
 30
0.0
 11
146.029816
 21
3.761935
 31
0.0
  0
LINE
  5
76C
330
1F
100
AcDbEntity
  8
1
  6
CONTINUOUS
370
50
 62
4
100
AcDbLine
 10
148.192429
 20
3.279607
 30
0.0
 11
148.097885
 21
3.299823
 31
0.0
  0
LINE
  5
76D
330
1F
100
AcDbEntity
  8
1
  6
CONTINUOUS
370
50
 62
4
100
AcDbLine
 10
148.286972
 20
3.259479
 30
0.0
 11
148.192429
 21
3.279607
 31
0.0
  0
LINE
  5
76E
330
1F
100
AcDbEntity
  8
1
  6
CONTINUOUS
370
50
 62
4
100
AcDbLine
 10
148.381531
 20
3.239439
 30
0.0
 11
148.286972
 21
3.259479
 31
0.0
  0
LINE
  5
76F
330
1F
100
AcDbEntity
  8
1
  6
CONTINUOUS
370
50
 62
4
100
AcDbLine
 10
149.61644
 20
2.610117
 30
0.0
 11
149.60437
 21
2.612665
 31
0.0
  0
LINE
  5
770
330
1F
100
AcDbEntity
  8
1
  6
CONTINUOUS
370
50
 62
4
100
AcDbLine
 10
148.47612
 20
3.219486
 30
0.0
 11
148.381531
 21
3.239439
 31
0.0
  0
LINE
  5
771
330
1F
100
AcDbEntity
  8
1
  6
CONTINUOUS
370
50
 62
4
100
AcDbLine
 10
149.544937
 20
-3.01136
 30
0.0
 11
149.533401
 21
-3.008928
 31
0.0
  0
LINE
  5
772
330
1F
100
AcDbEntity
  8
1
  6
CONTINUOUS
370
50
 62
4
100
AcDbLine
 10
148.570709
 20
3.199625
 30
0.0
 11
148.47612
 21
3.219486
 31
0.0
  0
LINE
  5
773
330
1F
100
AcDbEntity
  8
1
  6
CONTINUOUS
370
50
 62
4
100
AcDbLine
 10
148.665298
 20
3.17986
 30
0.0
 11
148.570709
 21
3.199625
 31
0.0
  0
LINE
  5
774
330
1F
100
AcDbEntity
  8
1
  6
CONTINUOUS
370
50
 62
4
100
AcDbLine
 10
148.759903
 20
3.160193
 30
0.0
 11
148.665298
 21
3.17986
 31
0.0
  0
LINE
  5
775
330
1F
100
AcDbEntity
  8
1
  6
CONTINUOUS
370
50
 62
4
100
AcDbLine
 10
145.298203
 20
3.655736
 30
0.0
 11
144.964279
 21
3.72487
 31
0.0
  0
LINE
  5
776
330
1F
100
AcDbEntity
  8
1
  6
CONTINUOUS
370
50
 62
4
100
AcDbLine
 10
148.860458
 20
3.139401
 30
0.0
 11
148.759903
 21
3.160193
 31
0.0
  0
LINE
  5
777
330
1F
100
AcDbEntity
  8
1
  6
CONTINUOUS
370
50
 62
4
100
AcDbLine
 10
148.973648
 20
3.116141
 30
0.0
 11
148.860458
 21
3.139401
 31
0.0
  0
LINE
  5
778
330
1F
100
AcDbEntity
  8
1
  6
CONTINUOUS
370
50
 62
4
100
AcDbLine
 10
135.65239
 20
3.702695
 30
0.0
 11
135.634521
 21
3.706357
 31
0.0
  0
LINE
  5
779
330
1F
100
AcDbEntity
  8
1
  6
CONTINUOUS
370
50
 62
4
100
AcDbLine
 10
149.086853
 20
3.093041
 30
0.0
 11
148.973648
 21
3.116141
 31
0.0
  0
LINE
  5
77A
330
1F
100
AcDbEntity
  8
1
  6
CONTINUOUS
370
50
 62
4
100
AcDbLine
 10
149.200043
 20
3.070109
 30
0.0
 11
149.086853
 21
3.093041
 31
0.0
  0
LINE
  5
77B
330
1F
100
AcDbEntity
  8
1
  6
CONTINUOUS
370
50
 62
4
100
AcDbLine
 10
149.750397
 20
3.427321
 30
0.0
 11
149.726913
 21
3.432078
 31
0.0
  0
LINE
  5
77C
330
1F
100
AcDbEntity
  8
1
  6
CONTINUOUS
370
50
 62
4
100
AcDbLine
 10
145.994507
 20
2.579813
 30
0.0
 11
145.686874
 21
2.641805
 31
0.0
  0
LINE
  5
77D
330
1F
100
AcDbEntity
  8
1
  6
CONTINUOUS
370
50
 62
4
100
AcDbLine
 10
149.313248
 20
3.047354
 30
0.0
 11
149.200043
 21
3.070109
 31
0.0
  0
LINE
  5
77E
330
1F
100
AcDbEntity
  8
1
  6
CONTINUOUS
370
50
 62
4
100
AcDbLine
 10
142.787811
 20
3.713077
 30
0.0
 11
142.525726
 21
3.765743
 31
0.0
  0
LINE
  5
77F
330
1F
100
AcDbEntity
  8
1
  6
CONTINUOUS
370
50
 62
4
100
AcDbLine
 10
144.908081
 20
3.539002
 30
0.0
 11
144.644379
 21
3.591669
 31
0.0
  0
LINE
  5
780
330
1F
100
AcDbEntity
  8
1
  6
CONTINUOUS
370
50
 62
4
100
AcDbLine
 10
139.792938
 20
-3.698807
 30
0.0
 11
139.454605
 21
-3.631564
 31
0.0
  0
LINE
  5
781
330
1F
100
AcDbEntity
  8
1
  6
CONTINUOUS
370
50
 62
4
100
AcDbLine
 10
145.686874
 20
2.641805
 30
0.0
 11
145.380295
 21
2.701899
 31
0.0
  0
LINE
  5
782
330
1F
100
AcDbEntity
  8
1
  6
CONTINUOUS
370
50
 62
4
100
AcDbLine
 10
145.380295
 20
2.701899
 30
0.0
 11
145.074493
 21
2.760865
 31
0.0
  0
LINE
  5
783
330
1F
100
AcDbEntity
  8
1
  6
CONTINUOUS
370
50
 62
4
100
AcDbLine
 10
144.964279
 20
3.72487
 30
0.0
 11
144.682144
 21
3.778416
 31
0.0
  0
LINE
  5
784
330
1F
100
AcDbEntity
  8
1
  6
CONTINUOUS
370
50
 62
4
100
AcDbLine
 10
135.670517
 20
3.699283
 30
0.0
 11
135.65239
 21
3.702695
 31
0.0
  0
LINE
  5
785
330
1F
100
AcDbEntity
  8
1
  6
CONTINUOUS
370
50
 62
4
100
AcDbLine
 10
149.62854
 20
2.607888
 30
0.0
 11
149.61644
 21
2.610117
 31
0.0
  0
LINE
  5
786
330
1F
100
AcDbEntity
  8
1
  6
CONTINUOUS
370
50
 62
4
100
AcDbLine
 10
141.222565
 20
1.11611
 30
0.0
 11
140.840607
 21
1.186062
 31
0.0
  0
LINE
  5
787
330
1F
100
AcDbEntity
  8
1
  6
CONTINUOUS
370
50
 62
4
100
AcDbLine
 10
144.682144
 20
3.778416
 30
0.0
 11
144.439758
 21
3.822384
 31
0.0
  0
LINE
  5
788
330
1F
100
AcDbEntity
  8
1
  6
CONTINUOUS
370
50
 62
4
100
AcDbLine
 10
138.765884
 20
2.970713
 30
0.0
 11
137.724121
 21
3.158954
 31
0.0
  0
LINE
  5
789
330
1F
100
AcDbEntity
  8
1
  6
CONTINUOUS
370
50
 62
4
100
AcDbLine
 10
145.074493
 20
2.760865
 30
0.0
 11
144.768478
 21
2.816058
 31
0.0
  0
LINE
  5
78A
330
1F
100
AcDbEntity
  8
1
  6
CONTINUOUS
370
50
 62
4
100
AcDbLine
 10
144.675064
 20
2.201787
 30
0.0
 11
144.366806
 21
2.256439
 31
0.0
  0
LINE
  5
78B
330
1F
100
AcDbEntity
  8
1
  6
CONTINUOUS
370
50
 62
4
100
AcDbLine
 10
146.029816
 20
3.761935
 30
0.0
 11
145.498459
 21
3.854983
 31
0.0
  0
LINE
  5
78C
330
1F
100
AcDbEntity
  8
1
  6
CONTINUOUS
370
50
 62
4
100
AcDbLine
 10
149.57753
 20
-3.432277
 30
0.0
 11
149.551773
 21
-3.427768
 31
0.0
  0
LINE
  5
78D
330
1F
100
AcDbEntity
  8
1
  6
CONTINUOUS
370
50
 62
4
100
AcDbLine
 10
144.439758
 20
3.822384
 30
0.0
 11
144.232605
 21
3.857953
 31
0.0
  0
LINE
  5
78E
330
1F
100
AcDbEntity
  8
1
  6
CONTINUOUS
370
50
 62
4
100
AcDbLine
 10
149.923233
 20
-3.149961
 30
0.0
 11
149.906708
 21
-3.147171
 31
0.0
  0
LINE
  5
78F
330
1F
100
AcDbEntity
  8
1
  6
CONTINUOUS
370
50
 62
4
100
AcDbLine
 10
144.232605
 20
3.857953
 30
0.0
 11
144.056335
 21
3.886264
 31
0.0
  0
LINE
  5
790
330
1F
100
AcDbEntity
  8
1
  6
CONTINUOUS
370
50
 62
4
100
AcDbLine
 10
149.556656
 20
-3.013216
 30
0.0
 11
149.544937
 21
-3.01136
 31
0.0
  0
LINE
  5
791
330
1F
100
AcDbEntity
  8
1
  6
CONTINUOUS
370
50
 62
4
100
AcDbLine
 10
149.640503
 20
2.606009
 30
0.0
 11
149.62854
 21
2.607888
 31
0.0
  0
LINE
  5
792
330
1F
100
AcDbEntity
  8
1
  6
CONTINUOUS
370
50
 62
4
100
AcDbLine
 10
142.958725
 20
2.39165
 30
0.0
 11
142.719009
 21
2.429299
 31
0.0
  0
LINE
  5
793
330
1F
100
AcDbEntity
  8
1
  6
CONTINUOUS
370
50
 62
4
100
AcDbLine
 10
144.644379
 20
3.591669
 30
0.0
 11
144.379059
 21
3.633204
 31
0.0
  0
LINE
  5
794
330
1F
100
AcDbEntity
  8
1
  6
CONTINUOUS
370
50
 62
4
100
AcDbLine
 10
140.143112
 20
-3.751997
 30
0.0
 11
139.792938
 21
-3.698807
 31
0.0
  0
LINE
  5
795
330
1F
100
AcDbEntity
  8
1
  6
CONTINUOUS
370
50
 62
4
100
AcDbLine
 10
144.056335
 20
3.886264
 30
0.0
 11
143.906509
 21
3.908468
 31
0.0
  0
LINE
  5
796
330
1F
100
AcDbEntity
  8
1
  6
CONTINUOUS
370
50
 62
4
100
AcDbLine
 10
142.494476
 20
-3.948173
 30
0.0
 11
142.237473
 21
-3.910625
 31
0.0
  0
LINE
  5
797
330
1F
100
AcDbEntity
  8
1
  6
CONTINUOUS
370
50
 62
4
100
AcDbLine
 10
149.726913
 20
3.432078
 30
0.0
 11
149.702911
 21
3.435457
 31
0.0
  0
LINE
  5
798
330
1F
100
AcDbEntity
  8
1
  6
CONTINUOUS
370
50
 62
4
100
AcDbLine
 10
142.409744
 20
-0.028222
 30
0.0
 11
142.204422
 21
0.0
 31
0.0
  0
LINE
  5
799
330
1F
100
AcDbEntity
  8
1
  6
CONTINUOUS
370
50
 62
4
100
AcDbLine
 10
144.768478
 20
2.816058
 30
0.0
 11
144.460571
 21
2.858272
 31
0.0
  0
LINE
  5
79A
330
1F
100
AcDbEntity
  8
1
  6
CONTINUOUS
370
50
 62
4
100
AcDbLine
 10
145.498459
 20
3.854983
 30
0.0
 11
144.981323
 21
3.925846
 31
0.0
  0
LINE
  5
79B
330
1F
100
AcDbEntity
  8
1
  6
CONTINUOUS
370
50
 62
4
100
AcDbLine
 10
142.917847
 20
2.90324
 30
0.0
 11
142.612106
 21
2.94424
 31
0.0
  0
LINE
  5
79C
330
1F
100
AcDbEntity
  8
1
  6
CONTINUOUS
370
50
 62
4
100
AcDbLine
 10
143.906509
 20
3.908468
 30
0.0
 11
143.766556
 21
3.927102
 31
0.0
  0
LINE
  5
79D
330
1F
100
AcDbEntity
  8
1
  6
CONTINUOUS
370
50
 62
4
100
AcDbLine
 10
144.366806
 20
2.256439
 30
0.0
 11
144.057541
 21
2.296922
 31
0.0
  0
LINE
  5
79E
330
1F
100
AcDbEntity
  8
1
  6
CONTINUOUS
370
50
 62
4
100
AcDbLine
 10
149.652267
 20
2.604478
 30
0.0
 11
149.640503
 21
2.606009
 31
0.0
  0
LINE
  5
79F
330
1F
100
AcDbEntity
  8
1
  6
CONTINUOUS
370
50
 62
4
100
AcDbLine
 10
139.833633
 20
2.834316
 30
0.0
 11
138.765884
 21
2.970713
 31
0.0
  0
LINE
  5
7A0
330
1F
100
AcDbEntity
  8
1
  6
CONTINUOUS
370
50
 62
4
100
AcDbLine
 10
149.603149
 20
-3.435524
 30
0.0
 11
149.57753
 21
-3.432277
 31
0.0
  0
LINE
  5
7A1
330
1F
100
AcDbEntity
  8
1
  6
CONTINUOUS
370
50
 62
4
100
AcDbLine
 10
143.766556
 20
3.927102
 30
0.0
 11
143.626389
 21
3.943519
 31
0.0
  0
LINE
  5
7A2
330
1F
100
AcDbEntity
  8
1
  6
CONTINUOUS
370
50
 62
4
100
AcDbLine
 10
140.504211
 20
-3.793029
 30
0.0
 11
140.143112
 21
-3.751997
 31
0.0
  0
LINE
  5
7A3
330
1F
100
AcDbEntity
  8
1
  6
CONTINUOUS
370
50
 62
4
100
AcDbLine
 10
141.609268
 20
1.073485
 30
0.0
 11
141.222565
 21
1.11611
 31
0.0
  0
LINE
  5
7A4
330
1F
100
AcDbEntity
  8
1
  6
CONTINUOUS
370
50
 62
4
100
AcDbLine
 10
144.379059
 20
3.633204
 30
0.0
 11
144.112579
 21
3.661663
 31
0.0
  0
LINE
  5
7A5
330
1F
100
AcDbEntity
  8
1
  6
CONTINUOUS
370
50
 62
4
100
AcDbLine
 10
149.568497
 20
-3.014459
 30
0.0
 11
149.556656
 21
-3.013216
 31
0.0
  0
LINE
  5
7A6
330
1F
100
AcDbEntity
  8
1
  6
CONTINUOUS
370
50
 62
4
100
AcDbLine
 10
149.663849
 20
2.603288
 30
0.0
 11
149.652267
 21
2.604478
 31
0.0
  0
LINE
  5
7A7
330
1F
100
AcDbEntity
  8
1
  6
CONTINUOUS
370
50
 62
4
100
AcDbLine
 10
143.626389
 20
3.943519
 30
0.0
 11
143.48587
 21
3.957759
 31
0.0
  0
LINE
  5
7A8
330
1F
100
AcDbEntity
  8
1
  6
CONTINUOUS
370
50
 62
4
100
AcDbLine
 10
148.653793
 20
-3.176692
 30
0.0
 11
148.616791
 21
-3.173002
 31
0.0
  0
LINE
  5
7A9
330
1F
100
AcDbEntity
  8
1
  6
CONTINUOUS
370
50
 62
4
100
AcDbLine
 10
142.756027
 20
-3.972727
 30
0.0
 11
142.494476
 21
-3.948173
 31
0.0
  0
LINE
  5
7AA
330
1F
100
AcDbEntity
  8
1
  6
CONTINUOUS
370
50
 62
4
100
AcDbLine
 10
144.057541
 20
2.296922
 30
0.0
 11
143.748245
 21
2.325779
 31
0.0
  0
LINE
  5
7AB
330
1F
100
AcDbEntity
  8
1
  6
CONTINUOUS
370
50
 62
4
100
AcDbLine
 10
144.981323
 20
3.925846
 30
0.0
 11
144.461349
 21
3.973108
 31
0.0
  0
LINE
  5
7AC
330
1F
100
AcDbEntity
  8
1
  6
CONTINUOUS
370
50
 62
4
100
AcDbLine
 10
143.748245
 20
2.325779
 30
0.0
 11
143.439926
 21
2.352266
 31
0.0
  0
LINE
  5
7AD
330
1F
100
AcDbEntity
  8
1
  6
CONTINUOUS
370
50
 62
4
100
AcDbLine
 10
143.48587
 20
3.957759
 30
0.0
 11
143.344833
 21
3.969863
 31
0.0
  0
LINE
  5
7AE
330
1F
100
AcDbEntity
  8
1
  6
CONTINUOUS
370
50
 62
4
100
AcDbLine
 10
144.460571
 20
2.858272
 30
0.0
 11
144.151291
 21
2.884439
 31
0.0
  0
LINE
  5
7AF
330
1F
100
AcDbEntity
  8
1
  6
CONTINUOUS
370
50
 62
4
100
AcDbLine
 10
149.702911
 20
3.435457
 30
0.0
 11
149.678482
 21
3.437472
 31
0.0
  0
LINE
  5
7B0
330
1F
100
AcDbEntity
  8
1
  6
CONTINUOUS
370
50
 62
4
100
AcDbLine
 10
143.439926
 20
2.352266
 30
0.0
 11
143.199158
 21
2.372021
 31
0.0
  0
LINE
  5
7B1
330
1F
100
AcDbEntity
  8
1
  6
CONTINUOUS
370
50
 62
4
100
AcDbLine
 10
143.199158
 20
2.372021
 30
0.0
 11
142.958725
 21
2.39165
 31
0.0
  0
LINE
  5
7B2
330
1F
100
AcDbEntity
  8
1
  6
CONTINUOUS
370
50
 62
4
100
AcDbLine
 10
140.87114
 20
-3.822893
 30
0.0
 11
140.504211
 21
-3.793029
 31
0.0
  0
LINE
  5
7B3
330
1F
100
AcDbEntity
  8
1
  6
CONTINUOUS
370
50
 62
4
100
AcDbLine
 10
149.62854
 20
-3.437485
 30
0.0
 11
149.603149
 21
-3.435524
 31
0.0
  0
LINE
  5
7B4
330
1F
100
AcDbEntity
  8
1
  6
CONTINUOUS
370
50
 62
4
100
AcDbLine
 10
140.912537
 20
2.752208
 30
0.0
 11
139.833633
 21
2.834316
 31
0.0
  0
LINE
  5
7B5
330
1F
100
AcDbEntity
  8
1
  6
CONTINUOUS
370
50
 62
4
100
AcDbLine
 10
149.675247
 20
2.602429
 30
0.0
 11
149.663849
 21
2.603288
 31
0.0
  0
LINE
  5
7B6
330
1F
100
AcDbEntity
  8
1
  6
CONTINUOUS
370
50
 62
4
100
AcDbLine
 10
143.344833
 20
3.969863
 30
0.0
 11
143.20311
 21
3.979872
 31
0.0
  0
LINE
  5
7B7
330
1F
100
AcDbEntity
  8
1
  6
CONTINUOUS
370
50
 62
4
100
AcDbLine
 10
144.112579
 20
3.661663
 30
0.0
 11
143.845718
 21
3.677023
 31
0.0
  0
LINE
  5
7B8
330
1F
100
AcDbEntity
  8
1
  6
CONTINUOUS
370
50
 62
4
100
AcDbLine
 10
142.204422
 20
0.0
 30
0.0
 11
142.175446
 21
0.001667
 31
0.0
  0
LINE
  5
7B9
330
1F
100
AcDbEntity
  8
1
  6
CONTINUOUS
370
50
 62
4
100
AcDbLine
 10
143.026855
 20
-3.987854
 30
0.0
 11
142.756027
 21
-3.972727
 31
0.0
  0
LINE
  5
7BA
330
1F
100
AcDbEntity
  8
1
  6
CONTINUOUS
370
50
 62
4
100
AcDbLine
 10
143.050964
 20
3.698698
 30
0.0
 11
142.787811
 21
3.713077
 31
0.0
  0
LINE
  5
7BB
330
1F
100
AcDbEntity
  8
1
  6
CONTINUOUS
370
50
 62
4
100
AcDbLine
 10
143.20311
 20
3.979872
 30
0.0
 11
143.034515
 21
3.98896
 31
0.0
  0
LINE
  5
7BC
330
1F
100
AcDbEntity
  8
1
  6
CONTINUOUS
370
50
 62
4
100
AcDbLine
 10
141.243195
 20
-3.842765
 30
0.0
 11
140.87114
 21
-3.822893
 31
0.0
  0
LINE
  5
7BD
330
1F
100
AcDbEntity
  8
1
  6
CONTINUOUS
370
50
 62
4
100
AcDbLine
 10
149.580399
 20
-3.015065
 30
0.0
 11
149.568497
 21
-3.014459
 31
0.0
  0
LINE
  5
7BE
330
1F
100
AcDbEntity
  8
1
  6
CONTINUOUS
370
50
 62
4
100
AcDbLine
 10
148.798492
 20
1.1088
 30
0.0
 11
148.669739
 21
1.115326
 31
0.0
  0
LINE
  5
7BF
330
1F
100
AcDbEntity
  8
1
  6
CONTINUOUS
370
50
 62
4
100
AcDbLine
 10
149.686447
 20
2.601892
 30
0.0
 11
149.675247
 21
2.602429
 31
0.0
  0
LINE
  5
7C0
330
1F
100
AcDbEntity
  8
1
  6
CONTINUOUS
370
50
 62
4
100
AcDbLine
 10
144.461349
 20
3.973108
 30
0.0
 11
143.975296
 21
3.995203
 31
0.0
  0
LINE
  5
7C1
330
1F
100
AcDbEntity
  8
1
  6
CONTINUOUS
370
50
 62
4
100
AcDbLine
 10
143.845718
 20
3.677023
 30
0.0
 11
143.579895
 21
3.68733
 31
0.0
  0
LINE
  5
7C2
330
1F
100
AcDbEntity
  8
1
  6
CONTINUOUS
370
50
 62
4
100
AcDbLine
 10
142.175446
 20
0.001667
 30
0.0
 11
142.146408
 21
0.00278
 31
0.0
  0
LINE
  5
7C3
330
1F
100
AcDbEntity
  8
1
  6
CONTINUOUS
370
50
 62
4
100
AcDbLine
 10
148.537598
 20
1.120212
 30
0.0
 11
148.514175
 21
1.121083
 31
0.0
  0
LINE
  5
7C4
330
1F
100
AcDbEntity
  8
1
  6
CONTINUOUS
370
50
 62
4
100
AcDbLine
 10
148.560638
 20
1.119357
 30
0.0
 11
148.537598
 21
1.120212
 31
0.0
  0
LINE
  5
7C5
330
1F
100
AcDbEntity
  8
1
  6
CONTINUOUS
370
50
 62
4
100
AcDbLine
 10
148.583282
 20
1.118518
 30
0.0
 11
148.560638
 21
1.119357
 31
0.0
  0
LINE
  5
7C6
330
1F
100
AcDbEntity
  8
1
  6
CONTINUOUS
370
50
 62
4
100
AcDbLine
 10
148.60553
 20
1.117695
 30
0.0
 11
148.583282
 21
1.118518
 31
0.0
  0
LINE
  5
7C7
330
1F
100
AcDbEntity
  8
1
  6
CONTINUOUS
370
50
 62
4
100
AcDbLine
 10
148.627365
 20
1.116888
 30
0.0
 11
148.60553
 21
1.117695
 31
0.0
  0
LINE
  5
7C8
330
1F
100
AcDbEntity
  8
1
  6
CONTINUOUS
370
50
 62
4
100
AcDbLine
 10
142.0
 20
1.059078
 30
0.0
 11
141.609268
 21
1.073485
 31
0.0
  0
LINE
  5
7C9
330
1F
100
AcDbEntity
  8
1
  6
CONTINUOUS
370
50
 62
4
100
AcDbLine
 10
148.669739
 20
1.115326
 30
0.0
 11
148.648773
 21
1.116099
 31
0.0
  0
LINE
  5
7CA
330
1F
100
AcDbEntity
  8
1
  6
CONTINUOUS
370
50
 62
4
100
AcDbLine
 10
148.648773
 20
1.116099
 30
0.0
 11
148.627365
 21
1.116888
 31
0.0
  0
LINE
  5
7CB
330
1F
100
AcDbEntity
  8
1
  6
CONTINUOUS
370
50
 62
4
100
AcDbLine
 10
143.034515
 20
3.98896
 30
0.0
 11
142.837631
 21
3.995841
 31
0.0
  0
LINE
  5
7CC
330
1F
100
AcDbEntity
  8
1
  6
CONTINUOUS
370
50
 62
4
100
AcDbLine
 10
143.319046
 20
-3.997051
 30
0.0
 11
143.026855
 21
-3.987854
 31
0.0
  0
LINE
  5
7CD
330
1F
100
AcDbEntity
  8
1
  6
CONTINUOUS
370
50
 62
4
100
AcDbLine
 10
148.931015
 20
1.104671
 30
0.0
 11
148.798492
 21
1.1088
 31
0.0
  0
LINE
  5
7CE
330
1F
100
AcDbEntity
  8
1
  6
CONTINUOUS
370
50
 62
4
100
AcDbLine
 10
144.151291
 20
2.884439
 30
0.0
 11
143.841461
 21
2.893989
 31
0.0
  0
LINE
  5
7CF
330
1F
100
AcDbEntity
  8
1
  6
CONTINUOUS
370
50
 62
4
100
AcDbLine
 10
141.61969
 20
-3.853823
 30
0.0
 11
141.243195
 21
-3.842765
 31
0.0
  0
LINE
  5
7D0
330
1F
100
AcDbEntity
  8
1
  6
CONTINUOUS
370
50
 62
4
100
AcDbLine
 10
149.678482
 20
3.437472
 30
0.0
 11
149.653671
 21
3.438141
 31
0.0
  0
LINE
  5
7D1
330
1F
100
AcDbEntity
  8
1
  6
CONTINUOUS
370
50
 62
4
100
AcDbLine
 10
143.579895
 20
3.68733
 30
0.0
 11
143.315063
 21
3.69432
 31
0.0
  0
LINE
  5
7D2
330
1F
100
AcDbEntity
  8
1
  6
CONTINUOUS
370
50
 62
4
100
AcDbLine
 10
149.653671
 20
-3.438141
 30
0.0
 11
149.62854
 21
-3.437485
 31
0.0
  0
LINE
  5
7D3
330
1F
100
AcDbEntity
  8
1
  6
CONTINUOUS
370
50
 62
4
100
AcDbLine
 10
142.0
 20
2.724704
 30
0.0
 11
140.912537
 21
2.752208
 31
0.0
  0
LINE
  5
7D4
330
1F
100
AcDbEntity
  8
1
  6
CONTINUOUS
370
50
 62
4
100
AcDbLine
 10
149.697433
 20
2.601666
 30
0.0
 11
149.686447
 21
2.601892
 31
0.0
  0
LINE
  5
7D5
330
1F
100
AcDbEntity
  8
1
  6
CONTINUOUS
370
50
 62
4
100
AcDbLine
 10
142.146408
 20
0.00278
 30
0.0
 11
142.117294
 21
0.003335
 31
0.0
  0
LINE
  5
7D6
330
1F
100
AcDbEntity
  8
1
  6
CONTINUOUS
370
50
 62
4
100
AcDbLine
 10
143.315063
 20
3.69432
 30
0.0
 11
143.050964
 21
3.698698
 31
0.0
  0
LINE
  5
7D7
330
1F
100
AcDbEntity
  8
1
  6
CONTINUOUS
370
50
 62
4
100
AcDbLine
 10
142.837631
 20
3.995841
 30
0.0
 11
142.638031
 21
3.99889
 31
0.0
  0
LINE
  5
7D8
330
1F
100
AcDbEntity
  8
1
  6
CONTINUOUS
370
50
 62
4
100
AcDbLine
 10
143.841461
 20
2.893989
 30
0.0
 11
143.532684
 21
2.89842
 31
0.0
  0
LINE
  5
7D9
330
1F
100
AcDbEntity
  8
1
  6
CONTINUOUS
370
50
 62
4
100
AcDbLine
 10
143.975296
 20
3.995203
 30
0.0
 11
143.613342
 21
3.999999
 31
0.0
  0
LINE
  5
7DA
330
1F
100
AcDbEntity
  8
1
  6
CONTINUOUS
370
50
 62
4
100
AcDbLine
 10
149.065536
 20
1.102955
 30
0.0
 11
148.931015
 21
1.104671
 31
0.0
  0
LINE
  5
7DB
330
1F
100
AcDbEntity
  8
1
  6
CONTINUOUS
370
50
 62
4
100
AcDbLine
 10
143.613129
 20
-3.999999
 30
0.0
 11
143.319046
 21
-3.997051
 31
0.0
  0
LINE
  5
7DC
330
1F
100
AcDbEntity
  8
1
  6
CONTINUOUS
370
50
 62
4
100
AcDbLine
 10
142.0
 20
-3.857247
 30
0.0
 11
141.61969
 21
-3.853823
 31
0.0
  0
LINE
  5
7DD
330
1F
100
AcDbEntity
  8
1
  6
CONTINUOUS
370
50
 62
4
100
AcDbLine
 10
143.224899
 20
2.900633
 30
0.0
 11
142.917847
 21
2.90324
 31
0.0
  0
LINE
  5
7DE
330
1F
100
AcDbEntity
  8
1
  6
CONTINUOUS
370
50
 62
4
100
AcDbLine
 10
143.532684
 20
2.89842
 30
0.0
 11
143.224899
 21
2.900633
 31
0.0
  0
LINE
  5
7DF
330
1F
100
AcDbEntity
  8
1
  6
CONTINUOUS
370
50
 62
4
100
AcDbLine
 10
142.638031
 20
3.99889
 30
0.0
 11
142.428986
 21
3.999898
 31
0.0
  0
LINE
  5
7E0
330
1F
100
AcDbEntity
  8
1
  6
CONTINUOUS
370
50
 62
4
100
AcDbLine
 10
141.995483
 20
0.0
 30
0.0
 11
141.994339
 21
0.000001
 31
0.0
  0
LINE
  5
7E1
330
1F
100
AcDbEntity
  8
1
  6
CONTINUOUS
370
50
 62
4
100
AcDbLine
 10
142.428986
 20
3.999898
 30
0.0
 11
142.216339
 21
4.000065999999999
 31
0.0
  0
LINE
  5
7E2
330
1F
100
AcDbEntity
  8
1
  6
CONTINUOUS
370
50
 62
4
100
AcDbLine
 10
141.996674
 20
0.0
 30
0.0
 11
141.99501
 21
0.000001
 31
0.0
  0
LINE
  5
7E3
330
1F
100
AcDbEntity
  8
1
  6
CONTINUOUS
370
50
 62
4
100
AcDbLine
 10
141.993347
 20
0.000001
 30
0.0
 11
141.991684
 21
0.000002
 31
0.0
  0
LINE
  5
7E4
330
1F
100
AcDbEntity
  8
1
  6
CONTINUOUS
370
50
 62
4
100
AcDbLine
 10
142.0
 20
4.0
 30
0.0
 11
141.501297
 21
4.000027999999999
 31
0.0
  0
LINE
  5
7E5
330
1F
100
AcDbEntity
  8
1
  6
CONTINUOUS
370
50
 62
4
100
AcDbLine
 10
36.0
 20
-4.0
 30
0.0
 11
143.605377
 21
-4.0
 31
0.0
  0
LINE
  5
7E6
330
1F
100
AcDbEntity
  8
1
  6
CONTINUOUS
370
50
 62
4
100
AcDbLine
 10
141.995483
 20
0.0
 30
0.0
 11
142.0
 21
0.0
 31
0.0
  0
LINE
  5
7E7
330
1F
100
AcDbEntity
  8
1
  6
CONTINUOUS
370
50
 62
4
100
AcDbLine
 10
141.99321
 20
0.000001
 30
0.0
 11
141.99501
 21
0.000001
 31
0.0
  0
LINE
  5
7E8
330
1F
100
AcDbEntity
  8
1
  6
CONTINUOUS
370
50
 62
4
100
AcDbLine
 10
141.990021
 20
0.000002
 30
0.0
 11
141.991684
 21
0.000002
 31
0.0
  0
LINE
  5
7E9
330
1F
100
AcDbEntity
  8
1
  6
CONTINUOUS
370
50
 62
4
100
AcDbLine
 10
142.088089
 20
0.003335
 30
0.0
 11
142.117294
 21
0.003335
 31
0.0
  0
LINE
  5
7EA
330
1F
100
AcDbEntity
  8
1
  6
CONTINUOUS
370
50
 62
4
100
AcDbLine
 10
36.0
 20
4.0
 30
0.0
 11
143.605118
 21
4.0
 31
0.0
  0
LINE
  5
7EB
330
1F
100
AcDbEntity
  8
1
  6
CONTINUOUS
370
50
 62
4
100
AcDbLine
 10
140.999557
 20
3.999976
 30
0.0
 11
141.501297
 21
4.000027999999999
 31
0.0
  0
LINE
  5
7EC
330
1F
100
AcDbEntity
  8
1
  6
CONTINUOUS
370
50
 62
4
100
AcDbLine
 10
142.0
 20
4.0
 30
0.0
 11
142.216339
 21
4.000065999999999
 31
0.0
  0
LINE
  5
7ED
330
1F
100
AcDbEntity
  8
1
  6
CONTINUOUS
370
50
 62
4
100
AcDbLine
 10
140.495544
 20
3.999645
 30
0.0
 11
140.999557
 21
3.999976
 31
0.0
  0
LINE
  5
7EE
330
1F
100
AcDbEntity
  8
1
  6
CONTINUOUS
370
50
 62
4
100
AcDbLine
 10
139.990021
 20
3.998828
 30
0.0
 11
140.495544
 21
3.999645
 31
0.0
  0
LINE
  5
7EF
330
1F
100
AcDbEntity
  8
1
  6
CONTINUOUS
370
50
 62
4
100
AcDbLine
 10
139.483749
 20
3.997145
 30
0.0
 11
139.990021
 21
3.998828
 31
0.0
  0
LINE
  5
7F0
330
1F
100
AcDbEntity
  8
1
  6
CONTINUOUS
370
50
 62
4
100
AcDbLine
 10
149.580399
 20
-3.015065
 30
0.0
 11
149.592361
 21
-3.015017
 31
0.0
  0
LINE
  5
7F1
330
1F
100
AcDbEntity
  8
1
  6
CONTINUOUS
370
50
 62
4
100
AcDbLine
 10
149.065536
 20
1.102955
 30
0.0
 11
149.200333
 21
1.103671
 31
0.0
  0
LINE
  5
7F2
330
1F
100
AcDbEntity
  8
1
  6
CONTINUOUS
370
50
 62
4
100
AcDbLine
 10
138.977478
 20
3.994006
 30
0.0
 11
139.483749
 21
3.997145
 31
0.0
  0
LINE
  5
7F3
330
1F
100
AcDbEntity
  8
1
  6
CONTINUOUS
370
50
 62
4
100
AcDbLine
 10
149.697433
 20
2.601666
 30
0.0
 11
149.708191
 21
2.601742
 31
0.0
  0
LINE
  5
7F4
330
1F
100
AcDbEntity
  8
1
  6
CONTINUOUS
370
50
 62
4
100
AcDbLine
 10
138.471954
 20
3.988807
 30
0.0
 11
138.977478
 21
3.994006
 31
0.0
  0
LINE
  5
7F5
330
1F
100
AcDbEntity
  8
1
  6
CONTINUOUS
370
50
 62
4
100
AcDbLine
 10
141.501297
 20
-0.005999
 30
0.0
 11
142.0
 21
0.0
 31
0.0
  0
LINE
  5
7F6
330
1F
100
AcDbEntity
  8
1
  6
CONTINUOUS
370
50
 62
4
100
AcDbLine
 10
143.613129
 20
-3.999999
 30
0.0
 11
143.982239
 21
-3.995036
 31
0.0
  0
LINE
  5
7F7
330
1F
100
AcDbEntity
  8
1
  6
CONTINUOUS
370
50
 62
4
100
AcDbLine
 10
137.96788
 20
3.98091
 30
0.0
 11
138.471954
 21
3.988807
 31
0.0
  0
LINE
  5
7F8
330
1F
100
AcDbEntity
  8
1
  6
CONTINUOUS
370
50
 62
4
100
AcDbLine
 10
142.058807
 20
0.002778
 30
0.0
 11
142.088089
 21
0.003335
 31
0.0
  0
LINE
  5
7F9
330
1F
100
AcDbEntity
  8
1
  6
CONTINUOUS
370
50
 62
4
100
AcDbLine
 10
137.465958
 20
3.969472
 30
0.0
 11
137.96788
 21
3.98091
 31
0.0
  0
LINE
  5
7FA
330
1F
100
AcDbEntity
  8
1
  6
CONTINUOUS
370
50
 62
4
100
AcDbLine
 10
149.200333
 20
1.103671
 30
0.0
 11
149.333633
 21
1.106835
 31
0.0
  0
LINE
  5
7FB
330
1F
100
AcDbEntity
  8
1
  6
CONTINUOUS
370
50
 62
4
100
AcDbLine
 10
149.62854
 20
3.437485
 30
0.0
 11
149.653671
 21
3.438141
 31
0.0
  0
LINE
  5
7FC
330
1F
100
AcDbEntity
  8
1
  6
CONTINUOUS
370
50
 62
4
100
AcDbLine
 10
149.653671
 20
-3.438141
 30
0.0
 11
149.678482
 21
-3.437472
 31
0.0
  0
LINE
  5
7FD
330
1F
100
AcDbEntity
  8
1
  6
CONTINUOUS
370
50
 62
4
100
AcDbLine
 10
136.966888
 20
3.953596
 30
0.0
 11
137.465958
 21
3.969472
 31
0.0
  0
LINE
  5
7FE
330
1F
100
AcDbEntity
  8
1
  6
CONTINUOUS
370
50
 62
4
100
AcDbLine
 10
149.708191
 20
2.601742
 30
0.0
 11
149.718628
 21
2.602102
 31
0.0
  0
LINE
  5
7FF
330
1F
100
AcDbEntity
  8
1
  6
CONTINUOUS
370
50
 62
4
100
AcDbLine
 10
140.999557
 20
-0.024092
 30
0.0
 11
141.501297
 21
-0.005999
 31
0.0
  0
LINE
  5
800
330
1F
100
AcDbEntity
  8
1
  6
CONTINUOUS
370
50
 62
4
100
AcDbLine
 10
142.029449
 20
0.001666
 30
0.0
 11
142.058807
 21
0.002778
 31
0.0
  0
LINE
  5
801
330
1F
100
AcDbEntity
  8
1
  6
CONTINUOUS
370
50
 62
4
100
AcDbLine
 10
149.923233
 20
-3.149961
 30
0.0
 11
149.939377
 21
-3.14934
 31
0.0
  0
LINE
  5
802
330
1F
100
AcDbEntity
  8
1
  6
CONTINUOUS
370
50
 62
4
100
AcDbLine
 10
136.471344
 20
3.932381
 30
0.0
 11
136.966888
 21
3.953596
 31
0.0
  0
LINE
  5
803
330
1F
100
AcDbEntity
  8
1
  6
CONTINUOUS
370
50
 62
4
100
AcDbLine
 10
149.333633
 20
1.106835
 30
0.0
 11
149.463715
 21
1.112466
 31
0.0
  0
LINE
  5
804
330
1F
100
AcDbEntity
  8
1
  6
CONTINUOUS
370
50
 62
4
100
AcDbLine
 10
143.982239
 20
-3.995036
 30
0.0
 11
144.476715
 21
-3.97208
 31
0.0
  0
LINE
  5
805
330
1F
100
AcDbEntity
  8
1
  6
CONTINUOUS
370
50
 62
4
100
AcDbLine
 10
136.417282
 20
3.929621
 30
0.0
 11
136.471344
 21
3.932373
 31
0.0
  0
LINE
  5
806
330
1F
100
AcDbEntity
  8
1
  6
CONTINUOUS
370
50
 62
4
100
AcDbLine
 10
136.364349
 20
3.926723
 30
0.0
 11
136.417282
 21
3.929621
 31
0.0
  0
LINE
  5
807
330
1F
100
AcDbEntity
  8
1
  6
CONTINUOUS
370
50
 62
4
100
AcDbLine
 10
142.0
 20
0.0
 30
0.0
 11
142.029449
 21
0.001666
 31
0.0
  0
LINE
  5
808
330
1F
100
AcDbEntity
  8
1
  6
CONTINUOUS
370
50
 62
4
100
AcDbLine
 10
136.312546
 20
3.923678
 30
0.0
 11
136.364349
 21
3.926723
 31
0.0
  0
LINE
  5
809
330
1F
100
AcDbEntity
  8
1
  6
CONTINUOUS
370
50
 62
4
100
AcDbLine
 10
149.592361
 20
-3.015017
 30
0.0
 11
149.60437
 21
-3.014297
 31
0.0
  0
LINE
  5
80A
330
1F
100
AcDbEntity
  8
1
  6
CONTINUOUS
370
50
 62
4
100
AcDbLine
 10
140.495544
 20
-0.054417
 30
0.0
 11
140.999557
 21
-0.024092
 31
0.0
  0
LINE
  5
80B
330
1F
100
AcDbEntity
  8
1
  6
CONTINUOUS
370
50
 62
4
100
AcDbLine
 10
136.261932
 20
3.920483
 30
0.0
 11
136.312546
 21
3.923678
 31
0.0
  0
LINE
  5
80C
330
1F
100
AcDbEntity
  8
1
  6
CONTINUOUS
370
50
 62
4
100
AcDbLine
 10
149.463715
 20
1.112466
 30
0.0
 11
149.588806
 21
1.12058
 31
0.0
  0
LINE
  5
80D
330
1F
100
AcDbEntity
  8
1
  6
CONTINUOUS
370
50
 62
4
100
AcDbLine
 10
136.21254
 20
3.917137
 30
0.0
 11
136.261932
 21
3.920483
 31
0.0
  0
LINE
  5
80E
330
1F
100
AcDbEntity
  8
1
  6
CONTINUOUS
370
50
 62
4
100
AcDbLine
 10
136.164398
 20
3.913636
 30
0.0
 11
136.21254
 21
3.917137
 31
0.0
  0
LINE
  5
80F
330
1F
100
AcDbEntity
  8
1
  6
CONTINUOUS
370
50
 62
4
100
AcDbLine
 10
149.603149
 20
3.435524
 30
0.0
 11
149.62854
 21
3.437485
 31
0.0
  0
LINE
  5
810
330
1F
100
AcDbEntity
  8
1
  6
CONTINUOUS
370
50
 62
4
100
AcDbLine
 10
136.117554
 20
3.909979
 30
0.0
 11
136.164398
 21
3.913636
 31
0.0
  0
LINE
  5
811
330
1F
100
AcDbEntity
  8
1
  6
CONTINUOUS
370
50
 62
4
100
AcDbLine
 10
148.653793
 20
-3.176692
 30
0.0
 11
148.694214
 21
-3.173475
 31
0.0
  0
LINE
  5
812
330
1F
100
AcDbEntity
  8
1
  6
CONTINUOUS
370
50
 62
4
100
AcDbLine
 10
149.678482
 20
-3.437472
 30
0.0
 11
149.702911
 21
-3.435457
 31
0.0
  0
LINE
  5
813
330
1F
100
AcDbEntity
  8
1
  6
CONTINUOUS
370
50
 62
4
100
AcDbLine
 10
136.072052
 20
3.906165
 30
0.0
 11
136.117554
 21
3.909979
 31
0.0
  0
LINE
  5
814
330
1F
100
AcDbEntity
  8
1
  6
CONTINUOUS
370
50
 62
4
100
AcDbLine
 10
139.990021
 20
-0.097116
 30
0.0
 11
140.495544
 21
-0.054417
 31
0.0
  0
LINE
  5
815
330
1F
100
AcDbEntity
  8
1
  6
CONTINUOUS
370
50
 62
4
100
AcDbLine
 10
149.588806
 20
1.12058
 30
0.0
 11
149.707062
 21
1.131184
 31
0.0
  0
LINE
  5
816
330
1F
100
AcDbEntity
  8
1
  6
CONTINUOUS
370
50
 62
4
100
AcDbLine
 10
136.027908
 20
3.90219
 30
0.0
 11
136.072052
 21
3.906165
 31
0.0
  0
LINE
  5
817
330
1F
100
AcDbEntity
  8
1
  6
CONTINUOUS
370
50
 62
4
100
AcDbLine
 10
144.476715
 20
-3.97208
 30
0.0
 11
144.991653
 21
-3.924679
 31
0.0
  0
LINE
  5
818
330
1F
100
AcDbEntity
  8
1
  6
CONTINUOUS
370
50
 62
4
100
AcDbLine
 10
135.985184
 20
3.898053
 30
0.0
 11
136.027908
 21
3.90219
 31
0.0
  0
LINE
  5
819
330
1F
100
AcDbEntity
  8
1
  6
CONTINUOUS
370
50
 62
4
100
AcDbLine
 10
135.943909
 20
3.893752
 30
0.0
 11
135.985184
 21
3.898053
 31
0.0
  0
LINE
  5
81A
330
1F
100
AcDbEntity
  8
1
  6
CONTINUOUS
370
50
 62
4
100
AcDbLine
 10
139.483749
 20
-0.152212
 30
0.0
 11
139.990021
 21
-0.097116
 31
0.0
  0
LINE
  5
81B
330
1F
100
AcDbEntity
  8
1
  6
CONTINUOUS
370
50
 62
4
100
AcDbLine
 10
135.904114
 20
3.889284
 30
0.0
 11
135.943909
 21
3.893752
 31
0.0
  0
LINE
  5
81C
330
1F
100
AcDbEntity
  8
1
  6
CONTINUOUS
370
50
 62
4
100
AcDbLine
 10
149.60437
 20
-3.014297
 30
0.0
 11
149.61644
 21
-3.012887
 31
0.0
  0
LINE
  5
81D
330
1F
100
AcDbEntity
  8
1
  6
CONTINUOUS
370
50
 62
4
100
AcDbLine
 10
149.707062
 20
1.131184
 30
0.0
 11
149.815628
 21
1.144129
 31
0.0
  0
LINE
  5
81E
330
1F
100
AcDbEntity
  8
1
  6
CONTINUOUS
370
50
 62
4
100
AcDbLine
 10
135.865845
 20
3.884649
 30
0.0
 11
135.904114
 21
3.889284
 31
0.0
  0
LINE
  5
81F
330
1F
100
AcDbEntity
  8
1
  6
CONTINUOUS
370
50
 62
4
100
AcDbLine
 10
149.57753
 20
3.432277
 30
0.0
 11
149.603149
 21
3.435524
 31
0.0
  0
LINE
  5
820
330
1F
100
AcDbEntity
  8
1
  6
CONTINUOUS
370
50
 62
4
100
AcDbLine
 10
135.829239
 20
3.879859
 30
0.0
 11
135.865845
 21
3.884649
 31
0.0
  0
LINE
  5
821
330
1F
100
AcDbEntity
  8
1
  6
CONTINUOUS
370
50
 62
4
100
AcDbLine
 10
138.977478
 20
-0.219572
 30
0.0
 11
139.483749
 21
-0.152212
 31
0.0
  0
LINE
  5
822
330
1F
100
AcDbEntity
  8
1
  6
CONTINUOUS
370
50
 62
4
100
AcDbLine
 10
144.991653
 20
-3.924679
 30
0.0
 11
145.505157
 21
-3.853936
 31
0.0
  0
LINE
  5
823
330
1F
100
AcDbEntity
  8
1
  6
CONTINUOUS
370
50
 62
4
100
AcDbLine
 10
149.702911
 20
-3.435457
 30
0.0
 11
149.726913
 21
-3.432078
 31
0.0
  0
LINE
  5
824
330
1F
100
AcDbEntity
  8
1
  6
CONTINUOUS
370
50
 62
4
100
AcDbLine
 10
135.794418
 20
3.874928
 30
0.0
 11
135.829239
 21
3.879859
 31
0.0
  0
LINE
  5
825
330
1F
100
AcDbEntity
  8
1
  6
CONTINUOUS
370
50
 62
4
100
AcDbLine
 10
135.761383
 20
3.869859
 30
0.0
 11
135.794418
 21
3.874928
 31
0.0
  0
LINE
  5
826
330
1F
100
AcDbEntity
  8
1
  6
CONTINUOUS
370
50
 62
4
100
AcDbLine
 10
149.815628
 20
1.144129
 30
0.0
 11
149.912994
 21
1.159324
 31
0.0
  0
LINE
  5
827
330
1F
100
AcDbEntity
  8
1
  6
CONTINUOUS
370
50
 62
4
100
AcDbLine
 10
138.471954
 20
-0.299051
 30
0.0
 11
138.977478
 21
-0.219572
 31
0.0
  0
LINE
  5
828
330
1F
100
AcDbEntity
  8
1
  6
CONTINUOUS
370
50
 62
4
100
AcDbLine
 10
135.730164
 20
3.864655
 30
0.0
 11
135.761383
 21
3.869859
 31
0.0
  0
LINE
  5
829
330
1F
100
AcDbEntity
  8
1
  6
CONTINUOUS
370
50
 62
4
100
AcDbLine
 10
149.61644
 20
-3.012887
 30
0.0
 11
149.62854
 21
-3.010773
 31
0.0
  0
LINE
  5
82A
330
1F
100
AcDbEntity
  8
1
  6
CONTINUOUS
370
50
 62
4
100
AcDbLine
 10
149.551773
 20
3.427769
 30
0.0
 11
149.57753
 21
3.432277
 31
0.0
  0
LINE
  5
82B
330
1F
100
AcDbEntity
  8
1
  6
CONTINUOUS
370
50
 62
4
100
AcDbLine
 10
145.505157
 20
-3.853936
 30
0.0
 11
146.033173
 21
-3.761281
 31
0.0
  0
LINE
  5
82C
330
1F
100
AcDbEntity
  8
1
  6
CONTINUOUS
370
50
 62
4
100
AcDbLine
 10
149.948608
 20
2.618346
 30
0.0
 11
149.992569
 21
2.626067
 31
0.0
  0
LINE
  5
82D
330
1F
100
AcDbEntity
  8
1
  6
CONTINUOUS
370
50
 62
4
100
AcDbLine
 10
149.904633
 20
2.610516
 30
0.0
 11
149.948608
 21
2.618346
 31
0.0
  0
LINE
  5
82E
330
1F
100
AcDbEntity
  8
1
  6
CONTINUOUS
370
50
 62
4
100
AcDbLine
 10
149.860657
 20
2.602573
 30
0.0
 11
149.904633
 21
2.610516
 31
0.0
  0
LINE
  5
82F
330
1F
100
AcDbEntity
  8
1
  6
CONTINUOUS
370
50
 62
4
100
AcDbLine
 10
137.96788
 20
-0.390479
 30
0.0
 11
138.471954
 21
-0.299051
 31
0.0
  0
LINE
  5
830
330
1F
100
AcDbEntity
  8
1
  6
CONTINUOUS
370
50
 62
4
100
AcDbLine
 10
135.700775
 20
3.859319
 30
0.0
 11
135.730164
 21
3.864655
 31
0.0
  0
LINE
  5
831
330
1F
100
AcDbEntity
  8
1
  6
CONTINUOUS
370
50
 62
4
100
AcDbLine
 10
149.816681
 20
2.594519
 30
0.0
 11
149.860657
 21
2.602573
 31
0.0
  0
LINE
  5
832
330
1F
100
AcDbEntity
  8
1
  6
CONTINUOUS
370
50
 62
4
100
AcDbLine
 10
149.772705
 20
2.586351
 30
0.0
 11
149.816681
 21
2.594519
 31
0.0
  0
LINE
  5
833
330
1F
100
AcDbEntity
  8
1
  6
CONTINUOUS
370
50
 62
4
100
AcDbLine
 10
149.728729
 20
2.57807
 30
0.0
 11
149.772705
 21
2.586351
 31
0.0
  0
LINE
  5
834
330
1F
100
AcDbEntity
  8
1
  6
CONTINUOUS
370
50
 62
4
100
AcDbLine
 10
135.673248
 20
3.853854
 30
0.0
 11
135.700775
 21
3.859319
 31
0.0
  0
LINE
  5
835
330
1F
100
AcDbEntity
  8
1
  6
CONTINUOUS
370
50
 62
4
100
AcDbLine
 10
149.726913
 20
-3.432078
 30
0.0
 11
149.750397
 21
-3.427321
 31
0.0
  0
LINE
  5
836
330
1F
100
AcDbEntity
  8
1
  6
CONTINUOUS
370
50
 62
4
100
AcDbLine
 10
149.912994
 20
1.159324
 30
0.0
 11
149.998123
 21
1.17672
 31
0.0
  0
LINE
  5
837
330
1F
100
AcDbEntity
  8
1
  6
CONTINUOUS
370
50
 62
4
100
AcDbLine
 10
137.465958
 20
-0.493489
 30
0.0
 11
137.96788
 21
-0.390479
 31
0.0
  0
LINE
  5
838
330
1F
100
AcDbEntity
  8
1
  6
CONTINUOUS
370
50
 62
4
100
AcDbLine
 10
148.628296
 20
-3.18758
 30
0.0
 11
148.725021
 21
-3.167434
 31
0.0
  0
LINE
  5
839
330
1F
100
AcDbEntity
  8
1
  6
CONTINUOUS
370
50
 62
4
100
AcDbLine
 10
148.53157
 20
-3.207829
 30
0.0
 11
148.628296
 21
-3.18758
 31
0.0
  0
LINE
  5
83A
330
1F
100
AcDbEntity
  8
1
  6
CONTINUOUS
370
50
 62
4
100
AcDbLine
 10
148.43486
 20
-3.228176
 30
0.0
 11
148.53157
 21
-3.207829
 31
0.0
  0
LINE
  5
83B
330
1F
100
AcDbEntity
  8
1
  6
CONTINUOUS
370
50
 62
4
100
AcDbLine
 10
148.338165
 20
-3.248618
 30
0.0
 11
148.43486
 21
-3.228176
 31
0.0
  0
LINE
  5
83C
330
1F
100
AcDbEntity
  8
1
  6
CONTINUOUS
370
50
 62
4
100
AcDbLine
 10
148.69928
 20
-3.17234
 30
0.0
 11
148.704361
 21
-3.171263
 31
0.0
  0
LINE
  5
83D
330
1F
100
AcDbEntity
  8
1
  6
CONTINUOUS
370
50
 62
4
100
AcDbLine
 10
148.694199
 20
-3.173418
 30
0.0
 11
148.69928
 21
-3.17234
 31
0.0
  0
LINE
  5
83E
330
1F
100
AcDbEntity
  8
1
  6
CONTINUOUS
370
50
 62
4
100
AcDbLine
 10
148.241486
 20
-3.26915
 30
0.0
 11
148.338165
 21
-3.248618
 31
0.0
  0
LINE
  5
83F
330
1F
100
AcDbEntity
  8
1
  6
CONTINUOUS
370
50
 62
4
100
AcDbLine
 10
148.704361
 20
-3.171263
 30
0.0
 11
148.714493
 21
-3.169111
 31
0.0
  0
LINE
  5
840
330
1F
100
AcDbEntity
  8
1
  6
CONTINUOUS
370
50
 62
4
100
AcDbLine
 10
148.719543
 20
-3.168037
 30
0.0
 11
148.724594
 21
-3.166964
 31
0.0
  0
LINE
  5
841
330
1F
100
AcDbEntity
  8
1
  6
CONTINUOUS
370
50
 62
4
100
AcDbLine
 10
148.714493
 20
-3.169111
 30
0.0
 11
148.719543
 21
-3.168037
 31
0.0
  0
LINE
  5
842
330
1F
100
AcDbEntity
  8
1
  6
CONTINUOUS
370
50
 62
4
100
AcDbLine
 10
148.144821
 20
-3.289774
 30
0.0
 11
148.241486
 21
-3.26915
 31
0.0
  0
LINE
  5
843
330
1F
100
AcDbEntity
  8
1
  6
CONTINUOUS
370
50
 62
4
100
AcDbLine
 10
148.047821
 20
-3.310561
 30
0.0
 11
148.144821
 21
-3.289774
 31
0.0
  0
LINE
  5
844
330
1F
100
AcDbEntity
  8
1
  6
CONTINUOUS
370
50
 62
4
100
AcDbLine
 10
146.033173
 20
-3.761281
 30
0.0
 11
146.572098
 21
-3.645543
 31
0.0
  0
LINE
  5
845
330
1F
100
AcDbEntity
  8
1
  6
CONTINUOUS
370
50
 62
4
100
AcDbLine
 10
147.952942
 20
-3.330999
 30
0.0
 11
148.047821
 21
-3.310561
 31
0.0
  0
LINE
  5
846
330
1F
100
AcDbEntity
  8
1
  6
CONTINUOUS
370
50
 62
4
100
AcDbLine
 10
147.858978
 20
-3.351424
 30
0.0
 11
147.952942
 21
-3.330999
 31
0.0
  0
LINE
  5
847
330
1F
100
AcDbEntity
  8
1
  6
CONTINUOUS
370
50
 62
4
100
AcDbLine
 10
135.647583
 20
3.848265
 30
0.0
 11
135.673248
 21
3.853854
 31
0.0
  0
LINE
  5
848
330
1F
100
AcDbEntity
  8
1
  6
CONTINUOUS
370
50
 62
4
100
AcDbLine
 10
147.764984
 20
-3.37204
 30
0.0
 11
147.858978
 21
-3.351424
 31
0.0
  0
LINE
  5
849
330
1F
100
AcDbEntity
  8
1
  6
CONTINUOUS
370
50
 62
4
100
AcDbLine
 10
147.666519
 20
-3.393829
 30
0.0
 11
147.764984
 21
-3.37204
 31
0.0
  0
LINE
  5
84A
330
1F
100
AcDbEntity
  8
1
  6
CONTINUOUS
370
50
 62
4
100
AcDbLine
 10
149.525909
 20
3.42202
 30
0.0
 11
149.551773
 21
3.427769
 31
0.0
  0
LINE
  5
84B
330
1F
100
AcDbEntity
  8
1
  6
CONTINUOUS
370
50
 62
4
100
AcDbLine
 10
147.596695
 20
-3.409388
 30
0.0
 11
147.666519
 21
-3.393829
 31
0.0
  0
LINE
  5
84C
330
1F
100
AcDbEntity
  8
1
  6
CONTINUOUS
370
50
 62
4
100
AcDbLine
 10
147.533997
 20
-3.423431
 30
0.0
 11
147.596695
 21
-3.409388
 31
0.0
  0
LINE
  5
84D
330
1F
100
AcDbEntity
  8
1
  6
CONTINUOUS
370
50
 62
4
100
AcDbLine
 10
147.471298
 20
-3.437542
 30
0.0
 11
147.533997
 21
-3.423431
 31
0.0
  0
LINE
  5
84E
330
1F
100
AcDbEntity
  8
1
  6
CONTINUOUS
370
50
 62
4
100
AcDbLine
 10
147.4086
 20
-3.451718
 30
0.0
 11
147.471298
 21
-3.437542
 31
0.0
  0
LINE
  5
84F
330
1F
100
AcDbEntity
  8
1
  6
CONTINUOUS
370
50
 62
4
100
AcDbLine
 10
147.345886
 20
-3.465955
 30
0.0
 11
147.4086
 21
-3.451718
 31
0.0
  0
LINE
  5
850
330
1F
100
AcDbEntity
  8
1
  6
CONTINUOUS
370
50
 62
4
100
AcDbLine
 10
147.283173
 20
-3.480252
 30
0.0
 11
147.345886
 21
-3.465955
 31
0.0
  0
LINE
  5
851
330
1F
100
AcDbEntity
  8
1
  6
CONTINUOUS
370
50
 62
4
100
AcDbLine
 10
136.966888
 20
-0.607614
 30
0.0
 11
137.465958
 21
-0.493489
 31
0.0
  0
LINE
  5
852
330
1F
100
AcDbEntity
  8
1
  6
CONTINUOUS
370
50
 62
4
100
AcDbLine
 10
147.220459
 20
-3.494605
 30
0.0
 11
147.283173
 21
-3.480252
 31
0.0
  0
LINE
  5
853
330
1F
100
AcDbEntity
  8
1
  6
CONTINUOUS
370
50
 62
4
100
AcDbLine
 10
147.157745
 20
-3.509012
 30
0.0
 11
147.220459
 21
-3.494605
 31
0.0
  0
LINE
  5
854
330
1F
100
AcDbEntity
  8
1
  6
CONTINUOUS
370
50
 62
4
100
AcDbLine
 10
147.086533
 20
-3.525432
 30
0.0
 11
147.157745
 21
-3.509012
 31
0.0
  0
LINE
  5
855
330
1F
100
AcDbEntity
  8
1
  6
CONTINUOUS
370
50
 62
4
100
AcDbLine
 10
147.012848
 20
-3.542487
 30
0.0
 11
147.086533
 21
-3.525432
 31
0.0
  0
LINE
  5
856
330
1F
100
AcDbEntity
  8
1
  6
CONTINUOUS
370
50
 62
4
100
AcDbLine
 10
146.939407
 20
-3.55955
 30
0.0
 11
147.012848
 21
-3.542487
 31
0.0
  0
LINE
  5
857
330
1F
100
AcDbEntity
  8
1
  6
CONTINUOUS
370
50
 62
4
100
AcDbLine
 10
146.865952
 20
-3.576672
 30
0.0
 11
146.939407
 21
-3.55955
 31
0.0
  0
LINE
  5
858
330
1F
100
AcDbEntity
  8
1
  6
CONTINUOUS
370
50
 62
4
100
AcDbLine
 10
149.62854
 20
-3.010773
 30
0.0
 11
149.640503
 21
-3.007982
 31
0.0
  0
LINE
  5
859
330
1F
100
AcDbEntity
  8
1
  6
CONTINUOUS
370
50
 62
4
100
AcDbLine
 10
146.792496
 20
-3.593852
 30
0.0
 11
146.865952
 21
-3.576672
 31
0.0
  0
LINE
  5
85A
330
1F
100
AcDbEntity
  8
1
  6
CONTINUOUS
370
50
 62
4
100
AcDbLine
 10
146.71904
 20
-3.611085
 30
0.0
 11
146.792496
 21
-3.593852
 31
0.0
  0
LINE
  5
85B
330
1F
100
AcDbEntity
  8
1
  6
CONTINUOUS
370
50
 62
4
100
AcDbLine
 10
146.645584
 20
-3.62837
 30
0.0
 11
146.71904
 21
-3.611085
 31
0.0
  0
LINE
  5
85C
330
1F
100
AcDbEntity
  8
1
  6
CONTINUOUS
370
50
 62
4
100
AcDbLine
 10
149.783432
 20
3.288167
 30
0.0
 11
149.926498
 21
3.321841
 31
0.0
  0
LINE
  5
85D
330
1F
100
AcDbEntity
  8
1
  6
CONTINUOUS
370
50
 62
4
100
AcDbLine
 10
146.572128
 20
-3.645702
 30
0.0
 11
146.645584
 21
-3.62837
 31
0.0
  0
LINE
  5
85E
330
1F
100
AcDbEntity
  8
1
  6
CONTINUOUS
370
50
 62
4
100
AcDbLine
 10
135.623825
 20
3.842553
 30
0.0
 11
135.647583
 21
3.848265
 31
0.0
  0
LINE
  5
85F
330
1F
100
AcDbEntity
  8
1
  6
CONTINUOUS
370
50
 62
4
100
AcDbLine
 10
149.64035
 20
3.253001
 30
0.0
 11
149.783432
 21
3.288167
 31
0.0
  0
LINE
  5
860
330
1F
100
AcDbEntity
  8
1
  6
CONTINUOUS
370
50
 62
4
100
AcDbLine
 10
136.471344
 20
-0.732383
 30
0.0
 11
136.966888
 21
-0.607614
 31
0.0
  0
LINE
  5
861
330
1F
100
AcDbEntity
  8
1
  6
CONTINUOUS
370
50
 62
4
100
AcDbLine
 10
149.497253
 20
3.216314
 30
0.0
 11
149.64035
 21
3.253001
 31
0.0
  0
LINE
  5
862
330
1F
100
AcDbEntity
  8
1
  6
CONTINUOUS
370
50
 62
4
100
AcDbLine
 10
136.462524
 20
-0.73471
 30
0.0
 11
136.471344
 21
-0.732381
 31
0.0
  0
LINE
  5
863
330
1F
100
AcDbEntity
  8
1
  6
CONTINUOUS
370
50
 62
4
100
AcDbLine
 10
136.453751
 20
-0.737051
 30
0.0
 11
136.462524
 21
-0.73471
 31
0.0
  0
LINE
  5
864
330
1F
100
AcDbEntity
  8
1
  6
CONTINUOUS
370
50
 62
4
100
AcDbLine
 10
135.601776
 20
3.836668
 30
0.0
 11
135.623825
 21
3.842553
 31
0.0
  0
LINE
  5
865
330
1F
100
AcDbEntity
  8
1
  6
CONTINUOUS
370
50
 62
4
100
AcDbLine
 10
149.354156
 20
3.178075
 30
0.0
 11
149.497253
 21
3.216314
 31
0.0
  0
LINE
  5
866
330
1F
100
AcDbEntity
  8
1
  6
CONTINUOUS
370
50
 62
4
100
AcDbLine
 10
149.750397
 20
-3.427321
 30
0.0
 11
149.773254
 21
-3.421182
 31
0.0
  0
LINE
  5
867
330
1F
100
AcDbEntity
  8
1
  6
CONTINUOUS
370
50
 62
4
100
AcDbLine
 10
136.444992
 20
-0.739404
 30
0.0
 11
136.453751
 21
-0.737051
 31
0.0
  0
LINE
  5
868
330
1F
100
AcDbEntity
  8
1
  6
CONTINUOUS
370
50
 62
4
100
AcDbLine
 10
149.5
 20
3.415053
 30
0.0
 11
149.525909
 21
3.42202
 31
0.0
  0
LINE
  5
869
330
1F
100
AcDbEntity
  8
1
  6
CONTINUOUS
370
50
 62
4
100
AcDbLine
 10
136.436279
 20
-0.7417699999999999
 30
0.0
 11
136.444992
 21
-0.739404
 31
0.0
  0
LINE
  5
86A
330
1F
100
AcDbEntity
  8
1
  6
CONTINUOUS
370
50
 62
4
100
AcDbLine
 10
136.427582
 20
-0.7441479999999999
 30
0.0
 11
136.436279
 21
-0.7417699999999999
 31
0.0
  0
LINE
  5
86B
330
1F
100
AcDbEntity
  8
1
  6
CONTINUOUS
370
50
 62
4
100
AcDbLine
 10
136.418915
 20
-0.7465379999999999
 30
0.0
 11
136.427582
 21
-0.7441479999999999
 31
0.0
  0
LINE
  5
86C
330
1F
100
AcDbEntity
  8
1
  6
CONTINUOUS
370
50
 62
4
100
AcDbLine
 10
149.211044
 20
3.138252
 30
0.0
 11
149.354156
 21
3.178075
 31
0.0
  0
LINE
  5
86D
330
1F
100
AcDbEntity
  8
1
  6
CONTINUOUS
370
50
 62
4
100
AcDbLine
 10
136.364883
 20
-0.7618969999999999
 30
0.0
 11
136.418915
 21
-0.7465379999999999
 31
0.0
  0
LINE
  5
86E
330
1F
100
AcDbEntity
  8
1
  6
CONTINUOUS
370
50
 62
4
100
AcDbLine
 10
149.067947
 20
3.096817
 30
0.0
 11
149.211044
 21
3.138252
 31
0.0
  0
LINE
  5
86F
330
1F
100
AcDbEntity
  8
1
  6
CONTINUOUS
370
50
 62
4
100
AcDbLine
 10
149.640503
 20
-3.007982
 30
0.0
 11
149.652267
 21
-3.004539
 31
0.0
  0
LINE
  5
870
330
1F
100
AcDbEntity
  8
1
  6
CONTINUOUS
370
50
 62
4
100
AcDbLine
 10
149.815018
 20
2.363906
 30
0.0
 11
149.848892
 21
2.373882
 31
0.0
  0
LINE
  5
871
330
1F
100
AcDbEntity
  8
1
  6
CONTINUOUS
370
50
 62
4
100
AcDbLine
 10
149.370407
 20
3.376619
 30
0.0
 11
149.5
 21
3.415053
 31
0.0
  0
LINE
  5
872
330
1F
100
AcDbEntity
  8
1
  6
CONTINUOUS
370
50
 62
4
100
AcDbLine
 10
136.312042
 20
-0.777721
 30
0.0
 11
136.364883
 21
-0.7618969999999999
 31
0.0
  0
LINE
  5
873
330
1F
100
AcDbEntity
  8
1
  6
CONTINUOUS
370
50
 62
4
100
AcDbLine
 10
135.580719
 20
3.830357
 30
0.0
 11
135.601776
 21
3.836668
 31
0.0
  0
LINE
  5
874
330
1F
100
AcDbEntity
  8
1
  6
CONTINUOUS
370
50
 62
4
100
AcDbLine
 10
149.240768
 20
3.336982
 30
0.0
 11
149.370407
 21
3.376619
 31
0.0
  0
LINE
  5
875
330
1F
100
AcDbEntity
  8
1
  6
CONTINUOUS
370
50
 62
4
100
AcDbLine
 10
149.11113
 20
3.296144
 30
0.0
 11
149.240768
 21
3.336982
 31
0.0
  0
LINE
  5
876
330
1F
100
AcDbEntity
  8
1
  6
CONTINUOUS
370
50
 62
4
100
AcDbLine
 10
136.260437
 20
-0.79399
 30
0.0
 11
136.312042
 21
-0.777721
 31
0.0
  0
LINE
  5
877
330
1F
100
AcDbEntity
  8
1
  6
CONTINUOUS
370
50
 62
4
100
AcDbLine
 10
149.939377
 20
-3.14934
 30
0.0
 11
149.954041
 21
-3.14463
 31
0.0
  0
LINE
  5
878
330
1F
100
AcDbEntity
  8
1
  6
CONTINUOUS
370
50
 62
4
100
AcDbLine
 10
149.848892
 20
2.373882
 30
0.0
 11
149.88147
 21
2.384373
 31
0.0
  0
LINE
  5
879
330
1F
100
AcDbEntity
  8
1
  6
CONTINUOUS
370
50
 62
4
100
AcDbLine
 10
148.981537
 20
3.254107
 30
0.0
 11
149.11113
 21
3.296144
 31
0.0
  0
LINE
  5
87A
330
1F
100
AcDbEntity
  8
1
  6
CONTINUOUS
370
50
 62
4
100
AcDbLine
 10
136.210098
 20
-0.8106899999999999
 30
0.0
 11
136.260437
 21
-0.79399
 31
0.0
  0
LINE
  5
87B
330
1F
100
AcDbEntity
  8
1
  6
CONTINUOUS
370
50
 62
4
100
AcDbLine
 10
148.85202
 20
3.210876
 30
0.0
 11
148.981537
 21
3.254107
 31
0.0
  0
LINE
  5
87C
330
1F
100
AcDbEntity
  8
1
  6
CONTINUOUS
370
50
 62
4
100
AcDbLine
 10
149.773254
 20
-3.421182
 30
0.0
 11
149.795456
 21
-3.413654
 31
0.0
  0
LINE
  5
87D
330
1F
100
AcDbEntity
  8
1
  6
CONTINUOUS
370
50
 62
4
100
AcDbLine
 10
135.560989
 20
3.823589
 30
0.0
 11
135.580719
 21
3.830357
 31
0.0
  0
LINE
  5
87E
330
1F
100
AcDbEntity
  8
1
  6
CONTINUOUS
370
50
 62
4
100
AcDbLine
 10
148.722641
 20
3.166452
 30
0.0
 11
148.85202
 21
3.210876
 31
0.0
  0
LINE
  5
87F
330
1F
100
AcDbEntity
  8
1
  6
CONTINUOUS
370
50
 62
4
100
AcDbLine
 10
136.161072
 20
-0.8278019999999999
 30
0.0
 11
136.210098
 21
-0.8106899999999999
 31
0.0
  0
LINE
  5
880
330
1F
100
AcDbEntity
  8
1
  6
CONTINUOUS
370
50
 62
4
100
AcDbLine
 10
149.652267
 20
-3.004539
 30
0.0
 11
149.663849
 21
-3.000462
 31
0.0
  0
LINE
  5
881
330
1F
100
AcDbEntity
  8
1
  6
CONTINUOUS
370
50
 62
4
100
AcDbLine
 10
149.88147
 20
2.384373
 30
0.0
 11
149.91272
 21
2.395376
 31
0.0
  0
LINE
  5
882
330
1F
100
AcDbEntity
  8
1
  6
CONTINUOUS
370
50
 62
4
100
AcDbLine
 10
136.113403
 20
-0.8453109999999999
 30
0.0
 11
136.161072
 21
-0.8278019999999999
 31
0.0
  0
LINE
  5
883
330
1F
100
AcDbEntity
  8
1
  6
CONTINUOUS
370
50
 62
4
100
AcDbLine
 10
149.91272
 20
2.395376
 30
0.0
 11
149.942612
 21
2.406887
 31
0.0
  0
LINE
  5
884
330
1F
100
AcDbEntity
  8
1
  6
CONTINUOUS
370
50
 62
4
100
AcDbLine
 10
136.067123
 20
-0.8631979999999999
 30
0.0
 11
136.113403
 21
-0.8453109999999999
 31
0.0
  0
LINE
  5
885
330
1F
100
AcDbEntity
  8
1
  6
CONTINUOUS
370
50
 62
4
100
AcDbLine
 10
135.542969
 20
3.816353
 30
0.0
 11
135.560989
 21
3.823589
 31
0.0
  0
LINE
  5
886
330
1F
100
AcDbEntity
  8
1
  6
CONTINUOUS
370
50
 62
4
100
AcDbLine
 10
136.022263
 20
-0.881448
 30
0.0
 11
136.067123
 21
-0.8631979999999999
 31
0.0
  0
LINE
  5
887
330
1F
100
AcDbEntity
  8
1
  6
CONTINUOUS
370
50
 62
4
100
AcDbLine
 10
149.663849
 20
-3.000462
 30
0.0
 11
149.675247
 21
-2.99577
 31
0.0
  0
LINE
  5
888
330
1F
100
AcDbEntity
  8
1
  6
CONTINUOUS
370
50
 62
4
100
AcDbLine
 10
149.795456
 20
-3.413654
 30
0.0
 11
149.816925
 21
-3.404731
 31
0.0
  0
LINE
  5
889
330
1F
100
AcDbEntity
  8
1
  6
CONTINUOUS
370
50
 62
4
100
AcDbLine
 10
149.942612
 20
2.406887
 30
0.0
 11
149.971085
 21
2.418903
 31
0.0
  0
LINE
  5
88A
330
1F
100
AcDbEntity
  8
1
  6
CONTINUOUS
370
50
 62
4
100
AcDbLine
 10
135.978897
 20
-0.9000429999999999
 30
0.0
 11
136.022263
 21
-0.881448
 31
0.0
  0
LINE
  5
88B
330
1F
100
AcDbEntity
  8
1
  6
CONTINUOUS
370
50
 62
4
100
AcDbLine
 10
148.694199
 20
-1.365477
 30
0.0
 11
148.782516
 21
-1.325854
 31
0.0
  0
LINE
  5
88C
330
1F
100
AcDbEntity
  8
1
  6
CONTINUOUS
370
50
 62
4
100
AcDbLine
 10
148.782516
 20
-1.325854
 30
0.0
 11
148.869171
 21
-1.286947
 31
0.0
  0
LINE
  5
88D
330
1F
100
AcDbEntity
  8
1
  6
CONTINUOUS
370
50
 62
4
100
AcDbLine
 10
148.869171
 20
-1.286947
 30
0.0
 11
148.954163
 21
-1.248774
 31
0.0
  0
LINE
  5
88E
330
1F
100
AcDbEntity
  8
1
  6
CONTINUOUS
370
50
 62
4
100
AcDbLine
 10
148.954163
 20
-1.248774
 30
0.0
 11
149.037415
 21
-1.211355
 31
0.0
  0
LINE
  5
88F
330
1F
100
AcDbEntity
  8
1
  6
CONTINUOUS
370
50
 62
4
100
AcDbLine
 10
149.037415
 20
-1.211355
 30
0.0
 11
149.118912
 21
-1.174709
 31
0.0
  0
LINE
  5
890
330
1F
100
AcDbEntity
  8
1
  6
CONTINUOUS
370
50
 62
4
100
AcDbLine
 10
149.118912
 20
-1.174709
 30
0.0
 11
149.198608
 21
-1.138856
 31
0.0
  0
LINE
  5
891
330
1F
100
AcDbEntity
  8
1
  6
CONTINUOUS
370
50
 62
4
100
AcDbLine
 10
149.198608
 20
-1.138856
 30
0.0
 11
149.276474
 21
-1.103816
 31
0.0
  0
LINE
  5
892
330
1F
100
AcDbEntity
  8
1
  6
CONTINUOUS
370
50
 62
4
100
AcDbLine
 10
135.937027
 20
-0.918966
 30
0.0
 11
135.978897
 21
-0.9000429999999999
 31
0.0
  0
LINE
  5
893
330
1F
100
AcDbEntity
  8
1
  6
CONTINUOUS
370
50
 62
4
100
AcDbLine
 10
149.971085
 20
2.418903
 30
0.0
 11
149.998123
 21
2.431419
 31
0.0
  0
LINE
  5
894
330
1F
100
AcDbEntity
  8
1
  6
CONTINUOUS
370
50
 62
4
100
AcDbLine
 10
149.675247
 20
-2.99577
 30
0.0
 11
149.686447
 21
-2.990481
 31
0.0
  0
LINE
  5
895
330
1F
100
AcDbEntity
  8
1
  6
CONTINUOUS
370
50
 62
4
100
AcDbLine
 10
135.896713
 20
-0.938201
 30
0.0
 11
135.937027
 21
-0.918966
 31
0.0
  0
LINE
  5
896
330
1F
100
AcDbEntity
  8
1
  6
CONTINUOUS
370
50
 62
4
100
AcDbLine
 10
135.52684
 20
3.808498
 30
0.0
 11
135.542969
 21
3.816353
 31
0.0
  0
LINE
  5
897
330
1F
100
AcDbEntity
  8
1
  6
CONTINUOUS
370
50
 62
4
100
AcDbLine
 10
149.816925
 20
-3.404731
 30
0.0
 11
149.837601
 21
-3.394405
 31
0.0
  0
LINE
  5
898
330
1F
100
AcDbEntity
  8
1
  6
CONTINUOUS
370
50
 62
4
100
AcDbLine
 10
135.858002
 20
-0.9577249999999999
 30
0.0
 11
135.896713
 21
-0.938201
 31
0.0
  0
LINE
  5
899
330
1F
100
AcDbEntity
  8
1
  6
CONTINUOUS
370
50
 62
4
100
AcDbLine
 10
135.82106
 20
-0.977445
 30
0.0
 11
135.858002
 21
-0.9577249999999999
 31
0.0
  0
LINE
  5
89A
330
1F
100
AcDbEntity
  8
1
  6
CONTINUOUS
370
50
 62
4
100
AcDbLine
 10
149.686447
 20
-2.990481
 30
0.0
 11
149.697433
 21
-2.984615
 31
0.0
  0
LINE
  5
89B
330
1F
100
AcDbEntity
  8
1
  6
CONTINUOUS
370
50
 62
4
100
AcDbLine
 10
135.78598
 20
-0.9973179999999999
 30
0.0
 11
135.82106
 21
-0.977445
 31
0.0
  0
LINE
  5
89C
330
1F
100
AcDbEntity
  8
1
  6
CONTINUOUS
370
50
 62
4
100
AcDbLine
 10
149.837601
 20
-3.394405
 30
0.0
 11
149.857422
 21
-3.382671
 31
0.0
  0
LINE
  5
89D
330
1F
100
AcDbEntity
  8
1
  6
CONTINUOUS
370
50
 62
4
100
AcDbLine
 10
149.697433
 20
-2.984615
 30
0.0
 11
149.708191
 21
-2.978218
 31
0.0
  0
LINE
  5
89E
330
1F
100
AcDbEntity
  8
1
  6
CONTINUOUS
370
50
 62
4
100
AcDbLine
 10
135.752762
 20
-1.017323
 30
0.0
 11
135.78598
 21
-0.9973179999999999
 31
0.0
  0
LINE
  5
89F
330
1F
100
AcDbEntity
  8
1
  6
CONTINUOUS
370
50
 62
4
100
AcDbLine
 10
135.513275
 20
3.8
 30
0.0
 11
135.52684
 21
3.808498
 31
0.0
  0
LINE
  5
8A0
330
1F
100
AcDbEntity
  8
1
  6
CONTINUOUS
370
50
 62
4
100
AcDbLine
 10
135.721436
 20
-1.037438
 30
0.0
 11
135.752762
 21
-1.017323
 31
0.0
  0
LINE
  5
8A1
330
1F
100
AcDbEntity
  8
1
  6
CONTINUOUS
370
50
 62
4
100
AcDbLine
 10
149.708191
 20
-2.978218
 30
0.0
 11
149.718628
 21
-2.971354
 31
0.0
  0
LINE
  5
8A2
330
1F
100
AcDbEntity
  8
1
  6
CONTINUOUS
370
50
 62
4
100
AcDbLine
 10
135.692032
 20
-1.057646
 30
0.0
 11
135.721436
 21
-1.037438
 31
0.0
  0
LINE
  5
8A3
330
1F
100
AcDbEntity
  8
1
  6
CONTINUOUS
370
50
 62
4
100
AcDbLine
 10
149.857422
 20
-3.382671
 30
0.0
 11
149.876312
 21
-3.369522
 31
0.0
  0
LINE
  5
8A4
330
1F
100
AcDbEntity
  8
1
  6
CONTINUOUS
370
50
 62
4
100
AcDbLine
 10
149.954041
 20
-3.14463
 30
0.0
 11
149.968307
 21
-3.134194
 31
0.0
  0
LINE
  5
8A5
330
1F
100
AcDbEntity
  8
1
  6
CONTINUOUS
370
50
 62
4
100
AcDbLine
 10
135.664551
 20
-1.077923
 30
0.0
 11
135.692032
 21
-1.057646
 31
0.0
  0
LINE
  5
8A6
330
1F
100
AcDbEntity
  8
1
  6
CONTINUOUS
370
50
 62
4
100
AcDbLine
 10
135.639038
 20
-1.098252
 30
0.0
 11
135.664551
 21
-1.077923
 31
0.0
  0
LINE
  5
8A7
330
1F
100
AcDbEntity
  8
1
  6
CONTINUOUS
370
50
 62
4
100
AcDbLine
 10
149.876312
 20
-3.369522
 30
0.0
 11
149.894196
 21
-3.354974
 31
0.0
  0
LINE
  5
8A8
330
1F
100
AcDbEntity
  8
1
  6
CONTINUOUS
370
50
 62
4
100
AcDbLine
 10
135.615494
 20
-1.11861
 30
0.0
 11
135.639038
 21
-1.098252
 31
0.0
  0
LINE
  5
8A9
330
1F
100
AcDbEntity
  8
1
  6
CONTINUOUS
370
50
 62
4
100
AcDbLine
 10
135.503052
 20
3.790881
 30
0.0
 11
135.513275
 21
3.8
 31
0.0
  0
LINE
  5
8AA
330
1F
100
AcDbEntity
  8
1
  6
CONTINUOUS
370
50
 62
4
100
AcDbLine
 10
135.593414
 20
-1.139508
 30
0.0
 11
135.615494
 21
-1.11861
 31
0.0
  0
LINE
  5
8AB
330
1F
100
AcDbEntity
  8
1
  6
CONTINUOUS
370
50
 62
4
100
AcDbLine
 10
149.894196
 20
-3.354974
 30
0.0
 11
149.91095
 21
-3.339076
 31
0.0
  0
LINE
  5
8AC
330
1F
100
AcDbEntity
  8
1
  6
CONTINUOUS
370
50
 62
4
100
AcDbLine
 10
148.694214
 20
-1.365486
 30
0.0
 11
150.0
 21
0.0
 31
0.0
  0
LINE
  5
8AD
330
1F
100
AcDbEntity
  8
1
  6
CONTINUOUS
370
50
 62
4
100
AcDbLine
 10
135.572433
 20
-1.161567
 30
0.0
 11
135.593414
 21
-1.139508
 31
0.0
  0
LINE
  5
8AE
330
1F
100
AcDbEntity
  8
1
  6
CONTINUOUS
370
50
 62
4
100
AcDbLine
 10
149.91095
 20
-3.339076
 30
0.0
 11
149.926498
 21
-3.321843
 31
0.0
  0
LINE
  5
8AF
330
1F
100
AcDbEntity
  8
1
  6
CONTINUOUS
370
50
 62
4
100
AcDbLine
 10
135.552994
 20
-1.184702
 30
0.0
 11
135.572433
 21
-1.161567
 31
0.0
  0
LINE
  5
8B0
330
1F
100
AcDbEntity
  8
1
  6
CONTINUOUS
370
50
 62
4
100
AcDbLine
 10
149.926498
 20
-3.321843
 30
0.0
 11
149.934692
 21
-3.311577
 31
0.0
  0
LINE
  5
8B1
330
1F
100
AcDbEntity
  8
1
  6
CONTINUOUS
370
50
 62
4
100
AcDbLine
 10
149.934692
 20
-3.311577
 30
0.0
 11
149.942444
 21
-3.300926
 31
0.0
  0
LINE
  5
8B2
330
1F
100
AcDbEntity
  8
1
  6
CONTINUOUS
370
50
 62
4
100
AcDbLine
 10
135.535431
 20
-1.209073
 30
0.0
 11
135.552994
 21
-1.184702
 31
0.0
  0
LINE
  5
8B3
330
1F
100
AcDbEntity
  8
1
  6
CONTINUOUS
370
50
 62
4
100
AcDbLine
 10
149.276443
 20
-1.103799
 30
0.0
 11
149.968353
 21
-0.138627
 31
0.0
  0
LINE
  5
8B4
330
1F
100
AcDbEntity
  8
1
  6
CONTINUOUS
370
50
 62
4
100
AcDbLine
 10
149.942444
 20
-3.300926
 30
0.0
 11
149.949753
 21
-3.289898
 31
0.0
  0
LINE
  5
8B5
330
1F
100
AcDbEntity
  8
1
  6
CONTINUOUS
370
50
 62
4
100
AcDbLine
 10
135.496994
 20
3.781181
 30
0.0
 11
135.503052
 21
3.790881
 31
0.0
  0
LINE
  5
8B6
330
1F
100
AcDbEntity
  8
1
  6
CONTINUOUS
370
50
 62
4
100
AcDbLine
 10
149.949753
 20
-3.289898
 30
0.0
 11
149.956619
 21
-3.278501
 31
0.0
  0
LINE
  5
8B7
330
1F
100
AcDbEntity
  8
1
  6
CONTINUOUS
370
50
 62
4
100
AcDbLine
 10
135.520081
 20
-1.234995
 30
0.0
 11
135.535431
 21
-1.209073
 31
0.0
  0
LINE
  5
8B8
330
1F
100
AcDbEntity
  8
1
  6
CONTINUOUS
370
50
 62
4
100
AcDbLine
 10
149.956619
 20
-3.278501
 30
0.0
 11
149.963028
 21
-3.266741
 31
0.0
  0
LINE
  5
8B9
330
1F
100
AcDbEntity
  8
1
  6
CONTINUOUS
370
50
 62
4
100
AcDbLine
 10
149.963028
 20
-3.266741
 30
0.0
 11
149.968948
 21
-3.254626
 31
0.0
  0
LINE
  5
8BA
330
1F
100
AcDbEntity
  8
1
  6
CONTINUOUS
370
50
 62
4
100
AcDbLine
 10
135.507782
 20
-1.262313
 30
0.0
 11
135.520081
 21
-1.234995
 31
0.0
  0
LINE
  5
8BB
330
1F
100
AcDbEntity
  8
1
  6
CONTINUOUS
370
50
 62
4
100
AcDbLine
 10
149.968948
 20
-3.254626
 30
0.0
 11
149.974396
 21
-3.242163
 31
0.0
  0
LINE
  5
8BC
330
1F
100
AcDbEntity
  8
1
  6
CONTINUOUS
370
50
 62
4
100
AcDbLine
 10
148.694214
 20
-3.173474
 30
0.0
 11
148.700317
 21
-3.158654
 31
0.0
  0
LINE
  5
8BD
330
1F
100
AcDbEntity
  8
1
  6
CONTINUOUS
370
50
 62
4
100
AcDbLine
 10
149.974396
 20
-3.242163
 30
0.0
 11
149.979355
 21
-3.229375
 31
0.0
  0
LINE
  5
8BE
330
1F
100
AcDbEntity
  8
1
  6
CONTINUOUS
370
50
 62
4
100
AcDbLine
 10
149.979355
 20
-3.229375
 30
0.0
 11
149.98378
 21
-3.216302
 31
0.0
  0
LINE
  5
8BF
330
1F
100
AcDbEntity
  8
1
  6
CONTINUOUS
370
50
 62
4
100
AcDbLine
 10
135.499374
 20
-1.290833
 30
0.0
 11
135.507782
 21
-1.262313
 31
0.0
  0
LINE
  5
8C0
330
1F
100
AcDbEntity
  8
1
  6
CONTINUOUS
370
50
 62
4
100
AcDbLine
 10
149.98378
 20
-3.216302
 30
0.0
 11
149.987686
 21
-3.202958
 31
0.0
  0
LINE
  5
8C1
330
1F
100
AcDbEntity
  8
1
  6
CONTINUOUS
370
50
 62
4
100
AcDbLine
 10
149.987686
 20
-3.202958
 30
0.0
 11
149.991074
 21
-3.189353
 31
0.0
  0
LINE
  5
8C2
330
1F
100
AcDbEntity
  8
1
  6
CONTINUOUS
370
50
 62
4
100
AcDbLine
 10
149.997528
 20
-3.182715
 30
0.0
 11
149.997772
 21
-3.181674
 31
0.0
  0
LINE
  5
8C3
330
1F
100
AcDbEntity
  8
1
  6
CONTINUOUS
370
50
 62
4
100
AcDbLine
 10
149.968353
 20
-0.138627
 30
0.0
 11
150.0
 21
0.0
 31
0.0
  0
LINE
  5
8C4
330
1F
100
AcDbEntity
  8
1
  6
CONTINUOUS
370
50
 62
4
100
AcDbLine
 10
149.997772
 20
-3.181674
 30
0.0
 11
149.998016
 21
-3.180546
 31
0.0
  0
LINE
  5
8C5
330
1F
100
AcDbEntity
  8
1
  6
CONTINUOUS
370
50
 62
4
100
AcDbLine
 10
149.998016
 20
-3.180546
 30
0.0
 11
149.998245
 21
-3.1793
 31
0.0
  0
LINE
  5
8C6
330
1F
100
AcDbEntity
  8
1
  6
CONTINUOUS
370
50
 62
4
100
AcDbLine
 10
149.998245
 20
-3.1793
 30
0.0
 11
149.998474
 21
-3.177859
 31
0.0
  0
LINE
  5
8C7
330
1F
100
AcDbEntity
  8
1
  6
CONTINUOUS
370
50
 62
4
100
AcDbLine
 10
148.496658
 20
1.00907
 30
0.0
 11
148.514191
 21
1.121094
 31
0.0
  0
LINE
  5
8C8
330
1F
100
AcDbEntity
  8
1
  6
CONTINUOUS
370
50
 62
4
100
AcDbLine
 10
149.998474
 20
-3.177859
 30
0.0
 11
149.998718
 21
-3.17624
 31
0.0
  0
LINE
  5
8C9
330
1F
100
AcDbEntity
  8
1
  6
CONTINUOUS
370
50
 62
4
100
AcDbLine
 10
148.481934
 20
0.894134
 30
0.0
 11
148.496658
 21
1.00907
 31
0.0
  0
LINE
  5
8CA
330
1F
100
AcDbEntity
  8
1
  6
CONTINUOUS
370
50
 62
4
100
AcDbLine
 10
135.495773
 20
-1.320335
 30
0.0
 11
135.499374
 21
-1.290833
 31
0.0
  0
LINE
  5
8CB
330
1F
100
AcDbEntity
  8
1
  6
CONTINUOUS
370
50
 62
4
100
AcDbLine
 10
149.998718
 20
-3.17624
 30
0.0
 11
149.998932
 21
-3.174469
 31
0.0
  0
LINE
  5
8CC
330
1F
100
AcDbEntity
  8
1
  6
CONTINUOUS
370
50
 62
4
100
AcDbLine
 10
149.998932
 20
-3.174469
 30
0.0
 11
149.99913
 21
-3.172572
 31
0.0
  0
LINE
  5
8CD
330
1F
100
AcDbEntity
  8
1
  6
CONTINUOUS
370
50
 62
4
100
AcDbLine
 10
148.470047
 20
0.776355
 30
0.0
 11
148.481934
 21
0.894134
 31
0.0
  0
LINE
  5
8CE
330
1F
100
AcDbEntity
  8
1
  6
CONTINUOUS
370
50
 62
4
100
AcDbLine
 10
135.495972
 20
3.770988
 30
0.0
 11
135.496994
 21
3.781181
 31
0.0
  0
LINE
  5
8CF
330
1F
100
AcDbEntity
  8
1
  6
CONTINUOUS
370
50
 62
4
100
AcDbLine
 10
149.99913
 20
-3.172572
 30
0.0
 11
149.999313
 21
-3.170573
 31
0.0
  0
LINE
  5
8D0
330
1F
100
AcDbEntity
  8
1
  6
CONTINUOUS
370
50
 62
4
100
AcDbLine
 10
149.999313
 20
-3.170573
 30
0.0
 11
149.999481
 21
-3.168376
 31
0.0
  0
LINE
  5
8D1
330
1F
100
AcDbEntity
  8
1
  6
CONTINUOUS
370
50
 62
4
100
AcDbLine
 10
148.46106
 20
0.655806
 30
0.0
 11
148.470047
 21
0.776355
 31
0.0
  0
LINE
  5
8D2
330
1F
100
AcDbEntity
  8
1
  6
CONTINUOUS
370
50
 62
4
100
AcDbLine
 10
149.997208
 20
-2.465996
 30
0.0
 11
149.998093
 21
-2.453702
 31
0.0
  0
LINE
  5
8D3
330
1F
100
AcDbEntity
  8
1
  6
CONTINUOUS
370
50
 62
4
100
AcDbLine
 10
149.996384
 20
-2.479035
 30
0.0
 11
149.997208
 21
-2.465996
 31
0.0
  0
LINE
  5
8D4
330
1F
100
AcDbEntity
  8
1
  6
CONTINUOUS
370
50
 62
4
100
AcDbLine
 10
149.999481
 20
-3.168376
 30
0.0
 11
149.999634
 21
-3.165865
 31
0.0
  0
LINE
  5
8D5
330
1F
100
AcDbEntity
  8
1
  6
CONTINUOUS
370
50
 62
4
100
AcDbLine
 10
149.995636
 20
-2.4928
 30
0.0
 11
149.996384
 21
-2.479035
 31
0.0
  0
LINE
  5
8D6
330
1F
100
AcDbEntity
  8
1
  6
CONTINUOUS
370
50
 62
4
100
AcDbLine
 10
148.455032
 20
0.532555
 30
0.0
 11
148.46106
 21
0.655806
 31
0.0
  0
LINE
  5
8D7
330
1F
100
AcDbEntity
  8
1
  6
CONTINUOUS
370
50
 62
4
100
AcDbLine
 10
149.99498
 20
-2.507276
 30
0.0
 11
149.995636
 21
-2.4928
 31
0.0
  0
LINE
  5
8D8
330
1F
100
AcDbEntity
  8
1
  6
CONTINUOUS
370
50
 62
4
100
AcDbLine
 10
149.999634
 20
-3.165865
 30
0.0
 11
149.999756
 21
-3.163137
 31
0.0
  0
LINE
  5
8D9
330
1F
100
AcDbEntity
  8
1
  6
CONTINUOUS
370
50
 62
4
100
AcDbLine
 10
149.994385
 20
-2.522445
 30
0.0
 11
149.99498
 21
-2.507276
 31
0.0
  0
LINE
  5
8DA
330
1F
100
AcDbEntity
  8
1
  6
CONTINUOUS
370
50
 62
4
100
AcDbLine
 10
149.999756
 20
-3.163137
 30
0.0
 11
149.999863
 21
-3.160293
 31
0.0
  0
LINE
  5
8DB
330
1F
100
AcDbEntity
  8
1
  6
CONTINUOUS
370
50
 62
4
100
AcDbLine
 10
149.993881
 20
-2.538284
 30
0.0
 11
149.994385
 21
-2.522445
 31
0.0
  0
LINE
  5
8DC
330
1F
100
AcDbEntity
  8
1
  6
CONTINUOUS
370
50
 62
4
100
AcDbLine
 10
149.993454
 20
-2.554732
 30
0.0
 11
149.993881
 21
-2.538284
 31
0.0
  0
LINE
  5
8DD
330
1F
100
AcDbEntity
  8
1
  6
CONTINUOUS
370
50
 62
4
100
AcDbLine
 10
149.999863
 20
-3.160293
 30
0.0
 11
149.999939
 21
-3.157315
 31
0.0
  0
LINE
  5
8DE
330
1F
100
AcDbEntity
  8
1
  6
CONTINUOUS
370
50
 62
4
100
AcDbLine
 10
148.451996
 20
0.406674
 30
0.0
 11
148.455032
 21
0.532555
 31
0.0
  0
LINE
  5
8DF
330
1F
100
AcDbEntity
  8
1
  6
CONTINUOUS
370
50
 62
4
100
AcDbLine
 10
149.993103
 20
-2.571759
 30
0.0
 11
149.993454
 21
-2.554732
 31
0.0
  0
LINE
  5
8E0
330
1F
100
AcDbEntity
  8
1
  6
CONTINUOUS
370
50
 62
4
100
AcDbLine
 10
149.992844
 20
-2.589339
 30
0.0
 11
149.993103
 21
-2.571759
 31
0.0
  0
LINE
  5
8E1
330
1F
100
AcDbEntity
  8
1
  6
CONTINUOUS
370
50
 62
4
100
AcDbLine
 10
149.999939
 20
-3.157315
 30
0.0
 11
149.999985
 21
-3.153971
 31
0.0
  0
LINE
  5
8E2
330
1F
100
AcDbEntity
  8
1
  6
CONTINUOUS
370
50
 62
4
100
AcDbLine
 10
149.992661
 20
-2.60745
 30
0.0
 11
149.992844
 21
-2.589339
 31
0.0
  0
LINE
  5
8E3
330
1F
100
AcDbEntity
  8
1
  6
CONTINUOUS
370
50
 62
4
100
AcDbLine
 10
149.992569
 20
-2.626067
 30
0.0
 11
149.992661
 21
-2.60745
 31
0.0
  0
LINE
  5
8E4
330
1F
100
AcDbEntity
  8
1
  6
CONTINUOUS
370
50
 62
4
100
AcDbLine
 10
149.999985
 20
-3.153971
 30
0.0
 11
150.0
 21
-3.150431
 31
0.0
  0
LINE
  5
8E5
330
1F
100
AcDbEntity
  8
1
  6
CONTINUOUS
370
50
 62
4
100
AcDbLine
 10
149.991287
 20
-3.108889
 30
0.0
 11
149.991501
 21
-3.028423
 31
0.0
  0
LINE
  5
8E6
330
1F
100
AcDbEntity
  8
1
  6
CONTINUOUS
370
50
 62
4
100
AcDbLine
 10
149.991714
 20
-2.947956
 30
0.0
 11
149.991928
 21
-2.867486
 31
0.0
  0
LINE
  5
8E7
330
1F
100
AcDbEntity
  8
1
  6
CONTINUOUS
370
50
 62
4
100
AcDbLine
 10
149.991928
 20
-2.867486
 30
0.0
 11
149.992142
 21
-2.787015
 31
0.0
  0
LINE
  5
8E8
330
1F
100
AcDbEntity
  8
1
  6
CONTINUOUS
370
50
 62
4
100
AcDbLine
 10
149.992355
 20
-2.706542
 30
0.0
 11
149.992569
 21
-2.626067
 31
0.0
  0
LINE
  5
8E9
330
1F
100
AcDbEntity
  8
1
  6
CONTINUOUS
370
50
 62
4
100
AcDbLine
 10
149.991074
 20
-3.189353
 30
0.0
 11
149.991287
 21
-3.108889
 31
0.0
  0
LINE
  5
8EA
330
1F
100
AcDbEntity
  8
1
  6
CONTINUOUS
370
50
 62
4
100
AcDbLine
 10
149.991501
 20
-3.028423
 30
0.0
 11
149.991714
 21
-2.947956
 31
0.0
  0
LINE
  5
8EB
330
1F
100
AcDbEntity
  8
1
  6
CONTINUOUS
370
50
 62
4
100
AcDbLine
 10
149.992142
 20
-2.787015
 30
0.0
 11
149.992355
 21
-2.706542
 31
0.0
  0
LINE
  5
8EC
330
1F
100
AcDbEntity
  8
1
  6
CONTINUOUS
370
50
 62
4
100
AcDbLine
 10
149.997528
 20
-3.182721
 30
0.0
 11
149.998093
 21
-2.453702
 31
0.0
  0
LINE
  5
8ED
330
1F
100
AcDbEntity
  8
1
  6
CONTINUOUS
370
50
 62
4
100
AcDbLine
 10
36.0
 20
-4.0
 30
0.0
 11
36.0
 21
4.0
 31
0.0
  0
LINE
  5
8EE
330
1F
100
AcDbEntity
  8
1
  6
CONTINUOUS
370
50
 62
4
100
AcDbLine
 10
142.0
 20
-4.0
 30
0.0
 11
142.0
 21
4.0
 31
0.0
  0
LINE
  5
8EF
330
1F
100
AcDbEntity
  8
1
  6
CONTINUOUS
370
50
 62
4
100
AcDbLine
 10
149.5
 20
2.082646
 30
0.0
 11
149.5
 21
2.647429
 31
0.0
  0
LINE
  5
8F0
330
1F
100
AcDbEntity
  8
1
  6
CONTINUOUS
370
50
 62
4
100
AcDbLine
 10
149.5
 20
-3.415053
 30
0.0
 11
149.5
 21
-2.998519
 31
0.0
  0
LINE
  5
8F1
330
1F
100
AcDbEntity
  8
1
  6
CONTINUOUS
370
50
 62
4
100
AcDbLine
 10
149.968353
 20
-3.134388
 30
0.0
 11
149.968353
 21
-0.138627
 31
0.0
  0
LINE
  5
8F2
330
1F
100
AcDbEntity
  8
1
  6
CONTINUOUS
370
50
 62
4
100
AcDbLine
 10
149.997528
 20
3.18272
 30
0.0
 11
149.997528
 21
3.195123
 31
0.0
  0
LINE
  5
8F3
330
1F
100
AcDbEntity
  8
1
  6
CONTINUOUS
370
50
 62
4
100
AcDbLine
 10
149.997528
 20
-3.184508
 30
0.0
 11
149.997528
 21
-3.18272
 31
0.0
  0
LINE
  5
8F4
330
1F
100
AcDbEntity
  8
1
  6
CONTINUOUS
370
50
 62
4
100
AcDbLine
 10
149.997528
 20
-3.18629
 30
0.0
 11
149.997528
 21
-3.184508
 31
0.0
  0
LINE
  5
8F5
330
1F
100
AcDbEntity
  8
1
  6
CONTINUOUS
370
50
 62
4
100
AcDbLine
 10
149.997528
 20
-3.188067
 30
0.0
 11
149.997528
 21
-3.18629
 31
0.0
  0
LINE
  5
8F6
330
1F
100
AcDbEntity
  8
1
  6
CONTINUOUS
370
50
 62
4
100
AcDbLine
 10
149.997528
 20
-3.189839
 30
0.0
 11
149.997528
 21
-3.188067
 31
0.0
  0
LINE
  5
8F7
330
1F
100
AcDbEntity
  8
1
  6
CONTINUOUS
370
50
 62
4
100
AcDbLine
 10
149.997528
 20
-3.191606
 30
0.0
 11
149.997528
 21
-3.189839
 31
0.0
  0
LINE
  5
8F8
330
1F
100
AcDbEntity
  8
1
  6
CONTINUOUS
370
50
 62
4
100
AcDbLine
 10
149.997528
 20
-3.193367
 30
0.0
 11
149.997528
 21
-3.191606
 31
0.0
  0
LINE
  5
8F9
330
1F
100
AcDbEntity
  8
1
  6
CONTINUOUS
370
50
 62
4
100
AcDbLine
 10
149.997528
 20
-3.195123
 30
0.0
 11
149.997528
 21
-3.193367
 31
0.0
  0
LINE
  5
8FA
330
1F
100
AcDbEntity
  8
1
  6
CONTINUOUS
370
50
 62
4
100
AcDbLine
 10
149.997528
 20
1.568058
 30
0.0
 11
149.997528
 21
1.571682
 31
0.0
  0
LINE
  5
8FB
330
1F
100
AcDbEntity
  8
1
  6
CONTINUOUS
370
50
 62
4
100
AcDbLine
 10
149.997528
 20
1.564435
 30
0.0
 11
149.997528
 21
1.568058
 31
0.0
  0
LINE
  5
8FC
330
1F
100
AcDbEntity
  8
1
  6
CONTINUOUS
370
50
 62
4
100
AcDbLine
 10
149.997528
 20
1.560813
 30
0.0
 11
149.997528
 21
1.564435
 31
0.0
  0
LINE
  5
8FD
330
1F
100
AcDbEntity
  8
1
  6
CONTINUOUS
370
50
 62
4
100
AcDbLine
 10
149.997528
 20
1.55719
 30
0.0
 11
149.997528
 21
1.560813
 31
0.0
  0
LINE
  5
8FE
330
1F
100
AcDbEntity
  8
1
  6
CONTINUOUS
370
50
 62
4
100
AcDbLine
 10
149.997528
 20
1.553568
 30
0.0
 11
149.997528
 21
1.55719
 31
0.0
  0
LINE
  5
8FF
330
1F
100
AcDbEntity
  8
1
  6
CONTINUOUS
370
50
 62
4
100
AcDbLine
 10
149.997528
 20
1.549946
 30
0.0
 11
149.997528
 21
1.553568
 31
0.0
  0
LINE
  5
900
330
1F
100
AcDbEntity
  8
1
  6
CONTINUOUS
370
50
 62
4
100
AcDbLine
 10
149.997528
 20
1.546325
 30
0.0
 11
149.997528
 21
1.549946
 31
0.0
  0
LINE
  5
901
330
1F
100
AcDbEntity
  8
1
  6
CONTINUOUS
370
50
 62
4
100
AcDbLine
 10
150.0
 20
1.525076
 30
0.0
 11
150.0
 21
3.150442
 31
0.0
  0
LINE
  5
902
330
1F
100
AcDbEntity
  8
1
  6
CONTINUOUS
370
50
 62
4
100
AcDbLine
 10
150.0
 20
-3.150442
 30
0.0
 11
150.0
 21
0.0
 31
0.0
  0
LINE
  5
903
330
1F
100
AcDbEntity
  8
1
  6
CONTINUOUS
370
50
 62
4
100
AcDbLine
 10
150.0
 20
0.0
 30
0.0
 11
150.0
 21
1.524701
 31
0.0
  0
ELLIPSE
  5
904
330
1F
100
AcDbEntity
  8
1
  6
CONTINUOUS
370
50
 62
4
100
AcDbEllipse
 10
142.0
 20
-11.311166
 30
0.0
 11
15.222779
 21
0.0
 31
0.0
210
0.0
220
0.0
230
1.0
 40
0.7071067641460208
 41
1.570796326794897
 42
1.999607852154333
  0
ELLIPSE
  5
905
330
1F
100
AcDbEntity
  8
1
  6
CONTINUOUS
370
50
 62
4
100
AcDbEllipse
 10
142.0
 20
14.0
 30
0.0
 11
15.273506
 21
0.0
 31
0.0
210
0.0
220
0.0
230
1.0
 40
0.7071068031138364
 41
4.342000964986374
 42
4.71238898038469
  0
ELLIPSE
  5
906
330
1F
100
AcDbEntity
  8
1
  6
CONTINUOUS
370
50
 62
4
100
AcDbEllipse
 10
149.5
 20
-3.150442
 30
0.0
 11
0.5
 21
0.0
 31
0.0
210
0.0
220
0.0
230
1.0
 40
0.9001260000000002
 41
6.183740471277134
 42
6.283185307179586
  0
ELLIPSE
  5
907
330
1F
100
AcDbEntity
  8
1
  6
CONTINUOUS
370
50
 62
4
100
AcDbEllipse
 10
149.5
 20
1.524701
 30
0.0
 11
0.5
 21
0.0
 31
0.0
210
0.0
220
0.0
230
1.0
 40
0.4356279999999999
 41
0.0
 42
0.0994449921117529
  0
ELLIPSE
  5
908
330
1F
100
AcDbEntity
  8
1
  6
CONTINUOUS
370
50
 62
4
100
AcDbEllipse
 10
149.5
 20
3.150442
 30
0.0
 11
0.5
 21
0.0
 31
0.0
210
0.0
220
0.0
230
1.0
 40
0.9001260000000002
 41
0.0
 42
0.0994448359024626
  0
ELLIPSE
  5
909
330
1F
100
AcDbEntity
  8
1
  6
CONTINUOUS
370
50
 62
4
100
AcDbEllipse
 10
149.997922
 20
2.847047
 30
0.0
 11
-0.0003040968055217458
 21
0.4799999999386801
 31
0.0
210
0.0
220
0.0
230
1.0
 40
0.0002833332765213
 41
2.532688905144082
 42
2.619023241100614
  0
LINE
  5
90A
330
1F
100
AcDbEntity
  8
CUT
  6
CONTINUOUS
370
25
 62
1
100
AcDbLine
 10
142.0
 20
0.0
 30
0.0
 11
150.0
 21
0.0
 31
0.0
  0
LINE
  5
90B
330
1F
100
AcDbEntity
  8
CUT
  6
CONTINUOUS
370
25
 62
1
100
AcDbLine
 10
150.0
 20
0.0
 30
0.0
 11
150.0
 21
3.5
 31
0.0
  0
ARC
  5
90C
330
1F
100
AcDbEntity
  8
CUT
  6
CONTINUOUS
370
25
 62
1
100
AcDbCircle
 10
149.4999999999
 20
3.4999999999
 30
0.0
 40
0.5
100
AcDbArc
 50
0.0
 51
89.99999998854227
  0
LINE
  5
90D
330
1F
100
AcDbEntity
  8
CUT
  6
CONTINUOUS
370
25
 62
1
100
AcDbLine
 10
149.5
 20
4.0
 30
0.0
 11
142.0
 21
4.0
 31
0.0
  0
LINE
  5
90E
330
1F
100
AcDbEntity
  8
CUT
  6
CONTINUOUS
370
25
 62
1
100
AcDbLine
 10
142.0
 20
4.0
 30
0.0
 11
142.0
 21
0.0
 31
0.0
  0
LINE
  5
90F
330
1F
100
AcDbEntity
  8
NOCUT
  6
CONTINUOUS
370
25
 62
7
100
AcDbLine
 10
36.0
 20
0.0
 30
0.0
 11
142.0
 21
0.0
 31
0.0
  0
LINE
  5
910
330
1F
100
AcDbEntity
  8
NOCUT
  6
CONTINUOUS
370
25
 62
7
100
AcDbLine
 10
142.0
 20
0.0
 30
0.0
 11
142.0
 21
4.0
 31
0.0
  0
LINE
  5
911
330
1F
100
AcDbEntity
  8
NOCUT
  6
CONTINUOUS
370
25
 62
7
100
AcDbLine
 10
142.0
 20
4.0
 30
0.0
 11
50.0
 21
4.0
 31
0.0
  0
LINE
  5
912
330
1F
100
AcDbEntity
  8
NOCUT
  6
CONTINUOUS
370
25
 62
7
100
AcDbLine
 10
50.0
 20
4.0
 30
0.0
 11
36.0
 21
4.0
 31
0.0
  0
LINE
  5
913
330
1F
100
AcDbEntity
  8
NOCUT
  6
CONTINUOUS
370
25
 62
7
100
AcDbLine
 10
36.0
 20
4.0
 30
0.0
 11
36.0
 21
0.0
 31
0.0
  0
LINE
  5
914
330
1F
100
AcDbEntity
  8
SK1
  6
CONTINUOUS
370
50
 62
4
100
AcDbLine
 10
36.0
 20
4.0
 30
0.0
 11
0.3999999999999986
 21
4.0
 31
0.0
  0
LINE
  5
915
330
1F
100
AcDbEntity
  8
SK1
  6
CONTINUOUS
370
50
 62
4
100
AcDbLine
 10
0.3999999999999986
 20
4.0
 30
0.0
 11
0.0
 21
3.6
 31
0.0
  0
LINE
  5
916
330
1F
100
AcDbEntity
  8
SK1
  6
CONTINUOUS
370
50
 62
4
100
AcDbLine
 10
0.0
 20
3.6
 30
0.0
 11
0.0
 21
-3.6
 31
0.0
  0
LINE
  5
917
330
1F
100
AcDbEntity
  8
SK1
  6
CONTINUOUS
370
50
 62
4
100
AcDbLine
 10
0.0
 20
-3.6
 30
0.0
 11
0.3999999999999986
 21
-4.0
 31
0.0
  0
LINE
  5
918
330
1F
100
AcDbEntity
  8
SK1
  6
CONTINUOUS
370
50
 62
4
100
AcDbLine
 10
0.3999999999999986
 20
-4.0
 30
0.0
 11
36.0
 21
-4.0
 31
0.0
  0
LINE
  5
919
330
1F
100
AcDbEntity
  8
SK2
  6
CONTINUOUS
370
25
 62
7
100
AcDbLine
 10
-10.0000002
 20
-4.000001
 30
0.0
 11
-11.00000000000009
 21
-4.000001
 31
0.0
  0
LINE
  5
91A
330
1F
100
AcDbEntity
  8
SK2
  6
CONTINUOUS
370
25
 62
7
100
AcDbLine
 10
0.0
 20
-4.000001
 30
0.0
 11
-9.999999800000001
 21
-4.000001
 31
0.0
  0
LINE
  5
91B
330
1F
100
AcDbEntity
  8
SK2
  6
CONTINUOUS
370
25
 62
7
100
AcDbLine
 10
-11.0
 20
4.0
 30
0.0
 11
0.0
 21
4.0
 31
0.0
  0
LINE
  5
91C
330
1F
100
AcDbEntity
  8
SK2
  6
CONTINUOUS
370
25
 62
7
100
AcDbLine
 10
-10.0
 20
-19.10625
 30
0.0
 11
-10.0
 21
14.0
 31
0.0
  0
LINE
  5
91D
330
1F
100
AcDbEntity
  8
SK2
  6
CONTINUOUS
370
25
 62
7
100
AcDbLine
 10
-10.0
 20
-4.0
 30
0.0
 11
-9.0
 21
-9.0
 31
0.0
  0
LINE
  5
91E
330
1F
100
AcDbEntity
  8
SK2
  6
CONTINUOUS
370
25
 62
7
100
AcDbLine
 10
-9.0
 20
-9.0
 30
0.0
 11
-11.0
 21
-9.0
 31
0.0
  0
LINE
  5
91F
330
1F
100
AcDbEntity
  8
SK2
  6
CONTINUOUS
370
25
 62
7
100
AcDbLine
 10
-11.0
 20
-9.0
 30
0.0
 11
-10.0
 21
-4.0
 31
0.0
  0
LINE
  5
920
330
1F
100
AcDbEntity
  8
SK2
  6
CONTINUOUS
370
25
 62
7
100
AcDbLine
 10
-9.062445840513867
 20
-9.0
 30
0.0
 11
-9.010407640085646
 21
-8.947961799571779
 31
0.0
  0
LINE
  5
921
330
1F
100
AcDbEntity
  8
SK2
  6
CONTINUOUS
370
25
 62
7
100
AcDbLine
 10
-9.486709909225802
 20
-9.0
 30
0.0
 11
-9.081118318204297
 21
-8.594408408978495
 31
0.0
  0
LINE
  5
922
330
1F
100
AcDbEntity
  8
SK2
  6
CONTINUOUS
370
25
 62
7
100
AcDbLine
 10
-9.910973977937736
 20
-9.0
 30
0.0
 11
-9.151828996322955
 21
-8.240855018385219
 31
0.0
  0
LINE
  5
923
330
1F
100
AcDbEntity
  8
SK2
  6
CONTINUOUS
370
25
 62
7
100
AcDbLine
 10
-10.33523804664967
 20
-9.0
 30
0.0
 11
-9.222539674441613
 21
-7.887301627791942
 31
0.0
  0
LINE
  5
924
330
1F
100
AcDbEntity
  8
SK2
  6
CONTINUOUS
370
25
 62
7
100
AcDbLine
 10
-10.75950211536159
 20
-9.0
 30
0.0
 11
-9.293250352560271
 21
-7.533748237198679
 31
0.0
  0
LINE
  5
925
330
1F
100
AcDbEntity
  8
SK2
  6
CONTINUOUS
370
25
 62
7
100
AcDbLine
 10
-10.95405845398162
 20
-8.770292269908097
 30
0.0
 11
-9.363961030678922
 21
-7.180194846605396
 31
0.0
  0
LINE
  5
926
330
1F
100
AcDbEntity
  8
SK2
  6
CONTINUOUS
370
25
 62
7
100
AcDbLine
 10
-10.84799243680364
 20
-8.239962184018182
 30
0.0
 11
-9.434671708797573
 21
-6.826641456012119
 31
0.0
  0
LINE
  5
927
330
1F
100
AcDbEntity
  8
SK2
  6
CONTINUOUS
370
25
 62
7
100
AcDbLine
 10
-10.74192641962566
 20
-7.709632098128274
 30
0.0
 11
-9.505382386916231
 21
-6.47308806541885
 31
0.0
  0
LINE
  5
928
330
1F
100
AcDbEntity
  8
SK2
  6
CONTINUOUS
370
25
 62
7
100
AcDbLine
 10
-10.63586040244767
 20
-7.179302012238352
 30
0.0
 11
-9.57609306503489
 21
-6.119534674825573
 31
0.0
  0
LINE
  5
929
330
1F
100
AcDbEntity
  8
SK2
  6
CONTINUOUS
370
25
 62
7
100
AcDbLine
 10
-10.52979438526969
 20
-6.64897192634843
 30
0.0
 11
-9.64680374315354
 21
-5.765981284232282
 31
0.0
  0
LINE
  5
92A
330
1F
100
AcDbEntity
  8
SK2
  6
CONTINUOUS
370
25
 62
7
100
AcDbLine
 10
-10.4237283680917
 20
-6.118641840458515
 30
0.0
 11
-9.717514421272192
 21
-5.412427893639006
 31
0.0
  0
LINE
  5
92B
330
1F
100
AcDbEntity
  8
SK2
  6
CONTINUOUS
370
25
 62
7
100
AcDbLine
 10
-10.31766235091372
 20
-5.588311754568608
 30
0.0
 11
-9.788225099390857
 21
-5.058874503045743
 31
0.0
  0
LINE
  5
92C
330
1F
100
AcDbEntity
  8
SK2
  6
CONTINUOUS
370
25
 62
7
100
AcDbLine
 10
-10.21159633373573
 20
-5.057981668678686
 30
0.0
 11
-9.858935777509508
 21
-4.705321112452459
 31
0.0
  0
LINE
  5
92D
330
1F
100
AcDbEntity
  8
SK2
  6
CONTINUOUS
370
25
 62
7
100
AcDbLine
 10
-10.10553031655775
 20
-4.527651582788771
 30
0.0
 11
-9.92964645562816
 21
-4.351767721859176
 31
0.0
  0
LINE
  5
92E
330
1F
100
AcDbEntity
  8
SK2
  6
CONTINUOUS
370
25
 62
7
100
AcDbLine
 10
-10.94624018597773
 20
-8.731200929888637
 30
0.0
 11
-10.67744111586637
 21
-9.0
 31
0.0
  0
LINE
  5
92F
330
1F
100
AcDbEntity
  8
SK2
  6
CONTINUOUS
370
25
 62
7
100
AcDbLine
 10
-10.87552950785907
 20
-8.37764753929536
 30
0.0
 11
-10.25317704715443
 21
-9.0
 31
0.0
  0
LINE
  5
930
330
1F
100
AcDbEntity
  8
SK2
  6
CONTINUOUS
370
25
 62
7
100
AcDbLine
 10
-10.80481882974042
 20
-8.02409414870209
 30
0.0
 11
-9.828912978442503
 21
-9.0
 31
0.0
  0
LINE
  5
931
330
1F
100
AcDbEntity
  8
SK2
  6
CONTINUOUS
370
25
 62
7
100
AcDbLine
 10
-10.73410815162177
 20
-7.670540758108807
 30
0.0
 11
-9.404648909730568
 21
-9.0
 31
0.0
  0
LINE
  5
932
330
1F
100
AcDbEntity
  8
SK2
  6
CONTINUOUS
370
25
 62
7
100
AcDbLine
 10
-10.6633974735031
 20
-7.316987367515544
 30
0.0
 11
-9.004903789745342
 21
-8.975481051273299
 31
0.0
  0
LINE
  5
933
330
1F
100
AcDbEntity
  8
SK2
  6
CONTINUOUS
370
25
 62
7
100
AcDbLine
 10
-10.59268679538445
 20
-6.963433976922254
 30
0.0
 11
-9.110969806923329
 21
-8.445150965383377
 31
0.0
  0
LINE
  5
934
330
1F
100
AcDbEntity
  8
SK2
  6
CONTINUOUS
370
25
 62
7
100
AcDbLine
 10
-10.52197611726579
 20
-6.609880586328984
 30
0.0
 11
-9.217035824101309
 21
-7.914820879493469
 31
0.0
  0
LINE
  5
935
330
1F
100
AcDbEntity
  8
SK2
  6
CONTINUOUS
370
25
 62
7
100
AcDbLine
 10
-10.45126543914714
 20
-6.2563271957357
 30
0.0
 11
-9.32310184127929
 21
-7.384490793603554
 31
0.0
  0
LINE
  5
936
330
1F
100
AcDbEntity
  8
SK2
  6
CONTINUOUS
370
25
 62
7
100
AcDbLine
 10
-10.38055476102849
 20
-5.902773805142417
 30
0.0
 11
-9.429167858457276
 21
-6.854160707713632
 31
0.0
  0
LINE
  5
937
330
1F
100
AcDbEntity
  8
SK2
  6
CONTINUOUS
370
25
 62
7
100
AcDbLine
 10
-10.30984408290983
 20
-5.549220414549154
 30
0.0
 11
-9.535233875635257
 21
-6.323830621823724
 31
0.0
  0
LINE
  5
938
330
1F
100
AcDbEntity
  8
SK2
  6
CONTINUOUS
370
25
 62
7
100
AcDbLine
 10
-10.23913340479118
 20
-5.19566702395587
 30
0.0
 11
-9.641299892813237
 21
-5.793500535933816
 31
0.0
  0
LINE
  5
939
330
1F
100
AcDbEntity
  8
SK2
  6
CONTINUOUS
370
25
 62
7
100
AcDbLine
 10
-10.16842272667252
 20
-4.842113633362608
 30
0.0
 11
-9.747365909991217
 21
-5.263170450043908
 31
0.0
  0
LINE
  5
93A
330
1F
100
AcDbEntity
  8
SK2
  6
CONTINUOUS
370
25
 62
7
100
AcDbLine
 10
-10.09771204855387
 20
-4.488560242769324
 30
0.0
 11
-9.853431927169204
 21
-4.732840364153986
 31
0.0
  0
LINE
  5
93B
330
1F
100
AcDbEntity
  8
SK2
  6
CONTINUOUS
370
25
 62
7
100
AcDbLine
 10
-10.02700137043521
 20
-4.135006852176055
 30
0.0
 11
-9.959497944347191
 21
-4.202510278264072
 31
0.0
  0
LINE
  5
93C
330
1F
100
AcDbEntity
  8
SK2
  6
CONTINUOUS
370
25
 62
7
100
AcDbLine
 10
-10.0
 20
4.0
 30
0.0
 11
-11.0
 21
9.0
 31
0.0
  0
LINE
  5
93D
330
1F
100
AcDbEntity
  8
SK2
  6
CONTINUOUS
370
25
 62
7
100
AcDbLine
 10
-11.0
 20
9.0
 30
0.0
 11
-9.0
 21
9.0
 31
0.0
  0
LINE
  5
93E
330
1F
100
AcDbEntity
  8
SK2
  6
CONTINUOUS
370
25
 62
7
100
AcDbLine
 10
-9.0
 20
9.0
 30
0.0
 11
-10.0
 21
4.0
 31
0.0
  0
LINE
  5
93F
330
1F
100
AcDbEntity
  8
SK2
  6
CONTINUOUS
370
25
 62
7
100
AcDbLine
 10
-10.01052668466792
 20
4.052633423339628
 30
0.0
 11
-9.984209972998116
 21
4.078950135009435
 31
0.0
  0
LINE
  5
940
330
1F
100
AcDbEntity
  8
SK2
  6
CONTINUOUS
370
25
 62
7
100
AcDbLine
 10
-10.08123736278657
 20
4.406186813932912
 30
0.0
 11
-9.878143955820136
 21
4.60928022089935
 31
0.0
  0
LINE
  5
941
330
1F
100
AcDbEntity
  8
SK2
  6
CONTINUOUS
370
25
 62
7
100
AcDbLine
 10
-10.15194804090523
 20
4.759740204526189
 30
0.0
 11
-9.772077938642148
 21
5.139610306789272
 31
0.0
  0
LINE
  5
942
330
1F
100
AcDbEntity
  8
SK2
  6
CONTINUOUS
370
25
 62
7
100
AcDbLine
 10
-10.22265871902389
 20
5.113293595119465
 30
0.0
 11
-9.666011921464161
 21
5.669940392679194
 31
0.0
  0
LINE
  5
943
330
1F
100
AcDbEntity
  8
SK2
  6
CONTINUOUS
370
25
 62
7
100
AcDbLine
 10
-10.29336939714255
 20
5.466846985712735
 30
0.0
 11
-9.559945904286181
 21
6.200270478569102
 31
0.0
  0
LINE
  5
944
330
1F
100
AcDbEntity
  8
SK2
  6
CONTINUOUS
370
25
 62
7
100
AcDbLine
 10
-10.36408007526121
 20
5.820400376306011
 30
0.0
 11
-9.453879887108194
 21
6.730600564459024
 31
0.0
  0
LINE
  5
945
330
1F
100
AcDbEntity
  8
SK2
  6
CONTINUOUS
370
25
 62
7
100
AcDbLine
 10
-10.43479075337986
 20
6.173953766899288
 30
0.0
 11
-9.347813869930214
 21
7.260930650348932
 31
0.0
  0
LINE
  5
946
330
1F
100
AcDbEntity
  8
SK2
  6
CONTINUOUS
370
25
 62
7
100
AcDbLine
 10
-10.50550143149852
 20
6.527507157492565
 30
0.0
 11
-9.241747852752233
 21
7.791260736238847
 31
0.0
  0
LINE
  5
947
330
1F
100
AcDbEntity
  8
SK2
  6
CONTINUOUS
370
25
 62
7
100
AcDbLine
 10
-10.57621210961717
 20
6.881060548085841
 30
0.0
 11
-9.135681835574246
 21
8.321590822128762
 31
0.0
  0
LINE
  5
948
330
1F
100
AcDbEntity
  8
SK2
  6
CONTINUOUS
370
25
 62
7
100
AcDbLine
 10
-10.64692278773582
 20
7.234613938679118
 30
0.0
 11
-9.029615818396266
 21
8.85192090801867
 31
0.0
  0
LINE
  5
949
330
1F
100
AcDbEntity
  8
SK2
  6
CONTINUOUS
370
25
 62
7
100
AcDbLine
 10
-10.71763346585448
 20
7.58816732927238
 30
0.0
 11
-9.305800795126864
 21
9.0
 31
0.0
  0
LINE
  5
94A
330
1F
100
AcDbEntity
  8
SK2
  6
CONTINUOUS
370
25
 62
7
100
AcDbLine
 10
-10.78834414397313
 20
7.941720719865664
 30
0.0
 11
-9.730064863838798
 21
9.0
 31
0.0
  0
LINE
  5
94B
330
1F
100
AcDbEntity
  8
SK2
  6
CONTINUOUS
370
25
 62
7
100
AcDbLine
 10
-10.85905482209179
 20
8.29527411045894
 30
0.0
 11
-10.15432893255073
 21
9.0
 31
0.0
  0
LINE
  5
94C
330
1F
100
AcDbEntity
  8
SK2
  6
CONTINUOUS
370
25
 62
7
100
AcDbLine
 10
-10.92976550021044
 20
8.648827501052217
 30
0.0
 11
-10.57859300126266
 21
9.0
 31
0.0
  0
LINE
  5
94D
330
1F
100
AcDbEntity
  8
SK2
  6
CONTINUOUS
370
25
 62
7
100
AcDbLine
 10
-10.00472522287193
 20
4.023626114359665
 30
0.0
 11
-9.996849851418709
 21
4.015750742906441
 31
0.0
  0
LINE
  5
94E
330
1F
100
AcDbEntity
  8
SK2
  6
CONTINUOUS
370
25
 62
7
100
AcDbLine
 10
-10.11079124004991
 20
4.553956200249573
 30
0.0
 11
-9.926139173300058
 21
4.369304133499725
 31
0.0
  0
LINE
  5
94F
330
1F
100
AcDbEntity
  8
SK2
  6
CONTINUOUS
370
25
 62
7
100
AcDbLine
 10
-10.21685725722789
 20
5.084286286139481
 30
0.0
 11
-9.855428495181407
 21
4.722857524093001
 31
0.0
  0
LINE
  5
950
330
1F
100
AcDbEntity
  8
SK2
  6
CONTINUOUS
370
25
 62
7
100
AcDbLine
 10
-10.32292327440588
 20
5.614616372029403
 30
0.0
 11
-9.784717817062749
 21
5.076410914686278
 31
0.0
  0
LINE
  5
951
330
1F
100
AcDbEntity
  8
SK2
  6
CONTINUOUS
370
25
 62
7
100
AcDbLine
 10
-10.42898929158387
 20
6.144946457919325
 30
0.0
 11
-9.71400713894409
 21
5.429964305279555
 31
0.0
  0
LINE
  5
952
330
1F
100
AcDbEntity
  8
SK2
  6
CONTINUOUS
370
25
 62
7
100
AcDbLine
 10
-10.53505530876185
 20
6.675276543809233
 30
0.0
 11
-9.643296460825432
 21
5.783517695872817
 31
0.0
  0
LINE
  5
953
330
1F
100
AcDbEntity
  8
SK2
  6
CONTINUOUS
370
25
 62
7
100
AcDbLine
 10
-10.64112132593983
 20
7.20560662969914
 30
0.0
 11
-9.572585782706781
 21
6.137071086466094
 31
0.0
  0
LINE
  5
954
330
1F
100
AcDbEntity
  8
SK2
  6
CONTINUOUS
370
25
 62
7
100
AcDbLine
 10
-10.74718734311781
 20
7.735936715589055
 30
0.0
 11
-9.50187510458813
 21
6.490624477059377
 31
0.0
  0
LINE
  5
955
330
1F
100
AcDbEntity
  8
SK2
  6
CONTINUOUS
370
25
 62
7
100
AcDbLine
 10
-10.8532533602958
 20
8.266266801478977
 30
0.0
 11
-9.431164426469472
 21
6.844177867652654
 31
0.0
  0
LINE
  5
956
330
1F
100
AcDbEntity
  8
SK2
  6
CONTINUOUS
370
25
 62
7
100
AcDbLine
 10
-10.95931937747378
 20
8.796596887368892
 30
0.0
 11
-9.360453748350814
 21
7.197731258245931
 31
0.0
  0
LINE
  5
957
330
1F
100
AcDbEntity
  8
SK2
  6
CONTINUOUS
370
25
 62
7
100
AcDbLine
 10
-10.73845842139296
 20
9.0
 30
0.0
 11
-9.289743070232156
 21
7.5512846488392
 31
0.0
  0
LINE
  5
958
330
1F
100
AcDbEntity
  8
SK2
  6
CONTINUOUS
370
25
 62
7
100
AcDbLine
 10
-10.31419435268103
 20
9.0
 30
0.0
 11
-9.219032392113505
 21
7.904838039432484
 31
0.0
  0
LINE
  5
959
330
1F
100
AcDbEntity
  8
SK2
  6
CONTINUOUS
370
25
 62
7
100
AcDbLine
 10
-9.8899302839691
 20
9.0
 30
0.0
 11
-9.148321713994847
 21
8.258391430025746
 31
0.0
  0
LINE
  5
95A
330
1F
100
AcDbEntity
  8
SK2
  6
CONTINUOUS
370
25
 62
7
100
AcDbLine
 10
-9.465666215257166
 20
9.0
 30
0.0
 11
-9.077611035876195
 21
8.61194482061903
 31
0.0
  0
LINE
  5
95B
330
1F
100
AcDbEntity
  8
SK2
  6
CONTINUOUS
370
25
 62
7
100
AcDbLine
 10
-9.04140214654523
 20
9.0
 30
0.0
 11
-9.006900357757537
 21
8.965498211212307
 31
0.0
  0
TEXT
  5
95C
330
1F
100
AcDbEntity
  8
SK2
  6
CONTINUOUS
370
25
 62
7
100
AcDbText
 10
-11.0
 20
-13.21979166666667
 30
0.0
 40
3.5
  1
8
 50
90.00000000000001
 72
     1
 11
-11.0
 21
-12.053125
 31
0.0
100
AcDbText
  0
CIRCLE
  5
95D
330
1F
100
AcDbEntity
  8
SK2
  6
CONTINUOUS
370
25
 62
7
100
AcDbCircle
 10
-12.53125
 20
-16.463125
 30
0.0
 40
1.53125
  0
LINE
  5
95E
330
1F
100
AcDbEntity
  8
SK2
  6
CONTINUOUS
370
25
 62
7
100
AcDbLine
 10
-11.0
 20
-17.994375
 30
0.0
 11
-14.0625
 21
-14.931875
 31
0.0
  0
LINE
  5
95F
330
1F
100
AcDbEntity
  8
SK2
  6
CONTINUOUS
370
25
 62
7
100
AcDbLine
 10
0.0
 20
4.0
 30
0.0
 11
0.0
 21
15.00001898
 31
0.0
  0
LINE
  5
960
330
1F
100
AcDbEntity
  8
SK2
  6
CONTINUOUS
370
25
 62
7
100
AcDbLine
 10
36.0
 20
15.00001898
 30
0.0
 11
36.0
 21
4.0
 31
0.0
  0
LINE
  5
961
330
1F
100
AcDbEntity
  8
SK2
  6
CONTINUOUS
370
25
 62
7
100
AcDbLine
 10
0.0
 20
14.00001898
 30
0.0
 11
36.0
 21
14.00001898
 31
0.0
  0
LINE
  5
962
330
1F
100
AcDbEntity
  8
SK2
  6
CONTINUOUS
370
25
 62
7
100
AcDbLine
 10
0.0
 20
14.00001898
 30
0.0
 11
5.0
 21
15.00001898
 31
0.0
  0
LINE
  5
963
330
1F
100
AcDbEntity
  8
SK2
  6
CONTINUOUS
370
25
 62
7
100
AcDbLine
 10
5.0
 20
15.00001898
 30
0.0
 11
5.0
 21
13.00001898
 31
0.0
  0
LINE
  5
964
330
1F
100
AcDbEntity
  8
SK2
  6
CONTINUOUS
370
25
 62
7
100
AcDbLine
 10
5.0
 20
13.00001898
 30
0.0
 11
0.0
 21
14.00001898
 31
0.0
  0
LINE
  5
965
330
1F
100
AcDbEntity
  8
SK2
  6
CONTINUOUS
370
25
 62
7
100
AcDbLine
 10
4.89712986163288
 20
13.02059300767342
 30
0.0
 11
5.0
 21
13.12346314604054
 31
0.0
  0
LINE
  5
966
330
1F
100
AcDbEntity
  8
SK2
  6
CONTINUOUS
370
25
 62
7
100
AcDbLine
 10
4.543576471039607
 20
13.09130368579208
 30
0.0
 11
5.0
 21
13.54772721475247
 31
0.0
  0
LINE
  5
967
330
1F
100
AcDbEntity
  8
SK2
  6
CONTINUOUS
370
25
 62
7
100
AcDbLine
 10
4.190023080446331
 20
13.16201436391073
 30
0.0
 11
5.0
 21
13.9719912834644
 31
0.0
  0
LINE
  5
968
330
1F
100
AcDbEntity
  8
SK2
  6
CONTINUOUS
370
25
 62
7
100
AcDbLine
 10
3.836469689853061
 20
13.23272504202939
 30
0.0
 11
5.0
 21
14.39625535217633
 31
0.0
  0
LINE
  5
969
330
1F
100
AcDbEntity
  8
SK2
  6
CONTINUOUS
370
25
 62
7
100
AcDbLine
 10
3.482916299259777
 20
13.30343572014804
 30
0.0
 11
5.0
 21
14.82051942088826
 31
0.0
  0
LINE
  5
96A
330
1F
100
AcDbEntity
  8
SK2
  6
CONTINUOUS
370
25
 62
7
100
AcDbLine
 10
3.129362908666508
 20
13.3741463982667
 30
0.0
 11
4.694044362999769
 21
14.93882785259995
 31
0.0
  0
LINE
  5
96B
330
1F
100
AcDbEntity
  8
SK2
  6
CONTINUOUS
370
25
 62
7
100
AcDbLine
 10
2.775809518073231
 20
13.44485707638535
 30
0.0
 11
4.163714277109847
 21
14.83276183542197
 31
0.0
  0
LINE
  5
96C
330
1F
100
AcDbEntity
  8
SK2
  6
CONTINUOUS
370
25
 62
7
100
AcDbLine
 10
2.422256127479955
 20
13.515567754504
 30
0.0
 11
3.633384191219946
 21
14.72669581824399
 31
0.0
  0
LINE
  5
96D
330
1F
100
AcDbEntity
  8
SK2
  6
CONTINUOUS
370
25
 62
7
100
AcDbLine
 10
2.068702736886678
 20
13.58627843262266
 30
0.0
 11
3.103054105330031
 21
14.62062980106601
 31
0.0
  0
LINE
  5
96E
330
1F
100
AcDbEntity
  8
SK2
  6
CONTINUOUS
370
25
 62
7
100
AcDbLine
 10
1.715149346293408
 20
13.65698911074131
 30
0.0
 11
2.572724019440116
 21
14.51456378388801
 31
0.0
  0
LINE
  5
96F
330
1F
100
AcDbEntity
  8
SK2
  6
CONTINUOUS
370
25
 62
7
100
AcDbLine
 10
1.361595955700132
 20
13.72769978885997
 30
0.0
 11
2.042393933550194
 21
14.40849776671003
 31
0.0
  0
LINE
  5
970
330
1F
100
AcDbEntity
  8
SK2
  6
CONTINUOUS
370
25
 62
7
100
AcDbLine
 10
1.008042565106855
 20
13.79841046697862
 30
0.0
 11
1.512063847660293
 21
14.30243174953206
 31
0.0
  0
LINE
  5
971
330
1F
100
AcDbEntity
  8
SK2
  6
CONTINUOUS
370
25
 62
7
100
AcDbLine
 10
0.6544891745135786
 20
13.86912114509728
 30
0.0
 11
0.9817337617703785
 21
14.19636573235408
 31
0.0
  0
LINE
  5
972
330
1F
100
AcDbEntity
  8
SK2
  6
CONTINUOUS
370
25
 62
7
100
AcDbLine
 10
0.3009357839203091
 20
13.93983182321594
 30
0.0
 11
0.4514036758804636
 21
14.09029971517609
 31
0.0
  0
LINE
  5
973
330
1F
100
AcDbEntity
  8
SK2
  6
CONTINUOUS
370
25
 62
7
100
AcDbLine
 10
0.0654238683558788
 20
14.01310375367117
 30
0.0
 11
0.0981358025338182
 21
13.98039181949324
 31
0.0
  0
LINE
  5
974
330
1F
100
AcDbEntity
  8
SK2
  6
CONTINUOUS
370
25
 62
7
100
AcDbLine
 10
0.4189772589491554
 20
14.08381443178984
 30
0.0
 11
0.6284658884237331
 21
13.87432580231526
 31
0.0
  0
LINE
  5
975
330
1F
100
AcDbEntity
  8
SK2
  6
CONTINUOUS
370
25
 62
7
100
AcDbLine
 10
0.7725306495424249
 20
14.15452510990849
 30
0.0
 11
1.158795974313641
 21
13.76825978513727
 31
0.0
  0
LINE
  5
976
330
1F
100
AcDbEntity
  8
SK2
  6
CONTINUOUS
370
25
 62
7
100
AcDbLine
 10
1.126084040135702
 20
14.22523578802715
 30
0.0
 11
1.689126060203556
 21
13.66219376795929
 31
0.0
  0
LINE
  5
977
330
1F
100
AcDbEntity
  8
SK2
  6
CONTINUOUS
370
25
 62
7
100
AcDbLine
 10
1.479637430728978
 20
14.2959464661458
 30
0.0
 11
2.219456146093471
 21
13.55612775078131
 31
0.0
  0
LINE
  5
978
330
1F
100
AcDbEntity
  8
SK2
  6
CONTINUOUS
370
25
 62
7
100
AcDbLine
 10
1.833190821322255
 20
14.36665714426445
 30
0.0
 11
2.749786231983386
 21
13.45006173360332
 31
0.0
  0
LINE
  5
979
330
1F
100
AcDbEntity
  8
SK2
  6
CONTINUOUS
370
25
 62
7
100
AcDbLine
 10
2.186744211915524
 20
14.43736782238311
 30
0.0
 11
3.280116317873286
 21
13.34399571642534
 31
0.0
  0
LINE
  5
97A
330
1F
100
AcDbEntity
  8
SK2
  6
CONTINUOUS
370
25
 62
7
100
AcDbLine
 10
2.540297602508801
 20
14.50807850050176
 30
0.0
 11
3.810446403763201
 21
13.23792969924736
 31
0.0
  0
LINE
  5
97B
330
1F
100
AcDbEntity
  8
SK2
  6
CONTINUOUS
370
25
 62
7
100
AcDbLine
 10
2.89385099310207
 20
14.57878917862043
 30
0.0
 11
4.340776489653109
 21
13.13186368206938
 31
0.0
  0
LINE
  5
97C
330
1F
100
AcDbEntity
  8
SK2
  6
CONTINUOUS
370
25
 62
7
100
AcDbLine
 10
3.247404383695354
 20
14.64949985673907
 30
0.0
 11
4.871106575543021
 21
13.0257976648914
 31
0.0
  0
LINE
  5
97D
330
1F
100
AcDbEntity
  8
SK2
  6
CONTINUOUS
370
25
 62
7
100
AcDbLine
 10
3.600957774288631
 20
14.72021053485772
 30
0.0
 11
5.0
 21
13.32116830914635
 31
0.0
  0
LINE
  5
97E
330
1F
100
AcDbEntity
  8
SK2
  6
CONTINUOUS
370
25
 62
7
100
AcDbLine
 10
3.954511164881893
 20
14.79092121297638
 30
0.0
 11
5.0
 21
13.74543237785827
 31
0.0
  0
LINE
  5
97F
330
1F
100
AcDbEntity
  8
SK2
  6
CONTINUOUS
370
25
 62
7
100
AcDbLine
 10
4.308064555475166
 20
14.86163189109504
 30
0.0
 11
5.0
 21
14.1696964465702
 31
0.0
  0
LINE
  5
980
330
1F
100
AcDbEntity
  8
SK2
  6
CONTINUOUS
370
25
 62
7
100
AcDbLine
 10
4.661617946068443
 20
14.93234256921369
 30
0.0
 11
5.0
 21
14.59396051528213
 31
0.0
  0
LINE
  5
981
330
1F
100
AcDbEntity
  8
SK2
  6
CONTINUOUS
370
25
 62
7
100
AcDbLine
 10
36.0
 20
14.00001898
 30
0.0
 11
31.0
 21
13.00001898
 31
0.0
  0
LINE
  5
982
330
1F
100
AcDbEntity
  8
SK2
  6
CONTINUOUS
370
25
 62
7
100
AcDbLine
 10
31.0
 20
13.00001898
 30
0.0
 11
31.0
 21
15.00001898
 31
0.0
  0
LINE
  5
983
330
1F
100
AcDbEntity
  8
SK2
  6
CONTINUOUS
370
25
 62
7
100
AcDbLine
 10
31.0
 20
15.00001898
 30
0.0
 11
36.0
 21
14.00001898
 31
0.0
  0
LINE
  5
984
330
1F
100
AcDbEntity
  8
SK2
  6
CONTINUOUS
370
25
 62
7
100
AcDbLine
 10
35.99913089063296
 20
13.99984515812659
 30
0.0
 11
35.9994205937553
 21
14.00013486124894
 31
0.0
  0
LINE
  5
985
330
1F
100
AcDbEntity
  8
SK2
  6
CONTINUOUS
370
25
 62
7
100
AcDbLine
 10
35.46880080474305
 20
13.89377914094861
 30
0.0
 11
35.64586720316203
 21
14.07084553936759
 31
0.0
  0
LINE
  5
986
330
1F
100
AcDbEntity
  8
SK2
  6
CONTINUOUS
370
25
 62
7
100
AcDbLine
 10
34.93847071885314
 20
13.78771312377063
 30
0.0
 11
35.29231381256876
 21
14.14155621748625
 31
0.0
  0
LINE
  5
987
330
1F
100
AcDbEntity
  8
SK2
  6
CONTINUOUS
370
25
 62
7
100
AcDbLine
 10
34.40814063296322
 20
13.68164710659265
 30
0.0
 11
34.93876042197548
 21
14.2122668956049
 31
0.0
  0
LINE
  5
988
330
1F
100
AcDbEntity
  8
SK2
  6
CONTINUOUS
370
25
 62
7
100
AcDbLine
 10
33.87781054707332
 20
13.57558108941466
 30
0.0
 11
34.58520703138221
 21
14.28297757372356
 31
0.0
  0
LINE
  5
989
330
1F
100
AcDbEntity
  8
SK2
  6
CONTINUOUS
370
25
 62
7
100
AcDbLine
 10
33.3474804611834
 20
13.46951507223668
 30
0.0
 11
34.23165364078893
 21
14.35368825184221
 31
0.0
  0
LINE
  5
98A
330
1F
100
AcDbEntity
  8
SK2
  6
CONTINUOUS
370
25
 62
7
100
AcDbLine
 10
32.81715037529349
 20
13.3634490550587
 30
0.0
 11
33.87810025019566
 21
14.42439892996087
 31
0.0
  0
LINE
  5
98B
330
1F
100
AcDbEntity
  8
SK2
  6
CONTINUOUS
370
25
 62
7
100
AcDbLine
 10
32.28682028940359
 20
13.25738303788072
 30
0.0
 11
33.52454685960239
 21
14.49510960807952
 31
0.0
  0
LINE
  5
98C
330
1F
100
AcDbEntity
  8
SK2
  6
CONTINUOUS
370
25
 62
7
100
AcDbLine
 10
31.75649020351368
 20
13.15131702070274
 30
0.0
 11
33.17099346900912
 21
14.56582028619818
 31
0.0
  0
LINE
  5
98D
330
1F
100
AcDbEntity
  8
SK2
  6
CONTINUOUS
370
25
 62
7
100
AcDbLine
 10
31.22616011762377
 20
13.04525100352475
 30
0.0
 11
32.81744007841584
 21
14.63653096431683
 31
0.0
  0
LINE
  5
98E
330
1F
100
AcDbEntity
  8
SK2
  6
CONTINUOUS
370
25
 62
7
100
AcDbLine
 10
31.0
 20
13.24335495461292
 30
0.0
 11
32.46388668782257
 21
14.70724164243549
 31
0.0
  0
LINE
  5
98F
330
1F
100
AcDbEntity
  8
SK2
  6
CONTINUOUS
370
25
 62
7
100
AcDbLine
 10
31.0
 20
13.66761902332485
 30
0.0
 11
32.1103332972293
 21
14.77795232055414
 31
0.0
  0
LINE
  5
990
330
1F
100
AcDbEntity
  8
SK2
  6
CONTINUOUS
370
25
 62
7
100
AcDbLine
 10
31.0
 20
14.09188309203677
 30
0.0
 11
31.75677990663602
 21
14.8486629986728
 31
0.0
  0
LINE
  5
991
330
1F
100
AcDbEntity
  8
SK2
  6
CONTINUOUS
370
25
 62
7
100
AcDbLine
 10
31.0
 20
14.5161471607487
 30
0.0
 11
31.40322651604275
 21
14.91937367679145
 31
0.0
  0
LINE
  5
992
330
1F
100
AcDbEntity
  8
SK2
  6
CONTINUOUS
370
25
 62
7
100
AcDbLine
 10
31.0
 20
14.94041122946063
 30
0.0
 11
31.04967312544948
 21
14.99008435491011
 31
0.0
  0
LINE
  5
993
330
1F
100
AcDbEntity
  8
SK2
  6
CONTINUOUS
370
25
 62
7
100
AcDbLine
 10
31.0
 20
13.06101730552664
 30
0.0
 11
31.05083193793887
 21
13.01018536758777
 31
0.0
  0
LINE
  5
994
330
1F
100
AcDbEntity
  8
SK2
  6
CONTINUOUS
370
25
 62
7
100
AcDbLine
 10
31.0
 20
13.48528137423857
 30
0.0
 11
31.40438532853214
 21
13.08089604570643
 31
0.0
  0
LINE
  5
995
330
1F
100
AcDbEntity
  8
SK2
  6
CONTINUOUS
370
25
 62
7
100
AcDbLine
 10
31.0
 20
13.9095454429505
 30
0.0
 11
31.75793871912541
 21
13.15160672382508
 31
0.0
  0
LINE
  5
996
330
1F
100
AcDbEntity
  8
SK2
  6
CONTINUOUS
370
25
 62
7
100
AcDbLine
 10
31.0
 20
14.33380951166242
 30
0.0
 11
32.11149210971869
 21
13.22231740194374
 31
0.0
  0
LINE
  5
997
330
1F
100
AcDbEntity
  8
SK2
  6
CONTINUOUS
370
25
 62
7
100
AcDbLine
 10
31.0
 20
14.75807358037435
 30
0.0
 11
32.46504550031196
 21
13.29302808006239
 31
0.0
  0
LINE
  5
998
330
1F
100
AcDbEntity
  8
SK2
  6
CONTINUOUS
370
25
 62
7
100
AcDbLine
 10
31.22789833635785
 20
14.95443931272843
 30
0.0
 11
32.81859889090524
 21
13.36373875818105
 31
0.0
  0
LINE
  5
999
330
1F
100
AcDbEntity
  8
SK2
  6
CONTINUOUS
370
25
 62
7
100
AcDbLine
 10
31.75822842224776
 20
14.84837329555045
 30
0.0
 11
33.17215228149851
 21
13.4344494362997
 31
0.0
  0
LINE
  5
99A
330
1F
100
AcDbEntity
  8
SK2
  6
CONTINUOUS
370
25
 62
7
100
AcDbLine
 10
32.28855850813767
 20
14.74230727837247
 30
0.0
 11
33.52570567209178
 21
13.50516011441836
 31
0.0
  0
LINE
  5
99B
330
1F
100
AcDbEntity
  8
SK2
  6
CONTINUOUS
370
25
 62
7
100
AcDbLine
 10
32.81888859402758
 20
14.63624126119448
 30
0.0
 11
33.87925906268505
 21
13.57587079253701
 31
0.0
  0
LINE
  5
99C
330
1F
100
AcDbEntity
  8
SK2
  6
CONTINUOUS
370
25
 62
7
100
AcDbLine
 10
33.34921867991748
 20
14.5301752440165
 30
0.0
 11
34.23281245327833
 21
13.64658147065566
 31
0.0
  0
LINE
  5
99D
330
1F
100
AcDbEntity
  8
SK2
  6
CONTINUOUS
370
25
 62
7
100
AcDbLine
 10
33.8795487658074
 20
14.42410922683852
 30
0.0
 11
34.5863658438716
 21
13.71729214877432
 31
0.0
  0
LINE
  5
99E
330
1F
100
AcDbEntity
  8
SK2
  6
CONTINUOUS
370
25
 62
7
100
AcDbLine
 10
34.40987885169731
 20
14.31804320966054
 30
0.0
 11
34.93991923446487
 21
13.78800282689297
 31
0.0
  0
LINE
  5
99F
330
1F
100
AcDbEntity
  8
SK2
  6
CONTINUOUS
370
25
 62
7
100
AcDbLine
 10
34.94020893758722
 20
14.21197719248256
 30
0.0
 11
35.29347262505815
 21
13.85871350501163
 31
0.0
  0
LINE
  5
9A0
330
1F
100
AcDbEntity
  8
SK2
  6
CONTINUOUS
370
25
 62
7
100
AcDbLine
 10
35.47053902347713
 20
14.10591117530457
 30
0.0
 11
35.64702601565142
 21
13.92942418313029
 31
0.0
  0
TEXT
  5
9A1
330
1F
100
AcDbEntity
  8
SK2
  6
CONTINUOUS
370
25
 62
7
100
AcDbText
 10
15.08333333333333
 20
15.00001898
 30
0.0
 40
3.5
  1
36
 72
     1
 11
18.0
 21
15.00001898
 31
0.0
100
AcDbText
  0
LINE
  5
9A2
330
1F
100
AcDbEntity
  8
2
  6
CONTINUOUS
370
25
 62
7
100
AcDbLine
 10
150.0
 20
-4.0
 30
0.0
 11
174.7375
 21
-4.0
 31
0.0
  0
LINE
  5
9A3
330
1F
100
AcDbEntity
  8
2
  6
CONTINUOUS
370
25
 62
7
100
AcDbLine
 10
174.7375
 20
4.0
 30
0.0
 11
150.0
 21
4.0
 31
0.0
  0
LINE
  5
9A4
330
1F
100
AcDbEntity
  8
2
  6
CONTINUOUS
370
25
 62
7
100
AcDbLine
 10
173.7375
 20
-19.10625
 30
0.0
 11
173.7375
 21
14.0
 31
0.0
  0
LINE
  5
9A5
330
1F
100
AcDbEntity
  8
2
  6
CONTINUOUS
370
25
 62
7
100
AcDbLine
 10
173.7375
 20
-4.0
 30
0.0
 11
174.7375
 21
-9.0
 31
0.0
  0
LINE
  5
9A6
330
1F
100
AcDbEntity
  8
2
  6
CONTINUOUS
370
25
 62
7
100
AcDbLine
 10
174.7375
 20
-9.0
 30
0.0
 11
172.7375
 21
-9.0
 31
0.0
  0
LINE
  5
9A7
330
1F
100
AcDbEntity
  8
2
  6
CONTINUOUS
370
25
 62
7
100
AcDbLine
 10
172.7375
 20
-9.0
 30
0.0
 11
173.7375
 21
-4.0
 31
0.0
  0
LINE
  5
9A8
330
1F
100
AcDbEntity
  8
2
  6
CONTINUOUS
370
25
 62
7
100
AcDbLine
 10
174.5114022740893
 20
-9.0
 30
0.0
 11
174.6998170456816
 21
-8.81158522840775
 31
0.0
  0
LINE
  5
9A9
330
1F
100
AcDbEntity
  8
2
  6
CONTINUOUS
370
25
 62
7
100
AcDbLine
 10
174.0871382053774
 20
-9.0
 30
0.0
 11
174.6291063675629
 21
-8.458031837814502
 31
0.0
  0
LINE
  5
9AA
330
1F
100
AcDbEntity
  8
2
  6
CONTINUOUS
370
25
 62
7
100
AcDbLine
 10
173.6628741366655
 20
-9.0
 30
0.0
 11
174.5583956894442
 21
-8.104478447221226
 31
0.0
  0
LINE
  5
9AB
330
1F
100
AcDbEntity
  8
2
  6
CONTINUOUS
370
25
 62
7
100
AcDbLine
 10
173.2386100679535
 20
-9.0
 30
0.0
 11
174.4876850113256
 21
-7.750925056627949
 31
0.0
  0
LINE
  5
9AC
330
1F
100
AcDbEntity
  8
2
  6
CONTINUOUS
370
25
 62
7
100
AcDbLine
 10
172.8143459992416
 20
-9.0
 30
0.0
 11
174.4169743332069
 21
-7.397371666034701
 31
0.0
  0
LINE
  5
9AD
330
1F
100
AcDbEntity
  8
2
  6
CONTINUOUS
370
25
 62
7
100
AcDbLine
 10
172.8243545173676
 20
-8.56572741316208
 30
0.0
 11
174.3462636550883
 21
-7.043818275441396
 31
0.0
  0
LINE
  5
9AE
330
1F
100
AcDbEntity
  8
2
  6
CONTINUOUS
370
25
 62
7
100
AcDbLine
 10
172.9304205345456
 20
-8.035397327272193
 30
0.0
 11
174.2755529769696
 21
-6.690264884848119
 31
0.0
  0
LINE
  5
9AF
330
1F
100
AcDbEntity
  8
2
  6
CONTINUOUS
370
25
 62
7
100
AcDbLine
 10
173.0364865517235
 20
-7.505067241382335
 30
0.0
 11
174.204842298851
 21
-6.336711494254871
 31
0.0
  0
LINE
  5
9B0
330
1F
100
AcDbEntity
  8
2
  6
CONTINUOUS
370
25
 62
7
100
AcDbLine
 10
173.1425525689015
 20
-6.974737155492392
 30
0.0
 11
174.1341316207323
 21
-5.983158103661594
 31
0.0
  0
LINE
  5
9B1
330
1F
100
AcDbEntity
  8
2
  6
CONTINUOUS
370
25
 62
7
100
AcDbLine
 10
173.2486185860795
 20
-6.444407069602477
 30
0.0
 11
174.0634209426136
 21
-5.629604713068346
 31
0.0
  0
LINE
  5
9B2
330
1F
100
AcDbEntity
  8
2
  6
CONTINUOUS
370
25
 62
7
100
AcDbLine
 10
173.3546846032575
 20
-5.91407698371259
 30
0.0
 11
173.992710264495
 21
-5.27605132247507
 31
0.0
  0
LINE
  5
9B3
330
1F
100
AcDbEntity
  8
2
  6
CONTINUOUS
370
25
 62
7
100
AcDbLine
 10
173.4607506204354
 20
-5.383746897822704
 30
0.0
 11
173.9219995863764
 21
-4.922497931881793
 31
0.0
  0
LINE
  5
9B4
330
1F
100
AcDbEntity
  8
2
  6
CONTINUOUS
370
25
 62
7
100
AcDbLine
 10
173.5668166376134
 20
-4.85341681193276
 30
0.0
 11
173.8512889082577
 21
-4.568944541288488
 31
0.0
  0
LINE
  5
9B5
330
1F
100
AcDbEntity
  8
2
  6
CONTINUOUS
370
25
 62
7
100
AcDbLine
 10
173.6728826547914
 20
-4.323086726042845
 30
0.0
 11
173.780578230139
 21
-4.21539115069524
 31
0.0
  0
LINE
  5
9B6
330
1F
100
AcDbEntity
  8
2
  6
CONTINUOUS
370
25
 62
7
100
AcDbLine
 10
172.8025414585005
 20
-8.674792707497545
 30
0.0
 11
173.127748751003
 21
-9.0
 31
0.0
  0
LINE
  5
9B7
330
1F
100
AcDbEntity
  8
2
  6
CONTINUOUS
370
25
 62
7
100
AcDbLine
 10
172.8732521366192
 20
-8.321239316904268
 30
0.0
 11
173.5520128197149
 21
-9.0
 31
0.0
  0
LINE
  5
9B8
330
1F
100
AcDbEntity
  8
2
  6
CONTINUOUS
370
25
 62
7
100
AcDbLine
 10
172.9439628147378
 20
-7.967685926310963
 30
0.0
 11
173.9762768884268
 21
-9.0
 31
0.0
  0
LINE
  5
9B9
330
1F
100
AcDbEntity
  8
2
  6
CONTINUOUS
370
25
 62
7
100
AcDbLine
 10
173.0146734928565
 20
-7.614132535717715
 30
0.0
 11
174.4005409571388
 21
-9.0
 31
0.0
  0
LINE
  5
9BA
330
1F
100
AcDbEntity
  8
2
  6
CONTINUOUS
370
25
 62
7
100
AcDbLine
 10
173.0853841709751
 20
-7.260579145124439
 30
0.0
 11
174.7156737435373
 21
-8.890868717686658
 31
0.0
  0
LINE
  5
9BB
330
1F
100
AcDbEntity
  8
2
  6
CONTINUOUS
370
25
 62
7
100
AcDbLine
 10
173.1560948490938
 20
-6.907025754531219
 30
0.0
 11
174.6096077263593
 21
-8.360538631796771
 31
0.0
  0
LINE
  5
9BC
330
1F
100
AcDbEntity
  8
2
  6
CONTINUOUS
370
25
 62
7
100
AcDbLine
 10
173.2268055272124
 20
-6.553472363937942
 30
0.0
 11
174.5035417091814
 21
-7.830208545906885
 31
0.0
  0
LINE
  5
9BD
330
1F
100
AcDbEntity
  8
2
  6
CONTINUOUS
370
25
 62
7
100
AcDbLine
 10
173.2975162053311
 20
-6.199918973344666
 30
0.0
 11
174.3974756920034
 21
-7.29987846001697
 31
0.0
  0
LINE
  5
9BE
330
1F
100
AcDbEntity
  8
2
  6
CONTINUOUS
370
25
 62
7
100
AcDbLine
 10
173.3682268834497
 20
-5.846365582751389
 30
0.0
 11
174.2914096748254
 21
-6.769548374127083
 31
0.0
  0
LINE
  5
9BF
330
1F
100
AcDbEntity
  8
2
  6
CONTINUOUS
370
25
 62
7
100
AcDbLine
 10
173.4389375615684
 20
-5.492812192158112
 30
0.0
 11
174.1853436576474
 21
-6.23921828823714
 31
0.0
  0
LINE
  5
9C0
330
1F
100
AcDbEntity
  8
2
  6
CONTINUOUS
370
25
 62
7
100
AcDbLine
 10
173.509648239687
 20
-5.139258801564836
 30
0.0
 11
174.0792776404695
 21
-5.708888202347254
 31
0.0
  0
LINE
  5
9C1
330
1F
100
AcDbEntity
  8
2
  6
CONTINUOUS
370
25
 62
7
100
AcDbLine
 10
173.5803589178057
 20
-4.785705410971559
 30
0.0
 11
173.9732116232915
 21
-5.178558116457367
 31
0.0
  0
LINE
  5
9C2
330
1F
100
AcDbEntity
  8
2
  6
CONTINUOUS
370
25
 62
7
100
AcDbLine
 10
173.6510695959243
 20
-4.432152020378282
 30
0.0
 11
173.8671456061135
 21
-4.648228030567452
 31
0.0
  0
LINE
  5
9C3
330
1F
100
AcDbEntity
  8
2
  6
CONTINUOUS
370
25
 62
7
100
AcDbLine
 10
173.721780274043
 20
-4.078598629785006
 30
0.0
 11
173.7610795889355
 21
-4.117897944677566
 31
0.0
  0
LINE
  5
9C4
330
1F
100
AcDbEntity
  8
2
  6
CONTINUOUS
370
25
 62
7
100
AcDbLine
 10
173.7375
 20
4.0
 30
0.0
 11
172.7375
 21
9.0
 31
0.0
  0
LINE
  5
9C5
330
1F
100
AcDbEntity
  8
2
  6
CONTINUOUS
370
25
 62
7
100
AcDbLine
 10
172.7375
 20
9.0
 30
0.0
 11
174.7375
 21
9.0
 31
0.0
  0
LINE
  5
9C6
330
1F
100
AcDbEntity
  8
2
  6
CONTINUOUS
370
25
 62
7
100
AcDbLine
 10
174.7375
 20
9.0
 30
0.0
 11
173.7375
 21
4.0
 31
0.0
  0
LINE
  5
9C7
330
1F
100
AcDbEntity
  8
2
  6
CONTINUOUS
370
25
 62
7
100
AcDbLine
 10
173.6797160330039
 20
4.288919834980703
 30
0.0
 11
173.8241759504942
 21
4.433379752471041
 31
0.0
  0
LINE
  5
9C8
330
1F
100
AcDbEntity
  8
2
  6
CONTINUOUS
370
25
 62
7
100
AcDbLine
 10
173.6090053548852
 20
4.642473225573951
 30
0.0
 11
173.9302419676722
 21
4.963709838360955
 31
0.0
  0
LINE
  5
9C9
330
1F
100
AcDbEntity
  8
2
  6
CONTINUOUS
370
25
 62
7
100
AcDbLine
 10
173.5382946767666
 20
4.996026616167228
 30
0.0
 11
174.0363079848502
 21
5.494039924250842
 31
0.0
  0
LINE
  5
9CA
330
1F
100
AcDbEntity
  8
2
  6
CONTINUOUS
370
25
 62
7
100
AcDbLine
 10
173.4675839986479
 20
5.349580006760505
 30
0.0
 11
174.1423740020282
 21
6.024370010140757
 31
0.0
  0
LINE
  5
9CB
330
1F
100
AcDbEntity
  8
2
  6
CONTINUOUS
370
25
 62
7
100
AcDbLine
 10
173.3968733205293
 20
5.703133397353781
 30
0.0
 11
174.2484400192061
 21
6.554700096030643
 31
0.0
  0
LINE
  5
9CC
330
1F
100
AcDbEntity
  8
2
  6
CONTINUOUS
370
25
 62
7
100
AcDbLine
 10
173.3261626424106
 20
6.056686787947029
 30
0.0
 11
174.3545060363841
 21
7.085030181920558
 31
0.0
  0
LINE
  5
9CD
330
1F
100
AcDbEntity
  8
2
  6
CONTINUOUS
370
25
 62
7
100
AcDbLine
 10
173.2554519642919
 20
6.410240178540306
 30
0.0
 11
174.4605720535621
 21
7.615360267810502
 31
0.0
  0
LINE
  5
9CE
330
1F
100
AcDbEntity
  8
2
  6
CONTINUOUS
370
25
 62
7
100
AcDbLine
 10
173.1847412861733
 20
6.763793569133583
 30
0.0
 11
174.5666380707401
 21
8.145690353700388
 31
0.0
  0
LINE
  5
9CF
330
1F
100
AcDbEntity
  8
2
  6
CONTINUOUS
370
25
 62
7
100
AcDbLine
 10
173.1140306080546
 20
7.117346959726859
 30
0.0
 11
174.6727040879181
 21
8.676020439590303
 31
0.0
  0
LINE
  5
9D0
330
1F
100
AcDbEntity
  8
2
  6
CONTINUOUS
370
25
 62
7
100
AcDbLine
 10
173.043319929936
 20
7.470900350320136
 30
0.0
 11
174.5724195796159
 21
9.0
 31
0.0
  0
LINE
  5
9D1
330
1F
100
AcDbEntity
  8
2
  6
CONTINUOUS
370
25
 62
7
100
AcDbLine
 10
172.9726092518173
 20
7.824453740913384
 30
0.0
 11
174.1481555109039
 21
9.0
 31
0.0
  0
LINE
  5
9D2
330
1F
100
AcDbEntity
  8
2
  6
CONTINUOUS
370
25
 62
7
100
AcDbLine
 10
172.9018985736986
 20
8.178007131506632
 30
0.0
 11
173.723891442192
 21
9.0
 31
0.0
  0
LINE
  5
9D3
330
1F
100
AcDbEntity
  8
2
  6
CONTINUOUS
370
25
 62
7
100
AcDbLine
 10
172.83118789558
 20
8.531560522099909
 30
0.0
 11
173.2996273734801
 21
9.0
 31
0.0
  0
LINE
  5
9D4
330
1F
100
AcDbEntity
  8
2
  6
CONTINUOUS
370
25
 62
7
100
AcDbLine
 10
172.7604772174614
 20
8.8851139126932
 30
0.0
 11
172.8753633047682
 21
9.000000000000014
 31
0.0
  0
LINE
  5
9D5
330
1F
100
AcDbEntity
  8
2
  6
CONTINUOUS
370
25
 62
7
100
AcDbLine
 10
173.6397592453759
 20
4.488703773120704
 30
0.0
 11
173.8026605030828
 21
4.325802515413812
 31
0.0
  0
LINE
  5
9D6
330
1F
100
AcDbEntity
  8
2
  6
CONTINUOUS
370
25
 62
7
100
AcDbLine
 10
173.5336932281979
 20
5.019033859010591
 30
0.0
 11
173.8733711812014
 21
4.679355906007089
 31
0.0
  0
LINE
  5
9D7
330
1F
100
AcDbEntity
  8
2
  6
CONTINUOUS
370
25
 62
7
100
AcDbLine
 10
173.4276272110199
 20
5.549363944900506
 30
0.0
 11
173.9440818593201
 21
5.032909296600337
 31
0.0
  0
LINE
  5
9D8
330
1F
100
AcDbEntity
  8
2
  6
CONTINUOUS
370
25
 62
7
100
AcDbLine
 10
173.3215611938419
 20
6.079694030790421
 30
0.0
 11
174.0147925374387
 21
5.386462687193614
 31
0.0
  0
LINE
  5
9D9
330
1F
100
AcDbEntity
  8
2
  6
CONTINUOUS
370
25
 62
7
100
AcDbLine
 10
173.2154951766639
 20
6.610024116680307
 30
0.0
 11
174.0855032155574
 21
5.74001607778689
 31
0.0
  0
LINE
  5
9DA
330
1F
100
AcDbEntity
  8
2
  6
CONTINUOUS
370
25
 62
7
100
AcDbLine
 10
173.109429159486
 20
7.140354202570222
 30
0.0
 11
174.156213893676
 21
6.093569468380167
 31
0.0
  0
LINE
  5
9DB
330
1F
100
AcDbEntity
  8
2
  6
CONTINUOUS
370
25
 62
7
100
AcDbLine
 10
173.003363142308
 20
7.670684288460137
 30
0.0
 11
174.2269245717947
 21
6.447122858973415
 31
0.0
  0
LINE
  5
9DC
330
1F
100
AcDbEntity
  8
2
  6
CONTINUOUS
370
25
 62
7
100
AcDbLine
 10
172.89729712513
 20
8.201014374350052
 30
0.0
 11
174.2976352499134
 21
6.80067624956672
 31
0.0
  0
LINE
  5
9DD
330
1F
100
AcDbEntity
  8
2
  6
CONTINUOUS
370
25
 62
7
100
AcDbLine
 10
172.791231107952
 20
8.731344460239939
 30
0.0
 11
174.368345928032
 21
7.154229640159997
 31
0.0
  0
LINE
  5
9DE
330
1F
100
AcDbEntity
  8
2
  6
CONTINUOUS
370
25
 62
7
100
AcDbLine
 10
172.9468396369039
 20
9.0
 30
0.0
 11
174.4390566061506
 21
7.507783030753274
 31
0.0
  0
LINE
  5
9DF
330
1F
100
AcDbEntity
  8
2
  6
CONTINUOUS
370
25
 62
7
100
AcDbLine
 10
173.3711037056158
 20
9.0
 30
0.0
 11
174.5097672842693
 21
7.86133642134655
 31
0.0
  0
LINE
  5
9E0
330
1F
100
AcDbEntity
  8
2
  6
CONTINUOUS
370
25
 62
7
100
AcDbLine
 10
173.7953677743278
 20
9.0
 30
0.0
 11
174.580477962388
 21
8.214889811939798
 31
0.0
  0
LINE
  5
9E1
330
1F
100
AcDbEntity
  8
2
  6
CONTINUOUS
370
25
 62
7
100
AcDbLine
 10
174.2196318430397
 20
9.0
 30
0.0
 11
174.6511886405066
 21
8.568443202533075
 31
0.0
  0
LINE
  5
9E2
330
1F
100
AcDbEntity
  8
2
  6
CONTINUOUS
370
25
 62
7
100
AcDbLine
 10
174.6438959117516
 20
9.0
 30
0.0
 11
174.7218993186253
 21
8.921996593126323
 31
0.0
  0
TEXT
  5
9E3
330
1F
100
AcDbEntity
  8
2
  6
CONTINUOUS
370
25
 62
7
100
AcDbText
 10
172.7375
 20
-13.21979166666667
 30
0.0
 40
3.5
  1
8
 50
90.00000000000001
 72
     1
 11
172.7375
 21
-12.053125
 31
0.0
100
AcDbText
  0
CIRCLE
  5
9E4
330
1F
100
AcDbEntity
  8
2
  6
CONTINUOUS
370
25
 62
7
100
AcDbCircle
 10
171.20625
 20
-16.463125
 30
0.0
 40
1.53125
  0
LINE
  5
9E5
330
1F
100
AcDbEntity
  8
2
  6
CONTINUOUS
370
25
 62
7
100
AcDbLine
 10
172.7375
 20
-17.994375
 30
0.0
 11
169.675
 21
-14.931875
 31
0.0
  0
LINE
  5
9E6
330
1F
100
AcDbEntity
  8
SK2
  6
CONTINUOUS
370
25
 62
7
100
AcDbLine
 10
0.0
 20
0.0
 30
0.0
 11
0.0
 21
22.00001898
 31
0.0
  0
LINE
  5
9E7
330
1F
100
AcDbEntity
  8
SK2
  6
CONTINUOUS
370
25
 62
7
100
AcDbLine
 10
150.0
 20
22.00001898
 30
0.0
 11
150.0
 21
4.0
 31
0.0
  0
LINE
  5
9E8
330
1F
100
AcDbEntity
  8
SK2
  6
CONTINUOUS
370
25
 62
7
100
AcDbLine
 10
0.0
 20
21.00001898
 30
0.0
 11
150.0
 21
21.00001898
 31
0.0
  0
LINE
  5
9E9
330
1F
100
AcDbEntity
  8
SK2
  6
CONTINUOUS
370
25
 62
7
100
AcDbLine
 10
0.0
 20
21.00001898
 30
0.0
 11
5.0
 21
22.00001898
 31
0.0
  0
LINE
  5
9EA
330
1F
100
AcDbEntity
  8
SK2
  6
CONTINUOUS
370
25
 62
7
100
AcDbLine
 10
5.0
 20
22.00001898
 30
0.0
 11
5.0
 21
20.00001898
 31
0.0
  0
LINE
  5
9EB
330
1F
100
AcDbEntity
  8
SK2
  6
CONTINUOUS
370
25
 62
7
100
AcDbLine
 10
5.0
 20
20.00001898
 30
0.0
 11
0.0
 21
21.00001898
 31
0.0
  0
LINE
  5
9EC
330
1F
100
AcDbEntity
  8
SK2
  6
CONTINUOUS
370
25
 62
7
100
AcDbLine
 10
4.720055554880542
 20
20.05600786902389
 30
0.0
 11
5.0
 21
20.33595231414335
 31
0.0
  0
LINE
  5
9ED
330
1F
100
AcDbEntity
  8
SK2
  6
CONTINUOUS
370
25
 62
7
100
AcDbLine
 10
4.366502164287269
 20
20.12671854714255
 30
0.0
 11
5.0
 21
20.76021638285528
 31
0.0
  0
LINE
  5
9EE
330
1F
100
AcDbEntity
  8
SK2
  6
CONTINUOUS
370
25
 62
7
100
AcDbLine
 10
4.012948773693999
 20
20.19742922526121
 30
0.0
 11
5.0
 21
21.1844804515672
 31
0.0
  0
LINE
  5
9EF
330
1F
100
AcDbEntity
  8
SK2
  6
CONTINUOUS
370
25
 62
7
100
AcDbLine
 10
3.659395383100723
 20
20.26813990337986
 30
0.0
 11
5.0
 21
21.60874452027914
 31
0.0
  0
LINE
  5
9F0
330
1F
100
AcDbEntity
  8
SK2
  6
CONTINUOUS
370
25
 62
7
100
AcDbLine
 10
3.305841992507446
 20
20.33885058149851
 30
0.0
 11
4.958762988761173
 21
21.99177157775223
 31
0.0
  0
LINE
  5
9F1
330
1F
100
AcDbEntity
  8
SK2
  6
CONTINUOUS
370
25
 62
7
100
AcDbLine
 10
2.952288601914162
 20
20.40956125961716
 30
0.0
 11
4.428432902871251
 21
21.88570556057425
 31
0.0
  0
LINE
  5
9F2
330
1F
100
AcDbEntity
  8
SK2
  6
CONTINUOUS
370
25
 62
7
100
AcDbLine
 10
2.598735211320893
 20
20.48027193773583
 30
0.0
 11
3.898102816981343
 21
21.77963954339627
 31
0.0
  0
LINE
  5
9F3
330
1F
100
AcDbEntity
  8
SK2
  6
CONTINUOUS
370
25
 62
7
100
AcDbLine
 10
2.245181820727623
 20
20.55098261585448
 30
0.0
 11
3.367772731091435
 21
21.67357352621828
 31
0.0
  0
LINE
  5
9F4
330
1F
100
AcDbEntity
  8
SK2
  6
CONTINUOUS
370
25
 62
7
100
AcDbLine
 10
1.891628430134347
 20
20.62169329397314
 30
0.0
 11
2.837442645201513
 21
21.5675075090403
 31
0.0
  0
LINE
  5
9F5
330
1F
100
AcDbEntity
  8
SK2
  6
CONTINUOUS
370
25
 62
7
100
AcDbLine
 10
1.538075039541063
 20
20.69240397209178
 30
0.0
 11
2.307112559311598
 21
21.46144149186232
 31
0.0
  0
LINE
  5
9F6
330
1F
100
AcDbEntity
  8
SK2
  6
CONTINUOUS
370
25
 62
7
100
AcDbLine
 10
1.184521648947793
 20
20.76311465021044
 30
0.0
 11
1.776782473421697
 21
21.35537547468434
 31
0.0
  0
LINE
  5
9F7
330
1F
100
AcDbEntity
  8
SK2
  6
CONTINUOUS
370
25
 62
7
100
AcDbLine
 10
0.8309682583545168
 20
20.8338253283291
 30
0.0
 11
1.246452387531768
 21
21.24930945750635
 31
0.0
  0
LINE
  5
9F8
330
1F
100
AcDbEntity
  8
SK2
  6
CONTINUOUS
370
25
 62
7
100
AcDbLine
 10
0.4774148677612473
 20
20.90453600644776
 30
0.0
 11
0.7161223016418674
 21
21.14324344032838
 31
0.0
  0
LINE
  5
9F9
330
1F
100
AcDbEntity
  8
SK2
  6
CONTINUOUS
370
25
 62
7
100
AcDbLine
 10
0.1238614771679707
 20
20.97524668456641
 30
0.0
 11
0.1857922157519525
 21
21.0371774231504
 31
0.0
  0
LINE
  5
9FA
330
1F
100
AcDbEntity
  8
SK2
  6
CONTINUOUS
370
25
 62
7
100
AcDbLine
 10
0.2419029521968739
 20
21.04839957043937
 30
0.0
 11
0.3628544282953143
 21
20.92744809434093
 31
0.0
  0
LINE
  5
9FB
330
1F
100
AcDbEntity
  8
SK2
  6
CONTINUOUS
370
25
 62
7
100
AcDbLine
 10
0.5954563427901505
 20
21.11911024855803
 30
0.0
 11
0.8931845141852293
 21
20.82138207716295
 31
0.0
  0
LINE
  5
9FC
330
1F
100
AcDbEntity
  8
SK2
  6
CONTINUOUS
370
25
 62
7
100
AcDbLine
 10
0.9490097333834271
 20
21.18982092667669
 30
0.0
 11
1.423514600075144
 21
20.71531605998497
 31
0.0
  0
LINE
  5
9FD
330
1F
100
AcDbEntity
  8
SK2
  6
CONTINUOUS
370
25
 62
7
100
AcDbLine
 10
1.302563123976697
 20
21.26053160479534
 30
0.0
 11
1.953844685965045
 21
20.60925004280699
 31
0.0
  0
LINE
  5
9FE
330
1F
100
AcDbEntity
  8
SK2
  6
CONTINUOUS
370
25
 62
7
100
AcDbLine
 10
1.656116514569973
 20
21.331242282914
 30
0.0
 11
2.48417477185496
 21
20.503184025629
 31
0.0
  0
LINE
  5
9FF
330
1F
100
AcDbEntity
  8
SK2
  6
CONTINUOUS
370
25
 62
7
100
AcDbLine
 10
2.00966990516325
 20
21.40195296103265
 30
0.0
 11
3.014504857744875
 21
20.39711800845102
 31
0.0
  0
LINE
  5
A00
330
1F
100
AcDbEntity
  8
SK2
  6
CONTINUOUS
370
25
 62
7
100
AcDbLine
 10
2.363223295756519
 20
21.47266363915131
 30
0.0
 11
3.544834943634775
 21
20.29105199127304
 31
0.0
  0
LINE
  5
A01
330
1F
100
AcDbEntity
  8
SK2
  6
CONTINUOUS
370
25
 62
7
100
AcDbLine
 10
2.716776686349796
 20
21.54337431726996
 30
0.0
 11
4.075165029524687
 21
20.18498597409506
 31
0.0
  0
LINE
  5
A02
330
1F
100
AcDbEntity
  8
SK2
  6
CONTINUOUS
370
25
 62
7
100
AcDbLine
 10
3.070330076943073
 20
21.61408499538861
 30
0.0
 11
4.605495115414598
 21
20.07891995691708
 31
0.0
  0
LINE
  5
A03
330
1F
100
AcDbEntity
  8
SK2
  6
CONTINUOUS
370
25
 62
7
100
AcDbLine
 10
3.423883467536342
 20
21.68479567350727
 30
0.0
 11
5.0
 21
20.10867914104361
 31
0.0
  0
LINE
  5
A04
330
1F
100
AcDbEntity
  8
SK2
  6
CONTINUOUS
370
25
 62
7
100
AcDbLine
 10
3.777436858129619
 20
21.75550635162593
 30
0.0
 11
5.0
 21
20.53294320975554
 31
0.0
  0
LINE
  5
A05
330
1F
100
AcDbEntity
  8
SK2
  6
CONTINUOUS
370
25
 62
7
100
AcDbLine
 10
4.130990248722888
 20
21.82621702974458
 30
0.0
 11
5.0
 21
20.95720727846746
 31
0.0
  0
LINE
  5
A06
330
1F
100
AcDbEntity
  8
SK2
  6
CONTINUOUS
370
25
 62
7
100
AcDbLine
 10
4.484543639316165
 20
21.89692770786323
 30
0.0
 11
5.0
 21
21.38147134717939
 31
0.0
  0
LINE
  5
A07
330
1F
100
AcDbEntity
  8
SK2
  6
CONTINUOUS
370
25
 62
7
100
AcDbLine
 10
4.838097029909438
 20
21.96763838598189
 30
0.0
 11
5.0
 21
21.80573541589132
 31
0.0
  0
LINE
  5
A08
330
1F
100
AcDbEntity
  8
SK2
  6
CONTINUOUS
370
25
 62
7
100
AcDbLine
 10
150.0
 20
21.00001898
 30
0.0
 11
145.0
 21
20.00001898
 31
0.0
  0
LINE
  5
A09
330
1F
100
AcDbEntity
  8
SK2
  6
CONTINUOUS
370
25
 62
7
100
AcDbLine
 10
145.0
 20
20.00001898
 30
0.0
 11
145.0
 21
22.00001898
 31
0.0
  0
LINE
  5
A0A
330
1F
100
AcDbEntity
  8
SK2
  6
CONTINUOUS
370
25
 62
7
100
AcDbLine
 10
145.0
 20
22.00001898
 30
0.0
 11
150.0
 21
21.00001898
 31
0.0
  0
LINE
  5
A0B
330
1F
100
AcDbEntity
  8
SK2
  6
CONTINUOUS
370
25
 62
7
100
AcDbLine
 10
149.5564097679603
 20
20.91130093359205
 30
0.0
 11
149.7042731786402
 21
21.05916434427198
 31
0.0
  0
LINE
  5
A0C
330
1F
100
AcDbEntity
  8
SK2
  6
CONTINUOUS
370
25
 62
7
100
AcDbLine
 10
149.0260796820704
 20
20.80523491641407
 30
0.0
 11
149.3507197880469
 21
21.12987502239064
 31
0.0
  0
LINE
  5
A0D
330
1F
100
AcDbEntity
  8
SK2
  6
CONTINUOUS
370
25
 62
7
100
AcDbLine
 10
148.4957495961805
 20
20.69916889923608
 30
0.0
 11
148.9971663974537
 21
21.20058570050928
 31
0.0
  0
LINE
  5
A0E
330
1F
100
AcDbEntity
  8
SK2
  6
CONTINUOUS
370
25
 62
7
100
AcDbLine
 10
147.9654195102905
 20
20.59310288205809
 30
0.0
 11
148.6436130068604
 21
21.27129637862792
 31
0.0
  0
LINE
  5
A0F
330
1F
100
AcDbEntity
  8
SK2
  6
CONTINUOUS
370
25
 62
7
100
AcDbLine
 10
147.4350894244006
 20
20.48703686488012
 30
0.0
 11
148.2900596162671
 21
21.34200705674655
 31
0.0
  0
LINE
  5
A10
330
1F
100
AcDbEntity
  8
SK2
  6
CONTINUOUS
370
25
 62
7
100
AcDbLine
 10
146.9047593385108
 20
20.38097084770214
 30
0.0
 11
147.9365062256738
 21
21.41271773486523
 31
0.0
  0
LINE
  5
A11
330
1F
100
AcDbEntity
  8
SK2
  6
CONTINUOUS
370
25
 62
7
100
AcDbLine
 10
146.3744292526208
 20
20.27490483052416
 30
0.0
 11
147.5829528350806
 21
21.48342841298388
 31
0.0
  0
LINE
  5
A12
330
1F
100
AcDbEntity
  8
SK2
  6
CONTINUOUS
370
25
 62
7
100
AcDbLine
 10
145.844099166731
 20
20.16883881334618
 30
0.0
 11
147.2293994444873
 21
21.55413909110251
 31
0.0
  0
LINE
  5
A13
330
1F
100
AcDbEntity
  8
SK2
  6
CONTINUOUS
370
25
 62
7
100
AcDbLine
 10
145.313769080841
 20
20.0627727961682
 30
0.0
 11
146.875846053894
 21
21.62484976922117
 31
0.0
  0
LINE
  5
A14
330
1F
100
AcDbEntity
  8
SK2
  6
CONTINUOUS
370
25
 62
7
100
AcDbLine
 10
145.0
 20
20.17326778403908
 30
0.0
 11
146.5222926633008
 21
21.69556044733984
 31
0.0
  0
LINE
  5
A15
330
1F
100
AcDbEntity
  8
SK2
  6
CONTINUOUS
370
25
 62
7
100
AcDbLine
 10
145.0
 20
20.597531852751
 30
0.0
 11
146.1687392727075
 21
21.76627112545849
 31
0.0
  0
LINE
  5
A16
330
1F
100
AcDbEntity
  8
SK2
  6
CONTINUOUS
370
25
 62
7
100
AcDbLine
 10
145.0
 20
21.02179592146292
 30
0.0
 11
145.8151858821142
 21
21.83698180357715
 31
0.0
  0
LINE
  5
A17
330
1F
100
AcDbEntity
  8
SK2
  6
CONTINUOUS
370
25
 62
7
100
AcDbLine
 10
145.0
 20
21.44605999017485
 30
0.0
 11
145.461632491521
 21
21.9076924816958
 31
0.0
  0
LINE
  5
A18
330
1F
100
AcDbEntity
  8
SK2
  6
CONTINUOUS
370
25
 62
7
100
AcDbLine
 10
145.0
 20
21.87032405888677
 30
0.0
 11
145.1080791009277
 21
21.97840315981445
 31
0.0
  0
LINE
  5
A19
330
1F
100
AcDbEntity
  8
SK2
  6
CONTINUOUS
370
25
 62
7
100
AcDbLine
 10
145.0
 20
20.40054095713865
 30
0.0
 11
145.3337683142822
 21
20.06677264285645
 31
0.0
  0
LINE
  5
A1A
330
1F
100
AcDbEntity
  8
SK2
  6
CONTINUOUS
370
25
 62
7
100
AcDbLine
 10
145.0
 20
20.82480502585057
 30
0.0
 11
145.6873217048754
 21
20.13748332097511
 31
0.0
  0
LINE
  5
A1B
330
1F
100
AcDbEntity
  8
SK2
  6
CONTINUOUS
370
25
 62
7
100
AcDbLine
 10
145.0
 20
21.24906909456249
 30
0.0
 11
146.0408750954687
 21
20.20819399909377
 31
0.0
  0
LINE
  5
A1C
330
1F
100
AcDbEntity
  8
SK2
  6
CONTINUOUS
370
25
 62
7
100
AcDbLine
 10
145.0
 20
21.67333316327441
 30
0.0
 11
146.394428486062
 21
20.27890467721241
 31
0.0
  0
LINE
  5
A1D
330
1F
100
AcDbEntity
  8
SK2
  6
CONTINUOUS
370
25
 62
7
100
AcDbLine
 10
145.1219728149829
 20
21.97562441700342
 30
0.0
 11
146.7479818766553
 21
20.34961535533107
 31
0.0
  0
LINE
  5
A1E
330
1F
100
AcDbEntity
  8
SK2
  6
CONTINUOUS
370
25
 62
7
100
AcDbLine
 10
145.6523029008728
 20
21.86955839982544
 30
0.0
 11
147.1015352672485
 21
20.42032603344973
 31
0.0
  0
LINE
  5
A1F
330
1F
100
AcDbEntity
  8
SK2
  6
CONTINUOUS
370
25
 62
7
100
AcDbLine
 10
146.1826329867627
 20
21.76349238264746
 30
0.0
 11
147.4550886578418
 21
20.49103671156837
 31
0.0
  0
LINE
  5
A20
330
1F
100
AcDbEntity
  8
SK2
  6
CONTINUOUS
370
25
 62
7
100
AcDbLine
 10
146.7129630726526
 20
21.65742636546948
 30
0.0
 11
147.808642048435
 21
20.56174738968703
 31
0.0
  0
LINE
  5
A21
330
1F
100
AcDbEntity
  8
SK2
  6
CONTINUOUS
370
25
 62
7
100
AcDbLine
 10
147.2432931585425
 20
21.55136034829148
 30
0.0
 11
148.1621954390284
 21
20.63245806780569
 31
0.0
  0
LINE
  5
A22
330
1F
100
AcDbEntity
  8
SK2
  6
CONTINUOUS
370
25
 62
7
100
AcDbLine
 10
147.7736232444325
 20
21.4452943311135
 30
0.0
 11
148.5157488296216
 21
20.70316874592434
 31
0.0
  0
LINE
  5
A23
330
1F
100
AcDbEntity
  8
SK2
  6
CONTINUOUS
370
25
 62
7
100
AcDbLine
 10
148.3039533303224
 20
21.33922831393552
 30
0.0
 11
148.8693022202149
 21
20.77387942404299
 31
0.0
  0
LINE
  5
A24
330
1F
100
AcDbEntity
  8
SK2
  6
CONTINUOUS
370
25
 62
7
100
AcDbLine
 10
148.8342834162123
 20
21.23316229675754
 30
0.0
 11
149.2228556108082
 21
20.84459010216165
 31
0.0
  0
LINE
  5
A25
330
1F
100
AcDbEntity
  8
SK2
  6
CONTINUOUS
370
25
 62
7
100
AcDbLine
 10
149.3646135021021
 20
21.12709627957956
 30
0.0
 11
149.5764090014014
 21
20.9153007802803
 31
0.0
  0
LINE
  5
A26
330
1F
100
AcDbEntity
  8
SK2
  6
CONTINUOUS
370
25
 62
7
100
AcDbLine
 10
149.8949435879921
 20
21.02103026240158
 30
0.0
 11
149.9299623919947
 21
20.98601145839895
 31
0.0
  0
TEXT
  5
A27
330
1F
100
AcDbEntity
  8
SK2
  6
CONTINUOUS
370
25
 62
7
100
AcDbText
 10
71.20833333333333
 20
22.00001898
 30
0.0
 40
3.5
  1
150
 72
     1
 11
75.0
 21
22.00001898
 31
0.0
100
AcDbText
  0
LINE
  5
A28
330
1F
100
AcDbEntity
  8
2
  6
CONTINUOUS
370
25
 62
7
100
AcDbLine
 10
36.0
 20
0.0
 30
0.0
 11
36.0
 21
15.00001898
 31
0.0
  0
LINE
  5
A29
330
1F
100
AcDbEntity
  8
2
  6
CONTINUOUS
370
25
 62
7
100
AcDbLine
 10
150.0
 20
15.00001898
 30
0.0
 11
150.0
 21
4.0
 31
0.0
  0
LINE
  5
A2A
330
1F
100
AcDbEntity
  8
2
  6
CONTINUOUS
370
25
 62
7
100
AcDbLine
 10
36.0
 20
14.00001898
 30
0.0
 11
150.0
 21
14.00001898
 31
0.0
  0
LINE
  5
A2B
330
1F
100
AcDbEntity
  8
2
  6
CONTINUOUS
370
25
 62
7
100
AcDbLine
 10
36.0
 20
14.00001898
 30
0.0
 11
41.0
 21
15.00001898
 31
0.0
  0
LINE
  5
A2C
330
1F
100
AcDbEntity
  8
2
  6
CONTINUOUS
370
25
 62
7
100
AcDbLine
 10
41.0
 20
15.00001898
 30
0.0
 11
41.0
 21
13.00001898
 31
0.0
  0
LINE
  5
A2D
330
1F
100
AcDbEntity
  8
2
  6
CONTINUOUS
370
25
 62
7
100
AcDbLine
 10
41.0
 20
13.00001898
 30
0.0
 11
36.0
 21
14.00001898
 31
0.0
  0
LINE
  5
A2E
330
1F
100
AcDbEntity
  8
2
  6
CONTINUOUS
370
25
 62
7
100
AcDbLine
 10
40.94916806206113
 20
13.01018536758777
 30
0.0
 11
41.0
 21
13.06101730552664
 31
0.0
  0
LINE
  5
A2F
330
1F
100
AcDbEntity
  8
2
  6
CONTINUOUS
370
25
 62
7
100
AcDbLine
 10
40.59561467146786
 20
13.08089604570643
 30
0.0
 11
41.0
 21
13.48528137423857
 31
0.0
  0
LINE
  5
A30
330
1F
100
AcDbEntity
  8
2
  6
CONTINUOUS
370
25
 62
7
100
AcDbLine
 10
40.24206128087459
 20
13.15160672382508
 30
0.0
 11
41.0
 21
13.9095454429505
 31
0.0
  0
LINE
  5
A31
330
1F
100
AcDbEntity
  8
2
  6
CONTINUOUS
370
25
 62
7
100
AcDbLine
 10
39.88850789028131
 20
13.22231740194374
 30
0.0
 11
41.0
 21
14.33380951166242
 31
0.0
  0
LINE
  5
A32
330
1F
100
AcDbEntity
  8
2
  6
CONTINUOUS
370
25
 62
7
100
AcDbLine
 10
39.53495449968804
 20
13.29302808006239
 30
0.0
 11
41.0
 21
14.75807358037435
 31
0.0
  0
LINE
  5
A33
330
1F
100
AcDbEntity
  8
2
  6
CONTINUOUS
370
25
 62
7
100
AcDbLine
 10
39.18140110909476
 20
13.36373875818105
 30
0.0
 11
40.77210166364215
 21
14.95443931272843
 31
0.0
  0
LINE
  5
A34
330
1F
100
AcDbEntity
  8
2
  6
CONTINUOUS
370
25
 62
7
100
AcDbLine
 10
38.82784771850149
 20
13.4344494362997
 30
0.0
 11
40.24177157775224
 21
14.84837329555045
 31
0.0
  0
LINE
  5
A35
330
1F
100
AcDbEntity
  8
2
  6
CONTINUOUS
370
25
 62
7
100
AcDbLine
 10
38.47429432790822
 20
13.50516011441836
 30
0.0
 11
39.71144149186233
 21
14.74230727837247
 31
0.0
  0
LINE
  5
A36
330
1F
100
AcDbEntity
  8
2
  6
CONTINUOUS
370
25
 62
7
100
AcDbLine
 10
38.12074093731495
 20
13.57587079253701
 30
0.0
 11
39.18111140597242
 21
14.63624126119448
 31
0.0
  0
LINE
  5
A37
330
1F
100
AcDbEntity
  8
2
  6
CONTINUOUS
370
25
 62
7
100
AcDbLine
 10
37.76718754672167
 20
13.64658147065566
 30
0.0
 11
38.65078132008252
 21
14.5301752440165
 31
0.0
  0
LINE
  5
A38
330
1F
100
AcDbEntity
  8
2
  6
CONTINUOUS
370
25
 62
7
100
AcDbLine
 10
37.4136341561284
 20
13.71729214877432
 30
0.0
 11
38.1204512341926
 21
14.42410922683852
 31
0.0
  0
LINE
  5
A39
330
1F
100
AcDbEntity
  8
2
  6
CONTINUOUS
370
25
 62
7
100
AcDbLine
 10
37.06008076553513
 20
13.78800282689297
 30
0.0
 11
37.59012114830269
 21
14.31804320966054
 31
0.0
  0
LINE
  5
A3A
330
1F
100
AcDbEntity
  8
2
  6
CONTINUOUS
370
25
 62
7
100
AcDbLine
 10
36.70652737494186
 20
13.85871350501163
 30
0.0
 11
37.05979106241278
 21
14.21197719248256
 31
0.0
  0
LINE
  5
A3B
330
1F
100
AcDbEntity
  8
2
  6
CONTINUOUS
370
25
 62
7
100
AcDbLine
 10
36.35297398434858
 20
13.92942418313028
 30
0.0
 11
36.52946097652287
 21
14.10591117530458
 31
0.0
  0
LINE
  5
A3C
330
1F
100
AcDbEntity
  8
2
  6
CONTINUOUS
370
25
 62
7
100
AcDbLine
 10
36.0005794062447
 20
14.00013486124894
 30
0.0
 11
36.00086910936704
 21
13.99984515812659
 31
0.0
  0
LINE
  5
A3D
330
1F
100
AcDbEntity
  8
2
  6
CONTINUOUS
370
25
 62
7
100
AcDbLine
 10
36.35413279683797
 20
14.07084553936759
 30
0.0
 11
36.53119919525696
 21
13.89377914094861
 31
0.0
  0
LINE
  5
A3E
330
1F
100
AcDbEntity
  8
2
  6
CONTINUOUS
370
25
 62
7
100
AcDbLine
 10
36.70768618743124
 20
14.14155621748625
 30
0.0
 11
37.06152928114687
 21
13.78771312377063
 31
0.0
  0
LINE
  5
A3F
330
1F
100
AcDbEntity
  8
2
  6
CONTINUOUS
370
25
 62
7
100
AcDbLine
 10
37.06123957802452
 20
14.2122668956049
 30
0.0
 11
37.59185936703678
 21
13.68164710659264
 31
0.0
  0
LINE
  5
A40
330
1F
100
AcDbEntity
  8
2
  6
CONTINUOUS
370
25
 62
7
100
AcDbLine
 10
37.41479296861779
 20
14.28297757372356
 30
0.0
 11
38.12218945292669
 21
13.57558108941466
 31
0.0
  0
LINE
  5
A41
330
1F
100
AcDbEntity
  8
2
  6
CONTINUOUS
370
25
 62
7
100
AcDbLine
 10
37.76834635921107
 20
14.35368825184221
 30
0.0
 11
38.6525195388166
 21
13.46951507223668
 31
0.0
  0
LINE
  5
A42
330
1F
100
AcDbEntity
  8
2
  6
CONTINUOUS
370
25
 62
7
100
AcDbLine
 10
38.12189974980434
 20
14.42439892996087
 30
0.0
 11
39.18284962470651
 21
13.3634490550587
 31
0.0
  0
LINE
  5
A43
330
1F
100
AcDbEntity
  8
2
  6
CONTINUOUS
370
25
 62
7
100
AcDbLine
 10
38.47545314039761
 20
14.49510960807952
 30
0.0
 11
39.71317971059642
 21
13.25738303788072
 31
0.0
  0
LINE
  5
A44
330
1F
100
AcDbEntity
  8
2
  6
CONTINUOUS
370
25
 62
7
100
AcDbLine
 10
38.82900653099089
 20
14.56582028619818
 30
0.0
 11
40.24350979648633
 21
13.15131702070273
 31
0.0
  0
LINE
  5
A45
330
1F
100
AcDbEntity
  8
2
  6
CONTINUOUS
370
25
 62
7
100
AcDbLine
 10
39.18255992158416
 20
14.63653096431683
 30
0.0
 11
40.77383988237624
 21
13.04525100352475
 31
0.0
  0
LINE
  5
A46
330
1F
100
AcDbEntity
  8
2
  6
CONTINUOUS
370
25
 62
7
100
AcDbLine
 10
39.53611331217743
 20
14.70724164243549
 30
0.0
 11
41.0
 21
13.24335495461292
 31
0.0
  0
LINE
  5
A47
330
1F
100
AcDbEntity
  8
2
  6
CONTINUOUS
370
25
 62
7
100
AcDbLine
 10
39.8896667027707
 20
14.77795232055414
 30
0.0
 11
41.0
 21
13.66761902332485
 31
0.0
  0
LINE
  5
A48
330
1F
100
AcDbEntity
  8
2
  6
CONTINUOUS
370
25
 62
7
100
AcDbLine
 10
40.24322009336398
 20
14.8486629986728
 30
0.0
 11
41.0
 21
14.09188309203678
 31
0.0
  0
LINE
  5
A49
330
1F
100
AcDbEntity
  8
2
  6
CONTINUOUS
370
25
 62
7
100
AcDbLine
 10
40.59677348395725
 20
14.91937367679145
 30
0.0
 11
41.0
 21
14.5161471607487
 31
0.0
  0
LINE
  5
A4A
330
1F
100
AcDbEntity
  8
2
  6
CONTINUOUS
370
25
 62
7
100
AcDbLine
 10
40.95032687455053
 20
14.99008435491011
 30
0.0
 11
41.0
 21
14.94041122946063
 31
0.0
  0
LINE
  5
A4B
330
1F
100
AcDbEntity
  8
2
  6
CONTINUOUS
370
25
 62
7
100
AcDbLine
 10
150.0
 20
14.00001898
 30
0.0
 11
145.0
 21
13.00001898
 31
0.0
  0
LINE
  5
A4C
330
1F
100
AcDbEntity
  8
2
  6
CONTINUOUS
370
25
 62
7
100
AcDbLine
 10
145.0
 20
13.00001898
 30
0.0
 11
145.0
 21
15.00001898
 31
0.0
  0
LINE
  5
A4D
330
1F
100
AcDbEntity
  8
2
  6
CONTINUOUS
370
25
 62
7
100
AcDbLine
 10
145.0
 20
15.00001898
 30
0.0
 11
150.0
 21
14.00001898
 31
0.0
  0
LINE
  5
A4E
330
1F
100
AcDbEntity
  8
2
  6
CONTINUOUS
370
25
 62
7
100
AcDbLine
 10
149.821128393722
 20
13.96424465874441
 30
0.0
 11
149.8807522624813
 21
14.02386852750371
 31
0.0
  0
LINE
  5
A4F
330
1F
100
AcDbEntity
  8
2
  6
CONTINUOUS
370
25
 62
7
100
AcDbLine
 10
149.2907983078321
 20
13.85817864156641
 30
0.0
 11
149.5271988718881
 21
14.09457920562237
 31
0.0
  0
LINE
  5
A50
330
1F
100
AcDbEntity
  8
2
  6
CONTINUOUS
370
25
 62
7
100
AcDbLine
 10
148.7604682219422
 20
13.75211262438843
 30
0.0
 11
149.1736454812948
 21
14.16528988374104
 31
0.0
  0
LINE
  5
A51
330
1F
100
AcDbEntity
  8
2
  6
CONTINUOUS
370
25
 62
7
100
AcDbLine
 10
148.2301381360523
 20
13.64604660721045
 30
0.0
 11
148.8200920907015
 21
14.23600056185968
 31
0.0
  0
LINE
  5
A52
330
1F
100
AcDbEntity
  8
2
  6
CONTINUOUS
370
25
 62
7
100
AcDbLine
 10
147.6998080501624
 20
13.53998059003247
 30
0.0
 11
148.4665387001082
 21
14.30671123997834
 31
0.0
  0
LINE
  5
A53
330
1F
100
AcDbEntity
  8
2
  6
CONTINUOUS
370
25
 62
7
100
AcDbLine
 10
147.1694779642725
 20
13.43391457285449
 30
0.0
 11
148.112985309515
 21
14.377421918097
 31
0.0
  0
LINE
  5
A54
330
1F
100
AcDbEntity
  8
2
  6
CONTINUOUS
370
25
 62
7
100
AcDbLine
 10
146.6391478783826
 20
13.32784855567651
 30
0.0
 11
147.7594319189217
 21
14.44813259621564
 31
0.0
  0
LINE
  5
A55
330
1F
100
AcDbEntity
  8
2
  6
CONTINUOUS
370
25
 62
7
100
AcDbLine
 10
146.1088177924927
 20
13.22178253849853
 30
0.0
 11
147.4058785283285
 21
14.5188432743343
 31
0.0
  0
LINE
  5
A56
330
1F
100
AcDbEntity
  8
2
  6
CONTINUOUS
370
25
 62
7
100
AcDbLine
 10
145.5784877066028
 20
13.11571652132055
 30
0.0
 11
147.0523251377352
 21
14.58955395245296
 31
0.0
  0
LINE
  5
A57
330
1F
100
AcDbEntity
  8
2
  6
CONTINUOUS
370
25
 62
7
100
AcDbLine
 10
145.0481576207129
 20
13.00965050414257
 30
0.0
 11
146.6987717471419
 21
14.6602646305716
 31
0.0
  0
LINE
  5
A58
330
1F
100
AcDbEntity
  8
2
  6
CONTINUOUS
370
25
 62
7
100
AcDbLine
 10
145.0
 20
13.38575695214162
 30
0.0
 11
146.3452183565486
 21
14.73097530869026
 31
0.0
  0
LINE
  5
A59
330
1F
100
AcDbEntity
  8
2
  6
CONTINUOUS
370
25
 62
7
100
AcDbLine
 10
145.0
 20
13.81002102085355
 30
0.0
 11
145.9916649659554
 21
14.80168598680893
 31
0.0
  0
LINE
  5
A5A
330
1F
100
AcDbEntity
  8
2
  6
CONTINUOUS
370
25
 62
7
100
AcDbLine
 10
145.0
 20
14.23428508956547
 30
0.0
 11
145.6381115753621
 21
14.87239666492758
 31
0.0
  0
LINE
  5
A5B
330
1F
100
AcDbEntity
  8
2
  6
CONTINUOUS
370
25
 62
7
100
AcDbLine
 10
145.0
 20
14.6585491582774
 30
0.0
 11
145.2845581847689
 21
14.94310734304624
 31
0.0
  0
LINE
  5
A5C
330
1F
100
AcDbEntity
  8
2
  6
CONTINUOUS
370
25
 62
7
100
AcDbLine
 10
145.0
 20
13.18805178903588
 30
0.0
 11
145.1566940075299
 21
13.03135778150599
 31
0.0
  0
LINE
  5
A5D
330
1F
100
AcDbEntity
  8
2
  6
CONTINUOUS
370
25
 62
7
100
AcDbLine
 10
145.0
 20
13.61231585774782
 30
0.0
 11
145.5102473981232
 21
13.10206845962463
 31
0.0
  0
LINE
  5
A5E
330
1F
100
AcDbEntity
  8
2
  6
CONTINUOUS
370
25
 62
7
100
AcDbLine
 10
145.0
 20
14.03657992645974
 30
0.0
 11
145.8638007887164
 21
13.17277913774328
 31
0.0
  0
LINE
  5
A5F
330
1F
100
AcDbEntity
  8
2
  6
CONTINUOUS
370
25
 62
7
100
AcDbLine
 10
145.0
 20
14.46084399517166
 30
0.0
 11
146.2173541793097
 21
13.24348981586193
 31
0.0
  0
LINE
  5
A60
330
1F
100
AcDbEntity
  8
2
  6
CONTINUOUS
370
25
 62
7
100
AcDbLine
 10
145.0
 20
14.88510806388359
 30
0.0
 11
146.570907569903
 21
13.31420049398061
 31
0.0
  0
LINE
  5
A61
330
1F
100
AcDbEntity
  8
2
  6
CONTINUOUS
370
25
 62
7
100
AcDbLine
 10
145.3866914407444
 20
14.92268069185113
 30
0.0
 11
146.9244609604963
 21
13.38491117209925
 31
0.0
  0
LINE
  5
A62
330
1F
100
AcDbEntity
  8
2
  6
CONTINUOUS
370
25
 62
7
100
AcDbLine
 10
145.9170215266343
 20
14.81661467467315
 30
0.0
 11
147.2780143510895
 21
13.45562185021791
 31
0.0
  0
LINE
  5
A63
330
1F
100
AcDbEntity
  8
2
  6
CONTINUOUS
370
25
 62
7
100
AcDbLine
 10
146.4473516125242
 20
14.71054865749517
 30
0.0
 11
147.6315677416828
 21
13.52633252833657
 31
0.0
  0
LINE
  5
A64
330
1F
100
AcDbEntity
  8
2
  6
CONTINUOUS
370
25
 62
7
100
AcDbLine
 10
146.9776816984141
 20
14.60448264031719
 30
0.0
 11
147.985121132276
 21
13.59704320645521
 31
0.0
  0
LINE
  5
A65
330
1F
100
AcDbEntity
  8
2
  6
CONTINUOUS
370
25
 62
7
100
AcDbLine
 10
147.508011784304
 20
14.49841662313921
 30
0.0
 11
148.3386745228694
 21
13.66775388457386
 31
0.0
  0
LINE
  5
A66
330
1F
100
AcDbEntity
  8
2
  6
CONTINUOUS
370
25
 62
7
100
AcDbLine
 10
148.0383418701939
 20
14.39235060596123
 30
0.0
 11
148.6922279134626
 21
13.73846456269251
 31
0.0
  0
LINE
  5
A67
330
1F
100
AcDbEntity
  8
2
  6
CONTINUOUS
370
25
 62
7
100
AcDbLine
 10
148.5686719560838
 20
14.28628458878325
 30
0.0
 11
149.0457813040559
 21
13.80917524081116
 31
0.0
  0
LINE
  5
A68
330
1F
100
AcDbEntity
  8
2
  6
CONTINUOUS
370
25
 62
7
100
AcDbLine
 10
149.0990020419737
 20
14.18021857160525
 30
0.0
 11
149.3993346946492
 21
13.87988591892983
 31
0.0
  0
LINE
  5
A69
330
1F
100
AcDbEntity
  8
2
  6
CONTINUOUS
370
25
 62
7
100
AcDbLine
 10
149.6293321278636
 20
14.07415255442727
 30
0.0
 11
149.7528880852424
 21
13.95059659704849
 31
0.0
  0
TEXT
  5
A6A
330
1F
100
AcDbEntity
  8
2
  6
CONTINUOUS
370
25
 62
7
100
AcDbText
 10
89.5
 20
15.00001898
 30
0.0
 40
3.5
  1
114
 72
     1
 11
93.0
 21
15.00001898
 31
0.0
100
AcDbText
  0
LINE
  5
A6B
330
1F
100
AcDbEntity
  8
2
  6
CONTINUOUS
370
25
 62
7
100
AcDbLine
 10
142.0
 20
-4.0
 30
0.0
 11
142.0
 21
-22.00003998
 31
0.0
  0
LINE
  5
A6C
330
1F
100
AcDbEntity
  8
2
  6
CONTINUOUS
370
25
 62
7
100
AcDbLine
 10
150.0
 20
-22.00003998
 30
0.0
 11
150.0
 21
-4.0
 31
0.0
  0
LINE
  5
A6D
330
1F
100
AcDbEntity
  8
2
  6
CONTINUOUS
370
25
 62
7
100
AcDbLine
 10
160.0
 20
-21.00003998
 30
0.0
 11
132.0
 21
-21.00003998
 31
0.0
  0
LINE
  5
A6E
330
1F
100
AcDbEntity
  8
2
  6
CONTINUOUS
370
25
 62
7
100
AcDbLine
 10
142.0
 20
-21.00003998
 30
0.0
 11
137.0
 21
-22.00003998
 31
0.0
  0
LINE
  5
A6F
330
1F
100
AcDbEntity
  8
2
  6
CONTINUOUS
370
25
 62
7
100
AcDbLine
 10
137.0
 20
-22.00003998
 30
0.0
 11
137.0
 21
-20.00003998
 31
0.0
  0
LINE
  5
A70
330
1F
100
AcDbEntity
  8
2
  6
CONTINUOUS
370
25
 62
7
100
AcDbLine
 10
137.0
 20
-20.00003998
 30
0.0
 11
142.0
 21
-21.00003998
 31
0.0
  0
LINE
  5
A71
330
1F
100
AcDbEntity
  8
2
  6
CONTINUOUS
370
25
 62
7
100
AcDbLine
 10
141.6300765967678
 20
-21.07402466064644
 30
0.0
 11
141.7533843978452
 21
-20.95071685956903
 31
0.0
  0
LINE
  5
A72
330
1F
100
AcDbEntity
  8
2
  6
CONTINUOUS
370
25
 62
7
100
AcDbLine
 10
141.0997465108779
 20
-21.18009067782442
 30
0.0
 11
141.3998310072519
 21
-20.88000618145037
 31
0.0
  0
LINE
  5
A73
330
1F
100
AcDbEntity
  8
2
  6
CONTINUOUS
370
25
 62
7
100
AcDbLine
 10
140.569416424988
 20
-21.2861566950024
 30
0.0
 11
141.0462776166586
 21
-20.80929550333173
 31
0.0
  0
LINE
  5
A74
330
1F
100
AcDbEntity
  8
2
  6
CONTINUOUS
370
25
 62
7
100
AcDbLine
 10
140.0390863390981
 20
-21.39222271218038
 30
0.0
 11
140.6927242260654
 21
-20.73858482521307
 31
0.0
  0
LINE
  5
A75
330
1F
100
AcDbEntity
  8
2
  6
CONTINUOUS
370
25
 62
7
100
AcDbLine
 10
139.5087562532082
 20
-21.49828872935838
 30
0.0
 11
140.3391708354721
 21
-20.66787414709441
 31
0.0
  0
LINE
  5
A76
330
1F
100
AcDbEntity
  8
2
  6
CONTINUOUS
370
25
 62
7
100
AcDbLine
 10
138.9784261673182
 20
-21.60435474653636
 30
0.0
 11
139.9856174448788
 21
-20.59716346897576
 31
0.0
  0
LINE
  5
A77
330
1F
100
AcDbEntity
  8
2
  6
CONTINUOUS
370
25
 62
7
100
AcDbLine
 10
138.4480960814283
 20
-21.71042076371434
 30
0.0
 11
139.6320640542856
 21
-20.52645279085711
 31
0.0
  0
LINE
  5
A78
330
1F
100
AcDbEntity
  8
2
  6
CONTINUOUS
370
25
 62
7
100
AcDbLine
 10
137.9177659955384
 20
-21.81648678089232
 30
0.0
 11
139.2785106636923
 21
-20.45574211273845
 31
0.0
  0
LINE
  5
A79
330
1F
100
AcDbEntity
  8
2
  6
CONTINUOUS
370
25
 62
7
100
AcDbLine
 10
137.3874359096486
 20
-21.9225527980703
 30
0.0
 11
138.924957273099
 21
-20.3850314346198
 31
0.0
  0
LINE
  5
A7A
330
1F
100
AcDbEntity
  8
2
  6
CONTINUOUS
370
25
 62
7
100
AcDbLine
 10
137.0
 20
-21.88572463900691
 30
0.0
 11
138.5714038825058
 21
-20.31432075650115
 31
0.0
  0
LINE
  5
A7B
330
1F
100
AcDbEntity
  8
2
  6
CONTINUOUS
370
25
 62
7
100
AcDbLine
 10
137.0
 20
-21.46146057029499
 30
0.0
 11
138.2178504919125
 21
-20.24361007838249
 31
0.0
  0
LINE
  5
A7C
330
1F
100
AcDbEntity
  8
2
  6
CONTINUOUS
370
25
 62
7
100
AcDbLine
 10
137.0
 20
-21.03719650158307
 30
0.0
 11
137.8642971013192
 21
-20.17289940026383
 31
0.0
  0
LINE
  5
A7D
330
1F
100
AcDbEntity
  8
2
  6
CONTINUOUS
370
25
 62
7
100
AcDbLine
 10
137.0
 20
-20.61293243287113
 30
0.0
 11
137.5107437107259
 21
-20.10218872214519
 31
0.0
  0
LINE
  5
A7E
330
1F
100
AcDbEntity
  8
2
  6
CONTINUOUS
370
25
 62
7
100
AcDbLine
 10
137.0
 20
-20.18866836415921
 30
0.0
 11
137.1571903201327
 21
-20.03147804402653
 31
0.0
  0
LINE
  5
A7F
330
1F
100
AcDbEntity
  8
2
  6
CONTINUOUS
370
25
 62
7
100
AcDbLine
 10
137.0
 20
-21.66261915086874
 30
0.0
 11
137.2811840242761
 21
-21.94380317514478
 31
0.0
  0
LINE
  5
A80
330
1F
100
AcDbEntity
  8
2
  6
CONTINUOUS
370
25
 62
7
100
AcDbLine
 10
137.0
 20
-21.23835508215682
 30
0.0
 11
137.6347374148693
 21
-21.87309249702612
 31
0.0
  0
LINE
  5
A81
330
1F
100
AcDbEntity
  8
2
  6
CONTINUOUS
370
25
 62
7
100
AcDbLine
 10
137.0
 20
-20.81409101344489
 30
0.0
 11
137.9882908054626
 21
-21.80238181890748
 31
0.0
  0
LINE
  5
A82
330
1F
100
AcDbEntity
  8
2
  6
CONTINUOUS
370
25
 62
7
100
AcDbLine
 10
137.0
 20
-20.38982694473296
 30
0.0
 11
138.3418441960559
 21
-21.73167114078882
 31
0.0
  0
LINE
  5
A83
330
1F
100
AcDbEntity
  8
2
  6
CONTINUOUS
370
25
 62
7
100
AcDbLine
 10
137.0430963799737
 20
-20.00865925599473
 30
0.0
 11
138.6953975866491
 21
-21.66096046267016
 31
0.0
  0
LINE
  5
A84
330
1F
100
AcDbEntity
  8
2
  6
CONTINUOUS
370
25
 62
7
100
AcDbLine
 10
137.5734264658636
 20
-20.11472527317271
 30
0.0
 11
139.0489509772424
 21
-21.5902497845515
 31
0.0
  0
LINE
  5
A85
330
1F
100
AcDbEntity
  8
2
  6
CONTINUOUS
370
25
 62
7
100
AcDbLine
 10
138.1037565517535
 20
-20.22079129035069
 30
0.0
 11
139.4025043678357
 21
-21.51953910643286
 31
0.0
  0
LINE
  5
A86
330
1F
100
AcDbEntity
  8
2
  6
CONTINUOUS
370
25
 62
7
100
AcDbLine
 10
138.6340866376434
 20
-20.32685730752867
 30
0.0
 11
139.7560577584289
 21
-21.4488284283142
 31
0.0
  0
LINE
  5
A87
330
1F
100
AcDbEntity
  8
2
  6
CONTINUOUS
370
25
 62
7
100
AcDbLine
 10
139.1644167235333
 20
-20.43292332470666
 30
0.0
 11
140.1096111490222
 21
-21.37811775019554
 31
0.0
  0
LINE
  5
A88
330
1F
100
AcDbEntity
  8
2
  6
CONTINUOUS
370
25
 62
7
100
AcDbLine
 10
139.6947468094232
 20
-20.53898934188464
 30
0.0
 11
140.4631645396155
 21
-21.3074070720769
 31
0.0
  0
LINE
  5
A89
330
1F
100
AcDbEntity
  8
2
  6
CONTINUOUS
370
25
 62
7
100
AcDbLine
 10
140.2250768953131
 20
-20.64505535906262
 30
0.0
 11
140.8167179302087
 21
-21.23669639395824
 31
0.0
  0
LINE
  5
A8A
330
1F
100
AcDbEntity
  8
2
  6
CONTINUOUS
370
25
 62
7
100
AcDbLine
 10
140.755406981203
 20
-20.7511213762406
 30
0.0
 11
141.170271320802
 21
-21.16598571583958
 31
0.0
  0
LINE
  5
A8B
330
1F
100
AcDbEntity
  8
2
  6
CONTINUOUS
370
25
 62
7
100
AcDbLine
 10
141.285737067093
 20
-20.85718739341858
 30
0.0
 11
141.5238247113953
 21
-21.09527503772094
 31
0.0
  0
LINE
  5
A8C
330
1F
100
AcDbEntity
  8
2
  6
CONTINUOUS
370
25
 62
7
100
AcDbLine
 10
141.8160671529828
 20
-20.96325341059656
 30
0.0
 11
141.8773781019885
 21
-21.02456435960228
 31
0.0
  0
LINE
  5
A8D
330
1F
100
AcDbEntity
  8
2
  6
CONTINUOUS
370
25
 62
7
100
AcDbLine
 10
150.0
 20
-21.00003998
 30
0.0
 11
155.0
 21
-20.00003998
 31
0.0
  0
LINE
  5
A8E
330
1F
100
AcDbEntity
  8
2
  6
CONTINUOUS
370
25
 62
7
100
AcDbLine
 10
155.0
 20
-20.00003998
 30
0.0
 11
155.0
 21
-22.00003998
 31
0.0
  0
LINE
  5
A8F
330
1F
100
AcDbEntity
  8
2
  6
CONTINUOUS
370
25
 62
7
100
AcDbLine
 10
155.0
 20
-22.00003998
 30
0.0
 11
150.0
 21
-21.00003998
 31
0.0
  0
LINE
  5
A90
330
1F
100
AcDbEntity
  8
2
  6
CONTINUOUS
370
25
 62
7
100
AcDbLine
 10
154.8538894612335
 20
-21.97081787224667
 30
0.0
 11
155.0
 21
-21.82470733348015
 31
0.0
  0
LINE
  5
A91
330
1F
100
AcDbEntity
  8
2
  6
CONTINUOUS
370
25
 62
7
100
AcDbLine
 10
154.5003360706402
 20
-21.90010719412803
 30
0.0
 11
155.0
 21
-21.40044326476823
 31
0.0
  0
LINE
  5
A92
330
1F
100
AcDbEntity
  8
2
  6
CONTINUOUS
370
25
 62
7
100
AcDbLine
 10
154.146782680047
 20
-21.82939651600937
 30
0.0
 11
155.0
 21
-20.97617919605631
 31
0.0
  0
LINE
  5
A93
330
1F
100
AcDbEntity
  8
2
  6
CONTINUOUS
370
25
 62
7
100
AcDbLine
 10
153.7932292894537
 20
-21.75868583789071
 30
0.0
 11
155.0
 21
-20.55191512734439
 31
0.0
  0
LINE
  5
A94
330
1F
100
AcDbEntity
  8
2
  6
CONTINUOUS
370
25
 62
7
100
AcDbLine
 10
153.4396758988604
 20
-21.68797515977207
 30
0.0
 11
155.0
 21
-20.12765105863247
 31
0.0
  0
LINE
  5
A95
330
1F
100
AcDbEntity
  8
2
  6
CONTINUOUS
370
25
 62
7
100
AcDbLine
 10
153.0861225082671
 20
-21.61726448165342
 30
0.0
 11
154.6291837624006
 21
-20.07420322751989
 31
0.0
  0
LINE
  5
A96
330
1F
100
AcDbEntity
  8
2
  6
CONTINUOUS
370
25
 62
7
100
AcDbLine
 10
152.7325691176738
 20
-21.54655380353478
 30
0.0
 11
154.0988536765107
 21
-20.18026924469787
 31
0.0
  0
LINE
  5
A97
330
1F
100
AcDbEntity
  8
2
  6
CONTINUOUS
370
25
 62
7
100
AcDbLine
 10
152.3790157270806
 20
-21.47584312541612
 30
0.0
 11
153.5685235906208
 21
-20.28633526187585
 31
0.0
  0
LINE
  5
A98
330
1F
100
AcDbEntity
  8
2
  6
CONTINUOUS
370
25
 62
7
100
AcDbLine
 10
152.0254623364873
 20
-21.40513244729746
 30
0.0
 11
153.0381935047309
 21
-20.39240127905383
 31
0.0
  0
LINE
  5
A99
330
1F
100
AcDbEntity
  8
2
  6
CONTINUOUS
370
25
 62
7
100
AcDbLine
 10
151.671908945894
 20
-21.33442176917882
 30
0.0
 11
152.507863418841
 21
-20.49846729623181
 31
0.0
  0
LINE
  5
A9A
330
1F
100
AcDbEntity
  8
2
  6
CONTINUOUS
370
25
 62
7
100
AcDbLine
 10
151.3183555553007
 20
-21.26371109106016
 30
0.0
 11
151.9775333329511
 21
-20.60453331340979
 31
0.0
  0
LINE
  5
A9B
330
1F
100
AcDbEntity
  8
2
  6
CONTINUOUS
370
25
 62
7
100
AcDbLine
 10
150.9648021647075
 20
-21.1930004129415
 30
0.0
 11
151.4472032470612
 21
-20.71059933058777
 31
0.0
  0
LINE
  5
A9C
330
1F
100
AcDbEntity
  8
2
  6
CONTINUOUS
370
25
 62
7
100
AcDbLine
 10
150.6112487741142
 20
-21.12228973482283
 30
0.0
 11
150.9168731611713
 21
-20.81666534776575
 31
0.0
  0
LINE
  5
A9D
330
1F
100
AcDbEntity
  8
2
  6
CONTINUOUS
370
25
 62
7
100
AcDbLine
 10
150.257695383521
 20
-21.05157905670417
 30
0.0
 11
150.3865430752814
 21
-20.92273136494373
 31
0.0
  0
LINE
  5
A9E
330
1F
100
AcDbEntity
  8
2
  6
CONTINUOUS
370
25
 62
7
100
AcDbLine
 10
150.2817792471874
 20
-20.9436841305625
 30
0.0
 11
150.4226688707812
 21
-21.08457375415624
 31
0.0
  0
LINE
  5
A9F
330
1F
100
AcDbEntity
  8
2
  6
CONTINUOUS
370
25
 62
7
100
AcDbLine
 10
150.6353326377807
 20
-20.87297345244384
 30
0.0
 11
150.9529989566711
 21
-21.19063977133423
 31
0.0
  0
LINE
  5
AA0
330
1F
100
AcDbEntity
  8
2
  6
CONTINUOUS
370
25
 62
7
100
AcDbLine
 10
150.988886028374
 20
-20.8022627743252
 30
0.0
 11
151.483329042561
 21
-21.29670578851221
 31
0.0
  0
LINE
  5
AA1
330
1F
100
AcDbEntity
  8
2
  6
CONTINUOUS
370
25
 62
7
100
AcDbLine
 10
151.3424394189673
 20
-20.73155209620656
 30
0.0
 11
152.0136591284509
 21
-21.40277180569019
 31
0.0
  0
LINE
  5
AA2
330
1F
100
AcDbEntity
  8
2
  6
CONTINUOUS
370
25
 62
7
100
AcDbLine
 10
151.6959928095605
 20
-20.6608414180879
 30
0.0
 11
152.5439892143408
 21
-21.50883782286817
 31
0.0
  0
LINE
  5
AA3
330
1F
100
AcDbEntity
  8
2
  6
CONTINUOUS
370
25
 62
7
100
AcDbLine
 10
152.0495462001538
 20
-20.59013073996925
 30
0.0
 11
153.0743193002307
 21
-21.61490384004615
 31
0.0
  0
LINE
  5
AA4
330
1F
100
AcDbEntity
  8
2
  6
CONTINUOUS
370
25
 62
7
100
AcDbLine
 10
152.403099590747
 20
-20.5194200618506
 30
0.0
 11
153.6046493861206
 21
-21.72096985722413
 31
0.0
  0
LINE
  5
AA5
330
1F
100
AcDbEntity
  8
2
  6
CONTINUOUS
370
25
 62
7
100
AcDbLine
 10
152.7566529813403
 20
-20.44870938373192
 30
0.0
 11
154.1349794720105
 21
-21.82703587440211
 31
0.0
  0
LINE
  5
AA6
330
1F
100
AcDbEntity
  8
2
  6
CONTINUOUS
370
25
 62
7
100
AcDbLine
 10
153.1102063719336
 20
-20.37799870561328
 30
0.0
 11
154.6653095579004
 21
-21.93310189158009
 31
0.0
  0
LINE
  5
AA7
330
1F
100
AcDbEntity
  8
2
  6
CONTINUOUS
370
25
 62
7
100
AcDbLine
 10
153.4637597625269
 20
-20.30728802749462
 30
0.0
 11
155.0
 21
-21.84352826496774
 31
0.0
  0
LINE
  5
AA8
330
1F
100
AcDbEntity
  8
2
  6
CONTINUOUS
370
25
 62
7
100
AcDbLine
 10
153.8173131531202
 20
-20.23657734937598
 30
0.0
 11
155.0
 21
-21.41926419625581
 31
0.0
  0
LINE
  5
AA9
330
1F
100
AcDbEntity
  8
2
  6
CONTINUOUS
370
25
 62
7
100
AcDbLine
 10
154.1708665437134
 20
-20.16586667125732
 30
0.0
 11
155.0
 21
-20.99500012754389
 31
0.0
  0
LINE
  5
AAA
330
1F
100
AcDbEntity
  8
2
  6
CONTINUOUS
370
25
 62
7
100
AcDbLine
 10
154.5244199343067
 20
-20.09515599313868
 30
0.0
 11
155.0
 21
-20.57073605883197
 31
0.0
  0
LINE
  5
AAB
330
1F
100
AcDbEntity
  8
2
  6
CONTINUOUS
370
25
 62
7
100
AcDbLine
 10
154.8779733249
 20
-20.02444531502
 30
0.0
 11
155.0
 21
-20.14647199012005
 31
0.0
  0
TEXT
  5
AAC
330
1F
100
AcDbEntity
  8
2
  6
CONTINUOUS
370
25
 62
7
100
AcDbText
 10
144.8333333333333
 20
-20.00003998
 30
0.0
 40
3.5
  1
8
 72
     1
 11
146.0
 21
-20.00003998
 31
0.0
100
AcDbText
  0
LINE
  5
AAD
330
1F
100
AcDbEntity
  8
2
  6
CONTINUOUS
370
25
 62
7
100
AcDbLine
 10
50.0
 20
-4.0
 30
0.0
 11
50.0
 21
-29.00003998
 31
0.0
  0
LINE
  5
AAE
330
1F
100
AcDbEntity
  8
2
  6
CONTINUOUS
370
25
 62
7
100
AcDbLine
 10
150.0
 20
-29.00003998
 30
0.0
 11
150.0
 21
-4.0
 31
0.0
  0
LINE
  5
AAF
330
1F
100
AcDbEntity
  8
2
  6
CONTINUOUS
370
25
 62
7
100
AcDbLine
 10
50.0
 20
-28.00003998
 30
0.0
 11
150.0
 21
-28.00003998
 31
0.0
  0
LINE
  5
AB0
330
1F
100
AcDbEntity
  8
2
  6
CONTINUOUS
370
25
 62
7
100
AcDbLine
 10
50.0
 20
-28.00003998
 30
0.0
 11
55.0
 21
-27.00003998
 31
0.0
  0
LINE
  5
AB1
330
1F
100
AcDbEntity
  8
2
  6
CONTINUOUS
370
25
 62
7
100
AcDbLine
 10
55.0
 20
-27.00003998
 30
0.0
 11
55.0
 21
-29.00003998
 31
0.0
  0
LINE
  5
AB2
330
1F
100
AcDbEntity
  8
2
  6
CONTINUOUS
370
25
 62
7
100
AcDbLine
 10
55.0
 20
-29.00003998
 30
0.0
 11
50.0
 21
-28.00003998
 31
0.0
  0
LINE
  5
AB3
330
1F
100
AcDbEntity
  8
2
  6
CONTINUOUS
370
25
 62
7
100
AcDbLine
 10
54.78208200116082
 20
-28.95645638023216
 30
0.0
 11
55.0
 21
-28.73853838139298
 31
0.0
  0
LINE
  5
AB4
330
1F
100
AcDbEntity
  8
2
  6
CONTINUOUS
370
25
 62
7
100
AcDbLine
 10
54.42852861056754
 20
-28.88574570211351
 30
0.0
 11
55.0
 21
-28.31427431268105
 31
0.0
  0
LINE
  5
AB5
330
1F
100
AcDbEntity
  8
2
  6
CONTINUOUS
370
25
 62
7
100
AcDbLine
 10
54.07497521997426
 20
-28.81503502399485
 30
0.0
 11
55.0
 21
-27.89001024396912
 31
0.0
  0
LINE
  5
AB6
330
1F
100
AcDbEntity
  8
2
  6
CONTINUOUS
370
25
 62
7
100
AcDbLine
 10
53.72142182938099
 20
-28.7443243458762
 30
0.0
 11
55.0
 21
-27.46574617525719
 31
0.0
  0
LINE
  5
AB7
330
1F
100
AcDbEntity
  8
2
  6
CONTINUOUS
370
25
 62
7
100
AcDbLine
 10
53.36786843878772
 20
-28.67361366775754
 30
0.0
 11
55.0
 21
-27.04148210654526
 31
0.0
  0
LINE
  5
AB8
330
1F
100
AcDbEntity
  8
2
  6
CONTINUOUS
370
25
 62
7
100
AcDbLine
 10
53.01431504819444
 20
-28.60290298963889
 30
0.0
 11
54.52147257229167
 21
-27.09574546554166
 31
0.0
  0
LINE
  5
AB9
330
1F
100
AcDbEntity
  8
2
  6
CONTINUOUS
370
25
 62
7
100
AcDbLine
 10
52.66076165760116
 20
-28.53219231152024
 30
0.0
 11
53.99114248640176
 21
-27.20181148271964
 31
0.0
  0
LINE
  5
ABA
330
1F
100
AcDbEntity
  8
2
  6
CONTINUOUS
370
25
 62
7
100
AcDbLine
 10
52.30720826700789
 20
-28.46148163340158
 30
0.0
 11
53.46081240051185
 21
-27.30787749989763
 31
0.0
  0
LINE
  5
ABB
330
1F
100
AcDbEntity
  8
2
  6
CONTINUOUS
370
25
 62
7
100
AcDbLine
 10
51.95365487641462
 20
-28.39077095528292
 30
0.0
 11
52.93048231462193
 21
-27.41394351707561
 31
0.0
  0
LINE
  5
ABC
330
1F
100
AcDbEntity
  8
2
  6
CONTINUOUS
370
25
 62
7
100
AcDbLine
 10
51.60010148582134
 20
-28.32006027716427
 30
0.0
 11
52.40015222873203
 21
-27.52000953425359
 31
0.0
  0
LINE
  5
ABD
330
1F
100
AcDbEntity
  8
2
  6
CONTINUOUS
370
25
 62
7
100
AcDbLine
 10
51.24654809522806
 20
-28.24934959904562
 30
0.0
 11
51.8698221428421
 21
-27.62607555143158
 31
0.0
  0
LINE
  5
ABE
330
1F
100
AcDbEntity
  8
2
  6
CONTINUOUS
370
25
 62
7
100
AcDbLine
 10
50.89299470463479
 20
-28.17863892092696
 30
0.0
 11
51.3394920569522
 21
-27.73214156860956
 31
0.0
  0
LINE
  5
ABF
330
1F
100
AcDbEntity
  8
2
  6
CONTINUOUS
370
25
 62
7
100
AcDbLine
 10
50.53944131404151
 20
-28.10792824280831
 30
0.0
 11
50.80916197106228
 21
-27.83820758578754
 31
0.0
  0
LINE
  5
AC0
330
1F
100
AcDbEntity
  8
2
  6
CONTINUOUS
370
25
 62
7
100
AcDbLine
 10
50.18588792344824
 20
-28.03721756468965
 30
0.0
 11
50.27883188517237
 21
-27.94427360296552
 31
0.0
  0
LINE
  5
AC1
330
1F
100
AcDbEntity
  8
2
  6
CONTINUOUS
370
25
 62
7
100
AcDbLine
 10
50.014526980417
 20
-27.9971345839166
 30
0.0
 11
50.0217904706255
 21
-28.0043980741251
 31
0.0
  0
LINE
  5
AC2
330
1F
100
AcDbEntity
  8
2
  6
CONTINUOUS
370
25
 62
7
100
AcDbLine
 10
50.36808037101027
 20
-27.92642390579795
 30
0.0
 11
50.55212055651541
 21
-28.11046409130309
 31
0.0
  0
LINE
  5
AC3
330
1F
100
AcDbEntity
  8
2
  6
CONTINUOUS
370
25
 62
7
100
AcDbLine
 10
50.72163376160355
 20
-27.85571322767929
 30
0.0
 11
51.08245064240533
 21
-28.21653010848107
 31
0.0
  0
LINE
  5
AC4
330
1F
100
AcDbEntity
  8
2
  6
CONTINUOUS
370
25
 62
7
100
AcDbLine
 10
51.07518715219682
 20
-27.78500254956063
 30
0.0
 11
51.61278072829524
 21
-28.32259612565905
 31
0.0
  0
LINE
  5
AC5
330
1F
100
AcDbEntity
  8
2
  6
CONTINUOUS
370
25
 62
7
100
AcDbLine
 10
51.42874054279009
 20
-27.71429187144198
 30
0.0
 11
52.14311081418516
 21
-28.42866214283703
 31
0.0
  0
LINE
  5
AC6
330
1F
100
AcDbEntity
  8
2
  6
CONTINUOUS
370
25
 62
7
100
AcDbLine
 10
51.78229393338337
 20
-27.64358119332333
 30
0.0
 11
52.67344090007506
 21
-28.53472816001501
 31
0.0
  0
LINE
  5
AC7
330
1F
100
AcDbEntity
  8
2
  6
CONTINUOUS
370
25
 62
7
100
AcDbLine
 10
52.13584732397665
 20
-27.57287051520467
 30
0.0
 11
53.20377098596498
 21
-28.640794177193
 31
0.0
  0
LINE
  5
AC8
330
1F
100
AcDbEntity
  8
2
  6
CONTINUOUS
370
25
 62
7
100
AcDbLine
 10
52.48940071456992
 20
-27.50215983708602
 30
0.0
 11
53.73410107185489
 21
-28.74686019437098
 31
0.0
  0
LINE
  5
AC9
330
1F
100
AcDbEntity
  8
2
  6
CONTINUOUS
370
25
 62
7
100
AcDbLine
 10
52.8429541051632
 20
-27.43144915896736
 30
0.0
 11
54.26443115774481
 21
-28.85292621154897
 31
0.0
  0
LINE
  5
ACA
330
1F
100
AcDbEntity
  8
2
  6
CONTINUOUS
370
25
 62
7
100
AcDbLine
 10
53.19650749575648
 20
-27.36073848084871
 30
0.0
 11
54.79476124363472
 21
-28.95899222872695
 31
0.0
  0
LINE
  5
ACB
330
1F
100
AcDbEntity
  8
2
  6
CONTINUOUS
370
25
 62
7
100
AcDbLine
 10
53.55006088634974
 20
-27.29002780273005
 30
0.0
 11
55.0
 21
-28.7399669163803
 31
0.0
  0
LINE
  5
ACC
330
1F
100
AcDbEntity
  8
2
  6
CONTINUOUS
370
25
 62
7
100
AcDbLine
 10
53.90361427694302
 20
-27.2193171246114
 30
0.0
 11
55.0
 21
-28.31570284766837
 31
0.0
  0
LINE
  5
ACD
330
1F
100
AcDbEntity
  8
2
  6
CONTINUOUS
370
25
 62
7
100
AcDbLine
 10
54.25716766753629
 20
-27.14860644649274
 30
0.0
 11
55.0
 21
-27.89143877895644
 31
0.0
  0
LINE
  5
ACE
330
1F
100
AcDbEntity
  8
2
  6
CONTINUOUS
370
25
 62
7
100
AcDbLine
 10
54.61072105812957
 20
-27.07789576837409
 30
0.0
 11
55.0
 21
-27.46717471024451
 31
0.0
  0
LINE
  5
ACF
330
1F
100
AcDbEntity
  8
2
  6
CONTINUOUS
370
25
 62
7
100
AcDbLine
 10
54.96427444872285
 20
-27.00718509025543
 30
0.0
 11
55.0
 21
-27.04291064153259
 31
0.0
  0
LINE
  5
AD0
330
1F
100
AcDbEntity
  8
2
  6
CONTINUOUS
370
25
 62
7
100
AcDbLine
 10
150.0
 20
-28.00003998
 30
0.0
 11
145.0
 21
-29.00003998
 31
0.0
  0
LINE
  5
AD1
330
1F
100
AcDbEntity
  8
2
  6
CONTINUOUS
370
25
 62
7
100
AcDbLine
 10
145.0
 20
-29.00003998
 30
0.0
 11
145.0
 21
-27.00003998
 31
0.0
  0
LINE
  5
AD2
330
1F
100
AcDbEntity
  8
2
  6
CONTINUOUS
370
25
 62
7
100
AcDbLine
 10
145.0
 20
-27.00003998
 30
0.0
 11
150.0
 21
-28.00003998
 31
0.0
  0
LINE
  5
AD3
330
1F
100
AcDbEntity
  8
2
  6
CONTINUOUS
370
25
 62
7
100
AcDbLine
 10
149.8185235906209
 20
-28.03633526187583
 30
0.0
 11
149.8790157270806
 21
-27.97584312541611
 31
0.0
  0
LINE
  5
AD4
330
1F
100
AcDbEntity
  8
2
  6
CONTINUOUS
370
25
 62
7
100
AcDbLine
 10
149.288193504731
 20
-28.14240127905381
 30
0.0
 11
149.5254623364874
 21
-27.90513244729745
 31
0.0
  0
LINE
  5
AD5
330
1F
100
AcDbEntity
  8
2
  6
CONTINUOUS
370
25
 62
7
100
AcDbLine
 10
148.7578634188411
 20
-28.24846729623178
 30
0.0
 11
149.171908945894
 21
-27.8344217691788
 31
0.0
  0
LINE
  5
AD6
330
1F
100
AcDbEntity
  8
2
  6
CONTINUOUS
370
25
 62
7
100
AcDbLine
 10
148.2275333329512
 20
-28.35453331340977
 30
0.0
 11
148.8183555553008
 21
-27.76371109106015
 31
0.0
  0
LINE
  5
AD7
330
1F
100
AcDbEntity
  8
2
  6
CONTINUOUS
370
25
 62
7
100
AcDbLine
 10
147.6972032470613
 20
-28.46059933058775
 30
0.0
 11
148.4648021647075
 21
-27.6930004129415
 31
0.0
  0
LINE
  5
AD8
330
1F
100
AcDbEntity
  8
2
  6
CONTINUOUS
370
25
 62
7
100
AcDbLine
 10
147.1668731611713
 20
-28.56666534776573
 30
0.0
 11
148.1112487741142
 21
-27.62228973482286
 31
0.0
  0
LINE
  5
AD9
330
1F
100
AcDbEntity
  8
2
  6
CONTINUOUS
370
25
 62
7
100
AcDbLine
 10
146.6365430752814
 20
-28.67273136494371
 30
0.0
 11
147.7576953835209
 21
-27.5515790567042
 31
0.0
  0
LINE
  5
ADA
330
1F
100
AcDbEntity
  8
2
  6
CONTINUOUS
370
25
 62
7
100
AcDbLine
 10
146.1062129893915
 20
-28.7787973821217
 30
0.0
 11
147.4041419929277
 21
-27.48086837858554
 31
0.0
  0
LINE
  5
ADB
330
1F
100
AcDbEntity
  8
2
  6
CONTINUOUS
370
25
 62
7
100
AcDbLine
 10
145.5758829035016
 20
-28.8848633992997
 30
0.0
 11
147.0505886023344
 21
-27.41015770046687
 31
0.0
  0
LINE
  5
ADC
330
1F
100
AcDbEntity
  8
2
  6
CONTINUOUS
370
25
 62
7
100
AcDbLine
 10
145.0455528176117
 20
-28.99092941647767
 30
0.0
 11
146.6970352117412
 21
-27.33944702234821
 31
0.0
  0
LINE
  5
ADD
330
1F
100
AcDbEntity
  8
2
  6
CONTINUOUS
370
25
 62
7
100
AcDbLine
 10
145.0
 20
-28.61221816537744
 30
0.0
 11
146.3434818211479
 21
-27.26873634422957
 31
0.0
  0
LINE
  5
ADE
330
1F
100
AcDbEntity
  8
2
  6
CONTINUOUS
370
25
 62
7
100
AcDbLine
 10
145.0
 20
-28.18795409666552
 30
0.0
 11
145.9899284305546
 21
-27.19802566611091
 31
0.0
  0
LINE
  5
ADF
330
1F
100
AcDbEntity
  8
2
  6
CONTINUOUS
370
25
 62
7
100
AcDbLine
 10
145.0
 20
-27.7636900279536
 30
0.0
 11
145.6363750399614
 21
-27.12731498799226
 31
0.0
  0
LINE
  5
AE0
330
1F
100
AcDbEntity
  8
2
  6
CONTINUOUS
370
25
 62
7
100
AcDbLine
 10
145.0
 20
-27.33942595924168
 30
0.0
 11
145.2828216493681
 21
-27.05660430987359
 31
0.0
  0
LINE
  5
AE1
330
1F
100
AcDbEntity
  8
2
  6
CONTINUOUS
370
25
 62
7
100
AcDbLine
 10
145.0
 20
-28.81409101344481
 30
0.0
 11
145.1549574721293
 21
-28.96904848557412
 31
0.0
  0
LINE
  5
AE2
330
1F
100
AcDbEntity
  8
2
  6
CONTINUOUS
370
25
 62
7
100
AcDbLine
 10
145.0
 20
-28.3898269447329
 30
0.0
 11
145.5085108627226
 21
-28.89833780745549
 31
0.0
  0
LINE
  5
AE3
330
1F
100
AcDbEntity
  8
2
  6
CONTINUOUS
370
25
 62
7
100
AcDbLine
 10
145.0
 20
-27.96556287602095
 30
0.0
 11
145.8620642533159
 21
-28.82762712933683
 31
0.0
  0
LINE
  5
AE4
330
1F
100
AcDbEntity
  8
2
  6
CONTINUOUS
370
25
 62
7
100
AcDbLine
 10
145.0
 20
-27.54129880730905
 30
0.0
 11
146.2156176439091
 21
-28.75691645121816
 31
0.0
  0
LINE
  5
AE5
330
1F
100
AcDbEntity
  8
2
  6
CONTINUOUS
370
25
 62
7
100
AcDbLine
 10
145.0
 20
-27.11703473859711
 30
0.0
 11
146.5691710345024
 21
-28.68620577309952
 31
0.0
  0
LINE
  5
AE6
330
1F
100
AcDbEntity
  8
2
  6
CONTINUOUS
370
25
 62
7
100
AcDbLine
 10
145.3840866376435
 20
-27.0768573075287
 30
0.0
 11
146.9227244250957
 21
-28.61549509498086
 31
0.0
  0
LINE
  5
AE7
330
1F
100
AcDbEntity
  8
2
  6
CONTINUOUS
370
25
 62
7
100
AcDbLine
 10
145.9144167235334
 20
-27.18292332470668
 30
0.0
 11
147.276277815689
 21
-28.54478441686221
 31
0.0
  0
LINE
  5
AE8
330
1F
100
AcDbEntity
  8
2
  6
CONTINUOUS
370
25
 62
7
100
AcDbLine
 10
146.4447468094233
 20
-27.28898934188467
 30
0.0
 11
147.6298312062822
 21
-28.47407373874356
 31
0.0
  0
LINE
  5
AE9
330
1F
100
AcDbEntity
  8
2
  6
CONTINUOUS
370
25
 62
7
100
AcDbLine
 10
146.9750768953132
 20
-27.39505535906267
 30
0.0
 11
147.9833845968755
 21
-28.40336306062488
 31
0.0
  0
LINE
  5
AEA
330
1F
100
AcDbEntity
  8
2
  6
CONTINUOUS
370
25
 62
7
100
AcDbLine
 10
147.5054069812031
 20
-27.50112137624062
 30
0.0
 11
148.3369379874688
 21
-28.33265238250625
 31
0.0
  0
LINE
  5
AEB
330
1F
100
AcDbEntity
  8
2
  6
CONTINUOUS
370
25
 62
7
100
AcDbLine
 10
148.0357370670931
 20
-27.60718739341863
 30
0.0
 11
148.690491378062
 21
-28.2619417043876
 31
0.0
  0
LINE
  5
AEC
330
1F
100
AcDbEntity
  8
2
  6
CONTINUOUS
370
25
 62
7
100
AcDbLine
 10
148.566067152983
 20
-27.71325341059661
 30
0.0
 11
149.0440447686553
 21
-28.19123102626892
 31
0.0
  0
LINE
  5
AED
330
1F
100
AcDbEntity
  8
2
  6
CONTINUOUS
370
25
 62
7
100
AcDbLine
 10
149.0963972388729
 20
-27.81931942777457
 30
0.0
 11
149.3975981592486
 21
-28.12052034815027
 31
0.0
  0
LINE
  5
AEE
330
1F
100
AcDbEntity
  8
2
  6
CONTINUOUS
370
25
 62
7
100
AcDbLine
 10
149.6267273247628
 20
-27.92538544495257
 30
0.0
 11
149.7511515498418
 21
-28.04980967003162
 31
0.0
  0
TEXT
  5
AEF
330
1F
100
AcDbEntity
  8
2
  6
CONTINUOUS
370
25
 62
7
100
AcDbText
 10
96.5
 20
-27.00003998
 30
0.0
 40
3.5
  1
100
 72
     1
 11
100.0
 21
-27.00003998
 31
0.0
100
AcDbText
  0
LINE
  5
AF0
330
1F
100
AcDbEntity
  8
2
  6
CONTINUOUS
370
25
 62
7
100
AcDbLine
 10
150.0
 20
4.000000000000001
 30
0.0
 11
154.7631397208144
 21
6.75
 31
0.0
  0
LINE
  5
AF1
330
1F
100
AcDbEntity
  8
2
  6
CONTINUOUS
370
25
 62
7
100
AcDbLine
 10
154.7631397208144
 20
6.75
 30
0.0
 11
172.2407032302755
 21
6.75
 31
0.0
  0
LINE
  5
AF2
330
1F
100
AcDbEntity
  8
2
  6
CONTINUOUS
370
25
 62
7
100
AcDbLine
 10
150.0
 20
4.0
 30
0.0
 11
153.8301270189222
 21
7.366025403784438
 31
0.0
  0
LINE
  5
AF3
330
1F
100
AcDbEntity
  8
2
  6
CONTINUOUS
370
25
 62
7
100
AcDbLine
 10
153.8301270189222
 20
7.366025403784438
 30
0.0
 11
154.8301270189222
 21
5.633974596215562
 31
0.0
  0
LINE
  5
AF4
330
1F
100
AcDbEntity
  8
2
  6
CONTINUOUS
370
25
 62
7
100
AcDbLine
 10
154.8301270189222
 20
5.633974596215562
 30
0.0
 11
150.0
 21
4.0
 31
0.0
  0
LINE
  5
AF5
330
1F
100
AcDbEntity
  8
2
  6
CONTINUOUS
370
25
 62
7
100
AcDbLine
 10
154.6869978127718
 20
5.585555685923921
 30
0.0
 11
154.795460644638
 21
5.694018517790099
 31
0.0
  0
LINE
  5
AF6
330
1F
100
AcDbEntity
  8
2
  6
CONTINUOUS
370
25
 62
7
100
AcDbLine
 10
154.0458364817649
 20
5.368658423629014
 30
0.0
 11
154.6401692175764
 21
5.96299115944052
 31
0.0
  0
LINE
  5
AF7
330
1F
100
AcDbEntity
  8
2
  6
CONTINUOUS
370
25
 62
7
100
AcDbLine
 10
153.4046751507581
 20
5.151761161334093
 30
0.0
 11
154.4848777905149
 21
6.231963801090927
 31
0.0
  0
LINE
  5
AF8
330
1F
100
AcDbEntity
  8
2
  6
CONTINUOUS
370
25
 62
7
100
AcDbLine
 10
152.7635138197513
 20
4.934863899039186
 30
0.0
 11
154.3295863634534
 21
6.500936442741335
 31
0.0
  0
LINE
  5
AF9
330
1F
100
AcDbEntity
  8
2
  6
CONTINUOUS
370
25
 62
7
100
AcDbLine
 10
152.1223524887444
 20
4.717966636744279
 30
0.0
 11
154.1742949363919
 21
6.769909084391756
 31
0.0
  0
LINE
  5
AFA
330
1F
100
AcDbEntity
  8
2
  6
CONTINUOUS
370
25
 62
7
100
AcDbLine
 10
151.4811911577376
 20
4.501069374449372
 30
0.0
 11
154.0190035093304
 21
7.038881726042163
 31
0.0
  0
LINE
  5
AFB
330
1F
100
AcDbEntity
  8
2
  6
CONTINUOUS
370
25
 62
7
100
AcDbLine
 10
150.8400298267308
 20
4.284172112154451
 30
0.0
 11
153.8637120822689
 21
7.307854367692585
 31
0.0
  0
LINE
  5
AFC
330
1F
100
AcDbEntity
  8
2
  6
CONTINUOUS
370
25
 62
7
100
AcDbLine
 10
150.1988684957238
 20
4.067274849859501
 30
0.0
 11
151.0860129810019
 21
4.954419335137516
 31
0.0
  0
LINE
  5
AFD
330
1F
100
AcDbEntity
  8
2
  6
CONTINUOUS
370
25
 62
7
100
AcDbLine
 10
150.196758319735
 20
4.172916850893472
 30
0.0
 11
150.2762298825402
 21
4.093445288088304
 31
0.0
  0
LINE
  5
AFE
330
1F
100
AcDbEntity
  8
2
  6
CONTINUOUS
370
25
 62
7
100
AcDbLine
 10
150.4225713900091
 20
4.371367849331349
 30
0.0
 11
150.5932498589348
 21
4.20068938040562
 31
0.0
  0
LINE
  5
AFF
330
1F
100
AcDbEntity
  8
2
  6
CONTINUOUS
370
25
 62
7
100
AcDbLine
 10
150.6483844602831
 20
4.569818847769227
 30
0.0
 11
150.9102698353294
 21
4.307933472722937
 31
0.0
  0
LINE
  5
B00
330
1F
100
AcDbEntity
  8
2
  6
CONTINUOUS
370
25
 62
7
100
AcDbLine
 10
150.8741975305572
 20
4.768269846207104
 30
0.0
 11
151.227289811724
 21
4.415177565040253
 31
0.0
  0
LINE
  5
B01
330
1F
100
AcDbEntity
  8
2
  6
CONTINUOUS
370
25
 62
7
100
AcDbLine
 10
151.1000106008312
 20
4.966720844644982
 30
0.0
 11
151.5443097881187
 21
4.522421657357569
 31
0.0
  0
LINE
  5
B02
330
1F
100
AcDbEntity
  8
2
  6
CONTINUOUS
370
25
 62
7
100
AcDbLine
 10
151.3258236711053
 20
5.165171843082859
 30
0.0
 11
151.8613297645132
 21
4.629665749674885
 31
0.0
  0
LINE
  5
B03
330
1F
100
AcDbEntity
  8
2
  6
CONTINUOUS
370
25
 62
7
100
AcDbLine
 10
151.5516367413793
 20
5.363622841520737
 30
0.0
 11
152.1783497409078
 21
4.736909841992201
 31
0.0
  0
LINE
  5
B04
330
1F
100
AcDbEntity
  8
2
  6
CONTINUOUS
370
25
 62
7
100
AcDbLine
 10
151.7774498116534
 20
5.562073839958643
 30
0.0
 11
152.4953697173025
 21
4.844153934309517
 31
0.0
  0
LINE
  5
B05
330
1F
100
AcDbEntity
  8
2
  6
CONTINUOUS
370
25
 62
7
100
AcDbLine
 10
152.0032628819274
 20
5.760524838396506
 30
0.0
 11
152.8123896936971
 21
4.951398026626848
 31
0.0
  0
LINE
  5
B06
330
1F
100
AcDbEntity
  8
2
  6
CONTINUOUS
370
25
 62
7
100
AcDbLine
 10
152.2290759522015
 20
5.958975836834384
 30
0.0
 11
153.1294096700917
 21
5.05864211894415
 31
0.0
  0
LINE
  5
B07
330
1F
100
AcDbEntity
  8
2
  6
CONTINUOUS
370
25
 62
7
100
AcDbLine
 10
152.4548890224755
 20
6.157426835272261
 30
0.0
 11
153.4464296464863
 21
5.165886211261451
 31
0.0
  0
LINE
  5
B08
330
1F
100
AcDbEntity
  8
2
  6
CONTINUOUS
370
25
 62
7
100
AcDbLine
 10
152.6807020927495
 20
6.355877833710139
 30
0.0
 11
153.7634496228809
 21
5.273130303578768
 31
0.0
  0
LINE
  5
B09
330
1F
100
AcDbEntity
  8
2
  6
CONTINUOUS
370
25
 62
7
100
AcDbLine
 10
152.9065151630236
 20
6.554328832148016
 30
0.0
 11
154.0804695992755
 21
5.380374395896084
 31
0.0
  0
LINE
  5
B0A
330
1F
100
AcDbEntity
  8
2
  6
CONTINUOUS
370
25
 62
7
100
AcDbLine
 10
153.1323282332976
 20
6.752779830585894
 30
0.0
 11
154.3974895756701
 21
5.4876184882134
 31
0.0
  0
LINE
  5
B0B
330
1F
100
AcDbEntity
  8
2
  6
CONTINUOUS
370
25
 62
7
100
AcDbLine
 10
153.3581413035717
 20
6.951230829023771
 30
0.0
 11
154.7145095520647
 21
5.594862580530716
 31
0.0
  0
LINE
  5
B0C
330
1F
100
AcDbEntity
  8
2
  6
CONTINUOUS
370
25
 62
7
100
AcDbLine
 10
153.5839543738457
 20
7.149681827461649
 30
0.0
 11
154.461935927016
 21
6.271700274291391
 31
0.0
  0
LINE
  5
B0D
330
1F
100
AcDbEntity
  8
2
  6
CONTINUOUS
370
25
 62
7
100
AcDbLine
 10
153.8097674441198
 20
7.34813282589954
 30
0.0
 11
153.8823804312426
 21
7.275519838776773
 31
0.0
  0
TEXT
  5
B0E
330
1F
100
AcDbEntity
  8
2
  6
CONTINUOUS
370
25
 62
7
100
AcDbText
 10
153.201920704511
 20
7.616025403784439
 30
0.0
 40
3.5
  1
R0.5
 72
     1
 11
158.1602540378444
 21
7.616025403784439
 31
0.0
100
AcDbText
  0
LINE
  5
B0F
330
1F
100
AcDbEntity
  8
4
  6
LONGDASH_DASH
370
25
 62
2
100
AcDbLine
 10
36.0
 20
0.0
 30
0.0
 11
150.0
 21
0.0
 31
0.0
  0
LINE
  5
B10
330
1F
100
AcDbEntity
  8
SK4
  6
LONGDASH_DASH
370
25
 62
2
100
AcDbLine
 10
-5.0
 20
0.0
 30
0.0
 11
155.0
 21
0.0
 31
0.0
  0
LINE
  5
B11
330
1F
100
AcDbEntity
  8
1
  6
CONTINUOUS
370
50
 62
4
100
AcDbLine
 10
36.0
 20
0.0
 30
0.0
 11
39.0625
 21
0.0
 31
0.0
  0
LINE
  5
B12
330
1F
100
AcDbEntity
  8
1
  6
CONTINUOUS
370
50
 62
4
100
AcDbLine
 10
36.0
 20
0.0
 30
0.0
 11
36.0
 21
3.0625
 31
0.0
  0
ARC
  5
B13
330
1F
100
AcDbEntity
  8
1
  6
CONTINUOUS
370
50
 62
4
100
AcDbCircle
 10
36.0
 20
0.0
 30
0.0
 40
3.0625
100
AcDbArc
 50
0.0
 51
90.0
  0
LINE
  5
B14
330
1F
100
AcDbEntity
  8
1
  6
CONTINUOUS
370
50
 62
4
100
AcDbLine
 10
36.0
 20
0.0
 30
0.0
 11
32.9375
 21
0.0
 31
0.0
  0
ARC
  5
B15
330
1F
100
AcDbEntity
  8
1
  6
CONTINUOUS
370
50
 62
4
100
AcDbCircle
 10
36.0
 20
0.0
 30
0.0
 40
3.0625
100
AcDbArc
 50
180.0
 51
270.0
  0
LINE
  5
B16
330
1F
100
AcDbEntity
  8
1
  6
CONTINUOUS
370
50
 62
4
100
AcDbLine
 10
36.0
 20
-3.0625
 30
0.0
 11
36.0
 21
0.0
 31
0.0
  0
ARC
  5
B17
330
1F
100
AcDbEntity
  8
1
  6
CONTINUOUS
370
50
 62
4
100
AcDbCircle
 10
36.0
 20
0.0
 30
0.0
 40
3.0625
100
AcDbArc
 50
270.0
 51
0.0
  0
ARC
  5
B18
330
1F
100
AcDbEntity
  8
1
  6
CONTINUOUS
370
50
 62
4
100
AcDbCircle
 10
36.0
 20
0.0
 30
0.0
 40
3.0625
100
AcDbArc
 50
90.0
 51
180.0
  0
LINE
  5
B19
330
1F
100
AcDbEntity
  8
INFTOTAL
  6
CONTINUOUS
370
18
 62
9
100
AcDbLine
 10
-26.400011
 20
-38.500020878
 30
0.0
 11
199.100011
 21
-38.500020878
 31
0.0
  0
LINE
  5
B1A
330
1F
100
AcDbEntity
  8
INFTOTAL
  6
CONTINUOUS
370
18
 62
9
100
AcDbLine
 10
199.100011
 20
-38.500020878
 30
0.0
 11
199.100011
 21
38.500020658
 31
0.0
  0
LINE
  5
B1B
330
1F
100
AcDbEntity
  8
INFTOTAL
  6
CONTINUOUS
370
18
 62
9
100
AcDbLine
 10
199.100011
 20
38.500020658
 30
0.0
 11
-26.40001100000001
 21
38.500020658
 31
0.0
  0
LINE
  5
B1C
330
1F
100
AcDbEntity
  8
INFTOTAL
  6
CONTINUOUS
370
18
 62
9
100
AcDbLine
 10
-26.40001100000001
 20
38.500020658
 30
0.0
 11
-26.40001100000001
 21
-38.500020878
 31
0.0
  0
ARC
  5
B1D
330
1F
100
AcDbEntity
  8
SK6
  6
CONTINUOUS
370
25
 62
5
100
AcDbCircle
 10
300.7613910083765
 20
-30.34527271338786
 30
0.0
 40
2.76048912849221
100
AcDbArc
 50
338.9379403434233
 51
90.44457437511392
  0
LINE
  5
B1E
330
1F
100
AcDbEntity
  8
SK6
  6
CONTINUOUS
370
25
 62
5
100
AcDbLine
 10
300.7399717969598
 20
-27.58486668421281
 30
0.0
 11
300.7399717969598
 21
-28.68792531613463
 31
0.0
  0
ARC
  5
B1F
330
1F
100
AcDbEntity
  8
SK6
  6
CONTINUOUS
370
25
 62
5
100
AcDbCircle
 10
300.7505180293692
 20
-30.36526620566821
 30
0.0
 40
1.677374043771805
100
AcDbArc
 50
243.4214706017851
 51
90.3602408122618
  0
ARC
  5
B20
330
1F
100
AcDbEntity
  8
SK6
  6
CONTINUOUS
370
25
 62
5
100
AcDbCircle
 10
303.2727688968496
 20
-29.93385895215561
 30
0.0
 40
3.800217030022785
100
AcDbArc
 50
210.5483731288537
 51
236.9780169366809
  0
LINE
  5
B21
330
1F
100
AcDbEntity
  8
SK6
  6
CONTINUOUS
370
25
 62
5
100
AcDbLine
 10
301.2017996851249
 20
-33.12019477867535
 30
0.0
 11
305.3437399674267
 21
-33.12019477867535
 31
0.0
  0
ARC
  5
B22
330
1F
100
AcDbEntity
  8
SK6
  6
CONTINUOUS
370
25
 62
5
100
AcDbCircle
 10
303.2727708387725
 20
-29.9338590537346
 30
0.0
 40
3.800216899582483
100
AcDbArc
 50
303.021982847796
 51
326.3732153033479
  0
LINE
  5
B23
330
1F
100
AcDbEntity
  8
SK6
  6
CONTINUOUS
370
25
 62
5
100
AcDbLine
 10
306.4370687513572
 20
-32.0383464507709
 30
0.0
 11
303.0797707057546
 21
-32.0383464507709
 31
0.0
  0
LINE
  5
B24
330
1F
100
AcDbEntity
  8
SK6
  6
CONTINUOUS
370
25
 62
5
100
AcDbLine
 10
303.0797707057546
 20
-32.0383464507709
 30
0.0
 11
306.9996300977199
 21
-30.67694525641694
 31
0.0
  0
ARC
  5
B25
330
1F
100
AcDbEntity
  8
SK6
  6
CONTINUOUS
370
25
 62
5
100
AcDbCircle
 10
303.2727715615721
 20
-29.9338595648594
 30
0.0
 40
3.800217216614765
100
AcDbArc
 50
348.7238644184696
 51
53.46910512608788
  0
LINE
  5
B26
330
1F
100
AcDbEntity
  8
SK6
  6
CONTINUOUS
370
25
 62
5
100
AcDbLine
 10
305.5348742453855
 20
-26.88024820429967
 30
0.0
 11
303.3374594788273
 21
-31.33733669507058
 31
0.0
  0
LINE
  5
B27
330
1F
100
AcDbEntity
  8
0
  6
cc_dim_arrow
 62
     4
100
AcDbLine
 10
35.95118560777957
 20
0.0
 30
0.0
 11
36.0
 21
-0.0488143922204269
 31
0.0
  0
LINE
  5
B28
330
1F
100
AcDbEntity
  8
0
  6
cc_dim_arrow
 62
     4
100
AcDbLine
 10
32.9399251315243
 20
-0.0771689363588064
 30
0.0
 11
33.0170940678831
 21
0.0
 31
0.0
  0
LINE
  5
B29
330
1F
100
AcDbEntity
  8
0
  6
cc_dim_arrow
 62
     4
100
AcDbLine
 10
36.0
 20
2.982905932116899
 30
0.0
 11
36.07716893635881
 21
3.060074868475706
 31
0.0
  0
LINE
  5
B2A
330
1F
100
AcDbEntity
  8
0
  6
cc_dim_arrow
 62
     4
100
AcDbLine
 10
36.0
 20
0.384288511256333
 30
0.0
 11
36.38428851125634
 21
0.0
 31
0.0
  0
LINE
  5
B2B
330
1F
100
AcDbEntity
  8
0
  6
cc_dim_arrow
 62
     4
100
AcDbLine
 10
35.61004945918235
 20
-3.037382353898634
 30
0.0
 11
36.0
 21
-2.647431813080986
 31
0.0
  0
LINE
  5
B2C
330
1F
100
AcDbEntity
  8
0
  6
cc_dim_arrow
 62
     4
100
AcDbLine
 10
38.64743181308098
 20
0.0
 30
0.0
 11
39.03738235389864
 21
0.3899505408176478
 31
0.0
  0
LINE
  5
B2D
330
1F
100
AcDbEntity
  8
0
  6
cc_dim_arrow
 62
     4
100
AcDbLine
 10
32.97596630639492
 20
-0.4742306649649457
 30
0.0
 11
33.45019697135987
 21
0.0
 31
0.0
  0
LINE
  5
B2E
330
1F
100
AcDbEntity
  8
0
  6
cc_dim_arrow
 62
     4
100
AcDbLine
 10
36.0
 20
2.549803028640136
 30
0.0
 11
36.47423066496494
 21
3.024033693605082
 31
0.0
  0
LINE
  5
B2F
330
1F
100
AcDbEntity
  8
0
  6
cc_dim_arrow
 62
     4
100
AcDbLine
 10
35.51808270430281
 20
0.0
 30
0.0
 11
36.0
 21
-0.4819172956971869
 31
0.0
  0
LINE
  5
B30
330
1F
100
AcDbEntity
  8
0
  6
cc_dim_arrow
 62
     4
100
AcDbLine
 10
37.82018752194426
 20
2.462027120602918
 30
0.0
 11
38.46202712060292
 21
1.820187521944262
 31
0.0
  0
LINE
  5
B31
330
1F
100
AcDbEntity
  8
0
  6
cc_dim_arrow
 62
     4
100
AcDbLine
 10
35.24627896481093
 20
-2.968049944793296
 30
0.0
 11
36.0
 21
-2.214328909604226
 31
0.0
  0
LINE
  5
B32
330
1F
100
AcDbEntity
  8
0
  6
cc_dim_arrow
 62
     4
100
AcDbLine
 10
38.21432890960423
 20
0.0
 30
0.0
 11
38.96804994479329
 21
0.75372103518907
 31
0.0
  0
LINE
  5
B33
330
1F
100
AcDbEntity
  8
0
  6
cc_dim_arrow
 62
     4
100
AcDbLine
 10
36.0
 20
0.8173914147330921
 30
0.0
 11
36.81739141473309
 21
0.0
 31
0.0
  0
LINE
  5
B34
330
1F
100
AcDbEntity
  8
0
  6
cc_dim_arrow
 62
     4
100
AcDbLine
 10
33.05351879196703
 20
-0.8297810828695971
 30
0.0
 11
33.88329987483662
 21
0.0
 31
0.0
  0
LINE
  5
B35
330
1F
100
AcDbEntity
  8
0
  6
cc_dim_arrow
 62
     4
100
AcDbLine
 10
36.0
 20
2.116700125163375
 30
0.0
 11
36.82978108286959
 21
2.946481208032972
 31
0.0
  0
LINE
  5
B36
330
1F
100
AcDbEntity
  8
0
  6
cc_dim_arrow
 62
     4
100
AcDbLine
 10
35.08497980082605
 20
0.0
 30
0.0
 11
36.0
 21
-0.915020199173946
 31
0.0
  0
LINE
  5
B37
330
1F
100
AcDbEntity
  8
0
  6
cc_dim_arrow
 62
     4
100
AcDbLine
 10
34.9175935311948
 20
-2.863632474932658
 30
0.0
 11
36.0
 21
-1.781226006127464
 31
0.0
  0
LINE
  5
B38
330
1F
100
AcDbEntity
  8
0
  6
cc_dim_arrow
 62
     4
100
AcDbLine
 10
37.78122600612746
 20
0.0
 30
0.0
 11
38.86363247493266
 21
1.082406468805194
 31
0.0
  0
LINE
  5
B39
330
1F
100
AcDbEntity
  8
0
  6
cc_dim_arrow
 62
     4
100
AcDbLine
 10
33.16357229520479
 20
-1.152830483108593
 30
0.0
 11
34.31640277831338
 21
0.0
 31
0.0
  0
LINE
  5
B3A
330
1F
100
AcDbEntity
  8
0
  6
cc_dim_arrow
 62
     4
100
AcDbLine
 10
36.0
 20
1.683597221686615
 30
0.0
 11
37.15283048310859
 21
2.836427704795208
 31
0.0
  0
LINE
  5
B3B
330
1F
100
AcDbEntity
  8
0
  6
cc_dim_arrow
 62
     4
100
AcDbLine
 10
36.0
 20
1.250494318209852
 30
0.0
 11
37.25049431820985
 21
0.0
 31
0.0
  0
LINE
  5
B3C
330
1F
100
AcDbEntity
  8
0
  6
cc_dim_arrow
 62
     4
100
AcDbLine
 10
34.65187689734929
 20
0.0
 30
0.0
 11
36.0
 21
-1.348123102650706
 31
0.0
  0
LINE
  5
B3D
330
1F
100
AcDbEntity
  8
0
  6
cc_dim_arrow
 62
     4
100
AcDbLine
 10
34.61724425544239
 20
-2.730878847208312
 30
0.0
 11
36.0
 21
-1.348123102650704
 31
0.0
  0
LINE
  5
B3E
330
1F
100
AcDbEntity
  8
0
  6
cc_dim_arrow
 62
     4
100
AcDbLine
 10
37.3481231026507
 20
0.0
 30
0.0
 11
38.73087884720831
 21
1.382755744557608
 31
0.0
  0
LINE
  5
B3F
330
1F
100
AcDbEntity
  8
0
  6
cc_dim_arrow
 62
     4
100
AcDbLine
 10
33.30207478752006
 20
-1.447430894270086
 30
0.0
 11
34.74950568179015
 21
0.0
 31
0.0
  0
LINE
  5
B40
330
1F
100
AcDbEntity
  8
0
  6
cc_dim_arrow
 62
     4
100
AcDbLine
 10
36.0
 20
1.250494318209856
 30
0.0
 11
37.44743089427008
 21
2.697925212479942
 31
0.0
  0
LINE
  5
B41
330
1F
100
AcDbEntity
  8
0
  6
cc_dim_arrow
 62
     4
100
AcDbLine
 10
34.34130924158598
 20
-2.573710957587966
 30
0.0
 11
36.0
 21
-0.9150201991739442
 31
0.0
  0
LINE
  5
B42
330
1F
100
AcDbEntity
  8
0
  6
cc_dim_arrow
 62
     4
100
AcDbLine
 10
36.91502019917395
 20
0.0
 30
0.0
 11
38.57371095758796
 21
1.658690758414021
 31
0.0
  0
LINE
  5
B43
330
1F
100
AcDbEntity
  8
0
  6
cc_dim_arrow
 62
     4
100
AcDbLine
 10
36.0
 20
1.683597221686613
 30
0.0
 11
37.68359722168661
 21
0.0
 31
0.0
  0
LINE
  5
B44
330
1F
100
AcDbEntity
  8
0
  6
cc_dim_arrow
 62
     4
100
AcDbLine
 10
33.46579159130131
 20
-1.71681699396559
 30
0.0
 11
35.18260858526691
 21
0.0
 31
0.0
  0
LINE
  5
B45
330
1F
100
AcDbEntity
  8
0
  6
cc_dim_arrow
 62
     4
100
AcDbLine
 10
36.0
 20
0.8173914147330956
 30
0.0
 11
37.71681699396559
 21
2.534208408698686
 31
0.0
  0
LINE
  5
B46
330
1F
100
AcDbEntity
  8
0
  6
cc_dim_arrow
 62
     4
100
AcDbLine
 10
33.13676220163594
 20
-1.08350272514721
 30
0.0
 11
34.91649727485279
 21
-2.863237798364062
 31
0.0
  0
LINE
  5
B47
330
1F
100
AcDbEntity
  8
0
  6
cc_dim_arrow
 62
     4
100
AcDbLine
 10
34.21877399387253
 20
0.0
 30
0.0
 11
36.0
 21
-1.781226006127466
 31
0.0
  0
LINE
  5
B48
330
1F
100
AcDbEntity
  8
0
  6
cc_dim_arrow
 62
     4
100
AcDbLine
 10
34.0897498840086
 20
-2.392167411688578
 30
0.0
 11
36.0
 21
-0.4819172956971842
 31
0.0
  0
LINE
  5
B49
330
1F
100
AcDbEntity
  8
0
  6
cc_dim_arrow
 62
     4
100
AcDbLine
 10
36.48191729569719
 20
0.0
 30
0.0
 11
38.39216741168858
 21
1.910250115991393
 31
0.0
  0
LINE
  5
B4A
330
1F
100
AcDbEntity
  8
0
  6
cc_dim_arrow
 62
     4
100
AcDbLine
 10
33.65121898530775
 20
-1.964492503435912
 30
0.0
 11
35.61571148874366
 21
0.0
 31
0.0
  0
LINE
  5
B4B
330
1F
100
AcDbEntity
  8
0
  6
cc_dim_arrow
 62
     4
100
AcDbLine
 10
36.0
 20
0.3842885112563357
 30
0.0
 11
37.96449250343591
 21
2.348781014692249
 31
0.0
  0
LINE
  5
B4C
330
1F
100
AcDbEntity
  8
0
  6
cc_dim_arrow
 62
     4
100
AcDbLine
 10
36.93246213409626
 20
2.916649604974163
 30
0.0
 11
38.91664960497416
 21
0.9324621340962582
 31
0.0
  0
LINE
  5
B4D
330
1F
100
AcDbEntity
  8
0
  6
cc_dim_arrow
 62
     4
100
AcDbLine
 10
36.0
 20
2.116700125163374
 30
0.0
 11
38.11670012516338
 21
0.0
 31
0.0
  0
LINE
  5
B4E
330
1F
100
AcDbEntity
  8
0
  6
cc_dim_arrow
 62
     4
100
AcDbLine
 10
33.85996122941787
 20
-2.188853162802553
 30
0.0
 11
36.0
 21
-0.0488143922204243
 31
0.0
  0
LINE
  5
B4F
330
1F
100
AcDbEntity
  8
0
  6
cc_dim_arrow
 62
     4
100
AcDbLine
 10
36.04881439222042
 20
0.0
 30
0.0
 11
38.18885316280255
 21
2.140038770582128
 31
0.0
  0
LINE
  5
B50
330
1F
100
AcDbEntity
  8
0
  6
cc_dim_arrow
 62
     4
100
AcDbLine
 10
33.78567109039577
 20
0.0
 30
0.0
 11
36.0
 21
-2.214328909604225
 31
0.0
  0
LINE
  5
B51
330
1F
100
AcDbEntity
  8
0
  6
cc_dim_arrow
 62
     4
100
AcDbLine
 10
32.97885941523187
 20
-0.4924970352663824
 30
0.0
 11
35.50750296473362
 21
-3.021140584768129
 31
0.0
  0
LINE
  5
B52
330
1F
100
AcDbEntity
  8
0
  6
cc_dim_arrow
 62
     4
100
AcDbLine
 10
36.0
 20
2.549803028640134
 30
0.0
 11
38.54980302864013
 21
0.0
 31
0.0
  0
LINE
  5
B53
330
1F
100
AcDbEntity
  8
0
  6
cc_dim_arrow
 62
     4
100
AcDbLine
 10
33.35256818691901
 20
0.0
 30
0.0
 11
36.0
 21
-2.647431813080986
 31
0.0
  0
LINE
  5
B54
330
1F
100
AcDbEntity
  8
0
  6
cc_dim_arrow
 62
     4
100
AcDbLine
 10
36.37701286789481
 20
3.038995967698841
 30
0.0
 11
39.03899596769884
 21
0.3770128678948184
 31
0.0
  0
LINE
  5
B55
330
1F
100
AcDbEntity
  8
0
  6
cc_dim_arrow
 62
     4
100
AcDbLine
 10
36.0
 20
2.982905932116894
 30
0.0
 11
38.9829059321169
 21
0.0
 31
0.0
  0
LINE
  5
B56
330
1F
100
AcDbEntity
  8
0
  6
cc_dim_arrow
 62
     4
100
AcDbLine
 10
32.93808515297358
 20
-0.018619869531336
 30
0.0
 11
35.98138013046866
 21
-3.061914847026416
 31
0.0
  0
ENDSEC
  0
SECTION
  2
OBJECTS
  0
DICTIONARY
  5
C
330
0
100
AcDbDictionary
281
     1
  3
ACAD_GROUP
350
D
  3
ACAD_LAYOUT
350
1A
  3
ACAD_MATERIAL
350
3B
  3
ACAD_MLEADERSTYLE
350
B59
  3
ACAD_MLINESTYLE
350
17
  3
ACAD_PLOTSETTINGS
350
19
  3
ACAD_PLOTSTYLENAME
350
E
  3
ACAD_SCALELIST
350
3C1
  3
ACAD_VISUALSTYLE
350
2A
  3
AcDbVariableDictionary
350
B57
  0
DICTIONARY
  5
D
102
{ACAD_REACTORS
330
C
102
}
330
C
100
AcDbDictionary
281
     1
  0
DICTIONARY
  5
1A
102
{ACAD_REACTORS
330
C
102
}
330
C
100
AcDbDictionary
281
     1
  3
Layout1
350
1E
  3
Layout2
350
26
  3
Model
350
22
  0
DICTIONARY
  5
3B
102
{ACAD_REACTORS
330
C
102
}
330
C
100
AcDbDictionary
281
     1
  3
ByBlock
350
3D
  3
ByLayer
350
3C
  3
Global
350
3E
  0
DICTIONARY
  5
B59
102
{ACAD_REACTORS
330
C
102
}
330
C
100
AcDbDictionary
281
     1
  0
DICTIONARY
  5
17
102
{ACAD_REACTORS
330
C
102
}
330
C
100
AcDbDictionary
281
     1
  3
Standard
350
18
  0
DICTIONARY
  5
19
102
{ACAD_REACTORS
330
C
102
}
330
C
100
AcDbDictionary
281
     1
  0
ACDBDICTIONARYWDFLT
  5
E
102
{ACAD_REACTORS
330
C
102
}
330
C
100
AcDbDictionary
281
     1
  3
Normal
350
F
100
AcDbDictionaryWithDefault
340
F
  0
DICTIONARY
  5
3C1
102
{ACAD_REACTORS
330
C
102
}
330
C
100
AcDbDictionary
281
     1
  3
A0
350
3C2
  3
A1
350
3C3
  3
A2
350
3C4
  3
A3
350
3C5
  3
A4
350
3C6
  3
A5
350
3C7
  3
A6
350
3C8
  3
A7
350
3C9
  3
A8
350
3CA
  3
A9
350
3CB
  3
B0
350
3CC
  3
B1
350
3CD
  3
B2
350
3CE
  3
B3
350
3CF
  3
B4
350
3D0
  3
B5
350
3D1
  3
B6
350
3D2
  3
B7
350
3D3
  3
B8
350
3D4
  3
B9
350
3D5
  3
C0
350
3D6
  3
C1
350
3D7
  3
C2
350
3D8
  3
C3
350
3D9
  3
C4
350
3DA
  3
C5
350
3DB
  3
C6
350
3DC
  3
C7
350
3DD
  3
C8
350
3DE
  3
C9
350
3DF
  3
D0
350
3E0
  3
D1
350
3E1
  3
D2
350
3E2
  0
DICTIONARY
  5
2A
102
{ACAD_REACTORS
330
C
102
}
330
C
100
AcDbDictionary
281
     1
  3
2dWireframe
350
2F
  3
3D Hidden
350
31
  3
3dWireframe
350
30
  3
Basic
350
32
  3
Brighten
350
36
  3
ColorChange
350
3A
  3
Conceptual
350
34
  3
Dim
350
35
  3
Facepattern
350
39
  3
Flat
350
2B
  3
FlatWithEdges
350
2C
  3
Gouraud
350
2D
  3
GouraudWithEdges
350
2E
  3
Linepattern
350
38
  3
Realistic
350
33
  3
Thicken
350
37
  0
DICTIONARY
  5
B57
102
{ACAD_REACTORS
330
C
102
}
330
C
100
AcDbDictionary
281
     1
  3
CANNOSCALE
350
B5C
  3
DIMASSOC
350
B5D
  3
HIDETEXT
350
B5E
  3
PSOLHEIGHT
350
B5B
  3
PSOLWIDTH
350
B5A
  0
LAYOUT
  5
1E
102
{ACAD_REACTORS
330
1A
102
}
330
1A
100
AcDbPlotSettings
  1

  2
none_device
  4

  6

 40
0.0
 41
0.0
 42
0.0
 43
0.0
 44
0.0
 45
0.0
 46
0.0
 47
0.0
 48
0.0
 49
0.0
140
0.0
141
0.0
142
1.0
143
1.0
 70
   688
 72
     0
 73
     0
 74
     5
  7

 75
    16
147
1.0
148
0.0
149
0.0
100
AcDbLayout
  1
Layout1
 70
     1
 71
     1
 10
0.0
 20
0.0
 11
420.0
 21
297.0
 12
0.0
 22
0.0
 32
0.0
 14
1.000000000000000E+20
 24
1.000000000000000E+20
 34
1.000000000000000E+20
 15
-1.000000000000000E+20
 25
-1.000000000000000E+20
 35
-1.000000000000000E+20
146
0.0
 13
0.0
 23
0.0
 33
0.0
 16
1.0
 26
0.0
 36
0.0
 17
0.0
 27
1.0
 37
0.0
 76
     0
330
1B
  0
LAYOUT
  5
26
102
{ACAD_REACTORS
330
1A
102
}
330
1A
100
AcDbPlotSettings
  1

  2
none_device
  4

  6

 40
0.0
 41
0.0
 42
0.0
 43
0.0
 44
0.0
 45
0.0
 46
0.0
 47
0.0
 48
0.0
 49
0.0
140
0.0
141
0.0
142
1.0
143
1.0
 70
   688
 72
     0
 73
     0
 74
     5
  7

 75
    16
147
1.0
148
0.0
149
0.0
100
AcDbLayout
  1
Layout2
 70
     1
 71
     2
 10
0.0
 20
0.0
 11
0.0
 21
0.0
 12
0.0
 22
0.0
 32
0.0
 14
0.0
 24
0.0
 34
0.0
 15
0.0
 25
0.0
 35
0.0
146
0.0
 13
0.0
 23
0.0
 33
0.0
 16
1.0
 26
0.0
 36
0.0
 17
0.0
 27
1.0
 37
0.0
 76
     0
330
23
  0
LAYOUT
  5
22
102
{ACAD_REACTORS
330
1A
102
}
330
1A
100
AcDbPlotSettings
  1

  2
none_device
  4

  6

 40
0.0
 41
0.0
 42
0.0
 43
0.0
 44
0.0
 45
0.0
 46
0.0
 47
0.0
 48
0.0
 49
0.0
140
0.0
141
0.0
142
1.0
143
1.0
 70
  1712
 72
     0
 73
     0
 74
     0
  7

 75
     0
147
1.0
148
0.0
149
0.0
100
AcDbLayout
  1
Model
 70
     1
 71
     0
 10
0.0
 20
0.0
 11
420.0
 21
297.0
 12
0.0
 22
0.0
 32
0.0
 14
0.0
 24
0.0
 34
0.0
 15
25.0
 25
35.0
 35
0.0
146
0.0
 13
0.0
 23
0.0
 33
0.0
 16
1.0
 26
0.0
 36
0.0
 17
0.0
 27
1.0
 37
0.0
 76
     0
330
1F
331
29
  0
MATERIAL
  5
3D
102
{ACAD_REACTORS
330
3B
102
}
102
{ACAD_XDICTIONARY
360
B81
102
}
330
3B
100
AcDbMaterial
  1
ByBlock
  0
MATERIAL
  5
3C
102
{ACAD_REACTORS
330
3B
102
}
102
{ACAD_XDICTIONARY
360
B7F
102
}
330
3B
100
AcDbMaterial
  1
ByLayer
  0
MATERIAL
  5
3E
102
{ACAD_REACTORS
330
3B
102
}
102
{ACAD_XDICTIONARY
360
B83
102
}
330
3B
100
AcDbMaterial
  1
Global
  0
MLINESTYLE
  5
18
102
{ACAD_REACTORS
330
17
102
}
330
17
100
AcDbMlineStyle
  2
Standard
 70
     0
  3

 62
   256
 51
90.0
 52
90.0
 71
     2
 49
0.5
 62
   256
  6
BYLAYER
 49
-0.5
 62
   256
  6
BYLAYER
  0
ACDBPLACEHOLDER
  5
F
102
{ACAD_REACTORS
330
E
102
}
330
E
  0
SCALE
  5
3C2
102
{ACAD_REACTORS
330
3C1
102
}
330
3C1
100
AcDbScale
 70
     0
300
1:1
140
1.0
141
1.0
290
     1
  0
SCALE
  5
3C3
102
{ACAD_REACTORS
330
3C1
102
}
330
3C1
100
AcDbScale
 70
     0
300
1:2
140
1.0
141
2.0
290
     0
  0
SCALE
  5
3C4
102
{ACAD_REACTORS
330
3C1
102
}
330
3C1
100
AcDbScale
 70
     0
300
1:4
140
1.0
141
4.0
290
     0
  0
SCALE
  5
3C5
102
{ACAD_REACTORS
330
3C1
102
}
330
3C1
100
AcDbScale
 70
     0
300
1:5
140
1.0
141
5.0
290
     0
  0
SCALE
  5
3C6
102
{ACAD_REACTORS
330
3C1
102
}
330
3C1
100
AcDbScale
 70
     0
300
1:8
140
1.0
141
8.0
290
     0
  0
SCALE
  5
3C7
102
{ACAD_REACTORS
330
3C1
102
}
330
3C1
100
AcDbScale
 70
     0
300
1:10
140
1.0
141
10.0
290
     0
  0
SCALE
  5
3C8
102
{ACAD_REACTORS
330
3C1
102
}
330
3C1
100
AcDbScale
 70
     0
300
1:16
140
1.0
141
16.0
290
     0
  0
SCALE
  5
3C9
102
{ACAD_REACTORS
330
3C1
102
}
330
3C1
100
AcDbScale
 70
     0
300
1:20
140
1.0
141
20.0
290
     0
  0
SCALE
  5
3CA
102
{ACAD_REACTORS
330
3C1
102
}
330
3C1
100
AcDbScale
 70
     0
300
1:30
140
1.0
141
30.0
290
     0
  0
SCALE
  5
3CB
102
{ACAD_REACTORS
330
3C1
102
}
330
3C1
100
AcDbScale
 70
     0
300
1:40
140
1.0
141
40.0
290
     0
  0
SCALE
  5
3CC
102
{ACAD_REACTORS
330
3C1
102
}
330
3C1
100
AcDbScale
 70
     0
300
1:50
140
1.0
141
50.0
290
     0
  0
SCALE
  5
3CD
102
{ACAD_REACTORS
330
3C1
102
}
330
3C1
100
AcDbScale
 70
     0
300
1:100
140
1.0
141
100.0
290
     0
  0
SCALE
  5
3CE
102
{ACAD_REACTORS
330
3C1
102
}
330
3C1
100
AcDbScale
 70
     0
300
2:1
140
2.0
141
1.0
290
     0
  0
SCALE
  5
3CF
102
{ACAD_REACTORS
330
3C1
102
}
330
3C1
100
AcDbScale
 70
     0
300
4:1
140
4.0
141
1.0
290
     0
  0
SCALE
  5
3D0
102
{ACAD_REACTORS
330
3C1
102
}
330
3C1
100
AcDbScale
 70
     0
300
8:1
140
8.0
141
1.0
290
     0
  0
SCALE
  5
3D1
102
{ACAD_REACTORS
330
3C1
102
}
330
3C1
100
AcDbScale
 70
     0
300
10:1
140
10.0
141
1.0
290
     0
  0
SCALE
  5
3D2
102
{ACAD_REACTORS
330
3C1
102
}
330
3C1
100
AcDbScale
 70
     0
300
100:1
140
100.0
141
1.0
290
     0
  0
SCALE
  5
3D3
102
{ACAD_REACTORS
330
3C1
102
}
330
3C1
100
AcDbScale
 70
     0
300
1/128" = 1'-0"
140
0.0078125
141
12.0
290
     0
  0
SCALE
  5
3D4
102
{ACAD_REACTORS
330
3C1
102
}
330
3C1
100
AcDbScale
 70
     0
300
1/64" = 1'-0"
140
0.015625
141
12.0
290
     0
  0
SCALE
  5
3D5
102
{ACAD_REACTORS
330
3C1
102
}
330
3C1
100
AcDbScale
 70
     0
300
1/32" = 1'-0"
140
0.03125
141
12.0
290
     0
  0
SCALE
  5
3D6
102
{ACAD_REACTORS
330
3C1
102
}
330
3C1
100
AcDbScale
 70
     0
300
1/16" = 1'-0"
140
0.0625
141
12.0
290
     0
  0
SCALE
  5
3D7
102
{ACAD_REACTORS
330
3C1
102
}
330
3C1
100
AcDbScale
 70
     0
300
3/32" = 1'-0"
140
0.09375
141
12.0
290
     0
  0
SCALE
  5
3D8
102
{ACAD_REACTORS
330
3C1
102
}
330
3C1
100
AcDbScale
 70
     0
300
1/8" = 1'-0"
140
0.125
141
12.0
290
     0
  0
SCALE
  5
3D9
102
{ACAD_REACTORS
330
3C1
102
}
330
3C1
100
AcDbScale
 70
     0
300
3/16" = 1'-0"
140
0.1875
141
12.0
290
     0
  0
SCALE
  5
3DA
102
{ACAD_REACTORS
330
3C1
102
}
330
3C1
100
AcDbScale
 70
     0
300
1/4" = 1'-0"
140
0.25
141
12.0
290
     0
  0
SCALE
  5
3DB
102
{ACAD_REACTORS
330
3C1
102
}
330
3C1
100
AcDbScale
 70
     0
300
3/8" = 1'-0"
140
0.375
141
12.0
290
     0
  0
SCALE
  5
3DC
102
{ACAD_REACTORS
330
3C1
102
}
330
3C1
100
AcDbScale
 70
     0
300
1/2" = 1'-0"
140
0.5
141
12.0
290
     0
  0
SCALE
  5
3DD
102
{ACAD_REACTORS
330
3C1
102
}
330
3C1
100
AcDbScale
 70
     0
300
3/4" = 1'-0"
140
0.75
141
12.0
290
     0
  0
SCALE
  5
3DE
102
{ACAD_REACTORS
330
3C1
102
}
330
3C1
100
AcDbScale
 70
     0
300
1" = 1'-0"
140
1.0
141
12.0
290
     0
  0
SCALE
  5
3DF
102
{ACAD_REACTORS
330
3C1
102
}
330
3C1
100
AcDbScale
 70
     0
300
1-1/2" = 1'-0"
140
1.5
141
12.0
290
     0
  0
SCALE
  5
3E0
102
{ACAD_REACTORS
330
3C1
102
}
330
3C1
100
AcDbScale
 70
     0
300
3" = 1'-0"
140
3.0
141
12.0
290
     0
  0
SCALE
  5
3E1
102
{ACAD_REACTORS
330
3C1
102
}
330
3C1
100
AcDbScale
 70
     0
300
6" = 1'-0"
140
6.0
141
12.0
290
     0
  0
SCALE
  5
3E2
102
{ACAD_REACTORS
330
3C1
102
}
330
3C1
100
AcDbScale
 70
     0
300
1'-0" = 1'-0"
140
12.0
141
12.0
290
     0
  0
VISUALSTYLE
  5
2F
102
{ACAD_REACTORS
330
2A
102
}
102
{ACAD_XDICTIONARY
360
B67
102
}
330
2A
100
AcDbVisualStyle
  2
2dWireframe
 70
     4
 71
     0
 72
     2
 73
     0
 90
        0
 40
-0.6
 41
-30.0
 62
     5
 63
     7
 74
     1
 91
        4
 64
     7
 65
   257
 75
     1
175
     1
 42
1.0
 92
        0
 66
   257
 43
1.0
 76
     1
 77
     6
 78
     2
 67
     7
 79
     5
170
     0
171
     0
290
     0
174
     0
 93
        1
 44
0.0
173
     0
291
     0
 45
0.0
1001
ACAD
1000
AcDbSavedByObjectVersion
1070
     0
  0
VISUALSTYLE
  5
31
102
{ACAD_REACTORS
330
2A
102
}
102
{ACAD_XDICTIONARY
360
B6B
102
}
330
2A
100
AcDbVisualStyle
  2
3D Hidden
 70
     6
 71
     1
 72
     2
 73
     2
 90
        0
 40
-0.6
 41
-30.0
 62
     5
 63
     7
 74
     2
 91
        2
 64
     7
 65
   257
 75
     2
175
     1
 42
40.0
 92
        0
 66
   257
 43
1.0
 76
     1
 77
     6
 78
     2
 67
     7
 79
     3
170
     0
171
     0
290
     0
174
     0
 93
        1
 44
0.0
173
     0
291
     0
 45
0.0
1001
ACAD
1000
AcDbSavedByObjectVersion
1070
     0
  0
VISUALSTYLE
  5
30
102
{ACAD_REACTORS
330
2A
102
}
102
{ACAD_XDICTIONARY
360
B69
102
}
330
2A
100
AcDbVisualStyle
  2
3dWireframe
 70
     5
 71
     0
 72
     2
 73
     0
 90
        0
 40
-0.6
 41
-30.0
 62
     5
 63
     7
 74
     1
 91
        4
 64
     7
 65
   257
 75
     1
175
     1
 42
1.0
 92
        0
 66
   257
 43
1.0
 76
     1
 77
     6
 78
     2
 67
     7
 79
     5
170
     0
171
     0
290
     0
174
     0
 93
        1
 44
0.0
173
     0
291
     0
 45
0.0
1001
ACAD
1000
AcDbSavedByObjectVersion
1070
     0
  0
VISUALSTYLE
  5
32
102
{ACAD_REACTORS
330
2A
102
}
102
{ACAD_XDICTIONARY
360
B6D
102
}
330
2A
100
AcDbVisualStyle
  2
Basic
 70
     7
 71
     1
 72
     0
 73
     1
 90
        0
 40
-0.6
 41
-30.0
 62
     5
 63
     7
 74
     0
 91
        4
 64
     7
 65
   257
 75
     1
175
     1
 42
1.0
 92
        8
 66
     7
 43
1.0
 76
     1
 77
     6
 78
     2
 67
     7
 79
     5
170
     0
171
     0
290
     0
174
     0
 93
        1
 44
0.0
173
     0
291
     1
 45
0.0
1001
ACAD
1000
AcDbSavedByObjectVersion
1070
     0
  0
VISUALSTYLE
  5
36
102
{ACAD_REACTORS
330
2A
102
}
102
{ACAD_XDICTIONARY
360
B75
102
}
330
2A
100
AcDbVisualStyle
  2
Brighten
 70
    12
 71
     2
 72
     2
 73
     0
 90
        0
 40
-0.6
 41
-30.0
 62
     5
 63
     7
 74
     1
 91
        4
 64
     7
 65
   257
 75
     1
175
     1
 42
1.0
 92
        8
 66
     7
 43
1.0
 76
     1
 77
     6
 78
     2
 67
     7
 79
     5
170
     0
171
     0
290
     0
174
     0
 93
        1
 44
50.0
173
     0
291
     1
 45
0.0
1001
ACAD
1000
AcDbSavedByObjectVersion
1070
     0
  0
VISUALSTYLE
  5
3A
102
{ACAD_REACTORS
330
2A
102
}
102
{ACAD_XDICTIONARY
360
B7D
102
}
330
2A
100
AcDbVisualStyle
  2
ColorChange
 70
    16
 71
     2
 72
     2
 73
     3
 90
        0
 40
-0.6
 41
-30.0
 62
     5
 63
     8
 74
     1
 91
        4
 64
     7
 65
   257
 75
     1
175
     1
 42
1.0
 92
        8
 66
     8
 43
1.0
 76
     1
 77
     6
 78
     2
 67
     7
 79
     5
170
     0
171
     0
290
     0
174
     0
 93
        1
 44
0.0
173
     0
291
     1
 45
0.0
1001
ACAD
1000
AcDbSavedByObjectVersion
1070
     0
  0
VISUALSTYLE
  5
34
102
{ACAD_REACTORS
330
2A
102
}
102
{ACAD_XDICTIONARY
360
B71
102
}
330
2A
100
AcDbVisualStyle
  2
Conceptual
 70
     9
 71
     3
 72
     2
 73
     0
 90
        0
 40
-0.6
 41
-30.0
 62
     5
 63
     7
 74
     2
 91
        2
 64
     7
 65
   257
 75
     1
175
     1
 42
40.0
 92
        8
 66
     7
 43
1.0
 76
     1
 77
     6
 78
     2
 67
     7
 79
     3
170
     0
171
     0
290
     0
174
     0
 93
        1
 44
0.0
173
     0
291
     0
 45
0.0
1001
ACAD
1000
AcDbSavedByObjectVersion
1070
     0
  0
VISUALSTYLE
  5
35
102
{ACAD_REACTORS
330
2A
102
}
102
{ACAD_XDICTIONARY
360
B73
102
}
330
2A
100
AcDbVisualStyle
  2
Dim
 70
    11
 71
     2
 72
     2
 73
     0
 90
        0
 40
-0.6
 41
-30.0
 62
     5
 63
     7
 74
     1
 91
        4
 64
     7
 65
   257
 75
     1
175
     1
 42
1.0
 92
        8
 66
     7
 43
1.0
 76
     1
 77
     6
 78
     2
 67
     7
 79
     5
170
     0
171
     0
290
     0
174
     0
 93
        1
 44
-50.0
173
     0
291
     1
 45
0.0
1001
ACAD
1000
AcDbSavedByObjectVersion
1070
     0
  0
VISUALSTYLE
  5
39
102
{ACAD_REACTORS
330
2A
102
}
102
{ACAD_XDICTIONARY
360
B7B
102
}
330
2A
100
AcDbVisualStyle
  2
Facepattern
 70
    15
 71
     2
 72
     2
 73
     0
 90
        0
 40
-0.6
 41
-30.0
 62
     5
 63
     7
 74
     1
 91
        4
 64
     7
 65
   257
 75
     1
175
     1
 42
1.0
 92
        8
 66
     7
 43
1.0
 76
     1
 77
     6
 78
     2
 67
     7
 79
     5
170
     0
171
     0
290
     0
174
     0
 93
        1
 44
0.0
173
     0
291
     1
 45
0.0
1001
ACAD
1000
AcDbSavedByObjectVersion
1070
     0
  0
VISUALSTYLE
  5
2B
102
{ACAD_REACTORS
330
2A
102
}
102
{ACAD_XDICTIONARY
360
B5F
102
}
330
2A
100
AcDbVisualStyle
  2
Flat
 70
     0
 71
     2
 72
     1
 73
     1
 90
        2
 40
-0.6
 41
30.0
 62
     5
 63
     7
 74
     0
 91
        4
 64
     7
 65
   257
 75
     1
175
     1
 42
1.0
 92
        8
 66
     7
 43
1.0
 76
     1
 77
     6
 78
     2
 67
     7
 79
     5
170
     0
171
     0
290
     0
174
     0
 93
       13
 44
0.0
173
     0
291
     1
 45
0.0
1001
ACAD
1000
AcDbSavedByObjectVersion
1070
     0
  0
VISUALSTYLE
  5
2C
102
{ACAD_REACTORS
330
2A
102
}
102
{ACAD_XDICTIONARY
360
B61
102
}
330
2A
100
AcDbVisualStyle
  2
FlatWithEdges
 70
     1
 71
     2
 72
     1
 73
     1
 90
        2
 40
-0.6
 41
30.0
 62
     5
 63
     7
 74
     1
 91
        4
 64
     7
 65
   257
 75
     1
175
     1
 42
1.0
 92
        0
 66
   257
 43
1.0
 76
     1
 77
     6
 78
     2
 67
     7
 79
     5
170
     0
171
     0
290
     0
174
     0
 93
       13
 44
0.0
173
     0
291
     1
 45
0.0
1001
ACAD
1000
AcDbSavedByObjectVersion
1070
     0
  0
VISUALSTYLE
  5
2D
102
{ACAD_REACTORS
330
2A
102
}
102
{ACAD_XDICTIONARY
360
B63
102
}
330
2A
100
AcDbVisualStyle
  2
Gouraud
 70
     2
 71
     2
 72
     2
 73
     1
 90
        2
 40
-0.6
 41
30.0
 62
     5
 63
     7
 74
     0
 91
        4
 64
     7
 65
   257
 75
     1
175
     1
 42
1.0
 92
        0
 66
     7
 43
1.0
 76
     1
 77
     6
 78
     2
 67
     7
 79
     5
170
     0
171
     0
290
     0
174
     0
 93
       13
 44
0.0
173
     0
291
     1
 45
0.0
1001
ACAD
1000
AcDbSavedByObjectVersion
1070
     0
  0
VISUALSTYLE
  5
2E
102
{ACAD_REACTORS
330
2A
102
}
102
{ACAD_XDICTIONARY
360
B65
102
}
330
2A
100
AcDbVisualStyle
  2
GouraudWithEdges
 70
     3
 71
     2
 72
     2
 73
     1
 90
        2
 40
-0.6
 41
30.0
 62
     5
 63
     7
 74
     1
 91
        4
 64
     7
 65
   257
 75
     1
175
     1
 42
1.0
 92
        0
 66
   257
 43
1.0
 76
     1
 77
     6
 78
     2
 67
     7
 79
     5
170
     0
171
     0
290
     0
174
     0
 93
       13
 44
0.0
173
     0
291
     1
 45
0.0
1001
ACAD
1000
AcDbSavedByObjectVersion
1070
     0
  0
VISUALSTYLE
  5
38
102
{ACAD_REACTORS
330
2A
102
}
102
{ACAD_XDICTIONARY
360
B79
102
}
330
2A
100
AcDbVisualStyle
  2
Linepattern
 70
    14
 71
     2
 72
     2
 73
     0
 90
        0
 40
-0.6
 41
-30.0
 62
     5
 63
     7
 74
     1
 91
        4
 64
     7
 65
   257
 75
     7
175
     7
 42
1.0
 92
        8
 66
     7
 43
1.0
 76
     1
 77
     6
 78
     2
 67
     7
 79
     5
170
     0
171
     0
290
     0
174
     0
 93
        1
 44
0.0
173
     0
291
     1
 45
0.0
1001
ACAD
1000
AcDbSavedByObjectVersion
1070
     0
  0
VISUALSTYLE
  5
33
102
{ACAD_REACTORS
330
2A
102
}
102
{ACAD_XDICTIONARY
360
B6F
102
}
330
2A
100
AcDbVisualStyle
  2
Realistic
 70
     8
 71
     2
 72
     2
 73
     0
 90
        0
 40
-0.6
 41
-30.0
 62
     5
 63
     7
 74
     1
 91
        0
 64
     7
 65
   257
 75
     1
175
     1
 42
1.0
 92
        8
 66
     8
 43
1.0
 76
     1
 77
     6
 78
     2
 67
     7
 79
     5
170
     0
171
     0
290
     0
174
     0
 93
       13
 44
0.0
173
     0
291
     0
 45
0.0
1001
ACAD
1000
AcDbSavedByObjectVersion
1070
     0
  0
VISUALSTYLE
  5
37
102
{ACAD_REACTORS
330
2A
102
}
102
{ACAD_XDICTIONARY
360
B77
102
}
330
2A
100
AcDbVisualStyle
  2
Thicken
 70
    13
 71
     2
 72
     2
 73
     0
 90
        0
 40
-0.6
 41
-30.0
 62
     5
 63
     7
 74
     1
 91
        4
 64
     7
 65
   257
 75
     1
175
     1
 42
1.0
 92
       12
 66
     7
 43
1.0
 76
     1
 77
     6
 78
     2
 67
     7
 79
     5
170
     0
171
     0
290
     0
174
     0
 93
        1
 44
0.0
173
     0
291
     1
 45
0.0
1001
ACAD
1000
AcDbSavedByObjectVersion
1070
     0
  0
DICTIONARYVAR
  5
B5C
102
{ACAD_REACTORS
330
B57
102
}
330
B57
100
DictionaryVariables
280
     0
  1
1:1
  0
DICTIONARYVAR
  5
B5D
102
{ACAD_REACTORS
330
B57
102
}
330
B57
100
DictionaryVariables
280
     0
  1
2
  0
DICTIONARYVAR
  5
B5E
102
{ACAD_REACTORS
330
B57
102
}
330
B57
100
DictionaryVariables
280
     0
  1
1
  0
DICTIONARYVAR
  5
B5B
102
{ACAD_REACTORS
330
B57
102
}
330
B57
100
DictionaryVariables
280
     0
  1
80.000000
  0
DICTIONARYVAR
  5
B5A
102
{ACAD_REACTORS
330
B57
102
}
330
B57
100
DictionaryVariables
280
     0
  1
5.000000
  0
DICTIONARY
  5
B81
330
3D
100
AcDbDictionary
280
     1
281
     1
  3
ACAD_XREC_ROUNDTRIP
360
B82
  0
DICTIONARY
  5
B7F
330
3C
100
AcDbDictionary
280
     1
281
     1
  3
ACAD_XREC_ROUNDTRIP
360
B80
  0
DICTIONARY
  5
B83
330
3E
100
AcDbDictionary
280
     1
281
     1
  3
ACAD_XREC_ROUNDTRIP
360
B84
  0
DICTIONARY
  5
B67
330
2F
100
AcDbDictionary
280
     1
281
     1
  3
ACAD_XREC_ROUNDTRIP
360
B68
  0
DICTIONARY
  5
B6B
330
31
100
AcDbDictionary
280
     1
281
     1
  3
ACAD_XREC_ROUNDTRIP
360
B6C
  0
DICTIONARY
  5
B69
330
30
100
AcDbDictionary
280
     1
281
     1
  3
ACAD_XREC_ROUNDTRIP
360
B6A
  0
DICTIONARY
  5
B6D
330
32
100
AcDbDictionary
280
     1
281
     1
  3
ACAD_XREC_ROUNDTRIP
360
B6E
  0
DICTIONARY
  5
B75
330
36
100
AcDbDictionary
280
     1
281
     1
  3
ACAD_XREC_ROUNDTRIP
360
B76
  0
DICTIONARY
  5
B7D
330
3A
100
AcDbDictionary
280
     1
281
     1
  3
ACAD_XREC_ROUNDTRIP
360
B7E
  0
DICTIONARY
  5
B71
330
34
100
AcDbDictionary
280
     1
281
     1
  3
ACAD_XREC_ROUNDTRIP
360
B72
  0
DICTIONARY
  5
B73
330
35
100
AcDbDictionary
280
     1
281
     1
  3
ACAD_XREC_ROUNDTRIP
360
B74
  0
DICTIONARY
  5
B7B
330
39
100
AcDbDictionary
280
     1
281
     1
  3
ACAD_XREC_ROUNDTRIP
360
B7C
  0
DICTIONARY
  5
B5F
330
2B
100
AcDbDictionary
280
     1
281
     1
  3
ACAD_XREC_ROUNDTRIP
360
B60
  0
DICTIONARY
  5
B61
330
2C
100
AcDbDictionary
280
     1
281
     1
  3
ACAD_XREC_ROUNDTRIP
360
B62
  0
DICTIONARY
  5
B63
330
2D
100
AcDbDictionary
280
     1
281
     1
  3
ACAD_XREC_ROUNDTRIP
360
B64
  0
DICTIONARY
  5
B65
330
2E
100
AcDbDictionary
280
     1
281
     1
  3
ACAD_XREC_ROUNDTRIP
360
B66
  0
DICTIONARY
  5
B79
330
38
100
AcDbDictionary
280
     1
281
     1
  3
ACAD_XREC_ROUNDTRIP
360
B7A
  0
DICTIONARY
  5
B6F
330
33
100
AcDbDictionary
280
     1
281
     1
  3
ACAD_XREC_ROUNDTRIP
360
B70
  0
DICTIONARY
  5
B77
330
37
100
AcDbDictionary
280
     1
281
     1
  3
ACAD_XREC_ROUNDTRIP
360
B78
  0
XRECORD
  5
B82
102
{ACAD_REACTORS
330
B81
102
}
330
B81
100
AcDbXrecord
280
     1
102
MATERIAL
148
0.0
149
0.0
149
0.0
 93
        0
 94
      127
282
     0
 72
     1
 77
     1
171
     1
175
     1
179
     1
273
     0
  0
XRECORD
  5
B80
102
{ACAD_REACTORS
330
B7F
102
}
330
B7F
100
AcDbXrecord
280
     1
102
MATERIAL
148
0.0
149
0.0
149
0.0
 93
        0
 94
      127
282
     0
 72
     1
 77
     1
171
     1
175
     1
179
     1
273
     0
  0
XRECORD
  5
B84
102
{ACAD_REACTORS
330
B83
102
}
330
B83
100
AcDbXrecord
280
     1
102
MATERIAL
148
0.0
149
0.0
149
0.0
 93
        0
 94
      127
282
     0
 72
     1
 77
     1
171
     1
175
     1
179
     1
273
     0
  0
XRECORD
  5
B68
102
{ACAD_REACTORS
330
B67
102
}
330
B67
100
AcDbXrecord
280
     1
102
RTVSPropertyOp0
 70
     1
102
RTVSPropertyOp1
 70
     1
102
RTVSPropertyOp2
 70
     1
102
RTVSPropertyOp3
 70
     1
102
RTVSPropertyOp4
 70
     1
102
RTVSPropertyOp5
 70
     1
102
RTVSPropertyOp6
 70
     1
102
RTVSPropertyOp7
 70
     1
102
RTVSPropertyOp8
 70
     1
102
RTVSPropertyOp9
 70
     1
102
RTVSPropertyOp10
 70
     1
102
RTVSPropertyOp11
 70
     1
102
RTVSPropertyOp12
 70
     1
102
RTVSPropertyOp13
 70
     1
102
RTVSPropertyOp14
 70
     1
102
RTVSPropertyOp15
 70
     1
102
RTVSPropertyOp16
 70
     1
102
RTVSPropertyOp17
 70
     1
102
RTVSPropertyOp18
 70
     1
102
RTVSPropertyOp19
 70
     1
102
RTVSPropertyOp20
 70
     1
102
RTVSPropertyOp21
 70
     1
102
RTVSPropertyOp22
 70
     1
102
RTVSPropertyOp23
 70
     1
102
RTVSPropertyOp24
 70
     1
102
RTVSPropertyOp25
 70
     1
102
RTVSPropertyOp26
 70
     1
102
RTVSPropertyOp27
 70
     1
  0
XRECORD
  5
B6C
102
{ACAD_REACTORS
330
B6B
102
}
330
B6B
100
AcDbXrecord
280
     1
102
RTVSPropertyOp0
 70
     1
102
RTVSPropertyOp1
 70
     1
102
RTVSPropertyOp2
 70
     1
102
RTVSPropertyOp3
 70
     1
102
RTVSPropertyOp4
 70
     1
102
RTVSPropertyOp5
 70
     1
102
RTVSPropertyOp6
 70
     1
102
RTVSPropertyOp7
 70
     1
102
RTVSPropertyOp8
 70
     1
102
RTVSPropertyOp9
 70
     1
102
RTVSPropertyOp10
 70
     1
102
RTVSPropertyOp11
 70
     1
102
RTVSPropertyOp12
 70
     1
102
RTVSPropertyOp13
 70
     1
102
RTVSPropertyOp14
 70
     1
102
RTVSPropertyOp15
 70
     1
102
RTVSPropertyOp16
 70
     1
102
RTVSPropertyOp17
 70
     1
102
RTVSPropertyOp18
 70
     1
102
RTVSPropertyOp19
 70
     1
102
RTVSPropertyOp20
 70
     1
102
RTVSPropertyOp21
 70
     1
102
RTVSPropertyOp22
 70
     1
102
RTVSPropertyOp23
 70
     1
102
RTVSPropertyOp24
 70
     1
102
RTVSPropertyOp25
 70
     1
102
RTVSPropertyOp26
 70
     1
102
RTVSPropertyOp27
 70
     1
  0
XRECORD
  5
B6A
102
{ACAD_REACTORS
330
B69
102
}
330
B69
100
AcDbXrecord
280
     1
102
RTVSPropertyOp0
 70
     1
102
RTVSPropertyOp1
 70
     1
102
RTVSPropertyOp2
 70
     1
102
RTVSPropertyOp3
 70
     1
102
RTVSPropertyOp4
 70
     1
102
RTVSPropertyOp5
 70
     1
102
RTVSPropertyOp6
 70
     1
102
RTVSPropertyOp7
 70
     1
102
RTVSPropertyOp8
 70
     1
102
RTVSPropertyOp9
 70
     1
102
RTVSPropertyOp10
 70
     1
102
RTVSPropertyOp11
 70
     1
102
RTVSPropertyOp12
 70
     1
102
RTVSPropertyOp13
 70
     1
102
RTVSPropertyOp14
 70
     1
102
RTVSPropertyOp15
 70
     1
102
RTVSPropertyOp16
 70
     1
102
RTVSPropertyOp17
 70
     1
102
RTVSPropertyOp18
 70
     1
102
RTVSPropertyOp19
 70
     1
102
RTVSPropertyOp20
 70
     1
102
RTVSPropertyOp21
 70
     1
102
RTVSPropertyOp22
 70
     1
102
RTVSPropertyOp23
 70
     1
102
RTVSPropertyOp24
 70
     1
102
RTVSPropertyOp25
 70
     1
102
RTVSPropertyOp26
 70
     1
102
RTVSPropertyOp27
 70
     1
  0
XRECORD
  5
B6E
102
{ACAD_REACTORS
330
B6D
102
}
330
B6D
100
AcDbXrecord
280
     1
102
RTVSPropertyOp0
 70
     1
102
RTVSPropertyOp1
 70
     1
102
RTVSPropertyOp2
 70
     1
102
RTVSPropertyOp3
 70
     1
102
RTVSPropertyOp4
 70
     1
102
RTVSPropertyOp5
 70
     1
102
RTVSPropertyOp6
 70
     1
102
RTVSPropertyOp7
 70
     1
102
RTVSPropertyOp8
 70
     1
102
RTVSPropertyOp9
 70
     1
102
RTVSPropertyOp10
 70
     1
102
RTVSPropertyOp11
 70
     1
102
RTVSPropertyOp12
 70
     1
102
RTVSPropertyOp13
 70
     1
102
RTVSPropertyOp14
 70
     1
102
RTVSPropertyOp15
 70
     1
102
RTVSPropertyOp16
 70
     1
102
RTVSPropertyOp17
 70
     1
102
RTVSPropertyOp18
 70
     1
102
RTVSPropertyOp19
 70
     1
102
RTVSPropertyOp20
 70
     1
102
RTVSPropertyOp21
 70
     1
102
RTVSPropertyOp22
 70
     1
102
RTVSPropertyOp23
 70
     1
102
RTVSPropertyOp24
 70
     1
102
RTVSPropertyOp25
 70
     1
102
RTVSPropertyOp26
 70
     1
102
RTVSPropertyOp27
 70
     1
  0
XRECORD
  5
B76
102
{ACAD_REACTORS
330
B75
102
}
330
B75
100
AcDbXrecord
280
     1
102
RTVSPropertyOp0
 70
     1
102
RTVSPropertyOp1
 70
     1
102
RTVSPropertyOp2
 70
     1
102
RTVSPropertyOp3
 70
     1
102
RTVSPropertyOp4
 70
     1
102
RTVSPropertyOp5
 70
     1
102
RTVSPropertyOp6
 70
     1
102
RTVSPropertyOp7
 70
     1
102
RTVSPropertyOp8
 70
     1
102
RTVSPropertyOp9
 70
     1
102
RTVSPropertyOp10
 70
     1
102
RTVSPropertyOp11
 70
     1
102
RTVSPropertyOp12
 70
     1
102
RTVSPropertyOp13
 70
     1
102
RTVSPropertyOp14
 70
     1
102
RTVSPropertyOp15
 70
     1
102
RTVSPropertyOp16
 70
     1
102
RTVSPropertyOp17
 70
     1
102
RTVSPropertyOp18
 70
     1
102
RTVSPropertyOp19
 70
     1
102
RTVSPropertyOp20
 70
     1
102
RTVSPropertyOp21
 70
     1
102
RTVSPropertyOp22
 70
     1
102
RTVSPropertyOp23
 70
     1
102
RTVSPropertyOp24
 70
     1
102
RTVSPropertyOp25
 70
     1
102
RTVSPropertyOp26
 70
     1
102
RTVSPropertyOp27
 70
     1
  0
XRECORD
  5
B7E
102
{ACAD_REACTORS
330
B7D
102
}
330
B7D
100
AcDbXrecord
280
     1
102
RTVSPropertyOp0
 70
     1
102
RTVSPropertyOp1
 70
     1
102
RTVSPropertyOp2
 70
     1
102
RTVSPropertyOp3
 70
     1
102
RTVSPropertyOp4
 70
     1
102
RTVSPropertyOp5
 70
     1
102
RTVSPropertyOp6
 70
     1
102
RTVSPropertyOp7
 70
     1
102
RTVSPropertyOp8
 70
     1
102
RTVSPropertyOp9
 70
     1
102
RTVSPropertyOp10
 70
     1
102
RTVSPropertyOp11
 70
     1
102
RTVSPropertyOp12
 70
     1
102
RTVSPropertyOp13
 70
     1
102
RTVSPropertyOp14
 70
     1
102
RTVSPropertyOp15
 70
     1
102
RTVSPropertyOp16
 70
     1
102
RTVSPropertyOp17
 70
     1
102
RTVSPropertyOp18
 70
     1
102
RTVSPropertyOp19
 70
     1
102
RTVSPropertyOp20
 70
     1
102
RTVSPropertyOp21
 70
     1
102
RTVSPropertyOp22
 70
     1
102
RTVSPropertyOp23
 70
     1
102
RTVSPropertyOp24
 70
     1
102
RTVSPropertyOp25
 70
     1
102
RTVSPropertyOp26
 70
     1
102
RTVSPropertyOp27
 70
     1
  0
XRECORD
  5
B72
102
{ACAD_REACTORS
330
B71
102
}
330
B71
100
AcDbXrecord
280
     1
102
RTVSPropertyOp0
 70
     1
102
RTVSPropertyOp1
 70
     1
102
RTVSPropertyOp2
 70
     1
102
RTVSPropertyOp3
 70
     1
102
RTVSPropertyOp4
 70
     1
102
RTVSPropertyOp5
 70
     1
102
RTVSPropertyOp6
 70
     1
102
RTVSPropertyOp7
 70
     1
102
RTVSPropertyOp8
 70
     1
102
RTVSPropertyOp9
 70
     1
102
RTVSPropertyOp10
 70
     1
102
RTVSPropertyOp11
 70
     1
102
RTVSPropertyOp12
 70
     1
102
RTVSPropertyOp13
 70
     1
102
RTVSPropertyOp14
 70
     1
102
RTVSPropertyOp15
 70
     1
102
RTVSPropertyOp16
 70
     1
102
RTVSPropertyOp17
 70
     1
102
RTVSPropertyOp18
 70
     1
102
RTVSPropertyOp19
 70
     1
102
RTVSPropertyOp20
 70
     1
102
RTVSPropertyOp21
 70
     1
102
RTVSPropertyOp22
 70
     1
102
RTVSPropertyOp23
 70
     1
102
RTVSPropertyOp24
 70
     1
102
RTVSPropertyOp25
 70
     1
102
RTVSPropertyOp26
 70
     1
102
RTVSPropertyOp27
 70
     1
  0
XRECORD
  5
B74
102
{ACAD_REACTORS
330
B73
102
}
330
B73
100
AcDbXrecord
280
     1
102
RTVSPropertyOp0
 70
     1
102
RTVSPropertyOp1
 70
     1
102
RTVSPropertyOp2
 70
     1
102
RTVSPropertyOp3
 70
     1
102
RTVSPropertyOp4
 70
     1
102
RTVSPropertyOp5
 70
     1
102
RTVSPropertyOp6
 70
     1
102
RTVSPropertyOp7
 70
     1
102
RTVSPropertyOp8
 70
     1
102
RTVSPropertyOp9
 70
     1
102
RTVSPropertyOp10
 70
     1
102
RTVSPropertyOp11
 70
     1
102
RTVSPropertyOp12
 70
     1
102
RTVSPropertyOp13
 70
     1
102
RTVSPropertyOp14
 70
     1
102
RTVSPropertyOp15
 70
     1
102
RTVSPropertyOp16
 70
     1
102
RTVSPropertyOp17
 70
     1
102
RTVSPropertyOp18
 70
     1
102
RTVSPropertyOp19
 70
     1
102
RTVSPropertyOp20
 70
     1
102
RTVSPropertyOp21
 70
     1
102
RTVSPropertyOp22
 70
     1
102
RTVSPropertyOp23
 70
     1
102
RTVSPropertyOp24
 70
     1
102
RTVSPropertyOp25
 70
     1
102
RTVSPropertyOp26
 70
     1
102
RTVSPropertyOp27
 70
     1
  0
XRECORD
  5
B7C
102
{ACAD_REACTORS
330
B7B
102
}
330
B7B
100
AcDbXrecord
280
     1
102
RTVSPropertyOp0
 70
     1
102
RTVSPropertyOp1
 70
     1
102
RTVSPropertyOp2
 70
     1
102
RTVSPropertyOp3
 70
     1
102
RTVSPropertyOp4
 70
     1
102
RTVSPropertyOp5
 70
     1
102
RTVSPropertyOp6
 70
     1
102
RTVSPropertyOp7
 70
     1
102
RTVSPropertyOp8
 70
     1
102
RTVSPropertyOp9
 70
     1
102
RTVSPropertyOp10
 70
     1
102
RTVSPropertyOp11
 70
     1
102
RTVSPropertyOp12
 70
     1
102
RTVSPropertyOp13
 70
     1
102
RTVSPropertyOp14
 70
     1
102
RTVSPropertyOp15
 70
     1
102
RTVSPropertyOp16
 70
     1
102
RTVSPropertyOp17
 70
     1
102
RTVSPropertyOp18
 70
     1
102
RTVSPropertyOp19
 70
     1
102
RTVSPropertyOp20
 70
     1
102
RTVSPropertyOp21
 70
     1
102
RTVSPropertyOp22
 70
     1
102
RTVSPropertyOp23
 70
     1
102
RTVSPropertyOp24
 70
     1
102
RTVSPropertyOp25
 70
     1
102
RTVSPropertyOp26
 70
     1
102
RTVSPropertyOp27
 70
     1
  0
XRECORD
  5
B60
102
{ACAD_REACTORS
330
B5F
102
}
330
B5F
100
AcDbXrecord
280
     1
102
RTVSPropertyOp0
 70
     1
102
RTVSPropertyOp1
 70
     1
102
RTVSPropertyOp2
 70
     1
102
RTVSPropertyOp3
 70
     1
102
RTVSPropertyOp4
 70
     1
102
RTVSPropertyOp5
 70
     1
102
RTVSPropertyOp6
 70
     1
102
RTVSPropertyOp7
 70
     1
102
RTVSPropertyOp8
 70
     1
102
RTVSPropertyOp9
 70
     1
102
RTVSPropertyOp10
 70
     1
102
RTVSPropertyOp11
 70
     1
102
RTVSPropertyOp12
 70
     1
102
RTVSPropertyOp13
 70
     1
102
RTVSPropertyOp14
 70
     1
102
RTVSPropertyOp15
 70
     1
102
RTVSPropertyOp16
 70
     1
102
RTVSPropertyOp17
 70
     1
102
RTVSPropertyOp18
 70
     1
102
RTVSPropertyOp19
 70
     1
102
RTVSPropertyOp20
 70
     1
102
RTVSPropertyOp21
 70
     1
102
RTVSPropertyOp22
 70
     1
102
RTVSPropertyOp23
 70
     1
102
RTVSPropertyOp24
 70
     1
102
RTVSPropertyOp25
 70
     1
102
RTVSPropertyOp26
 70
     1
102
RTVSPropertyOp27
 70
     1
  0
XRECORD
  5
B62
102
{ACAD_REACTORS
330
B61
102
}
330
B61
100
AcDbXrecord
280
     1
102
RTVSPropertyOp0
 70
     1
102
RTVSPropertyOp1
 70
     1
102
RTVSPropertyOp2
 70
     1
102
RTVSPropertyOp3
 70
     1
102
RTVSPropertyOp4
 70
     1
102
RTVSPropertyOp5
 70
     1
102
RTVSPropertyOp6
 70
     1
102
RTVSPropertyOp7
 70
     1
102
RTVSPropertyOp8
 70
     1
102
RTVSPropertyOp9
 70
     1
102
RTVSPropertyOp10
 70
     1
102
RTVSPropertyOp11
 70
     1
102
RTVSPropertyOp12
 70
     1
102
RTVSPropertyOp13
 70
     1
102
RTVSPropertyOp14
 70
     1
102
RTVSPropertyOp15
 70
     1
102
RTVSPropertyOp16
 70
     1
102
RTVSPropertyOp17
 70
     1
102
RTVSPropertyOp18
 70
     1
102
RTVSPropertyOp19
 70
     1
102
RTVSPropertyOp20
 70
     1
102
RTVSPropertyOp21
 70
     1
102
RTVSPropertyOp22
 70
     1
102
RTVSPropertyOp23
 70
     1
102
RTVSPropertyOp24
 70
     1
102
RTVSPropertyOp25
 70
     1
102
RTVSPropertyOp26
 70
     1
102
RTVSPropertyOp27
 70
     1
  0
XRECORD
  5
B64
102
{ACAD_REACTORS
330
B63
102
}
330
B63
100
AcDbXrecord
280
     1
102
RTVSPropertyOp0
 70
     1
102
RTVSPropertyOp1
 70
     1
102
RTVSPropertyOp2
 70
     1
102
RTVSPropertyOp3
 70
     1
102
RTVSPropertyOp4
 70
     1
102
RTVSPropertyOp5
 70
     1
102
RTVSPropertyOp6
 70
     1
102
RTVSPropertyOp7
 70
     1
102
RTVSPropertyOp8
 70
     1
102
RTVSPropertyOp9
 70
     1
102
RTVSPropertyOp10
 70
     1
102
RTVSPropertyOp11
 70
     1
102
RTVSPropertyOp12
 70
     1
102
RTVSPropertyOp13
 70
     1
102
RTVSPropertyOp14
 70
     1
102
RTVSPropertyOp15
 70
     1
102
RTVSPropertyOp16
 70
     1
102
RTVSPropertyOp17
 70
     1
102
RTVSPropertyOp18
 70
     1
102
RTVSPropertyOp19
 70
     1
102
RTVSPropertyOp20
 70
     1
102
RTVSPropertyOp21
 70
     1
102
RTVSPropertyOp22
 70
     1
102
RTVSPropertyOp23
 70
     1
102
RTVSPropertyOp24
 70
     1
102
RTVSPropertyOp25
 70
     1
102
RTVSPropertyOp26
 70
     1
102
RTVSPropertyOp27
 70
     1
  0
XRECORD
  5
B66
102
{ACAD_REACTORS
330
B65
102
}
330
B65
100
AcDbXrecord
280
     1
102
RTVSPropertyOp0
 70
     1
102
RTVSPropertyOp1
 70
     1
102
RTVSPropertyOp2
 70
     1
102
RTVSPropertyOp3
 70
     1
102
RTVSPropertyOp4
 70
     1
102
RTVSPropertyOp5
 70
     1
102
RTVSPropertyOp6
 70
     1
102
RTVSPropertyOp7
 70
     1
102
RTVSPropertyOp8
 70
     1
102
RTVSPropertyOp9
 70
     1
102
RTVSPropertyOp10
 70
     1
102
RTVSPropertyOp11
 70
     1
102
RTVSPropertyOp12
 70
     1
102
RTVSPropertyOp13
 70
     1
102
RTVSPropertyOp14
 70
     1
102
RTVSPropertyOp15
 70
     1
102
RTVSPropertyOp16
 70
     1
102
RTVSPropertyOp17
 70
     1
102
RTVSPropertyOp18
 70
     1
102
RTVSPropertyOp19
 70
     1
102
RTVSPropertyOp20
 70
     1
102
RTVSPropertyOp21
 70
     1
102
RTVSPropertyOp22
 70
     1
102
RTVSPropertyOp23
 70
     1
102
RTVSPropertyOp24
 70
     1
102
RTVSPropertyOp25
 70
     1
102
RTVSPropertyOp26
 70
     1
102
RTVSPropertyOp27
 70
     1
  0
XRECORD
  5
B7A
102
{ACAD_REACTORS
330
B79
102
}
330
B79
100
AcDbXrecord
280
     1
102
RTVSPropertyOp0
 70
     1
102
RTVSPropertyOp1
 70
     1
102
RTVSPropertyOp2
 70
     1
102
RTVSPropertyOp3
 70
     1
102
RTVSPropertyOp4
 70
     1
102
RTVSPropertyOp5
 70
     1
102
RTVSPropertyOp6
 70
     1
102
RTVSPropertyOp7
 70
     1
102
RTVSPropertyOp8
 70
     1
102
RTVSPropertyOp9
 70
     1
102
RTVSPropertyOp10
 70
     1
102
RTVSPropertyOp11
 70
     1
102
RTVSPropertyOp12
 70
     1
102
RTVSPropertyOp13
 70
     1
102
RTVSPropertyOp14
 70
     1
102
RTVSPropertyOp15
 70
     1
102
RTVSPropertyOp16
 70
     1
102
RTVSPropertyOp17
 70
     1
102
RTVSPropertyOp18
 70
     1
102
RTVSPropertyOp19
 70
     1
102
RTVSPropertyOp20
 70
     1
102
RTVSPropertyOp21
 70
     1
102
RTVSPropertyOp22
 70
     1
102
RTVSPropertyOp23
 70
     1
102
RTVSPropertyOp24
 70
     1
102
RTVSPropertyOp25
 70
     1
102
RTVSPropertyOp26
 70
     1
102
RTVSPropertyOp27
 70
     1
  0
XRECORD
  5
B70
102
{ACAD_REACTORS
330
B6F
102
}
330
B6F
100
AcDbXrecord
280
     1
102
RTVSPropertyOp0
 70
     1
102
RTVSPropertyOp1
 70
     1
102
RTVSPropertyOp2
 70
     1
102
RTVSPropertyOp3
 70
     1
102
RTVSPropertyOp4
 70
     1
102
RTVSPropertyOp5
 70
     1
102
RTVSPropertyOp6
 70
     1
102
RTVSPropertyOp7
 70
     1
102
RTVSPropertyOp8
 70
     1
102
RTVSPropertyOp9
 70
     1
102
RTVSPropertyOp10
 70
     1
102
RTVSPropertyOp11
 70
     1
102
RTVSPropertyOp12
 70
     1
102
RTVSPropertyOp13
 70
     1
102
RTVSPropertyOp14
 70
     1
102
RTVSPropertyOp15
 70
     1
102
RTVSPropertyOp16
 70
     1
102
RTVSPropertyOp17
 70
     1
102
RTVSPropertyOp18
 70
     1
102
RTVSPropertyOp19
 70
     1
102
RTVSPropertyOp20
 70
     1
102
RTVSPropertyOp21
 70
     1
102
RTVSPropertyOp22
 70
     1
102
RTVSPropertyOp23
 70
     1
102
RTVSPropertyOp24
 70
     1
102
RTVSPropertyOp25
 70
     1
102
RTVSPropertyOp26
 70
     1
102
RTVSPropertyOp27
 70
     1
  0
XRECORD
  5
B78
102
{ACAD_REACTORS
330
B77
102
}
330
B77
100
AcDbXrecord
280
     1
102
RTVSPropertyOp0
 70
     1
102
RTVSPropertyOp1
 70
     1
102
RTVSPropertyOp2
 70
     1
102
RTVSPropertyOp3
 70
     1
102
RTVSPropertyOp4
 70
     1
102
RTVSPropertyOp5
 70
     1
102
RTVSPropertyOp6
 70
     1
102
RTVSPropertyOp7
 70
     1
102
RTVSPropertyOp8
 70
     1
102
RTVSPropertyOp9
 70
     1
102
RTVSPropertyOp10
 70
     1
102
RTVSPropertyOp11
 70
     1
102
RTVSPropertyOp12
 70
     1
102
RTVSPropertyOp13
 70
     1
102
RTVSPropertyOp14
 70
     1
102
RTVSPropertyOp15
 70
     1
102
RTVSPropertyOp16
 70
     1
102
RTVSPropertyOp17
 70
     1
102
RTVSPropertyOp18
 70
     1
102
RTVSPropertyOp19
 70
     1
102
RTVSPropertyOp20
 70
     1
102
RTVSPropertyOp21
 70
     1
102
RTVSPropertyOp22
 70
     1
102
RTVSPropertyOp23
 70
     1
102
RTVSPropertyOp24
 70
     1
102
RTVSPropertyOp25
 70
     1
102
RTVSPropertyOp26
 70
     1
102
RTVSPropertyOp27
 70
     1
  0
ENDSEC
  0
EOF
