999
Outputted By AR_CAD Ver.1.6.0
  0
SECTION
  2
HEADER
  9
$ACADVER
  1
AC1014
  9
$DWGCODEPAGE
  3
ANSI_932
  9
$EXTMIN
 10
0
 20
0
  9
$EXTMAX
 10
297
 20
210
  9
$INSBASE
 10
0.0
 20
0.0
 30
0.0
  9
$HANDLING
 70
     1
  9
$HANDSEED
  5
1BB
  9
$LTSCALE
 40
1
  0
ENDSEC
  0
SECTION
  2
TABLES
  0
TABLE
  2
VPORT
  5
1
100
AcDbSymbolTable
 70
     1
  0
VPORT
  5
30
100
AcDbSymbolTableRecord
100
AcDbViewportTableRecord
  2
*ACTIVE
 70
     0
 10
0.0
 20
0.0
 11
1.0
 21
1.0
 12
210.0
 22
148.5
 13
0.0
 23
0.0
 14
10.0
 24
10.0
 15
10.0
 25
10.0
 16
0.0
 26
0.0
 36
1.0
 17
0.0
 27
0.0
 37
0.0
 40
302.94
 41
1.333333
 42
50.0
 43
0.0
 44
0.0
 50
0.0
 51
0.0
 71
     0
 72
   100
 73
     1
 74
     1
 75
     0
 76
     0
 77
     0
 78
     0
  0
ENDTAB
  0
TABLE
  2
LTYPE
  5
2
100
AcDbSymbolTable
 70
     9
  0
LTYPE
  5
31
100
AcDbSymbolTableRecord
100
AcDbLinetypeTableRecord
  2
BYBLOCK
 70
    64
 3

 72
    65
 73
    0
 40
    0
  0
LTYPE
  5
32
100
AcDbSymbolTableRecord
100
AcDbLinetypeTableRecord
  2
BYLAYER
 70
    64
 3

 72
    65
 73
    0
 40
    0
  0
LTYPE
  5
33
100
AcDbSymbolTableRecord
100
AcDbLinetypeTableRecord
  2
CONTINUOUS
 70
    64
 3
CONTINUOUS
 72
    65
 73
    0
 40
    0
  0
LTYPE
  5
34
100
AcDbSymbolTableRecord
100
AcDbLinetypeTableRecord
  2
DASHED
 70
    64
 3

 72
    65
 73
    2
 40
    0.75
 49
    0.5
 74
    0
 49
    -0.25
 74
    0
  0
LTYPE
  5
35
100
AcDbSymbolTableRecord
100
AcDbLinetypeTableRecord
  2
DOT
 70
    64
 3

 72
    65
 73
    2
 40
    0.5
 49
    0.25
 74
    0
 49
    -0.25
 74
    0
  0
LTYPE
  5
36
100
AcDbSymbolTableRecord
100
AcDbLinetypeTableRecord
  2
DASHDOT
 70
    64
 3

 72
    65
 73
    4
 40
    3.5
 49
    1.84210526315789
 74
    0
 49
    -0.552631578947368
 74
    0
 49
    0.552631578947368
 74
    0
 49
    -0.552631578947368
 74
    0
  0
LTYPE
  5
37
100
AcDbSymbolTableRecord
100
AcDbLinetypeTableRecord
  2
DIVIDE
 70
    64
 3

 72
    65
 73
    6
 40
    3.5
 49
    1.4
 74
    0
 49
    -0.42
 74
    0
 49
    0.42
 74
    0
 49
    -0.42
 74
    0
 49
    0.42
 74
    0
 49
    -0.42
 74
    0
  0
LTYPE
  5
38
100
AcDbSymbolTableRecord
100
AcDbLinetypeTableRecord
  2
HIDDEN
 70
    64
 3

 72
    65
 73
    2
 40
    0.375
 49
    0.25
 74
    0
 49
    -0.125
 74
    0
  0
LTYPE
  5
39
100
AcDbSymbolTableRecord
100
AcDbLinetypeTableRecord
  2
CENTER
 70
    64
 3

 72
    65
 73
    4
 40
    2
 49
    1.25
 74
    0
 49
    -0.25
 74
    0
 49
    0.25
 74
    0
 49
    -0.25
 74
    0
  0
LTYPE
  5
3A
100
AcDbSymbolTableRecord
100
AcDbLinetypeTableRecord
  2
PHANTOM
 70
    64
 3

 72
    65
 73
    6
 40
    2.5
 49
    1.25
 74
    0
 49
    -0.25
 74
    0
 49
    0.25
 74
    0
 49
    -0.25
 74
    0
 49
    0.25
 74
    0
 49
    -0.25
 74
    0
  0
ENDTAB
  0
TABLE
  2
LAYER
  5
3
100
AcDbSymbolTable
 70
   257
  0
LAYER
  5
3B
100
AcDbSymbolTableRecord
100
AcDbLayerTableRecord
  2
0
 70
    0
 62
7
  6
CONTINUOUS
  0
LAYER
  5
3C
100
AcDbSymbolTableRecord
100
AcDbLayerTableRecord
  2
001
 70
    0
 62
7
  6
CONTINUOUS
  0
LAYER
  5
3D
100
AcDbSymbolTableRecord
100
AcDbLayerTableRecord
  2
画層2
 70
    0
 62
9
  6
CONTINUOUS
  0
LAYER
  5
3E
100
AcDbSymbolTableRecord
100
AcDbLayerTableRecord
  2
画層3
 70
    0
 62
7
  6
CONTINUOUS
  0
LAYER
  5
3F
100
AcDbSymbolTableRecord
100
AcDbLayerTableRecord
  2
画層4
 70
    0
 62
6
  6
CONTINUOUS
  0
LAYER
  5
40
100
AcDbSymbolTableRecord
100
AcDbLayerTableRecord
  2
画層5
 70
    0
 62
1
  6
CONTINUOUS
  0
LAYER
  5
41
100
AcDbSymbolTableRecord
100
AcDbLayerTableRecord
  2
画層6
 70
    0
 62
7
  6
CONTINUOUS
  0
LAYER
  5
42
100
AcDbSymbolTableRecord
100
AcDbLayerTableRecord
  2
画層7
 70
    0
 62
51
  6
CONTINUOUS
  0
LAYER
  5
43
100
AcDbSymbolTableRecord
100
AcDbLayerTableRecord
  2
画層8
 70
    0
 62
61
  6
CONTINUOUS
  0
LAYER
  5
44
100
AcDbSymbolTableRecord
100
AcDbLayerTableRecord
  2
画層9
 70
    0
 62
111
  6
CONTINUOUS
  0
LAYER
  5
45
100
AcDbSymbolTableRecord
100
AcDbLayerTableRecord
  2
画層10
 70
    0
 62
91
  6
CONTINUOUS
  0
LAYER
  5
46
100
AcDbSymbolTableRecord
100
AcDbLayerTableRecord
  2
画層11
 70
    0
 62
131
  6
CONTINUOUS
  0
LAYER
  5
47
100
AcDbSymbolTableRecord
100
AcDbLayerTableRecord
  2
画層12
 70
    0
 62
161
  6
CONTINUOUS
  0
LAYER
  5
48
100
AcDbSymbolTableRecord
100
AcDbLayerTableRecord
  2
画層13
 70
    0
 62
5
  6
CONTINUOUS
  0
LAYER
  5
49
100
AcDbSymbolTableRecord
100
AcDbLayerTableRecord
  2
画層14
 70
    0
 62
7
  6
CONTINUOUS
  0
LAYER
  5
4A
100
AcDbSymbolTableRecord
100
AcDbLayerTableRecord
  2
画層15
 70
    0
 62
11
  6
CONTINUOUS
  0
LAYER
  5
4B
100
AcDbSymbolTableRecord
100
AcDbLayerTableRecord
  2
画層16
 70
    0
 62
7
  6
CONTINUOUS
  0
LAYER
  5
4C
100
AcDbSymbolTableRecord
100
AcDbLayerTableRecord
  2
画層17
 70
    0
 62
70
  6
CONTINUOUS
  0
LAYER
  5
4D
100
AcDbSymbolTableRecord
100
AcDbLayerTableRecord
  2
画層18
 70
    0
 62
211
  6
CONTINUOUS
  0
LAYER
  5
4E
100
AcDbSymbolTableRecord
100
AcDbLayerTableRecord
  2
画層19
 70
    0
 62
137
  6
CONTINUOUS
  0
LAYER
  5
4F
100
AcDbSymbolTableRecord
100
AcDbLayerTableRecord
  2
画層20
 70
    0
 62
4
  6
CONTINUOUS
  0
LAYER
  5
50
100
AcDbSymbolTableRecord
100
AcDbLayerTableRecord
  2
画層21
 70
    0
 62
131
  6
CONTINUOUS
  0
LAYER
  5
51
100
AcDbSymbolTableRecord
100
AcDbLayerTableRecord
  2
画層22
 70
    0
 62
4
  6
CONTINUOUS
  0
LAYER
  5
52
100
AcDbSymbolTableRecord
100
AcDbLayerTableRecord
  2
画層23
 70
    0
 62
4
  6
CONTINUOUS
  0
LAYER
  5
53
100
AcDbSymbolTableRecord
100
AcDbLayerTableRecord
  2
画層24
 70
    0
 62
7
  6
CONTINUOUS
  0
LAYER
  5
54
100
AcDbSymbolTableRecord
100
AcDbLayerTableRecord
  2
画層25
 70
    0
 62
7
  6
CONTINUOUS
  0
LAYER
  5
55
100
AcDbSymbolTableRecord
100
AcDbLayerTableRecord
  2
画層26
 70
    0
 62
7
  6
CONTINUOUS
  0
LAYER
  5
56
100
AcDbSymbolTableRecord
100
AcDbLayerTableRecord
  2
画層27
 70
    0
 62
7
  6
CONTINUOUS
  0
LAYER
  5
57
100
AcDbSymbolTableRecord
100
AcDbLayerTableRecord
  2
画層28
 70
    0
 62
7
  6
CONTINUOUS
  0
LAYER
  5
58
100
AcDbSymbolTableRecord
100
AcDbLayerTableRecord
  2
画層29
 70
    0
 62
7
  6
CONTINUOUS
  0
LAYER
  5
59
100
AcDbSymbolTableRecord
100
AcDbLayerTableRecord
  2
画層30
 70
    0
 62
7
  6
CONTINUOUS
  0
LAYER
  5
5A
100
AcDbSymbolTableRecord
100
AcDbLayerTableRecord
  2
画層31
 70
    0
 62
7
  6
CONTINUOUS
  0
LAYER
  5
5B
100
AcDbSymbolTableRecord
100
AcDbLayerTableRecord
  2
画層32
 70
    0
 62
7
  6
CONTINUOUS
  0
LAYER
  5
5C
100
AcDbSymbolTableRecord
100
AcDbLayerTableRecord
  2
画層33
 70
    0
 62
7
  6
CONTINUOUS
  0
LAYER
  5
5D
100
AcDbSymbolTableRecord
100
AcDbLayerTableRecord
  2
画層34
 70
    0
 62
7
  6
CONTINUOUS
  0
LAYER
  5
5E
100
AcDbSymbolTableRecord
100
AcDbLayerTableRecord
  2
画層35
 70
    0
 62
7
  6
CONTINUOUS
  0
LAYER
  5
5F
100
AcDbSymbolTableRecord
100
AcDbLayerTableRecord
  2
画層36
 70
    0
 62
7
  6
CONTINUOUS
  0
LAYER
  5
60
100
AcDbSymbolTableRecord
100
AcDbLayerTableRecord
  2
画層37
 70
    0
 62
7
  6
CONTINUOUS
  0
LAYER
  5
61
100
AcDbSymbolTableRecord
100
AcDbLayerTableRecord
  2
画層38
 70
    0
 62
7
  6
CONTINUOUS
  0
LAYER
  5
62
100
AcDbSymbolTableRecord
100
AcDbLayerTableRecord
  2
画層39
 70
    0
 62
7
  6
CONTINUOUS
  0
LAYER
  5
63
100
AcDbSymbolTableRecord
100
AcDbLayerTableRecord
  2
画層40
 70
    0
 62
7
  6
CONTINUOUS
  0
LAYER
  5
64
100
AcDbSymbolTableRecord
100
AcDbLayerTableRecord
  2
画層41
 70
    0
 62
7
  6
CONTINUOUS
  0
LAYER
  5
65
100
AcDbSymbolTableRecord
100
AcDbLayerTableRecord
  2
画層42
 70
    0
 62
7
  6
CONTINUOUS
  0
LAYER
  5
66
100
AcDbSymbolTableRecord
100
AcDbLayerTableRecord
  2
画層43
 70
    0
 62
7
  6
CONTINUOUS
  0
LAYER
  5
67
100
AcDbSymbolTableRecord
100
AcDbLayerTableRecord
  2
画層44
 70
    0
 62
7
  6
CONTINUOUS
  0
LAYER
  5
68
100
AcDbSymbolTableRecord
100
AcDbLayerTableRecord
  2
画層45
 70
    0
 62
7
  6
CONTINUOUS
  0
LAYER
  5
69
100
AcDbSymbolTableRecord
100
AcDbLayerTableRecord
  2
画層46
 70
    0
 62
7
  6
CONTINUOUS
  0
LAYER
  5
6A
100
AcDbSymbolTableRecord
100
AcDbLayerTableRecord
  2
画層47
 70
    0
 62
7
  6
CONTINUOUS
  0
LAYER
  5
6B
100
AcDbSymbolTableRecord
100
AcDbLayerTableRecord
  2
画層48
 70
    0
 62
7
  6
CONTINUOUS
  0
LAYER
  5
6C
100
AcDbSymbolTableRecord
100
AcDbLayerTableRecord
  2
画層49
 70
    0
 62
7
  6
CONTINUOUS
  0
LAYER
  5
6D
100
AcDbSymbolTableRecord
100
AcDbLayerTableRecord
  2
画層50
 70
    0
 62
7
  6
CONTINUOUS
  0
LAYER
  5
6E
100
AcDbSymbolTableRecord
100
AcDbLayerTableRecord
  2
画層51
 70
    0
 62
7
  6
CONTINUOUS
  0
LAYER
  5
6F
100
AcDbSymbolTableRecord
100
AcDbLayerTableRecord
  2
画層52
 70
    0
 62
7
  6
CONTINUOUS
  0
LAYER
  5
70
100
AcDbSymbolTableRecord
100
AcDbLayerTableRecord
  2
画層53
 70
    0
 62
7
  6
CONTINUOUS
  0
LAYER
  5
71
100
AcDbSymbolTableRecord
100
AcDbLayerTableRecord
  2
画層54
 70
    0
 62
7
  6
CONTINUOUS
  0
LAYER
  5
72
100
AcDbSymbolTableRecord
100
AcDbLayerTableRecord
  2
画層55
 70
    0
 62
7
  6
CONTINUOUS
  0
LAYER
  5
73
100
AcDbSymbolTableRecord
100
AcDbLayerTableRecord
  2
画層56
 70
    0
 62
7
  6
CONTINUOUS
  0
LAYER
  5
74
100
AcDbSymbolTableRecord
100
AcDbLayerTableRecord
  2
画層57
 70
    0
 62
7
  6
CONTINUOUS
  0
LAYER
  5
75
100
AcDbSymbolTableRecord
100
AcDbLayerTableRecord
  2
画層58
 70
    0
 62
7
  6
CONTINUOUS
  0
LAYER
  5
76
100
AcDbSymbolTableRecord
100
AcDbLayerTableRecord
  2
画層59
 70
    0
 62
7
  6
CONTINUOUS
  0
LAYER
  5
77
100
AcDbSymbolTableRecord
100
AcDbLayerTableRecord
  2
画層60
 70
    0
 62
7
  6
CONTINUOUS
  0
LAYER
  5
78
100
AcDbSymbolTableRecord
100
AcDbLayerTableRecord
  2
画層61
 70
    0
 62
7
  6
CONTINUOUS
  0
LAYER
  5
79
100
AcDbSymbolTableRecord
100
AcDbLayerTableRecord
  2
画層62
 70
    0
 62
7
  6
CONTINUOUS
  0
LAYER
  5
7A
100
AcDbSymbolTableRecord
100
AcDbLayerTableRecord
  2
画層63
 70
    0
 62
7
  6
CONTINUOUS
  0
LAYER
  5
7B
100
AcDbSymbolTableRecord
100
AcDbLayerTableRecord
  2
画層64
 70
    0
 62
7
  6
CONTINUOUS
  0
LAYER
  5
7C
100
AcDbSymbolTableRecord
100
AcDbLayerTableRecord
  2
画層65
 70
    0
 62
7
  6
CONTINUOUS
  0
LAYER
  5
7D
100
AcDbSymbolTableRecord
100
AcDbLayerTableRecord
  2
画層66
 70
    0
 62
7
  6
CONTINUOUS
  0
LAYER
  5
7E
100
AcDbSymbolTableRecord
100
AcDbLayerTableRecord
  2
画層67
 70
    0
 62
7
  6
CONTINUOUS
  0
LAYER
  5
7F
100
AcDbSymbolTableRecord
100
AcDbLayerTableRecord
  2
画層68
 70
    0
 62
7
  6
CONTINUOUS
  0
LAYER
  5
80
100
AcDbSymbolTableRecord
100
AcDbLayerTableRecord
  2
画層69
 70
    0
 62
7
  6
CONTINUOUS
  0
LAYER
  5
81
100
AcDbSymbolTableRecord
100
AcDbLayerTableRecord
  2
画層70
 70
    0
 62
7
  6
CONTINUOUS
  0
LAYER
  5
82
100
AcDbSymbolTableRecord
100
AcDbLayerTableRecord
  2
画層71
 70
    0
 62
7
  6
CONTINUOUS
  0
LAYER
  5
83
100
AcDbSymbolTableRecord
100
AcDbLayerTableRecord
  2
画層72
 70
    0
 62
7
  6
CONTINUOUS
  0
LAYER
  5
84
100
AcDbSymbolTableRecord
100
AcDbLayerTableRecord
  2
画層73
 70
    0
 62
7
  6
CONTINUOUS
  0
LAYER
  5
85
100
AcDbSymbolTableRecord
100
AcDbLayerTableRecord
  2
画層74
 70
    0
 62
7
  6
CONTINUOUS
  0
LAYER
  5
86
100
AcDbSymbolTableRecord
100
AcDbLayerTableRecord
  2
画層75
 70
    0
 62
7
  6
CONTINUOUS
  0
LAYER
  5
87
100
AcDbSymbolTableRecord
100
AcDbLayerTableRecord
  2
画層76
 70
    0
 62
7
  6
CONTINUOUS
  0
LAYER
  5
88
100
AcDbSymbolTableRecord
100
AcDbLayerTableRecord
  2
画層77
 70
    0
 62
7
  6
CONTINUOUS
  0
LAYER
  5
89
100
AcDbSymbolTableRecord
100
AcDbLayerTableRecord
  2
画層78
 70
    0
 62
7
  6
CONTINUOUS
  0
LAYER
  5
8A
100
AcDbSymbolTableRecord
100
AcDbLayerTableRecord
  2
画層79
 70
    0
 62
7
  6
CONTINUOUS
  0
LAYER
  5
8B
100
AcDbSymbolTableRecord
100
AcDbLayerTableRecord
  2
画層80
 70
    0
 62
7
  6
CONTINUOUS
  0
LAYER
  5
8C
100
AcDbSymbolTableRecord
100
AcDbLayerTableRecord
  2
画層81
 70
    0
 62
7
  6
CONTINUOUS
  0
LAYER
  5
8D
100
AcDbSymbolTableRecord
100
AcDbLayerTableRecord
  2
画層82
 70
    0
 62
7
  6
CONTINUOUS
  0
LAYER
  5
8E
100
AcDbSymbolTableRecord
100
AcDbLayerTableRecord
  2
画層83
 70
    0
 62
7
  6
CONTINUOUS
  0
LAYER
  5
8F
100
AcDbSymbolTableRecord
100
AcDbLayerTableRecord
  2
画層84
 70
    0
 62
7
  6
CONTINUOUS
  0
LAYER
  5
90
100
AcDbSymbolTableRecord
100
AcDbLayerTableRecord
  2
画層85
 70
    0
 62
7
  6
CONTINUOUS
  0
LAYER
  5
91
100
AcDbSymbolTableRecord
100
AcDbLayerTableRecord
  2
画層86
 70
    0
 62
7
  6
CONTINUOUS
  0
LAYER
  5
92
100
AcDbSymbolTableRecord
100
AcDbLayerTableRecord
  2
画層87
 70
    0
 62
7
  6
CONTINUOUS
  0
LAYER
  5
93
100
AcDbSymbolTableRecord
100
AcDbLayerTableRecord
  2
画層88
 70
    0
 62
7
  6
CONTINUOUS
  0
LAYER
  5
94
100
AcDbSymbolTableRecord
100
AcDbLayerTableRecord
  2
画層89
 70
    0
 62
7
  6
CONTINUOUS
  0
LAYER
  5
95
100
AcDbSymbolTableRecord
100
AcDbLayerTableRecord
  2
画層90
 70
    0
 62
7
  6
CONTINUOUS
  0
LAYER
  5
96
100
AcDbSymbolTableRecord
100
AcDbLayerTableRecord
  2
画層91
 70
    0
 62
7
  6
CONTINUOUS
  0
LAYER
  5
97
100
AcDbSymbolTableRecord
100
AcDbLayerTableRecord
  2
画層92
 70
    0
 62
7
  6
CONTINUOUS
  0
LAYER
  5
98
100
AcDbSymbolTableRecord
100
AcDbLayerTableRecord
  2
画層93
 70
    0
 62
7
  6
CONTINUOUS
  0
LAYER
  5
99
100
AcDbSymbolTableRecord
100
AcDbLayerTableRecord
  2
画層94
 70
    0
 62
7
  6
CONTINUOUS
  0
LAYER
  5
9A
100
AcDbSymbolTableRecord
100
AcDbLayerTableRecord
  2
画層95
 70
    0
 62
7
  6
CONTINUOUS
  0
LAYER
  5
9B
100
AcDbSymbolTableRecord
100
AcDbLayerTableRecord
  2
画層96
 70
    0
 62
7
  6
CONTINUOUS
  0
LAYER
  5
9C
100
AcDbSymbolTableRecord
100
AcDbLayerTableRecord
  2
画層97
 70
    0
 62
7
  6
CONTINUOUS
  0
LAYER
  5
9D
100
AcDbSymbolTableRecord
100
AcDbLayerTableRecord
  2
画層98
 70
    0
 62
7
  6
CONTINUOUS
  0
LAYER
  5
9E
100
AcDbSymbolTableRecord
100
AcDbLayerTableRecord
  2
画層99
 70
    0
 62
7
  6
CONTINUOUS
  0
LAYER
  5
9F
100
AcDbSymbolTableRecord
100
AcDbLayerTableRecord
  2
画層100
 70
    0
 62
7
  6
CONTINUOUS
  0
LAYER
  5
A0
100
AcDbSymbolTableRecord
100
AcDbLayerTableRecord
  2
画層101
 70
    0
 62
7
  6
CONTINUOUS
  0
LAYER
  5
A1
100
AcDbSymbolTableRecord
100
AcDbLayerTableRecord
  2
画層102
 70
    0
 62
7
  6
CONTINUOUS
  0
LAYER
  5
A2
100
AcDbSymbolTableRecord
100
AcDbLayerTableRecord
  2
画層103
 70
    0
 62
7
  6
CONTINUOUS
  0
LAYER
  5
A3
100
AcDbSymbolTableRecord
100
AcDbLayerTableRecord
  2
画層104
 70
    0
 62
7
  6
CONTINUOUS
  0
LAYER
  5
A4
100
AcDbSymbolTableRecord
100
AcDbLayerTableRecord
  2
画層105
 70
    0
 62
7
  6
CONTINUOUS
  0
LAYER
  5
A5
100
AcDbSymbolTableRecord
100
AcDbLayerTableRecord
  2
画層106
 70
    0
 62
7
  6
CONTINUOUS
  0
LAYER
  5
A6
100
AcDbSymbolTableRecord
100
AcDbLayerTableRecord
  2
画層107
 70
    0
 62
7
  6
CONTINUOUS
  0
LAYER
  5
A7
100
AcDbSymbolTableRecord
100
AcDbLayerTableRecord
  2
画層108
 70
    0
 62
7
  6
CONTINUOUS
  0
LAYER
  5
A8
100
AcDbSymbolTableRecord
100
AcDbLayerTableRecord
  2
画層109
 70
    0
 62
7
  6
CONTINUOUS
  0
LAYER
  5
A9
100
AcDbSymbolTableRecord
100
AcDbLayerTableRecord
  2
画層110
 70
    0
 62
7
  6
CONTINUOUS
  0
LAYER
  5
AA
100
AcDbSymbolTableRecord
100
AcDbLayerTableRecord
  2
画層111
 70
    0
 62
7
  6
CONTINUOUS
  0
LAYER
  5
AB
100
AcDbSymbolTableRecord
100
AcDbLayerTableRecord
  2
画層112
 70
    0
 62
7
  6
CONTINUOUS
  0
LAYER
  5
AC
100
AcDbSymbolTableRecord
100
AcDbLayerTableRecord
  2
画層113
 70
    0
 62
7
  6
CONTINUOUS
  0
LAYER
  5
AD
100
AcDbSymbolTableRecord
100
AcDbLayerTableRecord
  2
画層114
 70
    0
 62
7
  6
CONTINUOUS
  0
LAYER
  5
AE
100
AcDbSymbolTableRecord
100
AcDbLayerTableRecord
  2
画層115
 70
    0
 62
7
  6
CONTINUOUS
  0
LAYER
  5
AF
100
AcDbSymbolTableRecord
100
AcDbLayerTableRecord
  2
画層116
 70
    0
 62
7
  6
CONTINUOUS
  0
LAYER
  5
B0
100
AcDbSymbolTableRecord
100
AcDbLayerTableRecord
  2
画層117
 70
    0
 62
7
  6
CONTINUOUS
  0
LAYER
  5
B1
100
AcDbSymbolTableRecord
100
AcDbLayerTableRecord
  2
画層118
 70
    0
 62
7
  6
CONTINUOUS
  0
LAYER
  5
B2
100
AcDbSymbolTableRecord
100
AcDbLayerTableRecord
  2
画層119
 70
    0
 62
7
  6
CONTINUOUS
  0
LAYER
  5
B3
100
AcDbSymbolTableRecord
100
AcDbLayerTableRecord
  2
画層120
 70
    0
 62
7
  6
CONTINUOUS
  0
LAYER
  5
B4
100
AcDbSymbolTableRecord
100
AcDbLayerTableRecord
  2
画層121
 70
    0
 62
7
  6
CONTINUOUS
  0
LAYER
  5
B5
100
AcDbSymbolTableRecord
100
AcDbLayerTableRecord
  2
画層122
 70
    0
 62
7
  6
CONTINUOUS
  0
LAYER
  5
B6
100
AcDbSymbolTableRecord
100
AcDbLayerTableRecord
  2
画層123
 70
    0
 62
7
  6
CONTINUOUS
  0
LAYER
  5
B7
100
AcDbSymbolTableRecord
100
AcDbLayerTableRecord
  2
画層124
 70
    0
 62
7
  6
CONTINUOUS
  0
LAYER
  5
B8
100
AcDbSymbolTableRecord
100
AcDbLayerTableRecord
  2
画層125
 70
    0
 62
7
  6
CONTINUOUS
  0
LAYER
  5
B9
100
AcDbSymbolTableRecord
100
AcDbLayerTableRecord
  2
画層126
 70
    0
 62
7
  6
CONTINUOUS
  0
LAYER
  5
BA
100
AcDbSymbolTableRecord
100
AcDbLayerTableRecord
  2
画層127
 70
    0
 62
7
  6
CONTINUOUS
  0
LAYER
  5
BB
100
AcDbSymbolTableRecord
100
AcDbLayerTableRecord
  2
画層128
 70
    0
 62
7
  6
CONTINUOUS
  0
LAYER
  5
BC
100
AcDbSymbolTableRecord
100
AcDbLayerTableRecord
  2
画層129
 70
    0
 62
7
  6
CONTINUOUS
  0
LAYER
  5
BD
100
AcDbSymbolTableRecord
100
AcDbLayerTableRecord
  2
画層130
 70
    0
 62
7
  6
CONTINUOUS
  0
LAYER
  5
BE
100
AcDbSymbolTableRecord
100
AcDbLayerTableRecord
  2
画層131
 70
    0
 62
7
  6
CONTINUOUS
  0
LAYER
  5
BF
100
AcDbSymbolTableRecord
100
AcDbLayerTableRecord
  2
画層132
 70
    0
 62
7
  6
CONTINUOUS
  0
LAYER
  5
C0
100
AcDbSymbolTableRecord
100
AcDbLayerTableRecord
  2
画層133
 70
    0
 62
7
  6
CONTINUOUS
  0
LAYER
  5
C1
100
AcDbSymbolTableRecord
100
AcDbLayerTableRecord
  2
画層134
 70
    0
 62
7
  6
CONTINUOUS
  0
LAYER
  5
C2
100
AcDbSymbolTableRecord
100
AcDbLayerTableRecord
  2
画層135
 70
    0
 62
7
  6
CONTINUOUS
  0
LAYER
  5
C3
100
AcDbSymbolTableRecord
100
AcDbLayerTableRecord
  2
画層136
 70
    0
 62
7
  6
CONTINUOUS
  0
LAYER
  5
C4
100
AcDbSymbolTableRecord
100
AcDbLayerTableRecord
  2
画層137
 70
    0
 62
7
  6
CONTINUOUS
  0
LAYER
  5
C5
100
AcDbSymbolTableRecord
100
AcDbLayerTableRecord
  2
画層138
 70
    0
 62
7
  6
CONTINUOUS
  0
LAYER
  5
C6
100
AcDbSymbolTableRecord
100
AcDbLayerTableRecord
  2
画層139
 70
    0
 62
7
  6
CONTINUOUS
  0
LAYER
  5
C7
100
AcDbSymbolTableRecord
100
AcDbLayerTableRecord
  2
画層140
 70
    0
 62
7
  6
CONTINUOUS
  0
LAYER
  5
C8
100
AcDbSymbolTableRecord
100
AcDbLayerTableRecord
  2
画層141
 70
    0
 62
7
  6
CONTINUOUS
  0
LAYER
  5
C9
100
AcDbSymbolTableRecord
100
AcDbLayerTableRecord
  2
画層142
 70
    0
 62
7
  6
CONTINUOUS
  0
LAYER
  5
CA
100
AcDbSymbolTableRecord
100
AcDbLayerTableRecord
  2
画層143
 70
    0
 62
7
  6
CONTINUOUS
  0
LAYER
  5
CB
100
AcDbSymbolTableRecord
100
AcDbLayerTableRecord
  2
画層144
 70
    0
 62
7
  6
CONTINUOUS
  0
LAYER
  5
CC
100
AcDbSymbolTableRecord
100
AcDbLayerTableRecord
  2
画層145
 70
    0
 62
7
  6
CONTINUOUS
  0
LAYER
  5
CD
100
AcDbSymbolTableRecord
100
AcDbLayerTableRecord
  2
画層146
 70
    0
 62
7
  6
CONTINUOUS
  0
LAYER
  5
CE
100
AcDbSymbolTableRecord
100
AcDbLayerTableRecord
  2
画層147
 70
    0
 62
7
  6
CONTINUOUS
  0
LAYER
  5
CF
100
AcDbSymbolTableRecord
100
AcDbLayerTableRecord
  2
画層148
 70
    0
 62
7
  6
CONTINUOUS
  0
LAYER
  5
D0
100
AcDbSymbolTableRecord
100
AcDbLayerTableRecord
  2
画層149
 70
    0
 62
7
  6
CONTINUOUS
  0
LAYER
  5
D1
100
AcDbSymbolTableRecord
100
AcDbLayerTableRecord
  2
画層150
 70
    0
 62
7
  6
CONTINUOUS
  0
LAYER
  5
D2
100
AcDbSymbolTableRecord
100
AcDbLayerTableRecord
  2
画層151
 70
    0
 62
7
  6
CONTINUOUS
  0
LAYER
  5
D3
100
AcDbSymbolTableRecord
100
AcDbLayerTableRecord
  2
画層152
 70
    0
 62
7
  6
CONTINUOUS
  0
LAYER
  5
D4
100
AcDbSymbolTableRecord
100
AcDbLayerTableRecord
  2
画層153
 70
    0
 62
7
  6
CONTINUOUS
  0
LAYER
  5
D5
100
AcDbSymbolTableRecord
100
AcDbLayerTableRecord
  2
画層154
 70
    0
 62
7
  6
CONTINUOUS
  0
LAYER
  5
D6
100
AcDbSymbolTableRecord
100
AcDbLayerTableRecord
  2
画層155
 70
    0
 62
7
  6
CONTINUOUS
  0
LAYER
  5
D7
100
AcDbSymbolTableRecord
100
AcDbLayerTableRecord
  2
画層156
 70
    0
 62
7
  6
CONTINUOUS
  0
LAYER
  5
D8
100
AcDbSymbolTableRecord
100
AcDbLayerTableRecord
  2
画層157
 70
    0
 62
7
  6
CONTINUOUS
  0
LAYER
  5
D9
100
AcDbSymbolTableRecord
100
AcDbLayerTableRecord
  2
画層158
 70
    0
 62
7
  6
CONTINUOUS
  0
LAYER
  5
DA
100
AcDbSymbolTableRecord
100
AcDbLayerTableRecord
  2
画層159
 70
    0
 62
7
  6
CONTINUOUS
  0
LAYER
  5
DB
100
AcDbSymbolTableRecord
100
AcDbLayerTableRecord
  2
画層160
 70
    0
 62
7
  6
CONTINUOUS
  0
LAYER
  5
DC
100
AcDbSymbolTableRecord
100
AcDbLayerTableRecord
  2
画層161
 70
    0
 62
7
  6
CONTINUOUS
  0
LAYER
  5
DD
100
AcDbSymbolTableRecord
100
AcDbLayerTableRecord
  2
画層162
 70
    0
 62
7
  6
CONTINUOUS
  0
LAYER
  5
DE
100
AcDbSymbolTableRecord
100
AcDbLayerTableRecord
  2
画層163
 70
    0
 62
7
  6
CONTINUOUS
  0
LAYER
  5
DF
100
AcDbSymbolTableRecord
100
AcDbLayerTableRecord
  2
画層164
 70
    0
 62
7
  6
CONTINUOUS
  0
LAYER
  5
E0
100
AcDbSymbolTableRecord
100
AcDbLayerTableRecord
  2
画層165
 70
    0
 62
7
  6
CONTINUOUS
  0
LAYER
  5
E1
100
AcDbSymbolTableRecord
100
AcDbLayerTableRecord
  2
画層166
 70
    0
 62
7
  6
CONTINUOUS
  0
LAYER
  5
E2
100
AcDbSymbolTableRecord
100
AcDbLayerTableRecord
  2
画層167
 70
    0
 62
7
  6
CONTINUOUS
  0
LAYER
  5
E3
100
AcDbSymbolTableRecord
100
AcDbLayerTableRecord
  2
画層168
 70
    0
 62
7
  6
CONTINUOUS
  0
LAYER
  5
E4
100
AcDbSymbolTableRecord
100
AcDbLayerTableRecord
  2
画層169
 70
    0
 62
7
  6
CONTINUOUS
  0
LAYER
  5
E5
100
AcDbSymbolTableRecord
100
AcDbLayerTableRecord
  2
画層170
 70
    0
 62
7
  6
CONTINUOUS
  0
LAYER
  5
E6
100
AcDbSymbolTableRecord
100
AcDbLayerTableRecord
  2
画層171
 70
    0
 62
7
  6
CONTINUOUS
  0
LAYER
  5
E7
100
AcDbSymbolTableRecord
100
AcDbLayerTableRecord
  2
画層172
 70
    0
 62
7
  6
CONTINUOUS
  0
LAYER
  5
E8
100
AcDbSymbolTableRecord
100
AcDbLayerTableRecord
  2
画層173
 70
    0
 62
7
  6
CONTINUOUS
  0
LAYER
  5
E9
100
AcDbSymbolTableRecord
100
AcDbLayerTableRecord
  2
画層174
 70
    0
 62
7
  6
CONTINUOUS
  0
LAYER
  5
EA
100
AcDbSymbolTableRecord
100
AcDbLayerTableRecord
  2
画層175
 70
    0
 62
7
  6
CONTINUOUS
  0
LAYER
  5
EB
100
AcDbSymbolTableRecord
100
AcDbLayerTableRecord
  2
画層176
 70
    0
 62
7
  6
CONTINUOUS
  0
LAYER
  5
EC
100
AcDbSymbolTableRecord
100
AcDbLayerTableRecord
  2
画層177
 70
    0
 62
7
  6
CONTINUOUS
  0
LAYER
  5
ED
100
AcDbSymbolTableRecord
100
AcDbLayerTableRecord
  2
画層178
 70
    0
 62
7
  6
CONTINUOUS
  0
LAYER
  5
EE
100
AcDbSymbolTableRecord
100
AcDbLayerTableRecord
  2
画層179
 70
    0
 62
7
  6
CONTINUOUS
  0
LAYER
  5
EF
100
AcDbSymbolTableRecord
100
AcDbLayerTableRecord
  2
画層180
 70
    0
 62
7
  6
CONTINUOUS
  0
LAYER
  5
F0
100
AcDbSymbolTableRecord
100
AcDbLayerTableRecord
  2
画層181
 70
    0
 62
7
  6
CONTINUOUS
  0
LAYER
  5
F1
100
AcDbSymbolTableRecord
100
AcDbLayerTableRecord
  2
画層182
 70
    0
 62
7
  6
CONTINUOUS
  0
LAYER
  5
F2
100
AcDbSymbolTableRecord
100
AcDbLayerTableRecord
  2
画層183
 70
    0
 62
7
  6
CONTINUOUS
  0
LAYER
  5
F3
100
AcDbSymbolTableRecord
100
AcDbLayerTableRecord
  2
画層184
 70
    0
 62
7
  6
CONTINUOUS
  0
LAYER
  5
F4
100
AcDbSymbolTableRecord
100
AcDbLayerTableRecord
  2
画層185
 70
    0
 62
7
  6
CONTINUOUS
  0
LAYER
  5
F5
100
AcDbSymbolTableRecord
100
AcDbLayerTableRecord
  2
画層186
 70
    0
 62
7
  6
CONTINUOUS
  0
LAYER
  5
F6
100
AcDbSymbolTableRecord
100
AcDbLayerTableRecord
  2
画層187
 70
    0
 62
7
  6
CONTINUOUS
  0
LAYER
  5
F7
100
AcDbSymbolTableRecord
100
AcDbLayerTableRecord
  2
画層188
 70
    0
 62
7
  6
CONTINUOUS
  0
LAYER
  5
F8
100
AcDbSymbolTableRecord
100
AcDbLayerTableRecord
  2
画層189
 70
    0
 62
7
  6
CONTINUOUS
  0
LAYER
  5
F9
100
AcDbSymbolTableRecord
100
AcDbLayerTableRecord
  2
画層190
 70
    0
 62
7
  6
CONTINUOUS
  0
LAYER
  5
FA
100
AcDbSymbolTableRecord
100
AcDbLayerTableRecord
  2
画層191
 70
    0
 62
7
  6
CONTINUOUS
  0
LAYER
  5
FB
100
AcDbSymbolTableRecord
100
AcDbLayerTableRecord
  2
画層192
 70
    0
 62
7
  6
CONTINUOUS
  0
LAYER
  5
FC
100
AcDbSymbolTableRecord
100
AcDbLayerTableRecord
  2
画層193
 70
    0
 62
7
  6
CONTINUOUS
  0
LAYER
  5
FD
100
AcDbSymbolTableRecord
100
AcDbLayerTableRecord
  2
画層194
 70
    0
 62
7
  6
CONTINUOUS
  0
LAYER
  5
FE
100
AcDbSymbolTableRecord
100
AcDbLayerTableRecord
  2
画層195
 70
    0
 62
7
  6
CONTINUOUS
  0
LAYER
  5
FF
100
AcDbSymbolTableRecord
100
AcDbLayerTableRecord
  2
画層196
 70
    0
 62
7
  6
CONTINUOUS
  0
LAYER
  5
100
100
AcDbSymbolTableRecord
100
AcDbLayerTableRecord
  2
画層197
 70
    0
 62
7
  6
CONTINUOUS
  0
LAYER
  5
101
100
AcDbSymbolTableRecord
100
AcDbLayerTableRecord
  2
画層198
 70
    0
 62
7
  6
CONTINUOUS
  0
LAYER
  5
102
100
AcDbSymbolTableRecord
100
AcDbLayerTableRecord
  2
画層199
 70
    0
 62
7
  6
CONTINUOUS
  0
LAYER
  5
103
100
AcDbSymbolTableRecord
100
AcDbLayerTableRecord
  2
画層200
 70
    0
 62
7
  6
CONTINUOUS
  0
LAYER
  5
104
100
AcDbSymbolTableRecord
100
AcDbLayerTableRecord
  2
画層201
 70
    0
 62
7
  6
CONTINUOUS
  0
LAYER
  5
105
100
AcDbSymbolTableRecord
100
AcDbLayerTableRecord
  2
画層202
 70
    0
 62
7
  6
CONTINUOUS
  0
LAYER
  5
106
100
AcDbSymbolTableRecord
100
AcDbLayerTableRecord
  2
画層203
 70
    0
 62
7
  6
CONTINUOUS
  0
LAYER
  5
107
100
AcDbSymbolTableRecord
100
AcDbLayerTableRecord
  2
画層204
 70
    0
 62
7
  6
CONTINUOUS
  0
LAYER
  5
108
100
AcDbSymbolTableRecord
100
AcDbLayerTableRecord
  2
画層205
 70
    0
 62
7
  6
CONTINUOUS
  0
LAYER
  5
109
100
AcDbSymbolTableRecord
100
AcDbLayerTableRecord
  2
画層206
 70
    0
 62
7
  6
CONTINUOUS
  0
LAYER
  5
10A
100
AcDbSymbolTableRecord
100
AcDbLayerTableRecord
  2
画層207
 70
    0
 62
7
  6
CONTINUOUS
  0
LAYER
  5
10B
100
AcDbSymbolTableRecord
100
AcDbLayerTableRecord
  2
画層208
 70
    0
 62
7
  6
CONTINUOUS
  0
LAYER
  5
10C
100
AcDbSymbolTableRecord
100
AcDbLayerTableRecord
  2
画層209
 70
    0
 62
7
  6
CONTINUOUS
  0
LAYER
  5
10D
100
AcDbSymbolTableRecord
100
AcDbLayerTableRecord
  2
画層210
 70
    0
 62
7
  6
CONTINUOUS
  0
LAYER
  5
10E
100
AcDbSymbolTableRecord
100
AcDbLayerTableRecord
  2
画層211
 70
    0
 62
7
  6
CONTINUOUS
  0
LAYER
  5
10F
100
AcDbSymbolTableRecord
100
AcDbLayerTableRecord
  2
画層212
 70
    0
 62
7
  6
CONTINUOUS
  0
LAYER
  5
110
100
AcDbSymbolTableRecord
100
AcDbLayerTableRecord
  2
画層213
 70
    0
 62
7
  6
CONTINUOUS
  0
LAYER
  5
111
100
AcDbSymbolTableRecord
100
AcDbLayerTableRecord
  2
画層214
 70
    0
 62
7
  6
CONTINUOUS
  0
LAYER
  5
112
100
AcDbSymbolTableRecord
100
AcDbLayerTableRecord
  2
画層215
 70
    0
 62
7
  6
CONTINUOUS
  0
LAYER
  5
113
100
AcDbSymbolTableRecord
100
AcDbLayerTableRecord
  2
画層216
 70
    0
 62
7
  6
CONTINUOUS
  0
LAYER
  5
114
100
AcDbSymbolTableRecord
100
AcDbLayerTableRecord
  2
画層217
 70
    0
 62
7
  6
CONTINUOUS
  0
LAYER
  5
115
100
AcDbSymbolTableRecord
100
AcDbLayerTableRecord
  2
画層218
 70
    0
 62
7
  6
CONTINUOUS
  0
LAYER
  5
116
100
AcDbSymbolTableRecord
100
AcDbLayerTableRecord
  2
画層219
 70
    0
 62
7
  6
CONTINUOUS
  0
LAYER
  5
117
100
AcDbSymbolTableRecord
100
AcDbLayerTableRecord
  2
画層220
 70
    0
 62
7
  6
CONTINUOUS
  0
LAYER
  5
118
100
AcDbSymbolTableRecord
100
AcDbLayerTableRecord
  2
画層221
 70
    0
 62
7
  6
CONTINUOUS
  0
LAYER
  5
119
100
AcDbSymbolTableRecord
100
AcDbLayerTableRecord
  2
画層222
 70
    0
 62
7
  6
CONTINUOUS
  0
LAYER
  5
11A
100
AcDbSymbolTableRecord
100
AcDbLayerTableRecord
  2
画層223
 70
    0
 62
7
  6
CONTINUOUS
  0
LAYER
  5
11B
100
AcDbSymbolTableRecord
100
AcDbLayerTableRecord
  2
画層224
 70
    0
 62
7
  6
CONTINUOUS
  0
LAYER
  5
11C
100
AcDbSymbolTableRecord
100
AcDbLayerTableRecord
  2
画層225
 70
    0
 62
7
  6
CONTINUOUS
  0
LAYER
  5
11D
100
AcDbSymbolTableRecord
100
AcDbLayerTableRecord
  2
画層226
 70
    0
 62
7
  6
CONTINUOUS
  0
LAYER
  5
11E
100
AcDbSymbolTableRecord
100
AcDbLayerTableRecord
  2
画層227
 70
    0
 62
7
  6
CONTINUOUS
  0
LAYER
  5
11F
100
AcDbSymbolTableRecord
100
AcDbLayerTableRecord
  2
画層228
 70
    0
 62
7
  6
CONTINUOUS
  0
LAYER
  5
120
100
AcDbSymbolTableRecord
100
AcDbLayerTableRecord
  2
画層229
 70
    0
 62
7
  6
CONTINUOUS
  0
LAYER
  5
121
100
AcDbSymbolTableRecord
100
AcDbLayerTableRecord
  2
画層230
 70
    0
 62
7
  6
CONTINUOUS
  0
LAYER
  5
122
100
AcDbSymbolTableRecord
100
AcDbLayerTableRecord
  2
画層231
 70
    0
 62
7
  6
CONTINUOUS
  0
LAYER
  5
123
100
AcDbSymbolTableRecord
100
AcDbLayerTableRecord
  2
画層232
 70
    0
 62
7
  6
CONTINUOUS
  0
LAYER
  5
124
100
AcDbSymbolTableRecord
100
AcDbLayerTableRecord
  2
画層233
 70
    0
 62
7
  6
CONTINUOUS
  0
LAYER
  5
125
100
AcDbSymbolTableRecord
100
AcDbLayerTableRecord
  2
画層234
 70
    0
 62
7
  6
CONTINUOUS
  0
LAYER
  5
126
100
AcDbSymbolTableRecord
100
AcDbLayerTableRecord
  2
画層235
 70
    0
 62
7
  6
CONTINUOUS
  0
LAYER
  5
127
100
AcDbSymbolTableRecord
100
AcDbLayerTableRecord
  2
画層236
 70
    0
 62
7
  6
CONTINUOUS
  0
LAYER
  5
128
100
AcDbSymbolTableRecord
100
AcDbLayerTableRecord
  2
画層237
 70
    0
 62
7
  6
CONTINUOUS
  0
LAYER
  5
129
100
AcDbSymbolTableRecord
100
AcDbLayerTableRecord
  2
画層238
 70
    0
 62
7
  6
CONTINUOUS
  0
LAYER
  5
12A
100
AcDbSymbolTableRecord
100
AcDbLayerTableRecord
  2
画層239
 70
    0
 62
7
  6
CONTINUOUS
  0
LAYER
  5
12B
100
AcDbSymbolTableRecord
100
AcDbLayerTableRecord
  2
画層240
 70
    0
 62
7
  6
CONTINUOUS
  0
LAYER
  5
12C
100
AcDbSymbolTableRecord
100
AcDbLayerTableRecord
  2
画層241
 70
    0
 62
7
  6
CONTINUOUS
  0
LAYER
  5
12D
100
AcDbSymbolTableRecord
100
AcDbLayerTableRecord
  2
画層242
 70
    0
 62
7
  6
CONTINUOUS
  0
LAYER
  5
12E
100
AcDbSymbolTableRecord
100
AcDbLayerTableRecord
  2
画層243
 70
    0
 62
7
  6
CONTINUOUS
  0
LAYER
  5
12F
100
AcDbSymbolTableRecord
100
AcDbLayerTableRecord
  2
画層244
 70
    0
 62
7
  6
CONTINUOUS
  0
LAYER
  5
130
100
AcDbSymbolTableRecord
100
AcDbLayerTableRecord
  2
画層245
 70
    0
 62
7
  6
CONTINUOUS
  0
LAYER
  5
131
100
AcDbSymbolTableRecord
100
AcDbLayerTableRecord
  2
画層246
 70
    0
 62
7
  6
CONTINUOUS
  0
LAYER
  5
132
100
AcDbSymbolTableRecord
100
AcDbLayerTableRecord
  2
画層247
 70
    0
 62
7
  6
CONTINUOUS
  0
LAYER
  5
133
100
AcDbSymbolTableRecord
100
AcDbLayerTableRecord
  2
画層248
 70
    0
 62
7
  6
CONTINUOUS
  0
LAYER
  5
134
100
AcDbSymbolTableRecord
100
AcDbLayerTableRecord
  2
画層249
 70
    0
 62
7
  6
CONTINUOUS
  0
LAYER
  5
135
100
AcDbSymbolTableRecord
100
AcDbLayerTableRecord
  2
画層250
 70
    0
 62
7
  6
CONTINUOUS
  0
LAYER
  5
136
100
AcDbSymbolTableRecord
100
AcDbLayerTableRecord
  2
画層251
 70
    0
 62
7
  6
CONTINUOUS
  0
LAYER
  5
137
100
AcDbSymbolTableRecord
100
AcDbLayerTableRecord
  2
画層252
 70
    0
 62
7
  6
CONTINUOUS
  0
LAYER
  5
138
100
AcDbSymbolTableRecord
100
AcDbLayerTableRecord
  2
画層253
 70
    0
 62
7
  6
CONTINUOUS
  0
LAYER
  5
139
100
AcDbSymbolTableRecord
100
AcDbLayerTableRecord
  2
画層254
 70
    0
 62
7
  6
CONTINUOUS
  0
LAYER
  5
13A
100
AcDbSymbolTableRecord
100
AcDbLayerTableRecord
  2
画層255
 70
    0
 62
7
  6
CONTINUOUS
  0
ENDTAB
  0
TABLE
  2
STYLE
  5
4
100
AcDbSymbolTable
 70
     1
  0
STYLE
  5
13B
100
AcDbSymbolTableRecord
100
AcDbTextStyleTableRecord
  2
Standard
 70
     0
 40
0.0
 41
1.0
 50
0.0
 71
     0
 42
3.2
  3
TXT
  4
BIGFONT
  0
STYLE
  5
13C
100
AcDbSymbolTableRecord
100
AcDbTextStyleTableRecord
  2
Font_0
 70
     0
 40
0.0
 41
1.0
 50
0.0
 71
     0
 42
3.2
  3
MS Gothic.ttf
  4

1001
ACAD
1000
MS Gothic
1071
  32817
  0
ENDTAB
  0
TABLE
  2
VIEW
  5
5
100
AcDbSymbolTable
 70
     0
  0
ENDTAB
  0
TABLE
  2
UCS
  5
6
100
AcDbSymbolTable
 70
     0
  0
ENDTAB
  0
TABLE
  2
APPID
  5
7
100
AcDbSymbolTable
 70
     1
  0
APPID
  5
13D
100
AcDbSymbolTableRecord
100
AcDbRegAppTableRecord
  2
ACAD
 70
     0
  0
ENDTAB
  0
TABLE
  2
DIMSTYLE
  5
8
100
AcDbSymbolTable
 70
     1
  0
DIMSTYLE
105
2A
100
AcDbSymbolTableRecord
100
AcDbDimStyleTableRecord
  2
STANDARD
 70
     0
  3

  4

  5

  6

  7

 40
1.0
 41
2.5
 42
2.0
 43
7.0
 44
1.25
 45
0.0
 46
0.0
 47
0.0
 48
0.0
 71
     0
 72
     0
 73
     0
 74
     0
 75
     0
 76
     0
 77
     1
 78
     0
140
2.5
141
2.5
142
0.0
143
0.0394
144
1.0
145
0.0
146
1.0
147
1.0
170
     0
171
     2
172
     0
173
     0
174
     1
175
     0
176
     0
177
     0
178
     0
270
     2
271
     2
272
     4
273
     2
274
     2
275
     0
280
     0
281
     0
282
     0
283
     1
284
     0
285
     0
286
     0
287
     3
288
     0
  0
ENDTAB
  0
TABLE
  2
BLOCK_RECORD
  5
9
100
AcDbSymbolTable
 70
     0
  0
BLOCK_RECORD
  5
13E
100
AcDbSymbolTableRecord
100
AcDbBlockTableRecord
  2
*MODEL_SPACE
  0
BLOCK_RECORD
  5
13F
100
AcDbSymbolTableRecord
100
AcDbBlockTableRecord
  2
*PAPER_SPACE
  0
ENDTAB
  0
ENDSEC
  0
SECTION
  2
BLOCKS
  0
BLOCK
  5
141
100
AcDbEntity
  8
0
100
AcDbBlockBegin
2
*MODEL_SPACE
 70
     0
 10
0.0
 20
0.0
 30
0.0
  3
*MODEL_SPACE
  1

  0
ENDBLK
  5
142
100
AcDbEntity
  8
0
100
AcDbBlockEnd
  0
BLOCK
  5
143
100
AcDbEntity
 67
     1
  8
0
100
AcDbBlockBegin
  2
*PAPER_SPACE
 70
     0
 10
0.0
 20
0.0
 30
0.0
  3
*PAPER_SPACE
  1

  0
ENDBLK
  5
144
100
AcDbEntity
 67
     1
  8
0
100
AcDbBlockEnd
  0
ENDSEC
  0
SECTION
  2
ENTITIES
  0
LINE
  5
145
100
AcDbEntity
  8
001
100
AcDbLine
  6
BYLAYER
370
9
 10
78.407849
 20
64.927066
 11
78.407849
 21
28.252332
  0
LINE
  5
146
100
AcDbEntity
  8
001
100
AcDbLine
  6
BYLAYER
370
9
 10
178.407849
 20
67.177066
 11
178.407849
 21
28.252332
  0
LINE
  5
147
100
AcDbEntity
  8
001
100
AcDbLine
  6
BYLAYER
370
9
 10
78.407849
 20
31.002332
 11
178.407849
 21
31.002332
  0
LWPOLYLINE
  5
148
100
AcDbEntity
  8
001
100
AcDbPolyline
  6
BYLAYER
370
9
 90
     3
 10
79.907849
  20
30.600408
 10
78.407849
  20
31.002332
 10
79.907849
  20
31.404256
  0
LWPOLYLINE
  5
149
100
AcDbEntity
  8
001
100
AcDbPolyline
  6
BYLAYER
370
9
 90
     3
 10
176.907849
  20
31.404256
 10
178.407849
  20
31.002332
 10
176.907849
  20
30.600408
  0
TEXT
  5
14A
100
AcDbEntity
  8
001
100
AcDbText
  6
BYLAYER
 10
122.407849
 20
32.002332
 40
4
 41
0.833333
  1
１００
  7
Font_0
100
AcDbText
  0
LINE
  5
14B
100
AcDbEntity
  8
001
100
AcDbLine
  6
BYLAYER
370
9
 10
59.230339
 20
64.354575
 11
77.473375
 21
46.11154
  0
ARC
  5
14C
100
AcDbEntity
  8
001
100
AcDbCircle
  6
BYLAYER
370
9
 10
48.407849
 20
75.177066
 40
38.3548608797154
100
AcDbArc
 50
270
 51
315
  0
LWPOLYLINE
  5
14D
100
AcDbEntity
  8
001
100
AcDbPolyline
  6
BYLAYER
370
9
 90
     3
 10
74.169043
  20
47.306071
 10
75.528831
  20
48.056084
 10
74.726226
  20
46.726659
  0
LWPOLYLINE
  5
14E
100
AcDbEntity
  8
001
100
AcDbPolyline
  6
BYLAYER
370
9
 90
     3
 10
49.915421
  20
36.449687
 10
48.407849
  20
36.822205
 10
49.899703
  20
37.253381
  0
TEXT
  5
14F
100
AcDbEntity
  8
001
100
AcDbText
  6
BYLAYER
 10
57.159658
 20
38.369574
 40
4
 41
0.978261
  1
４５°
  7
Font_0
 50
22.500001
100
AcDbText
  0
LINE
  5
150
100
AcDbEntity
  8
001
100
AcDbLine
  6
BYLAYER
370
9
 10
59.341531
 20
64.243383
 11
59.341531
 21
45.340943
  0
LINE
  5
151
100
AcDbEntity
  8
001
100
AcDbLine
  6
BYLAYER
370
9
 10
48.407849
 20
48.090943
 11
59.341531
 21
48.090943
  0
LWPOLYLINE
  5
152
100
AcDbEntity
  8
001
100
AcDbPolyline
  6
BYLAYER
370
9
 90
     3
 10
46.907849
  20
48.492867
 10
48.407849
  20
48.090943
 10
46.907849
  20
47.689019
  0
LWPOLYLINE
  5
153
100
AcDbEntity
  8
001
100
AcDbPolyline
  6
BYLAYER
370
9
 90
     3
 10
60.841531
  20
47.689019
 10
59.341531
  20
48.090943
 10
60.841531
  20
48.492867
  0
TEXT
  5
154
100
AcDbEntity
  8
001
100
AcDbText
  6
BYLAYER
 10
20.907849
 20
49.090943
 40
4
 41
0.833333
  1
（１０．９）
  7
Font_0
100
AcDbText
  0
LINE
  5
155
100
AcDbEntity
  8
001
100
AcDbLine
  6
BYLAYER
370
9
 10
48.407849
 20
48.090943
 11
17.907849
 21
48.090943
  0
LINE
  5
156
100
AcDbEntity
  8
001
100
AcDbLine
  6
BYLAYER
370
9
 10
59.341531
 20
48.090943
 11
61.841531
 21
48.090943
  0
TEXT
  5
157
100
AcDbEntity
  8
001
100
AcDbText
  6
BYLAYER
 10
21.589702
 20
63.177066
 40
4
 41
0.851064
  1
（Φ２９．８７）
  7
Font_0
 50
90.000003
100
AcDbText
  0
LWPOLYLINE
  5
158
100
AcDbEntity
  8
001
100
AcDbPolyline
  6
BYLAYER
370
9
 90
     3
 10
22.991625
  20
65.743383
 10
22.589702
  20
64.243383
 10
22.187778
  20
65.743383
  0
LINE
  5
159
100
AcDbEntity
  8
001
100
AcDbLine
  6
BYLAYER
370
9
 10
22.589702
 20
94.110748
 11
22.589702
 21
64.243383
  0
LWPOLYLINE
  5
15A
100
AcDbEntity
  8
001
100
AcDbPolyline
  6
BYLAYER
370
9
 90
     3
 10
59.341531
  20
64.243383
 10
22.589702
  20
64.243383
 10
19.839702
  20
64.243383
  0
TEXT
  5
15B
100
AcDbEntity
  8
001
100
AcDbText
  6
BYLAYER
 10
32.28979
 20
75.177066
 40
4
 41
0.909091
  1
Φ８
  7
Font_0
 50
90.000003
100
AcDbText
  0
LWPOLYLINE
  5
15C
100
AcDbEntity
  8
001
100
AcDbPolyline
  6
BYLAYER
370
9
 90
     3
 10
33.691714
  20
76.677066
 10
33.28979
  20
75.177066
 10
32.887866
  20
76.677066
  0
LINE
  5
15D
100
AcDbEntity
  8
001
100
AcDbLine
  6
BYLAYER
370
9
 10
33.28979
 20
75.177066
 11
33.28979
 21
83.177066
  0
LWPOLYLINE
  5
15E
100
AcDbEntity
  8
001
100
AcDbPolyline
  6
BYLAYER
370
9
 90
     3
 10
48.407849
  20
75.177066
 10
33.28979
  20
75.177066
 10
30.53979
  20
75.177066
  0
LINE
  5
15F
100
AcDbEntity
  8
001
100
AcDbLine
  6
BYLAYER
370
9
 10
174.407849
 20
89.177066
 11
209.060294
 21
89.177066
  0
LINE
  5
160
100
AcDbEntity
  8
001
100
AcDbLine
  6
BYLAYER
370
9
 10
174.407849
 20
69.177066
 11
209.060294
 21
69.177066
  0
LINE
  5
161
100
AcDbEntity
  8
001
100
AcDbLine
  6
BYLAYER
370
9
 10
206.310294
 20
89.177066
 11
206.310294
 21
69.177066
  0
LWPOLYLINE
  5
162
100
AcDbEntity
  8
001
100
AcDbPolyline
  6
BYLAYER
370
9
 90
     3
 10
205.90837
  20
87.677066
 10
206.310294
  20
89.177066
 10
206.712217
  20
87.677066
  0
LWPOLYLINE
  5
163
100
AcDbEntity
  8
001
100
AcDbPolyline
  6
BYLAYER
370
9
 90
     3
 10
206.712217
  20
70.677066
 10
206.310294
  20
69.177066
 10
205.90837
  20
70.677066
  0
TEXT
  5
164
100
AcDbEntity
  8
001
100
AcDbText
  6
BYLAYER
 10
205.310294
 20
73.177066
 40
4
 41
0.882353
  1
Φ２０
  7
Font_0
 50
90.000003
100
AcDbText
  0
LINE
  5
165
100
AcDbEntity
  8
001
100
AcDbLine
  6
BYLAYER
370
9
 10
178.407849
 20
73.177066
 11
178.407849
 21
17.174502
  0
LINE
  5
166
100
AcDbEntity
  8
001
100
AcDbLine
  6
BYLAYER
370
9
 10
48.407849
 20
31.002332
 11
48.407849
 21
17.174502
  0
LINE
  5
167
100
AcDbEntity
  8
001
100
AcDbLine
  6
BYLAYER
370
9
 10
178.407849
 20
19.924502
 11
48.407849
 21
19.924502
  0
LWPOLYLINE
  5
168
100
AcDbEntity
  8
001
100
AcDbPolyline
  6
BYLAYER
370
9
 90
     3
 10
176.907849
  20
20.326426
 10
178.407849
  20
19.924502
 10
176.907849
  20
19.522578
  0
LWPOLYLINE
  5
169
100
AcDbEntity
  8
001
100
AcDbPolyline
  6
BYLAYER
370
9
 90
     3
 10
49.907849
  20
19.522578
 10
48.407849
  20
19.924502
 10
49.907849
  20
20.326426
  0
TEXT
  5
16A
100
AcDbEntity
  8
001
100
AcDbText
  6
BYLAYER
 10
107.407849
 20
20.924502
 40
4
 41
0.833333
  1
１３０
  7
Font_0
100
AcDbText
  0
LINE
  5
16B
100
AcDbEntity
  8
001
100
AcDbLine
  6
BYLAYER
370
9
 10
48.407849
 20
75.177066
 11
48.407849
 21
28.252332
  0
LINE
  5
16C
100
AcDbEntity
  8
001
100
AcDbLine
  6
BYLAYER
370
9
 10
78.407849
 20
66.927066
 11
78.407849
 21
28.252332
  0
LINE
  5
16D
100
AcDbEntity
  8
001
100
AcDbLine
  6
BYLAYER
370
9
 10
48.407849
 20
31.002332
 11
78.407849
 21
31.002332
  0
LWPOLYLINE
  5
16E
100
AcDbEntity
  8
001
100
AcDbPolyline
  6
BYLAYER
370
9
 90
     3
 10
49.907849
  20
30.600408
 10
48.407849
  20
31.002332
 10
49.907849
  20
31.404256
  0
LWPOLYLINE
  5
16F
100
AcDbEntity
  8
001
100
AcDbPolyline
  6
BYLAYER
370
9
 90
     3
 10
76.907849
  20
31.404256
 10
78.407849
  20
31.002332
 10
76.907849
  20
30.600408
  0
TEXT
  5
170
100
AcDbEntity
  8
001
100
AcDbText
  6
BYLAYER
 10
59.407849
 20
32.002332
 40
4
 41
0.833333
  1
３０
  7
Font_0
100
AcDbText
  0
LINE
  5
171
100
AcDbEntity
  8
001
100
AcDbLine
  6
BYLAYER
370
50
 10
178.407849
 20
73.177066
 11
178.407849
 21
85.177066
  0
LINE
  5
172
100
AcDbEntity
  8
001
100
AcDbLine
  6
BYLAYER
370
50
 10
78.407849
 20
66.927066
 11
78.407849
 21
91.427066
  0
LWPOLYLINE
  5
173
100
AcDbEntity
  8
001
100
AcDbPolyline
  6
BYLAYER
370
50
 90
     7
 10
66.638531
  20
70.715359
 10
66.717631
  20
69.81462
 10
66.834817
  20
68.612946
 10
66.929592
  20
67.793942
 10
67.069876
  20
66.957213
 10
67.211624
  20
66.294943
 10
67.333769
  20
65.818169
  0
LWPOLYLINE
  5
174
100
AcDbEntity
  8
001
100
AcDbPolyline
  6
BYLAYER
370
50
 90
     17
 10
66.638531
  20
70.715359
 10
67.120532
  20
71.583803
 10
67.716794
  20
72.814809
 10
68.167223
  20
73.994233
 10
68.475134
  20
75.11367
 10
68.719726
  20
76.306748
 10
68.889781
  20
77.539888
 10
68.96514
  20
78.781714
 10
68.94774
  20
80.017421
 10
68.844164
  20
81.244587
 10
68.647194
  20
82.468614
 10
68.357769
  20
83.666261
 10
67.997563
  20
84.816642
 10
67.583054
  20
85.881054
 10
67.019209
  20
86.987909
 10
66.306837
  20
88.122158
 10
65.742795
  20
88.914363
  0
LINE
  5
175
100
AcDbEntity
  8
001
100
AcDbLine
  6
BYLAYER
370
50
 10
66.638531
 20
70.715359
 11
66.638531
 21
73.740072
  0
LWPOLYLINE
  5
176
100
AcDbEntity
  8
001
100
AcDbPolyline
  6
BYLAYER
370
50
 90
     5
 10
66.638531
  20
73.740072
 10
66.596662
  20
74.525295
 10
66.416126
  20
75.653902
 10
66.075288
  20
76.729896
 10
65.763636
  20
77.441015
  0
LWPOLYLINE
  5
177
100
AcDbEntity
  8
001
100
AcDbPolyline
  6
BYLAYER
370
50
 90
     5
 10
65.763636
  20
77.441015
 10
65.761266
  20
77.503037
 10
65.756195
  20
77.593595
 10
65.74889
  20
77.683941
 10
65.742795
  20
77.745668
  0
LINE
  5
178
100
AcDbEntity
  8
001
100
AcDbLine
  6
BYLAYER
370
50
 10
65.742795
 20
88.914363
 11
65.742795
 21
77.745668
  0
LWPOLYLINE
  5
179
100
AcDbEntity
  8
001
100
AcDbPolyline
  6
BYLAYER
370
50
 90
     17
 10
65.742795
  20
77.745668
 10
65.696862
  20
78.008595
 10
65.610954
  20
78.365569
 10
65.502096
  20
78.677317
 10
65.370015
  20
78.951405
 10
65.211497
  20
79.221839
 10
65.027884
  20
79.483958
 10
64.821924
  20
79.72561
 10
64.595781
  20
79.945759
 10
64.351363
  20
80.144984
 10
64.087882
  20
80.32166
 10
63.807066
  20
80.473457
 10
63.520847
  20
80.59933
 10
63.23438
  20
80.698309
 10
62.913276
  20
80.769661
 10
62.550366
  20
80.812677
 10
62.285099
  20
80.827066
  0
LINE
  5
17A
100
AcDbEntity
  8
001
100
AcDbLine
  6
BYLAYER
370
50
 10
61.809523
 20
80.79428
 11
62.405441
 21
80.79428
  0
LWPOLYLINE
  5
17B
100
AcDbEntity
  8
001
100
AcDbPolyline
  6
BYLAYER
370
50
 90
     5
 10
62.285099
  20
80.827066
 10
62.188187
  20
80.825525
 10
62.046752
  20
80.81886
 10
61.905734
  20
80.806053
 10
61.809523
  20
80.79428
  0
LWPOLYLINE
  5
17C
100
AcDbEntity
  8
001
100
AcDbPolyline
  6
BYLAYER
370
50
 90
     5
 10
61.809523
  20
80.79428
 10
61.308104
  20
80.953664
 10
60.56149
  20
81.127783
 10
59.800491
  20
81.218826
 10
59.274933
  20
81.240072
  0
LINE
  5
17D
100
AcDbEntity
  8
001
100
AcDbLine
  6
BYLAYER
370
50
 10
57.469491
 20
81.01729
 11
54.624818
 21
80.304509
  0
LWPOLYLINE
  5
17E
100
AcDbEntity
  8
001
100
AcDbPolyline
  6
BYLAYER
370
50
 90
     13
 10
54.624818
  20
80.304509
 10
54.665909
  20
80.57032
 10
54.71185
  20
80.835245
 10
54.766605
  20
81.099414
 10
54.82948
  20
81.361857
 10
54.946544
  20
81.787233
 10
55.080175
  20
82.207659
 10
55.230297
  20
82.625089
 10
55.394358
  20
83.037293
 10
55.573013
  20
83.449635
 10
55.763985
  20
83.856336
 10
55.966895
  20
84.258485
 10
56.176065
  20
84.657513
  0
LWPOLYLINE
  5
17F
100
AcDbEntity
  8
001
100
AcDbPolyline
  6
BYLAYER
370
50
 90
     5
 10
58.850621
  20
87.590767
 10
58.652489
  20
87.58256
 10
58.36574
  20
87.54736
 10
58.085053
  20
87.480115
 10
57.896744
  20
87.418559
  0
LWPOLYLINE
  5
180
100
AcDbEntity
  8
001
100
AcDbPolyline
  6
BYLAYER
370
50
 90
     5
 10
59.572893
  20
81.234092
 10
59.263506
  20
81.2143
 10
58.813634
  20
81.164434
 10
58.367878
  20
81.085494
 10
58.065409
  20
81.01729
  0
LWPOLYLINE
  5
181
100
AcDbEntity
  8
001
100
AcDbPolyline
  6
BYLAYER
370
50
 90
     5
 10
59.274933
  20
81.240072
 10
58.904431
  20
81.229542
 10
58.365433
  20
81.184168
 10
57.831493
  20
81.097148
 10
57.469491
  20
81.01729
  0
LWPOLYLINE
  5
182
100
AcDbEntity
  8
001
100
AcDbPolyline
  6
BYLAYER
370
50
 90
     17
 10
56.176065
  20
84.657513
 10
56.209357
  20
84.456216
 10
56.273019
  20
84.182852
 10
56.355268
  20
83.94366
 10
56.45602
  20
83.733492
 10
56.57772
  20
83.525676
 10
56.718958
  20
83.324433
 10
56.878156
  20
83.13849
 10
57.053055
  20
82.969331
 10
57.242752
  20
82.815911
 10
57.447159
  20
82.680039
 10
57.665587
  20
82.563081
 10
57.888113
  20
82.466216
 10
58.111245
  20
82.389939
 10
58.361198
  20
82.334998
 10
58.643957
  20
82.301849
 10
58.850621
  20
82.290767
  0
LWPOLYLINE
  5
183
100
AcDbEntity
  8
001
100
AcDbPolyline
  6
BYLAYER
370
50
 90
     37
 10
58.850621
  20
82.290767
 10
59.047799
  20
82.300855
 10
59.317729
  20
82.331027
 10
59.556726
  20
82.38105
 10
59.770644
  20
82.450582
 10
59.98468
  20
82.539009
 10
60.195605
  20
82.6458
 10
60.394114
  20
82.769939
 10
60.579699
  20
82.910749
 10
60.752413
  20
83.066832
 10
60.911256
  20
83.23738
 10
61.054076
  20
83.420677
 10
61.180201
  20
83.615767
 10
61.288489
  20
83.820726
 10
61.378363
  20
84.034414
 10
61.448906
  20
84.254825
 10
61.499722
  20
84.480599
 10
61.530342
  20
84.709779
 10
61.540588
  20
84.940767
 10
61.530342
  20
85.171756
 10
61.499722
  20
85.400935
 10
61.448906
  20
85.626709
 10
61.378363
  20
85.84712
 10
61.288489
  20
86.060808
 10
61.180201
  20
86.265767
 10
61.054076
  20
86.460857
 10
60.911256
  20
86.644154
 10
60.752413
  20
86.814702
 10
60.579699
  20
86.970785
 10
60.394114
  20
87.111596
 10
60.195605
  20
87.235734
 10
59.98468
  20
87.342526
 10
59.770644
  20
87.430953
 10
59.556726
  20
87.500484
 10
59.317729
  20
87.550508
 10
59.047799
  20
87.58068
 10
58.850621
  20
87.590767
  0
LWPOLYLINE
  5
184
100
AcDbEntity
  8
001
100
AcDbPolyline
  6
BYLAYER
370
50
 90
     29
 10
57.896744
  20
87.418559
 10
57.826605
  20
87.393629
 10
57.756832
  20
87.36772
 10
57.605155
  20
87.303997
 10
57.457423
  20
87.231401
 10
57.301862
  20
87.143084
 10
57.152332
  20
87.045018
 10
57.058577
  20
86.97585
 10
56.96799
  20
86.902582
 10
56.875873
  20
86.820686
 10
56.78793
  20
86.734333
 10
56.714098
  20
86.654522
 10
56.643918
  20
86.571475
 10
56.575969
  20
86.483242
 10
56.512294
  20
86.391885
 10
56.452833
  20
86.296932
 10
56.398059
  20
86.199191
 10
56.348725
  20
86.100416
 10
56.30422
  20
85.999377
 10
56.256464
  20
85.872442
 10
56.216363
  20
85.742866
 10
56.18521
  20
85.617105
 10
56.161178
  20
85.489797
 10
56.139189
  20
85.3038
 10
56.131927
  20
85.116547
 10
56.138313
  20
84.939941
 10
56.158
  20
84.764463
 10
56.166704
  20
84.710934
 10
56.176065
  20
84.657513
  0
LINE
  5
185
100
AcDbEntity
  8
001
100
AcDbLine
  6
BYLAYER
370
50
 10
59.675279
 20
93.427066
 11
55.505574
 21
89.10921
  0
LWPOLYLINE
  5
186
100
AcDbEntity
  8
001
100
AcDbPolyline
  6
BYLAYER
370
50
 90
     9
 10
55.250591
  20
88.845159
 10
54.701677
  20
88.276482
 10
54.152938
  20
87.707637
 10
52.835359
  20
86.339122
 10
51.519614
  20
84.968832
 10
50.862638
  20
84.282716
 10
50.207979
  20
83.594403
 10
49.556858
  20
82.902716
 10
48.907849
  20
82.209032
  0
LINE
  5
187
100
AcDbEntity
  8
001
100
AcDbLine
  6
BYLAYER
370
50
 10
55.504971
 20
89.108577
 11
55.250591
 21
88.845159
  0
LWPOLYLINE
  5
188
100
AcDbEntity
  8
001
100
AcDbPolyline
  6
BYLAYER
370
50
 90
     7
 10
48.907849
  20
78.740542
 10
49.515754
  20
78.907389
 10
50.123696
  20
79.074101
 10
50.73987
  20
79.242818
 10
51.356092
  20
79.411364
 10
52.990425
  20
79.858046
 10
54.624818
  20
80.304509
  0
LINE
  5
189
100
AcDbEntity
  8
001
100
AcDbLine
  6
BYLAYER
370
50
 10
58.065409
 20
81.01729
 11
48.907849
 21
78.722708
  0
LINE
  5
18A
100
AcDbEntity
  8
001
100
AcDbLine
  6
BYLAYER
370
50
 10
81.407849
 20
89.177066
 11
174.407849
 21
89.177066
  0
LINE
  5
18B
100
AcDbEntity
  8
001
100
AcDbLine
  6
BYLAYER
370
50
 10
81.407849
 20
69.177066
 11
174.407849
 21
69.177066
  0
LINE
  5
18C
100
AcDbEntity
  8
001
100
AcDbLine
  6
BYLAYER
370
50
 10
178.407849
 20
79.177066
 11
183.604001
 21
82.177066
  0
LINE
  5
18D
100
AcDbEntity
  8
001
100
AcDbLine
  6
BYLAYER
370
50
 10
178.407849
 20
79.177066
 11
183.604001
 21
76.177066
  0
LINE
  5
18E
100
AcDbEntity
  8
001
100
AcDbLine
  6
BYLAYER
370
50
 10
48.907849
 20
79.177066
 11
45.443747
 21
81.177066
  0
LINE
  5
18F
100
AcDbEntity
  8
001
100
AcDbLine
  6
BYLAYER
370
50
 10
48.907849
 20
79.177066
 11
45.443747
 21
77.177066
  0
ARC
  5
190
100
AcDbEntity
  8
001
100
AcDbCircle
  6
BYLAYER
370
50
 10
174.407849
 20
85.177066
 40
4
100
AcDbArc
 50
0
 51
90
  0
ARC
  5
191
100
AcDbEntity
  8
001
100
AcDbCircle
  6
BYLAYER
370
50
 10
174.407849
 20
73.177066
 40
4
100
AcDbArc
 50
270
 51
0
  0
LINE
  5
192
100
AcDbEntity
  8
001
100
AcDbLine
  6
BYLAYER
370
50
 10
63.301531
 20
79.640432
 11
48.704321
 21
75.729122
  0
LINE
  5
193
100
AcDbEntity
  8
001
100
AcDbLine
  6
BYLAYER
370
50
 10
59.873005
 20
64.526777
 11
63.791429
 21
79.150534
  0
ARC
  5
194
100
AcDbEntity
  8
001
100
AcDbCircle
  6
BYLAYER
370
50
 10
48.807849
 20
75.342751
 40
0.4
100
AcDbArc
 50
105
 51
225
  0
ARC
  5
195
100
AcDbEntity
  8
001
100
AcDbCircle
  6
BYLAYER
370
50
 10
63.405059
 20
79.254062
 40
0.4
100
AcDbArc
 50
345
 51
105
  0
CIRCLE
  5
196
100
AcDbEntity
  8
001
100
AcDbCircle
  6
BYLAYER
370
50
 10
57.235552
 20
73.084555
 40
1.9
  0
LINE
  5
197
100
AcDbEntity
  8
001
100
AcDbLine
  6
BYLAYER
370
9
 10
59.341531
 20
64.243383
 11
59.226239
 21
64.358676
  0
LINE
  5
198
100
AcDbEntity
  8
001
100
AcDbLine
  6
BYLAYER
370
9
 10
48.407849
 20
75.177066
 11
48.525006
 21
75.059908
  0
LINE
  5
199
100
AcDbEntity
  8
001
100
AcDbLine
  6
BYLAYER
370
50
 10
59.230339
 20
64.354575
 11
48.525006
 21
75.059908
  0
LINE
  5
19A
100
AcDbEntity
  8
001
100
AcDbLine
  6
BYLAYER
370
9
 10
59.341531
 20
64.243383
 11
59.50123
 21
64.243383
  0
LINE
  5
19B
100
AcDbEntity
  8
001
100
AcDbLine
  6
BYLAYER
370
9
 10
48.407849
 20
75.177066
 11
48.407849
 21
75.342751
  0
LWPOLYLINE
  5
19C
100
AcDbEntity
  8
001
100
AcDbPolyline
  6
BYLAYER
370
50
 90
     5
 10
60.16448
  20
65.614578
 10
61.660511
  20
65.653775
 10
63.564753
  20
65.705998
 10
65.802643
  20
65.771351
 10
67.333769
  20
65.818169
  0
ARC
  5
19D
100
AcDbEntity
  8
001
100
AcDbCircle
  6
BYLAYER
370
50
 10
62.273688
 20
78.122691
 40
3
100
AcDbArc
 50
278.578178
 51
33.203204
  0
ARC
  5
19E
100
AcDbEntity
  8
001
100
AcDbCircle
  6
BYLAYER
370
50
 10
62.273688
 20
78.122691
 40
3
100
AcDbArc
 50
109.078396
 51
171.421822
  0
LINE
  5
19F
100
AcDbEntity
  8
001
100
AcDbLine
  6
BYLAYER
370
50
 10
49.728364
 20
76.003513
 11
48.907849
 21
77.154046
  0
LINE
  5
1A0
100
AcDbEntity
  8
001
100
AcDbLine
  6
BYLAYER
370
50
 10
48.907849
 20
82.209032
 11
48.907849
 21
75.783657
  0
LINE
  5
1A1
100
AcDbEntity
  8
001
100
AcDbLine
  6
BYLAYER
370
50
 10
76.407849
 20
64.927066
 11
59.980262
 21
64.927066
  0
LINE
  5
1A2
100
AcDbEntity
  8
001
100
AcDbLine
  6
BYLAYER
370
50
 10
76.407849
 20
93.427066
 11
59.675279
 21
93.427066
  0
LINE
  5
1A3
100
AcDbEntity
  8
001
100
AcDbLine
  6
BYLAYER
370
50
 10
59.675279
 20
93.427066
 11
59.675279
 21
89.844321
  0
LWPOLYLINE
  5
1A4
100
AcDbEntity
  8
001
100
AcDbPolyline
  6
BYLAYER
370
50
 90
     7
 10
57.896744
  20
87.418559
 10
58.272438
  20
87.951324
 10
58.652761
  20
88.480712
 10
59.040992
  20
89.004725
 10
59.433857
  20
89.525357
 10
59.554568
  20
89.684839
 10
59.675279
  20
89.844321
  0
LINE
  5
1A5
100
AcDbEntity
  8
001
100
AcDbLine
  6
BYLAYER
370
50
 10
59.675279
 20
89.844321
 11
65.742795
 21
88.914363
  0
ARC
  5
1A6
100
AcDbEntity
  8
001
100
AcDbCircle
  6
BYLAYER
370
50
 10
59.501962
 20
64.626198
 40
0.384132214589371
100
AcDbArc
 50
225
 51
345
  0
ARC
  5
1A7
100
AcDbEntity
  8
001
100
AcDbCircle
  6
BYLAYER
370
50
 10
48.807849
 20
83.01138
 40
0.4
100
AcDbArc
 50
135
 51
255
  0
LINE
  5
1A8
100
AcDbEntity
  8
001
100
AcDbLine
  6
BYLAYER
370
9
 10
59.341531
 20
94.110748
 11
59.226239
 21
93.995456
  0
LINE
  5
1A9
100
AcDbEntity
  8
001
100
AcDbLine
  6
BYLAYER
370
9
 10
48.407849
 20
83.177066
 11
48.525006
 21
83.294223
  0
LINE
  5
1AA
100
AcDbEntity
  8
001
100
AcDbLine
  6
BYLAYER
370
50
 10
59.230339
 20
93.999556
 11
48.525006
 21
83.294223
  0
LINE
  5
1AB
100
AcDbEntity
  8
001
100
AcDbLine
  6
BYLAYER
370
9
 10
59.341531
 20
94.110748
 11
59.50123
 21
94.110748
  0
LINE
  5
1AC
100
AcDbEntity
  8
001
100
AcDbLine
  6
BYLAYER
370
9
 10
48.407849
 20
83.177066
 11
48.407849
 21
83.01138
  0
ARC
  5
1AD
100
AcDbEntity
  8
001
100
AcDbCircle
  6
BYLAYER
370
50
 10
59.501962
 20
93.727934
 40
0.384132214589371
100
AcDbArc
 50
15
 51
135
  0
LINE
  5
1AE
100
AcDbEntity
  8
001
100
AcDbLine
  6
BYLAYER
370
50
 10
49.178049
 20
82.498075
 11
48.704321
 21
82.62501
  0
LINE
  5
1AF
100
AcDbEntity
  8
001
100
AcDbLine
  6
BYLAYER
370
50
 10
59.873005
 20
93.827354
 11
59.980262
 21
93.427066
  0
LINE
  5
1B0
100
AcDbEntity
  8
001
100
AcDbLine
  6
CENTER
370
9
 10
42.616513
 20
79.177066
 11
187.926076
 21
79.177066
  0
TEXT
  5
1B1
100
AcDbEntity
  8
001
100
AcDbText
  6
BYLAYER
 10
34.617559
 20
120.230962
 40
4
 41
0.833333
  1
ＮＫ４５３０Ｔ－２０
  7
Font_0
100
AcDbText
  0
ARC
  5
1B2
100
AcDbEntity
  8
001
100
AcDbCircle
  6
BYLAYER
370
50
 10
76.407849
 20
91.427066
 40
2
100
AcDbArc
 50
0
 51
90
  0
ARC
  5
1B3
100
AcDbEntity
  8
001
100
AcDbCircle
  6
BYLAYER
370
50
 10
76.407849
 20
66.927066
 40
2
100
AcDbArc
 50
270
 51
0
  0
LINE
  5
1B4
100
AcDbEntity
  8
001
100
AcDbLine
  6
BYLAYER
370
50
 10
81.407849
 20
69.677066
 11
78.407849
 21
69.677066
  0
LINE
  5
1B5
100
AcDbEntity
  8
001
100
AcDbLine
  6
BYLAYER
370
50
 10
81.407849
 20
89.177066
 11
81.407849
 21
69.177066
  0
LINE
  5
1B6
100
AcDbEntity
  8
001
100
AcDbLine
  6
BYLAYER
370
50
 10
81.407849
 20
88.677066
 11
78.407849
 21
88.677066
  0
ENDSEC
  0
SECTION
  2
OBJECTS
  0
DICTIONARY
  5
1B7
100
AcDbDictionary
  3
ACAD_GROUP
350
1B8
  3
ACAD_MLINESTYLE
350
1B9
  0
DICTIONARY
  5
1B8
102
{ACAD_REACTORS
330
1B7
102
}
100
AcDbDictionary
  0
DICTIONARY
  5
1B9
102
{ACAD_REACTORS
330
1B7
102
}
100
AcDbDictionary
  3
STANDARD
350
1BA
  0
MLINESTYLE
  5
1BA
102
{ACAD_REACTORS
330
1B9
102
}
100
AcDbMlineStyle
  2
Standard
 70
     0
  3

 62
     0
 51
90.0
 52
90.0
 71
     2
 49
0.5
 62
   256
  6
ByLayer
 49
-0.5
 62
   256
  6
ByLayer
  0
ENDSEC
  0
EOF
