  0
SECTION
  2
HEADER
  9
$ACADVER
  1
AC1015
  9
$ACADMAINTVER
 70
     6
  9
$DWGCODEPAGE
  3
ANSI_1252
  9
$INSBASE
 10
0.0
 20
0.0
 30
0.0
  9
$EXTMIN
 10
0.0
 20
0.0
 30
0.0
  9
$EXTMAX
 10
25.0
 20
35.0
 30
0.0
  9
$LIMMIN
 10
0.0
 20
0.0
  9
$LIMMAX
 10
420.0
 20
297.0
  9
$ORTHOMODE
 70
     0
  9
$REGENMODE
 70
     1
  9
$FILLMODE
 70
     1
  9
$QTEXTMODE
 70
     0
  9
$MIRRTEXT
 70
     1
  9
$LTSCALE
 40
5.45
  9
$ATTMODE
 70
     1
  9
$TEXTSIZE
 40
2.5
  9
$TRACEWID
 40
1.0
  9
$TEXTSTYLE
  7
Standard
  9
$CLAYER
  8
0
  9
$CELTYPE
  6
ByLayer
  9
$CECOLOR
 62
   256
  9
$CELTSCALE
 40
1.0
  9
$DISPSILH
 70
     0
  9
$DIMSCALE
 40
1.0
  9
$DIMASZ
 40
2.5
  9
$DIMEXO
 40
0.625
  9
$DIMDLI
 40
3.75
  9
$DIMRND
 40
0.0
  9
$DIMDLE
 40
0.0
  9
$DIMEXE
 40
1.25
  9
$DIMTP
 40
0.0
  9
$DIMTM
 40
0.0
  9
$DIMTXT
 40
2.5
  9
$DIMCEN
 40
2.5
  9
$DIMTSZ
 40
0.0
  9
$DIMTOL
 70
     0
  9
$DIMLIM
 70
     0
  9
$DIMTIH
 70
     0
  9
$DIMTOH
 70
     0
  9
$DIMSE1
 70
     0
  9
$DIMSE2
 70
     0
  9
$DIMTAD
 70
     1
  9
$DIMZIN
 70
     8
  9
$DIMBLK
  1

  9
$DIMASO
 70
     1
  9
$DIMSHO
 70
     1
  9
$DIMPOST
  1

  9
$DIMAPOST
  1

  9
$DIMALT
 70
     0
  9
$DIMALTD
 70
     3
  9
$DIMALTF
 40
0.03937007874016
  9
$DIMLFAC
 40
1.0
  9
$DIMTOFL
 70
     1
  9
$DIMTVP
 40
0.0
  9
$DIMTIX
 70
     0
  9
$DIMSOXD
 70
     0
  9
$DIMSAH
 70
     0
  9
$DIMBLK1
  1

  9
$DIMBLK2
  1

  9
$DIMSTYLE
  2
ISO-25
  9
$DIMCLRD
 70
     0
  9
$DIMCLRE
 70
     0
  9
$DIMCLRT
 70
     0
  9
$DIMTFAC
 40
1.0
  9
$DIMGAP
 40
0.625
  9
$DIMJUST
 70
     0
  9
$DIMSD1
 70
     0
  9
$DIMSD2
 70
     0
  9
$DIMTOLJ
 70
     0
  9
$DIMTZIN
 70
     8
  9
$DIMALTZ
 70
     0
  9
$DIMALTTZ
 70
     0
  9
$DIMUPT
 70
     0
  9
$DIMDEC
 70
     2
  9
$DIMTDEC
 70
     2
  9
$DIMALTU
 70
     2
  9
$DIMALTTD
 70
     3
  9
$DIMTXSTY
  7
Standard
  9
$DIMAUNIT
 70
     0
  9
$DIMADEC
 70
     0
  9
$DIMALTRND
 40
0.0
  9
$DIMAZIN
 70
     0
  9
$DIMDSEP
 70
    44
  9
$DIMATFIT
 70
     3
  9
$DIMFRAC
 70
     0
  9
$DIMLDRBLK
  1

  9
$DIMLUNIT
 70
     2
  9
$DIMLWD
 70
    -2
  9
$DIMLWE
 70
    -2
  9
$DIMTMOVE
 70
     0
  9
$LUNITS
 70
     2
  9
$LUPREC
 70
     4
  9
$SKETCHINC
 40
1.0
  9
$FILLETRAD
 40
10.0
  9
$AUNITS
 70
     0
  9
$AUPREC
 70
     0
  9
$MENU
  1
.
  9
$ELEVATION
 40
0.0
  9
$PELEVATION
 40
0.0
  9
$THICKNESS
 40
0.0
  9
$LIMCHECK
 70
     0
  9
$CHAMFERA
 40
10.0
  9
$CHAMFERB
 40
10.0
  9
$CHAMFERC
 40
20.0
  9
$CHAMFERD
 40
0.0
  9
$SKPOLY
 70
     0
  9
$TDCREATE
 40
2458579.666666667
  9
$TDUCREATE
 40
2458579.583333333
  9
$TDUPDATE
 40
2458579.670138889
  9
$TDUUPDATE
 40
2458579.586805556
  9
$TDINDWG
 40
0.0000000116
  9
$TDUSRTIMER
 40
0.0000000116
  9
$USRTIMER
 70
     1
  9
$ANGBASE
 50
0.0
  9
$ANGDIR
 70
     0
  9
$PDMODE
 70
     0
  9
$PDSIZE
 40
0.0
  9
$PLINEWID
 40
0.0
  9
$SPLFRAME
 70
     0
  9
$SPLINETYPE
 70
     6
  9
$SPLINESEGS
 70
     8
  9
$HANDSEED
  5
3FD
  9
$SURFTAB1
 70
     6
  9
$SURFTAB2
 70
     6
  9
$SURFTYPE
 70
     6
  9
$SURFU
 70
     6
  9
$SURFV
 70
     6
  9
$UCSBASE
  2

  9
$UCSNAME
  2

  9
$UCSORG
 10
0.0
 20
0.0
 30
0.0
  9
$UCSXDIR
 10
1.0
 20
0.0
 30
0.0
  9
$UCSYDIR
 10
0.0
 20
1.0
 30
0.0
  9
$UCSORTHOREF
  2

  9
$UCSORTHOVIEW
 70
     0
  9
$UCSORGTOP
 10
0.0
 20
0.0
 30
0.0
  9
$UCSORGBOTTOM
 10
0.0
 20
0.0
 30
0.0
  9
$UCSORGLEFT
 10
0.0
 20
0.0
 30
0.0
  9
$UCSORGRIGHT
 10
0.0
 20
0.0
 30
0.0
  9
$UCSORGFRONT
 10
0.0
 20
0.0
 30
0.0
  9
$UCSORGBACK
 10
0.0
 20
0.0
 30
0.0
  9
$PUCSBASE
  2

  9
$PUCSNAME
  2

  9
$PUCSORG
 10
0.0
 20
0.0
 30
0.0
  9
$PUCSXDIR
 10
1.0
 20
0.0
 30
0.0
  9
$PUCSYDIR
 10
0.0
 20
1.0
 30
0.0
  9
$PUCSORTHOREF
  2

  9
$PUCSORTHOVIEW
 70
     0
  9
$PUCSORGTOP
 10
0.0
 20
0.0
 30
0.0
  9
$PUCSORGBOTTOM
 10
0.0
 20
0.0
 30
0.0
  9
$PUCSORGLEFT
 10
0.0
 20
0.0
 30
0.0
  9
$PUCSORGRIGHT
 10
0.0
 20
0.0
 30
0.0
  9
$PUCSORGFRONT
 10
0.0
 20
0.0
 30
0.0
  9
$PUCSORGBACK
 10
0.0
 20
0.0
 30
0.0
  9
$USERI1
 70
     0
  9
$USERI2
 70
     0
  9
$USERI3
 70
     0
  9
$USERI4
 70
     0
  9
$USERI5
 70
     0
  9
$USERR1
 40
0.0
  9
$USERR2
 40
0.0
  9
$USERR3
 40
0.0
  9
$USERR4
 40
0.0
  9
$USERR5
 40
0.0
  9
$WORLDVIEW
 70
     1
  9
$SHADEDGE
 70
     3
  9
$SHADEDIF
 70
    70
  9
$TILEMODE
 70
     1
  9
$MAXACTVP
 70
    64
  9
$PINSBASE
 10
0.0
 20
0.0
 30
0.0
  9
$PLIMCHECK
 70
     0
  9
$PEXTMIN
 10
1.000000000000000E+20
 20
1.000000000000000E+20
 30
1.000000000000000E+20
  9
$PEXTMAX
 10
-1.000000000000000E+20
 20
-1.000000000000000E+20
 30
-1.000000000000000E+20
  9
$PLIMMIN
 10
0.0
 20
0.0
  9
$PLIMMAX
 10
420.0
 20
297.0
  9
$UNITMODE
 70
     0
  9
$VISRETAIN
 70
     1
  9
$PLINEGEN
 70
     0
  9
$PSLTSCALE
 70
     1
  9
$TREEDEPTH
 70
  3020
  9
$CMLSTYLE
  2
Standard
  9
$CMLJUST
 70
     0
  9
$CMLSCALE
 40
20.0
  9
$PROXYGRAPHICS
 70
     1
  9
$MEASUREMENT
 70
     1
  9
$CELWEIGHT
370
    -1
  9
$ENDCAPS
280
     0
  9
$JOINSTYLE
280
     0
  9
$LWDISPLAY
290
     0
  9
$INSUNITS
 70
     4
  9
$HYPERLINKBASE
  1

  9
$STYLESHEET
  1

  9
$XEDIT
290
     1
  9
$CEPSNTYPE
380
     0
  9
$PSTYLEMODE
290
     1
  9
$FINGERPRINTGUID
  2
{15A922E5-B8DD-413B-A352-F57C607F9F45}
  9
$VERSIONGUID
  2
{FAEB1C32-E019-11D5-929B-00C0DF256EC4}
  9
$EXTNAMES
290
     1
  9
$PSVPSCALE
 40
0.0
  9
$OLESTARTUP
290
     0
  0
ENDSEC
  0
SECTION
  2
CLASSES
  0
CLASS
  1
ACDBDICTIONARYWDFLT
  2
AcDbDictionaryWithDefault
  3
ObjectDBX Classes
 90
        0
280
     0
281
     0
  0
CLASS
  1
VISUALSTYLE
  2
AcDbVisualStyle
  3
ObjectDBX Classes
 90
     4095
280
     0
281
     0
  0
CLASS
  1
MATERIAL
  2
AcDbMaterial
  3
ObjectDBX Classes
 90
     1153
280
     0
281
     0
  0
CLASS
  1
SCALE
  2
AcDbScale
  3
ObjectDBX Classes
 90
     1153
280
     0
281
     0
  0
CLASS
  1
DICTIONARYVAR
  2
AcDbDictionaryVar
  3
ObjectDBX Classes
 90
        0
280
     0
281
     0
  0
CLASS
  1
ACDBPLACEHOLDER
  2
AcDbPlaceHolder
  3
ObjectDBX Classes
 90
        0
280
     0
281
     0
  0
CLASS
  1
LAYOUT
  2
AcDbLayout
  3
ObjectDBX Classes
 90
        0
280
     0
281
     0
  0
ENDSEC
  0
SECTION
  2
TABLES
  0
TABLE
  2
VPORT
  5
8
330
0
100
AcDbSymbolTable
 70
     1
  0
VPORT
  5
29
330
8
100
AcDbSymbolTableRecord
100
AcDbViewportTableRecord
  2
*Active
 70
     0
 10
0.0
 20
0.0
 11
1.0
 21
1.0
 12
11.26
 22
4.5
 13
0.0
 23
0.0
 14
10.0
 24
10.0
 15
10.0
 25
10.0
 16
0.0
 26
0.0
 36
1.0
 17
0.0
 27
0.0
 37
0.0
 40
9.0
 41
2.503333333333333
 42
50.0
 43
0.0
 44
0.0
 50
0.0
 51
0.0
 71
     0
 72
   100
 73
     1
 74
     3
 75
     0
 76
     0
 77
     0
 78
     0
281
     0
 65
     1
110
0.0
120
0.0
130
0.0
111
1.0
121
0.0
131
0.0
112
0.0
122
1.0
132
0.0
 79
     0
146
0.0
  0
ENDTAB
  0
TABLE
  2
LTYPE
  5
5
330
0
100
AcDbSymbolTable
 70
    10
  0
LTYPE
  5
14
330
5
100
AcDbSymbolTableRecord
100
AcDbLinetypeTableRecord
  2
ByBlock
 70
     0
  3

 72
    65
 73
     0
 40
0.0
  0
LTYPE
  5
15
330
5
100
AcDbSymbolTableRecord
100
AcDbLinetypeTableRecord
  2
ByLayer
 70
     0
  3

 72
    65
 73
     0
 40
0.0
  0
LTYPE
  5
16
330
5
100
AcDbSymbolTableRecord
100
AcDbLinetypeTableRecord
  2
Continuous
 70
     0
  3
Solid line
 72
    65
 73
     0
 40
0.0
  0
LTYPE
  5
45
330
5
100
AcDbSymbolTableRecord
100
AcDbLinetypeTableRecord
  2
phl_thick
 70
     0
  3
THICK
 72
    65
 73
     0
 40
0.0
  0
LTYPE
  5
4B
330
5
100
AcDbSymbolTableRecord
100
AcDbLinetypeTableRecord
  2
SK1
 70
     0
  3
THICK
 72
    65
 73
     0
 40
0.0
  0
LTYPE
  5
58
330
5
100
AcDbSymbolTableRecord
100
AcDbLinetypeTableRecord
  2
NOCUT
 70
     0
  3
THICK
 72
    65
 73
     0
 40
0.0
  0
LTYPE
  5
5D
330
5
100
AcDbSymbolTableRecord
100
AcDbLinetypeTableRecord
  2
ls_SK2
 70
     0
  3
THIN
 72
    65
 73
     0
 40
0.0
  0
LTYPE
  5
108
330
5
100
AcDbSymbolTableRecord
100
AcDbLinetypeTableRecord
  2
ls_2
 70
     0
  3
THIN
 72
    65
 73
     0
 40
0.0
  0
LTYPE
  5
190
330
5
100
AcDbSymbolTableRecord
100
AcDbLinetypeTableRecord
  2
ls_SK1
 70
     0
  3
THICK
 72
    65
 73
     0
 40
0.0
  0
LTYPE
  5
202
330
5
100
AcDbSymbolTableRecord
100
AcDbLinetypeTableRecord
  2
LONGDASH_DASH
 70
     0
  3
THIN_DASHDOT
 72
    65
 73
     4
 40
0.85
 49
0.4
 74
     0
 49
-0.2
 74
     0
 49
0.05
 74
     0
 49
-0.2
 74
     0
  0
LTYPE
  5
207
330
5
100
AcDbSymbolTableRecord
100
AcDbLinetypeTableRecord
  2
CUT
 70
     0
  3
THICK
 72
    65
 73
     0
 40
0.0
  0
LTYPE
  5
219
330
5
100
AcDbSymbolTableRecord
100
AcDbLinetypeTableRecord
  2
ls1
 70
     0
  3
THICK
 72
    65
 73
     0
 40
0.0
  0
ENDTAB
  0
TABLE
  2
LAYER
  5
2
330
0
100
AcDbSymbolTable
 70
    10
  0
LAYER
  5
10
330
2
100
AcDbSymbolTableRecord
100
AcDbLayerTableRecord
  2
0
 70
     0
 62
     7
  6
Continuous
370
    -3
390
F
  0
LAYER
  5
44
330
2
100
AcDbSymbolTableRecord
100
AcDbLayerTableRecord
  2
1
 70
     0
 62
4
  6
CONTINUOUS
370
50
370
    -3
390
F
  0
LAYER
  5
4A
330
2
100
AcDbSymbolTableRecord
100
AcDbLayerTableRecord
  2
SK1
 70
     0
 62
4
  6
CONTINUOUS
370
50
370
    -3
390
F
  0
LAYER
  5
57
330
2
100
AcDbSymbolTableRecord
100
AcDbLayerTableRecord
  2
NOCUT
 70
     0
 62
7
  6
CONTINUOUS
370
25
370
    -3
390
F
  0
LAYER
  5
5C
330
2
100
AcDbSymbolTableRecord
100
AcDbLayerTableRecord
  2
SK2
 70
     0
 62
7
  6
CONTINUOUS
370
25
370
    -3
390
F
  0
LAYER
  5
107
330
2
100
AcDbSymbolTableRecord
100
AcDbLayerTableRecord
  2
2
 70
     0
 62
7
  6
CONTINUOUS
370
25
370
    -3
390
F
  0
LAYER
  5
201
330
2
100
AcDbSymbolTableRecord
100
AcDbLayerTableRecord
  2
4
 70
     0
 62
2
  6
LONGDASH_DASH
370
25
370
    -3
390
F
  0
LAYER
  5
204
330
2
100
AcDbSymbolTableRecord
100
AcDbLayerTableRecord
  2
SK4
 70
     0
 62
2
  6
LONGDASH_DASH
370
25
370
    -3
390
F
  0
LAYER
  5
206
330
2
100
AcDbSymbolTableRecord
100
AcDbLayerTableRecord
  2
CUT
 70
     0
 62
1
  6
CONTINUOUS
370
25
370
    -3
390
F
  0
LAYER
  5
218
330
2
100
AcDbSymbolTableRecord
100
AcDbLayerTableRecord
  2
SK6
 70
     0
 62
5
  6
CONTINUOUS
370
25
370
    -3
390
F
  0
ENDTAB
  0
TABLE
  2
STYLE
  5
3
330
0
100
AcDbSymbolTable
 70
     1
  0
STYLE
  5
11
330
3
100
AcDbSymbolTableRecord
100
AcDbTextStyleTableRecord
  2
Standard
 70
     0
 40
0.0
 41
1.0
 50
0.0
 71
     0
 42
2.5
  3
Monospac821 BT
  4

  0
ENDTAB
  0
TABLE
  2
VIEW
  5
6
330
0
100
AcDbSymbolTable
 70
     0
  0
ENDTAB
  0
TABLE
  2
UCS
  5
7
330
0
100
AcDbSymbolTable
 70
     0
  0
ENDTAB
  0
TABLE
  2
APPID
  5
9
330
0
100
AcDbSymbolTable
 70
     2
  0
APPID
  5
12
330
9
100
AcDbSymbolTableRecord
100
AcDbRegAppTableRecord
  2
ACAD
 70
     0
  0
APPID
  5
3F
330
9
100
AcDbSymbolTableRecord
100
AcDbRegAppTableRecord
  2
ccLab
 70
     0
  0
ENDTAB
  0
TABLE
  2
DIMSTYLE
  5
A
330
0
100
AcDbSymbolTable
 70
     1
100
AcDbDimStyleTable
  0
DIMSTYLE
105
27
330
A
100
AcDbSymbolTableRecord
100
AcDbDimStyleTableRecord
  2
ISO-25
 70
     0
 41
2.5
 42
0.625
 43
3.75
 44
1.25
 73
     0
 74
     0
 77
     1
 78
     8
140
2.5
141
2.5
143
0.03937007874016
147
0.625
171
     3
172
     1
271
     2
272
     2
274
     3
278
    44
283
     0
284
     8
340
11
  0
ENDTAB
  0
TABLE
  2
BLOCK_RECORD
  5
1
330
0
100
AcDbSymbolTable
 70
     2
  0
BLOCK_RECORD
  5
1F
330
1
100
AcDbSymbolTableRecord
100
AcDbBlockTableRecord
  2
*Model_Space
340
22
  0
BLOCK_RECORD
  5
1B
330
1
100
AcDbSymbolTableRecord
100
AcDbBlockTableRecord
  2
*Paper_Space
340
1E
  0
BLOCK_RECORD
  5
23
330
1
100
AcDbSymbolTableRecord
100
AcDbBlockTableRecord
  2
*Paper_Space0
340
26
  0
ENDTAB
  0
ENDSEC
  0
SECTION
  2
BLOCKS
  0
BLOCK
  5
20
330
1F
100
AcDbEntity
  8
0
100
AcDbBlockBegin
  2
*Model_Space
 70
     0
 10
0.0
 20
0.0
 30
0.0
  3
*Model_Space
  1

  0
ENDBLK
  5
21
330
1F
100
AcDbEntity
  8
0
100
AcDbBlockEnd
  0
BLOCK
  5
1C
330
1B
100
AcDbEntity
 67
     1
  8
0
100
AcDbBlockBegin
  2
*Paper_Space
 70
     0
 10
0.0
 20
0.0
 30
0.0
  3
*Paper_Space
  1

  0
ENDBLK
  5
1D
330
1B
100
AcDbEntity
 67
     1
  8
0
100
AcDbBlockEnd
  0
BLOCK
  5
24
330
23
100
AcDbEntity
  8
0
100
AcDbBlockBegin
  2
*Paper_Space0
 70
     0
 10
0.0
 20
0.0
 30
0.0
  3
*Paper_Space0
  1

  0
ENDBLK
  5
25
330
23
100
AcDbEntity
  8
0
100
AcDbBlockEnd
  0
ENDSEC
  0
SECTION
  2
ENTITIES
  0
LINE
  5
223
330
1F
100
AcDbEntity
  8
1
  6
CONTINUOUS
370
50
 62
4
100
AcDbLine
 10
60.0
 20
-24.0
 30
0.0
 11
64.0
 21
-24.0
 31
0.0
  0
LINE
  5
224
330
1F
100
AcDbEntity
  8
1
  6
CONTINUOUS
370
50
 62
4
100
AcDbLine
 10
60.0
 20
24.0
 30
0.0
 11
64.0
 21
24.0
 31
0.0
  0
LINE
  5
225
330
1F
100
AcDbEntity
  8
1
  6
CONTINUOUS
370
50
 62
4
100
AcDbLine
 10
60.0
 20
-24.0
 30
0.0
 11
60.0
 21
24.0
 31
0.0
  0
LINE
  5
226
330
1F
100
AcDbEntity
  8
1
  6
CONTINUOUS
370
50
 62
4
100
AcDbLine
 10
64.0
 20
-24.0
 30
0.0
 11
64.0
 21
24.0
 31
0.0
  0
LINE
  5
227
330
1F
100
AcDbEntity
  8
SK1
  6
CONTINUOUS
370
50
 62
4
100
AcDbLine
 10
60.0
 20
16.0
 30
0.0
 11
1.600000000000001
 21
16.0
 31
0.0
  0
LINE
  5
228
330
1F
100
AcDbEntity
  8
SK1
  6
CONTINUOUS
370
50
 62
4
100
AcDbLine
 10
1.600000000000001
 20
16.0
 30
0.0
 11
0.0
 21
15.0762395692966
 31
0.0
  0
LINE
  5
229
330
1F
100
AcDbEntity
  8
SK1
  6
CONTINUOUS
370
50
 62
4
100
AcDbLine
 10
0.0
 20
15.0762395692966
 30
0.0
 11
0.0
 21
-15.0762395692966
 31
0.0
  0
LINE
  5
22A
330
1F
100
AcDbEntity
  8
SK1
  6
CONTINUOUS
370
50
 62
4
100
AcDbLine
 10
0.0
 20
-15.0762395692966
 30
0.0
 11
1.600000000000001
 21
-16.0
 31
0.0
  0
LINE
  5
22B
330
1F
100
AcDbEntity
  8
SK1
  6
CONTINUOUS
370
50
 62
4
100
AcDbLine
 10
1.600000000000001
 20
-16.0
 30
0.0
 11
60.0
 21
-16.0
 31
0.0
  0
LINE
  5
22C
330
1F
100
AcDbEntity
  8
SK1
  6
CONTINUOUS
370
50
 62
4
100
AcDbLine
 10
53.0
 20
7.745966692414834
 30
0.0
 11
7.0
 21
7.745966692414834
 31
0.0
  0
LINE
  5
22D
330
1F
100
AcDbEntity
  8
SK1
  6
CONTINUOUS
370
50
 62
4
100
AcDbLine
 10
7.0
 20
7.745966692414834
 30
0.0
 11
7.0
 21
-7.745966692414834
 31
0.0
  0
LINE
  5
22E
330
1F
100
AcDbEntity
  8
SK1
  6
CONTINUOUS
370
50
 62
4
100
AcDbLine
 10
7.0
 20
-7.745966692414834
 30
0.0
 11
53.0
 21
-7.745966692414834
 31
0.0
  0
LINE
  5
22F
330
1F
100
AcDbEntity
  8
SK1
  6
CONTINUOUS
370
50
 62
4
100
AcDbLine
 10
53.0
 20
-7.745966692414834
 30
0.0
 11
53.0
 21
7.745966692414834
 31
0.0
  0
CIRCLE
  5
230
330
1F
100
AcDbEntity
  8
SK1
  6
CONTINUOUS
370
50
 62
4
100
AcDbCircle
 10
43.4
 20
0.0
 30
0.0
 40
4.5
  0
LINE
  5
231
330
1F
100
AcDbEntity
  8
SK1
  6
CONTINUOUS
370
50
 62
4
100
AcDbLine
 10
1.600000000000001
 20
16.0
 30
0.0
 11
1.600000000000001
 21
-16.0
 31
0.0
  0
LINE
  5
232
330
1F
100
AcDbEntity
  8
NOCUT
  6
CONTINUOUS
370
25
 62
7
100
AcDbLine
 10
60.0
 20
0.0
 30
0.0
 11
60.0
 21
24.0
 31
0.0
  0
LINE
  5
233
330
1F
100
AcDbEntity
  8
NOCUT
  6
CONTINUOUS
370
25
 62
7
100
AcDbLine
 10
60.0
 20
24.0
 30
0.0
 11
64.0
 21
24.0
 31
0.0
  0
LINE
  5
234
330
1F
100
AcDbEntity
  8
NOCUT
  6
CONTINUOUS
370
25
 62
7
100
AcDbLine
 10
64.0
 20
0.0
 30
0.0
 11
60.0
 21
0.0
 31
0.0
  0
LINE
  5
235
330
1F
100
AcDbEntity
  8
SK2
  6
CONTINUOUS
370
25
 62
7
100
AcDbLine
 10
0.0
 20
15.07623957
 30
0.0
 11
0.0
 21
35.00001
 31
0.0
  0
LINE
  5
236
330
1F
100
AcDbEntity
  8
SK2
  6
CONTINUOUS
370
25
 62
7
100
AcDbLine
 10
60.0
 20
35.00001
 30
0.0
 11
60.0
 21
24.0
 31
0.0
  0
LINE
  5
237
330
1F
100
AcDbEntity
  8
SK2
  6
CONTINUOUS
370
25
 62
7
100
AcDbLine
 10
0.0
 20
34.00001
 30
0.0
 11
60.0
 21
34.00001
 31
0.0
  0
LINE
  5
238
330
1F
100
AcDbEntity
  8
SK2
  6
CONTINUOUS
370
25
 62
7
100
AcDbLine
 10
0.0
 20
34.00001
 30
0.0
 11
5.0
 21
35.00001
 31
0.0
  0
LINE
  5
239
330
1F
100
AcDbEntity
  8
SK2
  6
CONTINUOUS
370
25
 62
7
100
AcDbLine
 10
5.0
 20
35.00001
 30
0.0
 11
5.0
 21
33.00001
 31
0.0
  0
LINE
  5
23A
330
1F
100
AcDbEntity
  8
SK2
  6
CONTINUOUS
370
25
 62
7
100
AcDbLine
 10
5.0
 20
33.00001
 30
0.0
 11
0.0
 21
34.00001
 31
0.0
  0
LINE
  5
23B
330
1F
100
AcDbEntity
  8
SK2
  6
CONTINUOUS
370
25
 62
7
100
AcDbLine
 10
4.794236423265708
 20
33.04116271534686
 30
0.0
 11
5.0
 21
33.24692629208115
 31
0.0
  0
LINE
  5
23C
330
1F
100
AcDbEntity
  8
SK2
  6
CONTINUOUS
370
25
 62
7
100
AcDbLine
 10
4.440683032672418
 20
33.1118733934655
 30
0.0
 11
5.0
 21
33.67119036079308
 31
0.0
  0
LINE
  5
23D
330
1F
100
AcDbEntity
  8
SK2
  6
CONTINUOUS
370
25
 62
7
100
AcDbLine
 10
4.087129642079148
 20
33.18258407158417
 30
0.0
 11
5.0
 21
34.09545442950503
 31
0.0
  0
LINE
  5
23E
330
1F
100
AcDbEntity
  8
SK2
  6
CONTINUOUS
370
25
 62
7
100
AcDbLine
 10
3.733576251485879
 20
33.25329474970282
 30
0.0
 11
5.0
 21
34.51971849821695
 31
0.0
  0
LINE
  5
23F
330
1F
100
AcDbEntity
  8
SK2
  6
CONTINUOUS
370
25
 62
7
100
AcDbLine
 10
3.380022860892595
 20
33.32400542782148
 30
0.0
 11
5.0
 21
34.94398256692889
 31
0.0
  0
LINE
  5
240
330
1F
100
AcDbEntity
  8
SK2
  6
CONTINUOUS
370
25
 62
7
100
AcDbLine
 10
3.026469470299304
 20
33.39471610594013
 30
0.0
 11
4.53970420544897
 21
34.90795084108979
 31
0.0
  0
LINE
  5
241
330
1F
100
AcDbEntity
  8
SK2
  6
CONTINUOUS
370
25
 62
7
100
AcDbLine
 10
2.672916079706035
 20
33.46542678405879
 30
0.0
 11
4.009374119559048
 21
34.80188482391181
 31
0.0
  0
LINE
  5
242
330
1F
100
AcDbEntity
  8
SK2
  6
CONTINUOUS
370
25
 62
7
100
AcDbLine
 10
2.319362689112765
 20
33.53613746217744
 30
0.0
 11
3.479044033669147
 21
34.69581880673383
 31
0.0
  0
LINE
  5
243
330
1F
100
AcDbEntity
  8
SK2
  6
CONTINUOUS
370
25
 62
7
100
AcDbLine
 10
1.965809298519488
 20
33.6068481402961
 30
0.0
 11
2.948713947779225
 21
34.58975278955585
 31
0.0
  0
LINE
  5
244
330
1F
100
AcDbEntity
  8
SK2
  6
CONTINUOUS
370
25
 62
7
100
AcDbLine
 10
1.612255907926198
 20
33.67755881841475
 30
0.0
 11
2.418383861889303
 21
34.48368677237786
 31
0.0
  0
LINE
  5
245
330
1F
100
AcDbEntity
  8
SK2
  6
CONTINUOUS
370
25
 62
7
100
AcDbLine
 10
1.258702517332928
 20
33.74826949653341
 30
0.0
 11
1.888053775999389
 21
34.37762075519988
 31
0.0
  0
LINE
  5
246
330
1F
100
AcDbEntity
  8
SK2
  6
CONTINUOUS
370
25
 62
7
100
AcDbLine
 10
0.9051491267396585
 20
33.81898017465207
 30
0.0
 11
1.357723690109488
 21
34.2715547380219
 31
0.0
  0
LINE
  5
247
330
1F
100
AcDbEntity
  8
SK2
  6
CONTINUOUS
370
25
 62
7
100
AcDbLine
 10
0.5515957361463819
 20
33.88969085277072
 30
0.0
 11
0.8273936042195729
 21
34.16548872084392
 31
0.0
  0
LINE
  5
248
330
1F
100
AcDbEntity
  8
SK2
  6
CONTINUOUS
370
25
 62
7
100
AcDbLine
 10
0.1980423455530911
 20
33.96040153088936
 30
0.0
 11
0.2970635183296508
 21
34.05942270366592
 31
0.0
  0
LINE
  5
249
330
1F
100
AcDbEntity
  8
SK2
  6
CONTINUOUS
370
25
 62
7
100
AcDbLine
 10
0.2676169576220033
 20
34.0535333915244
 30
0.0
 11
0.4014254364330014
 21
33.9197249127134
 31
0.0
  0
LINE
  5
24A
330
1F
100
AcDbEntity
  8
SK2
  6
CONTINUOUS
370
25
 62
7
100
AcDbLine
 10
0.6211703482152799
 20
34.12424406964305
 30
0.0
 11
0.9317555223229235
 21
33.81365889553541
 31
0.0
  0
LINE
  5
24B
330
1F
100
AcDbEntity
  8
SK2
  6
CONTINUOUS
370
25
 62
7
100
AcDbLine
 10
0.9747237388085566
 20
34.19495474776171
 30
0.0
 11
1.462085608212846
 21
33.70759287835742
 31
0.0
  0
LINE
  5
24C
330
1F
100
AcDbEntity
  8
SK2
  6
CONTINUOUS
370
25
 62
7
100
AcDbLine
 10
1.328277129401833
 20
34.26566542588037
 30
0.0
 11
1.99241569410276
 21
33.60152686117944
 31
0.0
  0
LINE
  5
24D
330
1F
100
AcDbEntity
  8
SK2
  6
CONTINUOUS
370
25
 62
7
100
AcDbLine
 10
1.68183051999511
 20
34.33637610399902
 30
0.0
 11
2.522745779992675
 21
33.49546084400146
 31
0.0
  0
LINE
  5
24E
330
1F
100
AcDbEntity
  8
SK2
  6
CONTINUOUS
370
25
 62
7
100
AcDbLine
 10
2.035383910588386
 20
34.40708678211768
 30
0.0
 11
3.05307586588259
 21
33.38939482682347
 31
0.0
  0
LINE
  5
24F
330
1F
100
AcDbEntity
  8
SK2
  6
CONTINUOUS
370
25
 62
7
100
AcDbLine
 10
2.388937301181663
 20
34.47779746023634
 30
0.0
 11
3.583405951772512
 21
33.28332880964549
 31
0.0
  0
LINE
  5
250
330
1F
100
AcDbEntity
  8
SK2
  6
CONTINUOUS
370
25
 62
7
100
AcDbLine
 10
2.74249069177494
 20
34.548508138355
 30
0.0
 11
4.113736037662427
 21
33.1772627924675
 31
0.0
  0
LINE
  5
251
330
1F
100
AcDbEntity
  8
SK2
  6
CONTINUOUS
370
25
 62
7
100
AcDbLine
 10
3.09604408236823
 20
34.61921881647363
 30
0.0
 11
4.644066123552335
 21
33.07119677528953
 31
0.0
  0
LINE
  5
252
330
1F
100
AcDbEntity
  8
SK2
  6
CONTINUOUS
370
25
 62
7
100
AcDbLine
 10
3.449597472961493
 20
34.68992949459231
 30
0.0
 11
5.0
 21
33.13952696755379
 31
0.0
  0
LINE
  5
253
330
1F
100
AcDbEntity
  8
SK2
  6
CONTINUOUS
370
25
 62
7
100
AcDbLine
 10
3.803150863554777
 20
34.76064017271095
 30
0.0
 11
5.0
 21
33.56379103626573
 31
0.0
  0
LINE
  5
254
330
1F
100
AcDbEntity
  8
SK2
  6
CONTINUOUS
370
25
 62
7
100
AcDbLine
 10
4.156704254148053
 20
34.83135085082962
 30
0.0
 11
5.0
 21
33.98805510497766
 31
0.0
  0
LINE
  5
255
330
1F
100
AcDbEntity
  8
SK2
  6
CONTINUOUS
370
25
 62
7
100
AcDbLine
 10
4.51025764474133
 20
34.90206152894827
 30
0.0
 11
5.0
 21
34.4123191736896
 31
0.0
  0
LINE
  5
256
330
1F
100
AcDbEntity
  8
SK2
  6
CONTINUOUS
370
25
 62
7
100
AcDbLine
 10
4.863811035334606
 20
34.97277220706692
 30
0.0
 11
5.0
 21
34.83658324240152
 31
0.0
  0
LINE
  5
257
330
1F
100
AcDbEntity
  8
SK2
  6
CONTINUOUS
370
25
 62
7
100
AcDbLine
 10
60.0
 20
34.00001
 30
0.0
 11
55.0
 21
33.00001
 31
0.0
  0
LINE
  5
258
330
1F
100
AcDbEntity
  8
SK2
  6
CONTINUOUS
370
25
 62
7
100
AcDbLine
 10
55.0
 20
33.00001
 30
0.0
 11
55.0
 21
35.00001
 31
0.0
  0
LINE
  5
259
330
1F
100
AcDbEntity
  8
SK2
  6
CONTINUOUS
370
25
 62
7
100
AcDbLine
 10
55.0
 20
35.00001
 30
0.0
 11
60.0
 21
34.00001
 31
0.0
  0
LINE
  5
25A
330
1F
100
AcDbEntity
  8
SK2
  6
CONTINUOUS
370
25
 62
7
100
AcDbLine
 10
59.54327554291726
 20
33.90866510858345
 30
0.0
 11
59.69551702861151
 21
34.0609065942777
 31
0.0
  0
LINE
  5
25B
330
1F
100
AcDbEntity
  8
SK2
  6
CONTINUOUS
370
25
 62
7
100
AcDbLine
 10
59.01294545702735
 20
33.80259909140547
 30
0.0
 11
59.34196363801824
 21
34.13161727239635
 31
0.0
  0
LINE
  5
25C
330
1F
100
AcDbEntity
  8
SK2
  6
CONTINUOUS
370
25
 62
7
100
AcDbLine
 10
58.48261537113744
 20
33.69653307422748
 30
0.0
 11
58.98841024742496
 21
34.20232795051501
 31
0.0
  0
LINE
  5
25D
330
1F
100
AcDbEntity
  8
SK2
  6
CONTINUOUS
370
25
 62
7
100
AcDbLine
 10
57.95228528524753
 20
33.5904670570495
 30
0.0
 11
58.63485685683168
 21
34.27303862863366
 31
0.0
  0
LINE
  5
25E
330
1F
100
AcDbEntity
  8
SK2
  6
CONTINUOUS
370
25
 62
7
100
AcDbLine
 10
57.42195519935762
 20
33.48440103987152
 30
0.0
 11
58.28130346623841
 21
34.34374930675231
 31
0.0
  0
LINE
  5
25F
330
1F
100
AcDbEntity
  8
SK2
  6
CONTINUOUS
370
25
 62
7
100
AcDbLine
 10
56.8916251134677
 20
33.37833502269353
 30
0.0
 11
57.92775007564514
 21
34.41445998487097
 31
0.0
  0
LINE
  5
260
330
1F
100
AcDbEntity
  8
SK2
  6
CONTINUOUS
370
25
 62
7
100
AcDbLine
 10
56.3612950275778
 20
33.27226900551555
 30
0.0
 11
57.57419668505187
 21
34.48517066298962
 31
0.0
  0
LINE
  5
261
330
1F
100
AcDbEntity
  8
SK2
  6
CONTINUOUS
370
25
 62
7
100
AcDbLine
 10
55.83096494168789
 20
33.16620298833757
 30
0.0
 11
57.22064329445858
 21
34.55588134110828
 31
0.0
  0
LINE
  5
262
330
1F
100
AcDbEntity
  8
SK2
  6
CONTINUOUS
370
25
 62
7
100
AcDbLine
 10
55.30063485579798
 20
33.06013697115959
 30
0.0
 11
56.86708990386531
 21
34.62659201922693
 31
0.0
  0
LINE
  5
263
330
1F
100
AcDbEntity
  8
SK2
  6
CONTINUOUS
370
25
 62
7
100
AcDbLine
 10
55.0
 20
33.18376618407354
 30
0.0
 11
56.51353651327204
 21
34.69730269734558
 31
0.0
  0
LINE
  5
264
330
1F
100
AcDbEntity
  8
SK2
  6
CONTINUOUS
370
25
 62
7
100
AcDbLine
 10
55.0
 20
33.60803025278547
 30
0.0
 11
56.15998312267877
 21
34.76801337546424
 31
0.0
  0
LINE
  5
265
330
1F
100
AcDbEntity
  8
SK2
  6
CONTINUOUS
370
25
 62
7
100
AcDbLine
 10
55.0
 20
34.0322943214974
 30
0.0
 11
55.80642973208549
 21
34.83872405358289
 31
0.0
  0
LINE
  5
266
330
1F
100
AcDbEntity
  8
SK2
  6
CONTINUOUS
370
25
 62
7
100
AcDbLine
 10
55.0
 20
34.45655839020933
 30
0.0
 11
55.45287634149222
 21
34.90943473170155
 31
0.0
  0
LINE
  5
267
330
1F
100
AcDbEntity
  8
SK2
  6
CONTINUOUS
370
25
 62
7
100
AcDbLine
 10
55.0
 20
34.88082245892126
 30
0.0
 11
55.09932295089894
 21
34.98014540982021
 31
0.0
  0
LINE
  5
268
330
1F
100
AcDbEntity
  8
SK2
  6
CONTINUOUS
370
25
 62
7
100
AcDbLine
 10
55.0
 20
33.00142853498724
 30
0.0
 11
55.00118211248937
 21
33.00024642249787
 31
0.0
  0
LINE
  5
269
330
1F
100
AcDbEntity
  8
SK2
  6
CONTINUOUS
370
25
 62
7
100
AcDbLine
 10
55.0
 20
33.42569260369917
 30
0.0
 11
55.35473550308264
 21
33.07095710061652
 31
0.0
  0
LINE
  5
26A
330
1F
100
AcDbEntity
  8
SK2
  6
CONTINUOUS
370
25
 62
7
100
AcDbLine
 10
55.0
 20
33.8499566724111
 30
0.0
 11
55.70828889367592
 21
33.14166777873518
 31
0.0
  0
LINE
  5
26B
330
1F
100
AcDbEntity
  8
SK2
  6
CONTINUOUS
370
25
 62
7
100
AcDbLine
 10
55.0
 20
34.27422074112303
 30
0.0
 11
56.06184228426919
 21
33.21237845685383
 31
0.0
  0
LINE
  5
26C
330
1F
100
AcDbEntity
  8
SK2
  6
CONTINUOUS
370
25
 62
7
100
AcDbLine
 10
55.0
 20
34.69848480983496
 30
0.0
 11
56.41539567486247
 21
33.28308913497249
 31
0.0
  0
LINE
  5
26D
330
1F
100
AcDbEntity
  8
SK2
  6
CONTINUOUS
370
25
 62
7
100
AcDbLine
 10
55.15342359818361
 20
34.96932528036327
 30
0.0
 11
56.76894906545574
 21
33.35379981309114
 31
0.0
  0
LINE
  5
26E
330
1F
100
AcDbEntity
  8
SK2
  6
CONTINUOUS
370
25
 62
7
100
AcDbLine
 10
55.68375368407353
 20
34.86325926318529
 30
0.0
 11
57.12250245604902
 21
33.4245104912098
 31
0.0
  0
LINE
  5
26F
330
1F
100
AcDbEntity
  8
SK2
  6
CONTINUOUS
370
25
 62
7
100
AcDbLine
 10
56.21408376996344
 20
34.7571932460073
 30
0.0
 11
57.4760558466423
 21
33.49522116932845
 31
0.0
  0
LINE
  5
270
330
1F
100
AcDbEntity
  8
SK2
  6
CONTINUOUS
370
25
 62
7
100
AcDbLine
 10
56.74441385585335
 20
34.65112722882932
 30
0.0
 11
57.82960923723557
 21
33.56593184744711
 31
0.0
  0
LINE
  5
271
330
1F
100
AcDbEntity
  8
SK2
  6
CONTINUOUS
370
25
 62
7
100
AcDbLine
 10
57.27474394174327
 20
34.54506121165134
 30
0.0
 11
58.18316262782884
 21
33.63664252556576
 31
0.0
  0
LINE
  5
272
330
1F
100
AcDbEntity
  8
SK2
  6
CONTINUOUS
370
25
 62
7
100
AcDbLine
 10
57.80507402763318
 20
34.43899519447336
 30
0.0
 11
58.53671601842212
 21
33.70735320368442
 31
0.0
  0
LINE
  5
273
330
1F
100
AcDbEntity
  8
SK2
  6
CONTINUOUS
370
25
 62
7
100
AcDbLine
 10
58.33540411352309
 20
34.33292917729538
 30
0.0
 11
58.89026940901539
 21
33.77806388180307
 31
0.0
  0
LINE
  5
274
330
1F
100
AcDbEntity
  8
SK2
  6
CONTINUOUS
370
25
 62
7
100
AcDbLine
 10
58.865734199413
 20
34.2268631601174
 30
0.0
 11
59.24382279960867
 21
33.84877455992173
 31
0.0
  0
LINE
  5
275
330
1F
100
AcDbEntity
  8
SK2
  6
CONTINUOUS
370
25
 62
7
100
AcDbLine
 10
59.39606428530291
 20
34.12079714293942
 30
0.0
 11
59.59737619020194
 21
33.91948523804039
 31
0.0
  0
LINE
  5
276
330
1F
100
AcDbEntity
  8
SK2
  6
CONTINUOUS
370
25
 62
7
100
AcDbLine
 10
59.92639437119282
 20
34.01473112576143
 30
0.0
 11
59.95092958079521
 21
33.99019591615904
 31
0.0
  0
TEXT
  5
277
330
1F
100
AcDbEntity
  8
SK2
  6
CONTINUOUS
370
25
 62
7
100
AcDbText
 10
27.375
 20
35.50001
 30
0.0
 40
3.5
  1
60
 72
     1
 11
30.0
 21
35.50001
 31
0.0
100
AcDbText
  0
LINE
  5
278
330
1F
100
AcDbEntity
  8
SK2
  6
CONTINUOUS
370
25
 62
7
100
AcDbLine
 10
60.0
 20
-24.0
 30
0.0
 11
-11.0
 21
-24.0
 31
0.0
  0
LINE
  5
279
330
1F
100
AcDbEntity
  8
SK2
  6
CONTINUOUS
370
25
 62
7
100
AcDbLine
 10
-11.0
 20
24.0
 30
0.0
 11
60.0
 21
24.0
 31
0.0
  0
LINE
  5
27A
330
1F
100
AcDbEntity
  8
SK2
  6
CONTINUOUS
370
25
 62
7
100
AcDbLine
 10
-10.0
 20
-24.0
 30
0.0
 11
-10.0
 21
24.0
 31
0.0
  0
LINE
  5
27B
330
1F
100
AcDbEntity
  8
SK2
  6
CONTINUOUS
370
25
 62
7
100
AcDbLine
 10
-10.0
 20
-24.0
 30
0.0
 11
-11.0
 21
-19.0
 31
0.0
  0
LINE
  5
27C
330
1F
100
AcDbEntity
  8
SK2
  6
CONTINUOUS
370
25
 62
7
100
AcDbLine
 10
-11.0
 20
-19.0
 30
0.0
 11
-9.0
 21
-19.0
 31
0.0
  0
LINE
  5
27D
330
1F
100
AcDbEntity
  8
SK2
  6
CONTINUOUS
370
25
 62
7
100
AcDbLine
 10
-9.0
 20
-19.0
 30
0.0
 11
-10.0
 21
-24.0
 31
0.0
  0
LINE
  5
27E
330
1F
100
AcDbEntity
  8
SK2
  6
CONTINUOUS
370
25
 62
7
100
AcDbLine
 10
-10.04079724826678
 20
-23.79601375866613
 30
0.0
 11
-9.938804127599823
 21
-23.69402063799917
 31
0.0
  0
LINE
  5
27F
330
1F
100
AcDbEntity
  8
SK2
  6
CONTINUOUS
370
25
 62
7
100
AcDbLine
 10
-10.11150792638543
 20
-23.44246036807284
 30
0.0
 11
-9.832738110421843
 21
-23.16369055210926
 31
0.0
  0
LINE
  5
280
330
1F
100
AcDbEntity
  8
SK2
  6
CONTINUOUS
370
25
 62
7
100
AcDbLine
 10
-10.18221860450409
 20
-23.08890697747958
 30
0.0
 11
-9.726672093243863
 21
-22.63336046621936
 31
0.0
  0
LINE
  5
281
330
1F
100
AcDbEntity
  8
SK2
  6
CONTINUOUS
370
25
 62
7
100
AcDbLine
 10
-10.25292928262274
 20
-22.73535358688632
 30
0.0
 11
-9.620606076065883
 21
-22.10303038032944
 31
0.0
  0
LINE
  5
282
330
1F
100
AcDbEntity
  8
SK2
  6
CONTINUOUS
370
25
 62
7
100
AcDbLine
 10
-10.32363996074139
 20
-22.38180019629304
 30
0.0
 11
-9.514540058887903
 21
-21.57270029443954
 31
0.0
  0
LINE
  5
283
330
1F
100
AcDbEntity
  8
SK2
  6
CONTINUOUS
370
25
 62
7
100
AcDbLine
 10
-10.39435063886005
 20
-22.02824680569977
 30
0.0
 11
-9.408474041709923
 21
-21.04237020854963
 31
0.0
  0
LINE
  5
284
330
1F
100
AcDbEntity
  8
SK2
  6
CONTINUOUS
370
25
 62
7
100
AcDbLine
 10
-10.46506131697871
 20
-21.6746934151065
 30
0.0
 11
-9.302408024531942
 21
-20.51204012265973
 31
0.0
  0
LINE
  5
285
330
1F
100
AcDbEntity
  8
SK2
  6
CONTINUOUS
370
25
 62
7
100
AcDbLine
 10
-10.53577199509735
 20
-21.32114002451323
 30
0.0
 11
-9.196342007353962
 21
-19.98171003676983
 31
0.0
  0
LINE
  5
286
330
1F
100
AcDbEntity
  8
SK2
  6
CONTINUOUS
370
25
 62
7
100
AcDbLine
 10
-10.60648267321601
 20
-20.96758663391996
 30
0.0
 11
-9.090275990175982
 21
-19.45137995087992
 31
0.0
  0
LINE
  5
287
330
1F
100
AcDbEntity
  8
SK2
  6
CONTINUOUS
370
25
 62
7
100
AcDbLine
 10
-10.67719335133467
 20
-20.61403324332669
 30
0.0
 11
-9.063160108007992
 21
-19.0
 31
0.0
  0
LINE
  5
288
330
1F
100
AcDbEntity
  8
SK2
  6
CONTINUOUS
370
25
 62
7
100
AcDbLine
 10
-10.74790402945332
 20
-20.26047985273343
 30
0.0
 11
-9.487424176719912
 21
-19.0
 31
0.0
  0
LINE
  5
289
330
1F
100
AcDbEntity
  8
SK2
  6
CONTINUOUS
370
25
 62
7
100
AcDbLine
 10
-10.81861470757197
 20
-19.90692646214015
 30
0.0
 11
-9.911688245431819
 21
-19.0
 31
0.0
  0
LINE
  5
28A
330
1F
100
AcDbEntity
  8
SK2
  6
CONTINUOUS
370
25
 62
7
100
AcDbLine
 10
-10.88932538569063
 20
-19.55337307154688
 30
0.0
 11
-10.33595231414374
 21
-18.99999999999999
 31
0.0
  0
LINE
  5
28B
330
1F
100
AcDbEntity
  8
SK2
  6
CONTINUOUS
370
25
 62
7
100
AcDbLine
 10
-10.96003606380928
 20
-19.19981968095361
 30
0.0
 11
-10.76021638285567
 21
-19.0
 31
0.0
  0
LINE
  5
28C
330
1F
100
AcDbEntity
  8
SK2
  6
CONTINUOUS
370
25
 62
7
100
AcDbLine
 10
-10.05084533576378
 20
-23.74577332118108
 30
0.0
 11
-9.966103109490817
 21
-23.83051554745404
 31
0.0
  0
LINE
  5
28D
330
1F
100
AcDbEntity
  8
SK2
  6
CONTINUOUS
370
25
 62
7
100
AcDbLine
 10
-10.15691135294176
 20
-23.21544323529116
 30
0.0
 11
-9.895392431372159
 21
-23.47696215686076
 31
0.0
  0
LINE
  5
28E
330
1F
100
AcDbEntity
  8
SK2
  6
CONTINUOUS
370
25
 62
7
100
AcDbLine
 10
-10.26297737011976
 20
-22.68511314940125
 30
0.0
 11
-9.8246817532535
 21
-23.1234087662675
 31
0.0
  0
LINE
  5
28F
330
1F
100
AcDbEntity
  8
SK2
  6
CONTINUOUS
370
25
 62
7
100
AcDbLine
 10
-10.36904338729772
 20
-22.15478306351136
 30
0.0
 11
-9.753971075134857
 21
-22.76985537567423
 31
0.0
  0
LINE
  5
290
330
1F
100
AcDbEntity
  8
SK2
  6
CONTINUOUS
370
25
 62
7
100
AcDbLine
 10
-10.47510940447572
 20
-21.62445297762144
 30
0.0
 11
-9.683260397016184
 21
-22.41630198508098
 31
0.0
  0
LINE
  5
291
330
1F
100
AcDbEntity
  8
SK2
  6
CONTINUOUS
370
25
 62
7
100
AcDbLine
 10
-10.58117542165368
 20
-21.09412289173156
 30
0.0
 11
-9.61254971889754
 21
-22.0627485944877
 31
0.0
  0
LINE
  5
292
330
1F
100
AcDbEntity
  8
SK2
  6
CONTINUOUS
370
25
 62
7
100
AcDbLine
 10
-10.68724143883168
 20
-20.56379280584163
 30
0.0
 11
-9.541839040778882
 21
-21.70919520389442
 31
0.0
  0
LINE
  5
293
330
1F
100
AcDbEntity
  8
SK2
  6
CONTINUOUS
370
25
 62
7
100
AcDbLine
 10
-10.79330745600966
 20
-20.03346271995173
 30
0.0
 11
-9.471128362660224
 21
-21.35564181330116
 31
0.0
  0
LINE
  5
294
330
1F
100
AcDbEntity
  8
SK2
  6
CONTINUOUS
370
25
 62
7
100
AcDbLine
 10
-10.89937347318764
 20
-19.50313263406183
 30
0.0
 11
-9.40041768454158
 21
-21.00208842270789
 31
0.0
  0
LINE
  5
295
330
1F
100
AcDbEntity
  8
SK2
  6
CONTINUOUS
370
25
 62
7
100
AcDbLine
 10
-10.97824203853753
 20
-19.0
 30
0.0
 11
-9.329707006422922
 21
-20.64853503211461
 31
0.0
  0
LINE
  5
296
330
1F
100
AcDbEntity
  8
SK2
  6
CONTINUOUS
370
25
 62
7
100
AcDbLine
 10
-10.55397796982561
 20
-19.0
 30
0.0
 11
-9.258996328304264
 21
-20.29498164152135
 31
0.0
  0
LINE
  5
297
330
1F
100
AcDbEntity
  8
SK2
  6
CONTINUOUS
370
25
 62
7
100
AcDbLine
 10
-10.12971390111369
 20
-19.0
 30
0.0
 11
-9.18828565018562
 21
-19.94142825092807
 31
0.0
  0
LINE
  5
298
330
1F
100
AcDbEntity
  8
SK2
  6
CONTINUOUS
370
25
 62
7
100
AcDbLine
 10
-9.705449832401769
 20
-19.0
 30
0.0
 11
-9.117574972066961
 21
-19.58787486033481
 31
0.0
  0
LINE
  5
299
330
1F
100
AcDbEntity
  8
SK2
  6
CONTINUOUS
370
25
 62
7
100
AcDbLine
 10
-9.281185763689848
 20
-19.0
 30
0.0
 11
-9.046864293948303
 21
-19.23432146974154
 31
0.0
  0
LINE
  5
29A
330
1F
100
AcDbEntity
  8
SK2
  6
CONTINUOUS
370
25
 62
7
100
AcDbLine
 10
-10.0
 20
24.0
 30
0.0
 11
-9.0
 21
19.0
 31
0.0
  0
LINE
  5
29B
330
1F
100
AcDbEntity
  8
SK2
  6
CONTINUOUS
370
25
 62
7
100
AcDbLine
 10
-9.0
 20
19.0
 30
0.0
 11
-11.0
 21
19.0
 31
0.0
  0
LINE
  5
29C
330
1F
100
AcDbEntity
  8
SK2
  6
CONTINUOUS
370
25
 62
7
100
AcDbLine
 10
-11.0
 20
19.0
 30
0.0
 11
-10.0
 21
24.0
 31
0.0
  0
LINE
  5
29D
330
1F
100
AcDbEntity
  8
SK2
  6
CONTINUOUS
370
25
 62
7
100
AcDbLine
 10
-9.246926292081383
 20
19.0
 30
0.0
 11
-9.04115438201356
 21
19.20577191006782
 31
0.0
  0
LINE
  5
29E
330
1F
100
AcDbEntity
  8
SK2
  6
CONTINUOUS
370
25
 62
7
100
AcDbLine
 10
-9.671190360793304
 20
19.0
 30
0.0
 11
-9.111865060132217
 21
19.55932530066109
 31
0.0
  0
LINE
  5
29F
330
1F
100
AcDbEntity
  8
SK2
  6
CONTINUOUS
370
25
 62
7
100
AcDbLine
 10
-10.09545442950525
 20
19.0
 30
0.0
 11
-9.182575738250875
 21
19.91287869125438
 31
0.0
  0
LINE
  5
2A0
330
1F
100
AcDbEntity
  8
SK2
  6
CONTINUOUS
370
25
 62
7
100
AcDbLine
 10
-10.51971849821717
 20
19.0
 30
0.0
 11
-9.253286416369534
 21
20.26643208184764
 31
0.0
  0
LINE
  5
2A1
330
1F
100
AcDbEntity
  8
SK2
  6
CONTINUOUS
370
25
 62
7
100
AcDbLine
 10
-10.94398256692908
 20
19.0
 30
0.0
 11
-9.323997094488178
 21
20.61998547244092
 31
0.0
  0
LINE
  5
2A2
330
1F
100
AcDbEntity
  8
SK2
  6
CONTINUOUS
370
25
 62
7
100
AcDbLine
 10
-10.90793834108975
 20
19.46030829455125
 30
0.0
 11
-9.394707772606836
 21
20.97353886303418
 31
0.0
  0
LINE
  5
2A3
330
1F
100
AcDbEntity
  8
SK2
  6
CONTINUOUS
370
25
 62
7
100
AcDbLine
 10
-10.80187232391178
 20
19.99063838044114
 30
0.0
 11
-9.46541845072548
 21
21.32709225362746
 31
0.0
  0
LINE
  5
2A4
330
1F
100
AcDbEntity
  8
SK2
  6
CONTINUOUS
370
25
 62
7
100
AcDbLine
 10
-10.69580630673379
 20
20.52096846633107
 30
0.0
 11
-9.536129128844152
 21
21.68064564422072
 31
0.0
  0
LINE
  5
2A5
330
1F
100
AcDbEntity
  8
SK2
  6
CONTINUOUS
370
25
 62
7
100
AcDbLine
 10
-10.58974028955581
 20
21.05129855222098
 30
0.0
 11
-9.606839806962796
 21
22.03419903481399
 31
0.0
  0
LINE
  5
2A6
330
1F
100
AcDbEntity
  8
SK2
  6
CONTINUOUS
370
25
 62
7
100
AcDbLine
 10
-10.48367427237783
 20
21.58162863811089
 30
0.0
 11
-9.677550485081454
 21
22.38775242540726
 31
0.0
  0
LINE
  5
2A7
330
1F
100
AcDbEntity
  8
SK2
  6
CONTINUOUS
370
25
 62
7
100
AcDbLine
 10
-10.37760825519985
 20
22.1119587240008
 30
0.0
 11
-9.748261163200112
 21
22.74130581600053
 31
0.0
  0
LINE
  5
2A8
330
1F
100
AcDbEntity
  8
SK2
  6
CONTINUOUS
370
25
 62
7
100
AcDbLine
 10
-10.27154223802187
 20
22.6422888098907
 30
0.0
 11
-9.818971841318756
 21
23.09485920659381
 31
0.0
  0
LINE
  5
2A9
330
1F
100
AcDbEntity
  8
SK2
  6
CONTINUOUS
370
25
 62
7
100
AcDbLine
 10
-10.16547622084389
 20
23.1726188957806
 30
0.0
 11
-9.889682519437414
 21
23.44841259718707
 31
0.0
  0
LINE
  5
2AA
330
1F
100
AcDbEntity
  8
SK2
  6
CONTINUOUS
370
25
 62
7
100
AcDbLine
 10
-10.05941020366591
 20
23.7029489816705
 30
0.0
 11
-9.960393197556073
 21
23.80196598778033
 31
0.0
  0
LINE
  5
2AB
330
1F
100
AcDbEntity
  8
SK2
  6
CONTINUOUS
370
25
 62
7
100
AcDbLine
 10
-10.98668030049753
 20
19.06659849751233
 30
0.0
 11
-10.92008180298519
 21
19.0
 31
0.0
  0
LINE
  5
2AC
330
1F
100
AcDbEntity
  8
SK2
  6
CONTINUOUS
370
25
 62
7
100
AcDbLine
 10
-10.91596962237888
 20
19.42015188810561
 30
0.0
 11
-10.49581773427327
 21
19.0
 31
0.0
  0
LINE
  5
2AD
330
1F
100
AcDbEntity
  8
SK2
  6
CONTINUOUS
370
25
 62
7
100
AcDbLine
 10
-10.84525894426022
 20
19.77370527869887
 30
0.0
 11
-10.07155366556135
 21
19.0
 31
0.0
  0
LINE
  5
2AE
330
1F
100
AcDbEntity
  8
SK2
  6
CONTINUOUS
370
25
 62
7
100
AcDbLine
 10
-10.77454826614157
 20
20.12725866929214
 30
0.0
 11
-9.647289596849419
 21
18.99999999999999
 31
0.0
  0
LINE
  5
2AF
330
1F
100
AcDbEntity
  8
SK2
  6
CONTINUOUS
370
25
 62
7
100
AcDbLine
 10
-10.70383758802292
 20
20.48081205988542
 30
0.0
 11
-9.223025528137498
 21
19.0
 31
0.0
  0
LINE
  5
2B0
330
1F
100
AcDbEntity
  8
SK2
  6
CONTINUOUS
370
25
 62
7
100
AcDbLine
 10
-10.63312690990426
 20
20.83436545047869
 30
0.0
 11
-9.050309635143606
 21
19.25154817571803
 31
0.0
  0
LINE
  5
2B1
330
1F
100
AcDbEntity
  8
SK2
  6
CONTINUOUS
370
25
 62
7
100
AcDbLine
 10
-10.5624162317856
 20
21.18791884107195
 30
0.0
 11
-9.156375652321586
 21
19.78187826160793
 31
0.0
  0
LINE
  5
2B2
330
1F
100
AcDbEntity
  8
SK2
  6
CONTINUOUS
370
25
 62
7
100
AcDbLine
 10
-10.49170555366696
 20
21.54147223166523
 30
0.0
 11
-9.262441669499566
 21
20.31220834749784
 31
0.0
  0
LINE
  5
2B3
330
1F
100
AcDbEntity
  8
SK2
  6
CONTINUOUS
370
25
 62
7
100
AcDbLine
 10
-10.4209948755483
 20
21.8950256222585
 30
0.0
 11
-9.368507686677546
 21
20.84253843338774
 31
0.0
  0
LINE
  5
2B4
330
1F
100
AcDbEntity
  8
SK2
  6
CONTINUOUS
370
25
 62
7
100
AcDbLine
 10
-10.35028419742964
 20
22.24857901285176
 30
0.0
 11
-9.474573703855526
 21
21.37286851927765
 31
0.0
  0
LINE
  5
2B5
330
1F
100
AcDbEntity
  8
SK2
  6
CONTINUOUS
370
25
 62
7
100
AcDbLine
 10
-10.279573519311
 20
22.60213240344504
 30
0.0
 11
-9.580639721033506
 21
21.90319860516755
 31
0.0
  0
LINE
  5
2B6
330
1F
100
AcDbEntity
  8
SK2
  6
CONTINUOUS
370
25
 62
7
100
AcDbLine
 10
-10.20886284119234
 20
22.95568579403831
 30
0.0
 11
-9.686705738211487
 21
22.43352869105745
 31
0.0
  0
LINE
  5
2B7
330
1F
100
AcDbEntity
  8
SK2
  6
CONTINUOUS
370
25
 62
7
100
AcDbLine
 10
-10.13815216307368
 20
23.30923918463158
 30
0.0
 11
-9.79277175538948
 21
22.96385877694738
 31
0.0
  0
LINE
  5
2B8
330
1F
100
AcDbEntity
  8
SK2
  6
CONTINUOUS
370
25
 62
7
100
AcDbLine
 10
-10.06744148495504
 20
23.66279257522486
 30
0.0
 11
-9.898837772567447
 21
23.49418886283726
 31
0.0
  0
TEXT
  5
2B9
330
1F
100
AcDbEntity
  8
SK2
  6
CONTINUOUS
370
25
 62
7
100
AcDbText
 10
-11.5
 20
-0.641666666666667
 30
0.0
 40
3.5
  1
48
 50
90.0
 72
     1
 11
-11.5
 21
2.275
 31
0.0
100
AcDbText
  0
CIRCLE
  5
2BA
330
1F
100
AcDbEntity
  8
SK2
  6
CONTINUOUS
370
25
 62
7
100
AcDbCircle
 10
-13.25
 20
-2.625
 30
0.0
 40
1.4
  0
LINE
  5
2BB
330
1F
100
AcDbEntity
  8
SK2
  6
CONTINUOUS
370
25
 62
7
100
AcDbLine
 10
-11.84999999999999
 20
-4.024999999999999
 30
0.0
 11
-14.65000000000001
 21
-1.224999999999999
 31
0.0
  0
LINE
  5
2BC
330
1F
100
AcDbEntity
  8
2
  6
CONTINUOUS
370
25
 62
7
100
AcDbLine
 10
60.0
 20
-24.0
 30
0.0
 11
60.0
 21
-35.00001
 31
0.0
  0
LINE
  5
2BD
330
1F
100
AcDbEntity
  8
2
  6
CONTINUOUS
370
25
 62
7
100
AcDbLine
 10
64.0
 20
-35.00001
 30
0.0
 11
64.0
 21
-24.0
 31
0.0
  0
LINE
  5
2BE
330
1F
100
AcDbEntity
  8
2
  6
CONTINUOUS
370
25
 62
7
100
AcDbLine
 10
53.0
 20
-34.00001
 30
0.0
 11
71.0
 21
-34.00001
 31
0.0
  0
LINE
  5
2BF
330
1F
100
AcDbEntity
  8
2
  6
CONTINUOUS
370
25
 62
7
100
AcDbLine
 10
60.0
 20
-34.00001
 30
0.0
 11
55.0
 21
-35.00001
 31
0.0
  0
LINE
  5
2C0
330
1F
100
AcDbEntity
  8
2
  6
CONTINUOUS
370
25
 62
7
100
AcDbLine
 10
55.0
 20
-35.00001
 30
0.0
 11
55.0
 21
-33.00001
 31
0.0
  0
LINE
  5
2C1
330
1F
100
AcDbEntity
  8
2
  6
CONTINUOUS
370
25
 62
7
100
AcDbLine
 10
55.0
 20
-33.00001
 30
0.0
 11
60.0
 21
-34.00001
 31
0.0
  0
LINE
  5
2C2
330
1F
100
AcDbEntity
  8
2
  6
CONTINUOUS
370
25
 62
7
100
AcDbLine
 10
59.52232793165876
 20
-34.09554441366825
 30
0.0
 11
59.68155195443917
 21
-33.93632039088784
 31
0.0
  0
LINE
  5
2C3
330
1F
100
AcDbEntity
  8
2
  6
CONTINUOUS
370
25
 62
7
100
AcDbLine
 10
58.99199784576884
 20
-34.20161043084624
 30
0.0
 11
59.3279985638459
 21
-33.86560971276919
 31
0.0
  0
LINE
  5
2C4
330
1F
100
AcDbEntity
  8
2
  6
CONTINUOUS
370
25
 62
7
100
AcDbLine
 10
58.46166775987893
 20
-34.30767644802422
 30
0.0
 11
58.97444517325262
 21
-33.79489903465053
 31
0.0
  0
LINE
  5
2C5
330
1F
100
AcDbEntity
  8
2
  6
CONTINUOUS
370
25
 62
7
100
AcDbLine
 10
57.93133767398902
 20
-34.4137424652022
 30
0.0
 11
58.62089178265935
 21
-33.72418835653188
 31
0.0
  0
LINE
  5
2C6
330
1F
100
AcDbEntity
  8
2
  6
CONTINUOUS
370
25
 62
7
100
AcDbLine
 10
57.40100758809911
 20
-34.51980848238018
 30
0.0
 11
58.26733839206607
 21
-33.65347767841322
 31
0.0
  0
LINE
  5
2C7
330
1F
100
AcDbEntity
  8
2
  6
CONTINUOUS
370
25
 62
7
100
AcDbLine
 10
56.87067750220919
 20
-34.62587449955817
 30
0.0
 11
57.9137850014728
 21
-33.58276700029456
 31
0.0
  0
LINE
  5
2C8
330
1F
100
AcDbEntity
  8
2
  6
CONTINUOUS
370
25
 62
7
100
AcDbLine
 10
56.34034741631928
 20
-34.73194051673615
 30
0.0
 11
57.56023161087952
 21
-33.51205632217591
 31
0.0
  0
LINE
  5
2C9
330
1F
100
AcDbEntity
  8
2
  6
CONTINUOUS
370
25
 62
7
100
AcDbLine
 10
55.81001733042936
 20
-34.83800653391413
 30
0.0
 11
57.20667822028624
 21
-33.44134564405725
 31
0.0
  0
LINE
  5
2CA
330
1F
100
AcDbEntity
  8
2
  6
CONTINUOUS
370
25
 62
7
100
AcDbLine
 10
55.27968724453945
 20
-34.94407255109211
 30
0.0
 11
56.85312482969297
 21
-33.3706349659386
 31
0.0
  0
LINE
  5
2CB
330
1F
100
AcDbEntity
  8
2
  6
CONTINUOUS
370
25
 62
7
100
AcDbLine
 10
55.0
 20
-34.79949572691963
 30
0.0
 11
56.4995714390997
 21
-33.29992428781994
 31
0.0
  0
LINE
  5
2CC
330
1F
100
AcDbEntity
  8
2
  6
CONTINUOUS
370
25
 62
7
100
AcDbLine
 10
55.0
 20
-34.3752316582077
 30
0.0
 11
56.14601804850642
 21
-33.22921360970129
 31
0.0
  0
LINE
  5
2CD
330
1F
100
AcDbEntity
  8
2
  6
CONTINUOUS
370
25
 62
7
100
AcDbLine
 10
55.0
 20
-33.95096758949578
 30
0.0
 11
55.79246465791314
 21
-33.15850293158263
 31
0.0
  0
LINE
  5
2CE
330
1F
100
AcDbEntity
  8
2
  6
CONTINUOUS
370
25
 62
7
100
AcDbLine
 10
55.0
 20
-33.52670352078384
 30
0.0
 11
55.43891126731987
 21
-33.08779225346397
 31
0.0
  0
LINE
  5
2CF
330
1F
100
AcDbEntity
  8
2
  6
CONTINUOUS
370
25
 62
7
100
AcDbLine
 10
55.0
 20
-33.10243945207191
 30
0.0
 11
55.08535787672659
 21
-33.01708157534532
 31
0.0
  0
LINE
  5
2D0
330
1F
100
AcDbEntity
  8
2
  6
CONTINUOUS
370
25
 62
7
100
AcDbLine
 10
55.0
 20
-34.79949572691965
 30
0.0
 11
55.16709522756696
 21
-34.96659095448661
 31
0.0
  0
LINE
  5
2D1
330
1F
100
AcDbEntity
  8
2
  6
CONTINUOUS
370
25
 62
7
100
AcDbLine
 10
55.0
 20
-34.37523165820772
 30
0.0
 11
55.52064861816024
 21
-34.89588027636795
 31
0.0
  0
LINE
  5
2D2
330
1F
100
AcDbEntity
  8
2
  6
CONTINUOUS
370
25
 62
7
100
AcDbLine
 10
55.0
 20
-33.9509675894958
 30
0.0
 11
55.87420200875351
 21
-34.8251695982493
 31
0.0
  0
LINE
  5
2D3
330
1F
100
AcDbEntity
  8
2
  6
CONTINUOUS
370
25
 62
7
100
AcDbLine
 10
55.0
 20
-33.52670352078387
 30
0.0
 11
56.22775539934678
 21
-34.75445892013065
 31
0.0
  0
LINE
  5
2D4
330
1F
100
AcDbEntity
  8
2
  6
CONTINUOUS
370
25
 62
7
100
AcDbLine
 10
55.0
 20
-33.10243945207194
 30
0.0
 11
56.58130878994006
 21
-34.68374824201199
 31
0.0
  0
LINE
  5
2D5
330
1F
100
AcDbEntity
  8
2
  6
CONTINUOUS
370
25
 62
7
100
AcDbLine
 10
55.40229327079999
 20
-33.08046865416
 30
0.0
 11
56.93486218053333
 21
-34.61303756389334
 31
0.0
  0
LINE
  5
2D6
330
1F
100
AcDbEntity
  8
2
  6
CONTINUOUS
370
25
 62
7
100
AcDbLine
 10
55.9326233566899
 20
-33.18653467133798
 30
0.0
 11
57.28841557112661
 21
-34.54232688577468
 31
0.0
  0
LINE
  5
2D7
330
1F
100
AcDbEntity
  8
2
  6
CONTINUOUS
370
25
 62
7
100
AcDbLine
 10
56.46295344257982
 20
-33.29260068851597
 30
0.0
 11
57.64196896171988
 21
-34.47161620765603
 31
0.0
  0
LINE
  5
2D8
330
1F
100
AcDbEntity
  8
2
  6
CONTINUOUS
370
25
 62
7
100
AcDbLine
 10
56.99328352846973
 20
-33.39866670569395
 30
0.0
 11
57.99552235231316
 21
-34.40090552953737
 31
0.0
  0
LINE
  5
2D9
330
1F
100
AcDbEntity
  8
2
  6
CONTINUOUS
370
25
 62
7
100
AcDbLine
 10
57.52361361435964
 20
-33.50473272287193
 30
0.0
 11
58.34907574290644
 21
-34.33019485141872
 31
0.0
  0
LINE
  5
2DA
330
1F
100
AcDbEntity
  8
2
  6
CONTINUOUS
370
25
 62
7
100
AcDbLine
 10
58.05394370024956
 20
-33.61079874004992
 30
0.0
 11
58.70262913349971
 21
-34.25948417330006
 31
0.0
  0
LINE
  5
2DB
330
1F
100
AcDbEntity
  8
2
  6
CONTINUOUS
370
25
 62
7
100
AcDbLine
 10
58.58427378613948
 20
-33.7168647572279
 30
0.0
 11
59.05618252409299
 21
-34.18877349518141
 31
0.0
  0
LINE
  5
2DC
330
1F
100
AcDbEntity
  8
2
  6
CONTINUOUS
370
25
 62
7
100
AcDbLine
 10
59.11460387202939
 20
-33.82293077440588
 30
0.0
 11
59.40973591468626
 21
-34.11806281706275
 31
0.0
  0
LINE
  5
2DD
330
1F
100
AcDbEntity
  8
2
  6
CONTINUOUS
370
25
 62
7
100
AcDbLine
 10
59.64493395791931
 20
-33.92899679158386
 30
0.0
 11
59.76328930527954
 21
-34.0473521389441
 31
0.0
  0
LINE
  5
2DE
330
1F
100
AcDbEntity
  8
2
  6
CONTINUOUS
370
25
 62
7
100
AcDbLine
 10
64.0
 20
-34.00001
 30
0.0
 11
69.0
 21
-33.00001
 31
0.0
  0
LINE
  5
2DF
330
1F
100
AcDbEntity
  8
2
  6
CONTINUOUS
370
25
 62
7
100
AcDbLine
 10
69.0
 20
-33.00001
 30
0.0
 11
69.0
 21
-35.00001
 31
0.0
  0
LINE
  5
2E0
330
1F
100
AcDbEntity
  8
2
  6
CONTINUOUS
370
25
 62
7
100
AcDbLine
 10
69.0
 20
-35.00001
 30
0.0
 11
64.0
 21
-34.00001
 31
0.0
  0
LINE
  5
2E1
330
1F
100
AcDbEntity
  8
2
  6
CONTINUOUS
370
25
 62
7
100
AcDbLine
 10
68.9842575904269
 20
-34.99686151808539
 30
0.0
 11
69.0
 21
-34.9811191085123
 31
0.0
  0
LINE
  5
2E2
330
1F
100
AcDbEntity
  8
2
  6
CONTINUOUS
370
25
 62
7
100
AcDbLine
 10
68.63070419983363
 20
-34.92615083996673
 30
0.0
 11
69.0
 21
-34.55685503980037
 31
0.0
  0
LINE
  5
2E3
330
1F
100
AcDbEntity
  8
2
  6
CONTINUOUS
370
25
 62
7
100
AcDbLine
 10
68.27715080924035
 20
-34.85544016184808
 30
0.0
 11
69.0
 21
-34.13259097108843
 31
0.0
  0
LINE
  5
2E4
330
1F
100
AcDbEntity
  8
2
  6
CONTINUOUS
370
25
 62
7
100
AcDbLine
 10
67.92359741864708
 20
-34.78472948372942
 30
0.0
 11
69.0
 21
-33.70832690237651
 31
0.0
  0
LINE
  5
2E5
330
1F
100
AcDbEntity
  8
2
  6
CONTINUOUS
370
25
 62
7
100
AcDbLine
 10
67.5700440280538
 20
-34.71401880561076
 30
0.0
 11
69.0
 21
-33.28406283366458
 31
0.0
  0
LINE
  5
2E6
330
1F
100
AcDbEntity
  8
2
  6
CONTINUOUS
370
25
 62
7
100
AcDbLine
 10
67.21649063746052
 20
-34.64330812749211
 30
0.0
 11
68.8247359561908
 21
-33.03506280876184
 31
0.0
  0
LINE
  5
2E7
330
1F
100
AcDbEntity
  8
2
  6
CONTINUOUS
370
25
 62
7
100
AcDbLine
 10
66.86293724686726
 20
-34.57259744937346
 30
0.0
 11
68.29440587030089
 21
-33.14112882593982
 31
0.0
  0
LINE
  5
2E8
330
1F
100
AcDbEntity
  8
2
  6
CONTINUOUS
370
25
 62
7
100
AcDbLine
 10
66.50938385627398
 20
-34.5018867712548
 30
0.0
 11
67.76407578441098
 21
-33.2471948431178
 31
0.0
  0
LINE
  5
2E9
330
1F
100
AcDbEntity
  8
2
  6
CONTINUOUS
370
25
 62
7
100
AcDbLine
 10
66.15583046568071
 20
-34.43117609313614
 30
0.0
 11
67.23374569852108
 21
-33.35326086029578
 31
0.0
  0
LINE
  5
2EA
330
1F
100
AcDbEntity
  8
2
  6
CONTINUOUS
370
25
 62
7
100
AcDbLine
 10
65.80227707508743
 20
-34.36046541501749
 30
0.0
 11
66.70341561263116
 21
-33.45932687747377
 31
0.0
  0
LINE
  5
2EB
330
1F
100
AcDbEntity
  8
2
  6
CONTINUOUS
370
25
 62
7
100
AcDbLine
 10
65.44872368449415
 20
-34.28975473689884
 30
0.0
 11
66.17308552674125
 21
-33.56539289465175
 31
0.0
  0
LINE
  5
2EC
330
1F
100
AcDbEntity
  8
2
  6
CONTINUOUS
370
25
 62
7
100
AcDbLine
 10
65.09517029390088
 20
-34.21904405878018
 30
0.0
 11
65.64275544085133
 21
-33.67145891182973
 31
0.0
  0
LINE
  5
2ED
330
1F
100
AcDbEntity
  8
2
  6
CONTINUOUS
370
25
 62
7
100
AcDbLine
 10
64.7416169033076
 20
-34.14833338066153
 30
0.0
 11
65.11242535496142
 21
-33.77752492900772
 31
0.0
  0
LINE
  5
2EE
330
1F
100
AcDbEntity
  8
2
  6
CONTINUOUS
370
25
 62
7
100
AcDbLine
 10
64.38806351271433
 20
-34.07762270254287
 30
0.0
 11
64.5820952690715
 21
-33.8835909461857
 31
0.0
  0
LINE
  5
2EF
330
1F
100
AcDbEntity
  8
2
  6
CONTINUOUS
370
25
 62
7
100
AcDbLine
 10
64.03451012212105
 20
-34.00691202442422
 30
0.0
 11
64.05176518318159
 21
-33.98965696336369
 31
0.0
  0
LINE
  5
2F0
330
1F
100
AcDbEntity
  8
2
  6
CONTINUOUS
370
25
 62
7
100
AcDbLine
 10
64.1162474729614
 20
-33.97676050540772
 30
0.0
 11
64.17437120944211
 21
-34.03488424188843
 31
0.0
  0
LINE
  5
2F1
330
1F
100
AcDbEntity
  8
2
  6
CONTINUOUS
370
25
 62
7
100
AcDbLine
 10
64.46980086355468
 20
-33.90604982728907
 30
0.0
 11
64.70470129533203
 21
-34.14095025906641
 31
0.0
  0
LINE
  5
2F2
330
1F
100
AcDbEntity
  8
2
  6
CONTINUOUS
370
25
 62
7
100
AcDbLine
 10
64.82335425414796
 20
-33.83533914917041
 30
0.0
 11
65.23503138122194
 21
-34.24701627624439
 31
0.0
  0
LINE
  5
2F3
330
1F
100
AcDbEntity
  8
2
  6
CONTINUOUS
370
25
 62
7
100
AcDbLine
 10
65.17690764474123
 20
-33.76462847105176
 30
0.0
 11
65.76536146711186
 21
-34.35308229342237
 31
0.0
  0
LINE
  5
2F4
330
1F
100
AcDbEntity
  8
2
  6
CONTINUOUS
370
25
 62
7
100
AcDbLine
 10
65.53046103533451
 20
-33.6939177929331
 30
0.0
 11
66.29569155300177
 21
-34.45914831060036
 31
0.0
  0
LINE
  5
2F5
330
1F
100
AcDbEntity
  8
2
  6
CONTINUOUS
370
25
 62
7
100
AcDbLine
 10
65.88401442592777
 20
-33.62320711481444
 30
0.0
 11
66.82602163889169
 21
-34.56521432777834
 31
0.0
  0
LINE
  5
2F6
330
1F
100
AcDbEntity
  8
2
  6
CONTINUOUS
370
25
 62
7
100
AcDbLine
 10
66.23756781652105
 20
-33.55249643669579
 30
0.0
 11
67.3563517247816
 21
-34.67128034495633
 31
0.0
  0
LINE
  5
2F7
330
1F
100
AcDbEntity
  8
2
  6
CONTINUOUS
370
25
 62
7
100
AcDbLine
 10
66.59112120711433
 20
-33.48178575857713
 30
0.0
 11
67.8866818106715
 21
-34.77734636213431
 31
0.0
  0
LINE
  5
2F8
330
1F
100
AcDbEntity
  8
2
  6
CONTINUOUS
370
25
 62
7
100
AcDbLine
 10
66.9446745977076
 20
-33.41107508045848
 30
0.0
 11
68.41701189656143
 21
-34.88341237931229
 31
0.0
  0
LINE
  5
2F9
330
1F
100
AcDbEntity
  8
2
  6
CONTINUOUS
370
25
 62
7
100
AcDbLine
 10
67.29822798830088
 20
-33.34036440233982
 30
0.0
 11
68.94734198245135
 21
-34.98947839649028
 31
0.0
  0
LINE
  5
2FA
330
1F
100
AcDbEntity
  8
2
  6
CONTINUOUS
370
25
 62
7
100
AcDbLine
 10
67.65178137889416
 20
-33.26965372422117
 30
0.0
 11
69.0
 21
-34.617872345327
 31
0.0
  0
LINE
  5
2FB
330
1F
100
AcDbEntity
  8
2
  6
CONTINUOUS
370
25
 62
7
100
AcDbLine
 10
68.00533476948743
 20
-33.19894304610251
 30
0.0
 11
69.0
 21
-34.19360827661507
 31
0.0
  0
LINE
  5
2FC
330
1F
100
AcDbEntity
  8
2
  6
CONTINUOUS
370
25
 62
7
100
AcDbLine
 10
68.35888816008071
 20
-33.12823236798386
 30
0.0
 11
69.0
 21
-33.76934420790315
 31
0.0
  0
LINE
  5
2FD
330
1F
100
AcDbEntity
  8
2
  6
CONTINUOUS
370
25
 62
7
100
AcDbLine
 10
68.71244155067399
 20
-33.0575216898652
 30
0.0
 11
69.0
 21
-33.34508013919122
 31
0.0
  0
TEXT
  5
2FE
330
1F
100
AcDbEntity
  8
2
  6
CONTINUOUS
370
25
 62
7
100
AcDbText
 10
60.83333333333334
 20
-32.50001
 30
0.0
 40
3.5
  1
4
 72
     1
 11
62.0
 21
-32.50001
 31
0.0
100
AcDbText
  0
LINE
  5
2FF
330
1F
100
AcDbEntity
  8
2
  6
CONTINUOUS
370
25
 62
7
100
AcDbLine
 10
138.0
 20
-12.5
 30
0.0
 11
157.0
 21
-12.5
 31
0.0
  0
LINE
  5
300
330
1F
100
AcDbEntity
  8
2
  6
CONTINUOUS
370
25
 62
7
100
AcDbLine
 10
157.0
 20
12.5
 30
0.0
 11
138.0
 21
12.5
 31
0.0
  0
LINE
  5
301
330
1F
100
AcDbEntity
  8
2
  6
CONTINUOUS
370
25
 62
7
100
AcDbLine
 10
156.0
 20
-12.5
 30
0.0
 11
156.0
 21
12.5
 31
0.0
  0
LINE
  5
302
330
1F
100
AcDbEntity
  8
2
  6
CONTINUOUS
370
25
 62
7
100
AcDbLine
 10
156.0
 20
-12.5
 30
0.0
 11
155.0
 21
-7.500000000000002
 31
0.0
  0
LINE
  5
303
330
1F
100
AcDbEntity
  8
2
  6
CONTINUOUS
370
25
 62
7
100
AcDbLine
 10
155.0
 20
-7.500000000000002
 30
0.0
 11
157.0
 21
-7.500000000000002
 31
0.0
  0
LINE
  5
304
330
1F
100
AcDbEntity
  8
2
  6
CONTINUOUS
370
25
 62
7
100
AcDbLine
 10
157.0
 20
-7.500000000000002
 30
0.0
 11
156.0
 21
-12.5
 31
0.0
  0
LINE
  5
305
330
1F
100
AcDbEntity
  8
2
  6
CONTINUOUS
370
25
 62
7
100
AcDbLine
 10
155.9786067201232
 20
-12.39303360061599
 30
0.0
 11
156.0320899198152
 21
-12.33955040092398
 31
0.0
  0
LINE
  5
306
330
1F
100
AcDbEntity
  8
2
  6
CONTINUOUS
370
25
 62
7
100
AcDbLine
 10
155.9078960420046
 20
-12.03948021002272
 30
0.0
 11
156.1381559369932
 21
-11.80922031503408
 31
0.0
  0
LINE
  5
307
330
1F
100
AcDbEntity
  8
2
  6
CONTINUOUS
370
25
 62
7
100
AcDbLine
 10
155.8371853638859
 20
-11.68592681942945
 30
0.0
 11
156.2442219541712
 21
-11.27889022914418
 31
0.0
  0
LINE
  5
308
330
1F
100
AcDbEntity
  8
2
  6
CONTINUOUS
370
25
 62
7
100
AcDbLine
 10
155.7664746857673
 20
-11.33237342883616
 30
0.0
 11
156.3502879713491
 21
-10.74856014325427
 31
0.0
  0
LINE
  5
309
330
1F
100
AcDbEntity
  8
2
  6
CONTINUOUS
370
25
 62
7
100
AcDbLine
 10
155.6957640076486
 20
-10.97882003824292
 30
0.0
 11
156.4563539885271
 21
-10.21823005736437
 31
0.0
  0
LINE
  5
30A
330
1F
100
AcDbEntity
  8
2
  6
CONTINUOUS
370
25
 62
7
100
AcDbLine
 10
155.6250533295299
 20
-10.62526664764965
 30
0.0
 11
156.5624200057051
 21
-9.687899971474465
 31
0.0
  0
LINE
  5
30B
330
1F
100
AcDbEntity
  8
2
  6
CONTINUOUS
370
25
 62
7
100
AcDbLine
 10
155.5543426514113
 20
-10.27171325705638
 30
0.0
 11
156.6684860228831
 21
-9.157569885584564
 31
0.0
  0
LINE
  5
30C
330
1F
100
AcDbEntity
  8
2
  6
CONTINUOUS
370
25
 62
7
100
AcDbLine
 10
155.4836319732926
 20
-9.9181598664631
 30
0.0
 11
156.7745520400611
 21
-8.627239799694664
 31
0.0
  0
LINE
  5
30D
330
1F
100
AcDbEntity
  8
2
  6
CONTINUOUS
370
25
 62
7
100
AcDbLine
 10
155.412921295174
 20
-9.564606475869823
 30
0.0
 11
156.880618057239
 21
-8.096909713804749
 31
0.0
  0
LINE
  5
30E
330
1F
100
AcDbEntity
  8
2
  6
CONTINUOUS
370
25
 62
7
100
AcDbLine
 10
155.3422106170553
 20
-9.211053085276575
 30
0.0
 11
156.986684074417
 21
-7.566579627914848
 31
0.0
  0
LINE
  5
30F
330
1F
100
AcDbEntity
  8
2
  6
CONTINUOUS
370
25
 62
7
100
AcDbLine
 10
155.2714999389366
 20
-8.857499694683298
 30
0.0
 11
156.62899963362
 21
-7.5
 31
0.0
  0
LINE
  5
310
330
1F
100
AcDbEntity
  8
2
  6
CONTINUOUS
370
25
 62
7
100
AcDbLine
 10
155.200789260818
 20
-8.503946304090022
 30
0.0
 11
156.204735564908
 21
-7.5
 31
0.0
  0
LINE
  5
311
330
1F
100
AcDbEntity
  8
2
  6
CONTINUOUS
370
25
 62
7
100
AcDbLine
 10
155.1300785826994
 20
-8.150392913496745
 30
0.0
 11
155.7804714961961
 21
-7.5
 31
0.0
  0
LINE
  5
312
330
1F
100
AcDbEntity
  8
2
  6
CONTINUOUS
370
25
 62
7
100
AcDbLine
 10
155.0593679045807
 20
-7.796839522903483
 30
0.0
 11
155.3562074274842
 21
-7.5
 31
0.0
  0
LINE
  5
313
330
1F
100
AcDbEntity
  8
2
  6
CONTINUOUS
370
25
 62
7
100
AcDbLine
 10
155.9799946159374
 20
-12.39997307968694
 30
0.0
 11
156.0133369227084
 21
-12.43331538645796
 31
0.0
  0
LINE
  5
314
330
1F
100
AcDbEntity
  8
2
  6
CONTINUOUS
370
25
 62
7
100
AcDbLine
 10
155.8739285987594
 20
-11.86964299379704
 30
0.0
 11
156.084047600827
 21
-12.07976199586469
 31
0.0
  0
LINE
  5
315
330
1F
100
AcDbEntity
  8
2
  6
CONTINUOUS
370
25
 62
7
100
AcDbLine
 10
155.7678625815814
 20
-11.33931290790714
 30
0.0
 11
156.1547582789457
 21
-11.72620860527145
 31
0.0
  0
LINE
  5
316
330
1F
100
AcDbEntity
  8
2
  6
CONTINUOUS
370
25
 62
7
100
AcDbLine
 10
155.6617965644035
 20
-10.80898282201723
 30
0.0
 11
156.2254689570644
 21
-11.37265521467816
 31
0.0
  0
LINE
  5
317
330
1F
100
AcDbEntity
  8
2
  6
CONTINUOUS
370
25
 62
7
100
AcDbLine
 10
155.5557305472255
 20
-10.27865273612733
 30
0.0
 11
156.296179635183
 21
-11.01910182408488
 31
0.0
  0
LINE
  5
318
330
1F
100
AcDbEntity
  8
2
  6
CONTINUOUS
370
25
 62
7
100
AcDbLine
 10
155.4496645300475
 20
-9.748322650237427
 30
0.0
 11
156.3668903133017
 21
-10.66554843349162
 31
0.0
  0
LINE
  5
319
330
1F
100
AcDbEntity
  8
2
  6
CONTINUOUS
370
25
 62
7
100
AcDbLine
 10
155.3435985128695
 20
-9.217992564347512
 30
0.0
 11
156.4376009914203
 21
-10.31199504289836
 31
0.0
  0
LINE
  5
31A
330
1F
100
AcDbEntity
  8
2
  6
CONTINUOUS
370
25
 62
7
100
AcDbLine
 10
155.2375324956915
 20
-8.68766247845761
 30
0.0
 11
156.508311669539
 21
-9.958441652305083
 31
0.0
  0
LINE
  5
31B
330
1F
100
AcDbEntity
  8
2
  6
CONTINUOUS
370
25
 62
7
100
AcDbLine
 10
155.1314664785135
 20
-8.15733239256771
 30
0.0
 11
156.5790223476577
 21
-9.604888261711821
 31
0.0
  0
LINE
  5
31C
330
1F
100
AcDbEntity
  8
2
  6
CONTINUOUS
370
25
 62
7
100
AcDbLine
 10
155.0254004613356
 20
-7.627002306677795
 30
0.0
 11
156.6497330257763
 21
-9.25133487111853
 31
0.0
  0
LINE
  5
31D
330
1F
100
AcDbEntity
  8
2
  6
CONTINUOUS
370
25
 62
7
100
AcDbLine
 10
155.3226622233697
 20
-7.5
 30
0.0
 11
156.7204437038949
 21
-8.897781480525254
 31
0.0
  0
LINE
  5
31E
330
1F
100
AcDbEntity
  8
2
  6
CONTINUOUS
370
25
 62
7
100
AcDbLine
 10
155.7469262920816
 20
-7.5
 30
0.0
 11
156.7911543820136
 21
-8.54422808993202
 31
0.0
  0
LINE
  5
31F
330
1F
100
AcDbEntity
  8
2
  6
CONTINUOUS
370
25
 62
7
100
AcDbLine
 10
156.1711903607935
 20
-7.5
 30
0.0
 11
156.8618650601323
 21
-8.190674699338729
 31
0.0
  0
LINE
  5
320
330
1F
100
AcDbEntity
  8
2
  6
CONTINUOUS
370
25
 62
7
100
AcDbLine
 10
156.5954544295055
 20
-7.5
 30
0.0
 11
156.9325757382509
 21
-7.837121308745466
 31
0.0
  0
LINE
  5
321
330
1F
100
AcDbEntity
  8
2
  6
CONTINUOUS
370
25
 62
7
100
AcDbLine
 10
156.0
 20
12.5
 30
0.0
 11
157.0
 21
7.499999999999998
 31
0.0
  0
LINE
  5
322
330
1F
100
AcDbEntity
  8
2
  6
CONTINUOUS
370
25
 62
7
100
AcDbLine
 10
157.0
 20
7.499999999999998
 30
0.0
 11
155.0
 21
7.499999999999998
 31
0.0
  0
LINE
  5
323
330
1F
100
AcDbEntity
  8
2
  6
CONTINUOUS
370
25
 62
7
100
AcDbLine
 10
155.0
 20
7.499999999999998
 30
0.0
 11
156.0
 21
12.5
 31
0.0
  0
LINE
  5
324
330
1F
100
AcDbEntity
  8
2
  6
CONTINUOUS
370
25
 62
7
100
AcDbLine
 10
156.6605796876235
 20
7.5
 30
0.0
 11
156.9434299479373
 21
7.782850260313751
 31
0.0
  0
LINE
  5
325
330
1F
100
AcDbEntity
  8
2
  6
CONTINUOUS
370
25
 62
7
100
AcDbLine
 10
156.2363156189116
 20
7.5
 30
0.0
 11
156.8727192698186
 21
8.136403650907013
 31
0.0
  0
LINE
  5
326
330
1F
100
AcDbEntity
  8
2
  6
CONTINUOUS
370
25
 62
7
100
AcDbLine
 10
155.8120515501997
 20
7.5
 30
0.0
 11
156.8020085916999
 21
8.489957041500276
 31
0.0
  0
LINE
  5
327
330
1F
100
AcDbEntity
  8
2
  6
CONTINUOUS
370
25
 62
7
100
AcDbLine
 10
155.3877874814877
 20
7.5
 30
0.0
 11
156.7312979135813
 21
8.843510432093552
 31
0.0
  0
LINE
  5
328
330
1F
100
AcDbEntity
  8
2
  6
CONTINUOUS
370
25
 62
7
100
AcDbLine
 10
155.009119146806
 20
7.545595734030229
 30
0.0
 11
156.6605872354626
 21
9.197063822686815
 31
0.0
  0
LINE
  5
329
330
1F
100
AcDbEntity
  8
2
  6
CONTINUOUS
370
25
 62
7
100
AcDbLine
 10
155.115185163984
 20
8.07592581992013
 30
0.0
 11
156.589876557344
 21
9.550617213280091
 31
0.0
  0
LINE
  5
32A
330
1F
100
AcDbEntity
  8
2
  6
CONTINUOUS
370
25
 62
7
100
AcDbLine
 10
155.221251181162
 20
8.606255905810059
 30
0.0
 11
156.5191658792253
 21
9.904170603873368
 31
0.0
  0
LINE
  5
32B
330
1F
100
AcDbEntity
  8
2
  6
CONTINUOUS
370
25
 62
7
100
AcDbLine
 10
155.32731719834
 20
9.136585991699945
 30
0.0
 11
156.4484552011067
 21
10.25772399446664
 31
0.0
  0
LINE
  5
32C
330
1F
100
AcDbEntity
  8
2
  6
CONTINUOUS
370
25
 62
7
100
AcDbLine
 10
155.433383215518
 20
9.66691607758986
 30
0.0
 11
156.377744522988
 21
10.61127738505989
 31
0.0
  0
LINE
  5
32D
330
1F
100
AcDbEntity
  8
2
  6
CONTINUOUS
370
25
 62
7
100
AcDbLine
 10
155.5394492326959
 20
10.19724616347975
 30
0.0
 11
156.3070338448694
 21
10.96483077565317
 31
0.0
  0
LINE
  5
32E
330
1F
100
AcDbEntity
  8
2
  6
CONTINUOUS
370
25
 62
7
100
AcDbLine
 10
155.6455152498739
 20
10.72757624936968
 30
0.0
 11
156.2363231667507
 21
11.31838416624645
 31
0.0
  0
LINE
  5
32F
330
1F
100
AcDbEntity
  8
2
  6
CONTINUOUS
370
25
 62
7
100
AcDbLine
 10
155.7515812670519
 20
11.25790633525958
 30
0.0
 11
156.1656124886321
 21
11.67193755683972
 31
0.0
  0
LINE
  5
330
330
1F
100
AcDbEntity
  8
2
  6
CONTINUOUS
370
25
 62
7
100
AcDbLine
 10
155.8576472842299
 20
11.78823642114948
 30
0.0
 11
156.0949018105134
 21
12.02549094743298
 31
0.0
  0
LINE
  5
331
330
1F
100
AcDbEntity
  8
2
  6
CONTINUOUS
370
25
 62
7
100
AcDbLine
 10
155.9637133014079
 20
12.31856650703938
 30
0.0
 11
156.0241911323948
 21
12.37904433802626
 31
0.0
  0
LINE
  5
332
330
1F
100
AcDbEntity
  8
2
  6
CONTINUOUS
370
25
 62
7
100
AcDbLine
 10
155.0286507713812
 20
7.643253856905901
 30
0.0
 11
155.1719046282871
 21
7.5
 31
0.0
  0
LINE
  5
333
330
1F
100
AcDbEntity
  8
2
  6
CONTINUOUS
370
25
 62
7
100
AcDbLine
 10
155.0993614494998
 20
7.996807247499149
 30
0.0
 11
155.596168696999
 21
7.5
 31
0.0
  0
LINE
  5
334
330
1F
100
AcDbEntity
  8
2
  6
CONTINUOUS
370
25
 62
7
100
AcDbLine
 10
155.1700721276185
 20
8.350360638092411
 30
0.0
 11
156.0204327657109
 21
7.5
 31
0.0
  0
LINE
  5
335
330
1F
100
AcDbEntity
  8
2
  6
CONTINUOUS
370
25
 62
7
100
AcDbLine
 10
155.2407828057371
 20
8.703914028685688
 30
0.0
 11
156.4446968344228
 21
7.5
 31
0.0
  0
LINE
  5
336
330
1F
100
AcDbEntity
  8
2
  6
CONTINUOUS
370
25
 62
7
100
AcDbLine
 10
155.3114934838558
 20
9.057467419278993
 30
0.0
 11
156.8689609031348
 21
7.5
 31
0.0
  0
LINE
  5
337
330
1F
100
AcDbEntity
  8
2
  6
CONTINUOUS
370
25
 62
7
100
AcDbLine
 10
155.3822041619744
 20
9.411020809872241
 30
0.0
 11
156.9266937570383
 21
7.866531214808376
 31
0.0
  0
LINE
  5
338
330
1F
100
AcDbEntity
  8
2
  6
CONTINUOUS
370
25
 62
7
100
AcDbLine
 10
155.4529148400931
 20
9.764574200465518
 30
0.0
 11
156.8206277398604
 21
8.396861300698276
 31
0.0
  0
LINE
  5
339
330
1F
100
AcDbEntity
  8
2
  6
CONTINUOUS
370
25
 62
7
100
AcDbLine
 10
155.5236255182118
 20
10.11812759105877
 30
0.0
 11
156.7145617226824
 21
8.927191386588177
 31
0.0
  0
LINE
  5
33A
330
1F
100
AcDbEntity
  8
2
  6
CONTINUOUS
370
25
 62
7
100
AcDbLine
 10
155.5943361963304
 20
10.47168098165204
 30
0.0
 11
156.6084957055044
 21
9.457521472478078
 31
0.0
  0
LINE
  5
33B
330
1F
100
AcDbEntity
  8
2
  6
CONTINUOUS
370
25
 62
7
100
AcDbLine
 10
155.6650468744491
 20
10.8252343722453
 30
0.0
 11
156.5024296883264
 21
9.987851558367993
 31
0.0
  0
LINE
  5
33C
330
1F
100
AcDbEntity
  8
2
  6
CONTINUOUS
370
25
 62
7
100
AcDbLine
 10
155.7357575525677
 20
11.17878776283858
 30
0.0
 11
156.3963636711484
 21
10.51818164425789
 31
0.0
  0
LINE
  5
33D
330
1F
100
AcDbEntity
  8
2
  6
CONTINUOUS
370
25
 62
7
100
AcDbLine
 10
155.8064682306864
 20
11.53234115343184
 30
0.0
 11
156.2902976539704
 21
11.04851173014779
 31
0.0
  0
LINE
  5
33E
330
1F
100
AcDbEntity
  8
2
  6
CONTINUOUS
370
25
 62
7
100
AcDbLine
 10
155.877178908805
 20
11.88589454402513
 30
0.0
 11
156.1842316367924
 21
11.57884181603769
 31
0.0
  0
LINE
  5
33F
330
1F
100
AcDbEntity
  8
2
  6
CONTINUOUS
370
25
 62
7
100
AcDbLine
 10
155.9478895869237
 20
12.23944793461843
 30
0.0
 11
156.0781656196145
 21
12.10917190192761
 31
0.0
  0
TEXT
  5
340
330
1F
100
AcDbEntity
  8
2
  6
CONTINUOUS
370
25
 62
7
100
AcDbText
 10
154.5
 20
-0.641666666666667
 30
0.0
 40
3.5
  1
25
 50
90.0
 72
     1
 11
154.5
 21
2.275
 31
0.0
100
AcDbText
  0
CIRCLE
  5
341
330
1F
100
AcDbEntity
  8
2
  6
CONTINUOUS
370
25
 62
7
100
AcDbCircle
 10
152.75
 20
-2.625
 30
0.0
 40
1.4
  0
LINE
  5
342
330
1F
100
AcDbEntity
  8
2
  6
CONTINUOUS
370
25
 62
7
100
AcDbLine
 10
154.15
 20
-4.024999999999999
 30
0.0
 11
151.35
 21
-1.224999999999999
 31
0.0
  0
LINE
  5
343
330
1F
100
AcDbEntity
  8
SK1
  6
CONTINUOUS
370
50
 62
4
100
AcDbLine
 10
0.0
 20
0.0
 30
0.0
 11
2.625
 21
0.0
 31
0.0
  0
LINE
  5
344
330
1F
100
AcDbEntity
  8
SK1
  6
CONTINUOUS
370
50
 62
4
100
AcDbLine
 10
0.0
 20
0.0
 30
0.0
 11
0.0
 21
2.625
 31
0.0
  0
ARC
  5
345
330
1F
100
AcDbEntity
  8
SK1
  6
CONTINUOUS
370
50
 62
4
100
AcDbCircle
 10
0.0
 20
0.0
 30
0.0
 40
2.625
100
AcDbArc
 50
0.0
 51
90.0
  0
LINE
  5
346
330
1F
100
AcDbEntity
  8
SK1
  6
CONTINUOUS
370
50
 62
4
100
AcDbLine
 10
0.0
 20
0.0
 30
0.0
 11
-2.625
 21
0.0
 31
0.0
  0
ARC
  5
347
330
1F
100
AcDbEntity
  8
SK1
  6
CONTINUOUS
370
50
 62
4
100
AcDbCircle
 10
0.0
 20
0.0
 30
0.0
 40
2.625
100
AcDbArc
 50
180.0
 51
270.0
  0
LINE
  5
348
330
1F
100
AcDbEntity
  8
SK1
  6
CONTINUOUS
370
50
 62
4
100
AcDbLine
 10
0.0
 20
-2.625
 30
0.0
 11
0.0
 21
0.0
 31
0.0
  0
ARC
  5
349
330
1F
100
AcDbEntity
  8
SK1
  6
CONTINUOUS
370
50
 62
4
100
AcDbCircle
 10
0.0
 20
0.0
 30
0.0
 40
2.625
100
AcDbArc
 50
270.0
 51
0.0
  0
ARC
  5
34A
330
1F
100
AcDbEntity
  8
SK1
  6
CONTINUOUS
370
50
 62
4
100
AcDbCircle
 10
0.0
 20
0.0
 30
0.0
 40
2.625
100
AcDbArc
 50
90.0
 51
180.0
  0
LINE
  5
34B
330
1F
100
AcDbEntity
  8
SK1
  6
CONTINUOUS
370
50
 62
4
100
AcDbLine
 10
-0.1607621645038577
 20
-2.6199478454486
 30
0.0
 11
0.0
 21
-2.459185680944742
 31
0.0
  0
LINE
  5
34C
330
1F
100
AcDbEntity
  8
SK1
  6
CONTINUOUS
370
50
 62
4
100
AcDbLine
 10
2.459185680944742
 20
0.0
 30
0.0
 11
2.619947845448607
 21
0.1607621645038648
 31
0.0
  0
LINE
  5
34D
330
1F
100
AcDbEntity
  8
SK1
  6
CONTINUOUS
370
50
 62
4
100
AcDbLine
 10
-0.4907307882660561
 20
-2.578685409087861
 30
0.0
 11
0.0
 21
-2.087954620821804
 31
0.0
  0
LINE
  5
34E
330
1F
100
AcDbEntity
  8
SK1
  6
CONTINUOUS
370
50
 62
4
100
AcDbLine
 10
2.087954620821804
 20
0.0
 30
0.0
 11
2.578685409087846
 21
0.4907307882660419
 31
0.0
  0
LINE
  5
34F
330
1F
100
AcDbEntity
  8
SK1
  6
CONTINUOUS
370
50
 62
4
100
AcDbLine
 10
-0.7868618513567824
 20
-2.503585412055649
 30
0.0
 11
0.0
 21
-1.716723560698867
 31
0.0
  0
LINE
  5
350
330
1F
100
AcDbEntity
  8
SK1
  6
CONTINUOUS
370
50
 62
4
100
AcDbLine
 10
1.716723560698867
 20
0.0
 30
0.0
 11
2.503585412055642
 21
0.7868618513567753
 31
0.0
  0
LINE
  5
351
330
1F
100
AcDbEntity
  8
SK1
  6
CONTINUOUS
370
50
 62
4
100
AcDbLine
 10
-1.056255302196632
 20
-2.401747802772562
 30
0.0
 11
0.0
 21
-1.345492500575929
 31
0.0
  0
LINE
  5
352
330
1F
100
AcDbEntity
  8
SK1
  6
CONTINUOUS
370
50
 62
4
100
AcDbLine
 10
1.345492500575929
 20
0.0
 30
0.0
 11
2.401747802772555
 21
1.056255302196625
 31
0.0
  0
LINE
  5
353
330
1F
100
AcDbEntity
  8
SK1
  6
CONTINUOUS
370
50
 62
4
100
AcDbLine
 10
-1.303211075674348
 20
-2.277472516127339
 30
0.0
 11
0.0
 21
-0.9742614404529917
 31
0.0
  0
LINE
  5
354
330
1F
100
AcDbEntity
  8
SK1
  6
CONTINUOUS
370
50
 62
4
100
AcDbLine
 10
0.9742614404529917
 20
0.0
 30
0.0
 11
2.277472516127339
 21
1.303211075674348
 31
0.0
  0
LINE
  5
355
330
1F
100
AcDbEntity
  8
SK1
  6
CONTINUOUS
370
50
 62
4
100
AcDbLine
 10
-1.529661063000191
 20
-2.132691443330245
 30
0.0
 11
0.0
 21
-0.6030303803300541
 31
0.0
  0
LINE
  5
356
330
1F
100
AcDbEntity
  8
SK1
  6
CONTINUOUS
370
50
 62
4
100
AcDbLine
 10
0.6030303803300541
 20
0.0
 30
0.0
 11
2.132691443330245
 21
1.529661063000191
 31
0.0
  0
LINE
  5
357
330
1F
100
AcDbEntity
  8
SK1
  6
CONTINUOUS
370
50
 62
4
100
AcDbLine
 10
-1.735716080750471
 20
-1.967515400957588
 30
0.0
 11
0.0
 21
-0.2317993202071165
 31
0.0
  0
LINE
  5
358
330
1F
100
AcDbEntity
  8
SK1
  6
CONTINUOUS
370
50
 62
4
100
AcDbLine
 10
0.2317993202071165
 20
0.0
 30
0.0
 11
1.967515400957581
 21
1.735716080750464
 31
0.0
  0
LINE
  5
359
330
1F
100
AcDbEntity
  8
SK1
  6
CONTINUOUS
370
50
 62
4
100
AcDbLine
 10
-1.924237248601457
 20
-1.784805508685636
 30
0.0
 11
-0.1394317399158211
 21
0.0
 31
0.0
  0
LINE
  5
35A
330
1F
100
AcDbEntity
  8
SK1
  6
CONTINUOUS
370
50
 62
4
100
AcDbLine
 10
0.0
 20
0.1394317399158211
 30
0.0
 11
1.78480550868565
 21
1.924237248601472
 31
0.0
  0
LINE
  5
35B
330
1F
100
AcDbEntity
  8
SK1
  6
CONTINUOUS
370
50
 62
4
100
AcDbLine
 10
-2.093060331574804
 20
-1.582397531536046
 30
0.0
 11
-0.5106628000387587
 21
0.0
 31
0.0
  0
LINE
  5
35C
330
1F
100
AcDbEntity
  8
SK1
  6
CONTINUOUS
370
50
 62
4
100
AcDbLine
 10
0.0
 20
0.5106628000387587
 30
0.0
 11
1.582397531536031
 21
2.09306033157479
 31
0.0
  0
LINE
  5
35D
330
1F
100
AcDbEntity
  8
SK1
  6
CONTINUOUS
370
50
 62
4
100
AcDbLine
 10
-2.24314670784748
 20
-1.361252847685783
 30
0.0
 11
-0.8818938601616964
 21
0.0
 31
0.0
  0
LINE
  5
35E
330
1F
100
AcDbEntity
  8
SK1
  6
CONTINUOUS
370
50
 62
4
100
AcDbLine
 10
0.0
 20
0.8818938601616964
 30
0.0
 11
1.361252847685769
 21
2.243146707847465
 31
0.0
  0
LINE
  5
35F
330
1F
100
AcDbEntity
  8
SK1
  6
CONTINUOUS
370
50
 62
4
100
AcDbLine
 10
-2.373694121963538
 20
-1.120569201678904
 30
0.0
 11
-1.253124920284634
 21
0.0
 31
0.0
  0
LINE
  5
360
330
1F
100
AcDbEntity
  8
SK1
  6
CONTINUOUS
370
50
 62
4
100
AcDbLine
 10
0.0
 20
1.253124920284634
 30
0.0
 11
1.120569201678904
 21
2.373694121963538
 31
0.0
  0
LINE
  5
361
330
1F
100
AcDbEntity
  8
SK1
  6
CONTINUOUS
370
50
 62
4
100
AcDbLine
 10
-2.480376157593327
 20
-0.856020177185755
 30
0.0
 11
-1.624355980407572
 21
0.0
 31
0.0
  0
LINE
  5
362
330
1F
100
AcDbEntity
  8
SK1
  6
CONTINUOUS
370
50
 62
4
100
AcDbLine
 10
0.0
 20
1.624355980407572
 30
0.0
 11
0.856020177185755
 21
2.480376157593327
 31
0.0
  0
LINE
  5
363
330
1F
100
AcDbEntity
  8
SK1
  6
CONTINUOUS
370
50
 62
4
100
AcDbLine
 10
-2.561871713252039
 20
-0.5662846727215296
 30
0.0
 11
-1.995587040530509
 21
0.0
 31
0.0
  0
LINE
  5
364
330
1F
100
AcDbEntity
  8
SK1
  6
CONTINUOUS
370
50
 62
4
100
AcDbLine
 10
0.0
 20
1.995587040530509
 30
0.0
 11
0.5662846727215154
 21
2.561871713252025
 31
0.0
  0
LINE
  5
365
330
1F
100
AcDbEntity
  8
SK1
  6
CONTINUOUS
370
50
 62
4
100
AcDbLine
 10
-2.612204845830512
 20
-0.2453867451770648
 30
0.0
 11
-2.366818100653447
 21
0.0
 31
0.0
  0
LINE
  5
366
330
1F
100
AcDbEntity
  8
SK1
  6
CONTINUOUS
370
50
 62
4
100
AcDbLine
 10
0.0
 20
2.366818100653447
 30
0.0
 11
0.2453867451770719
 21
2.612204845830519
 31
0.0
  0
LINE
  5
367
330
1F
100
AcDbEntity
  8
SK1
  6
CONTINUOUS
370
50
 62
4
100
AcDbLine
 10
-2.22820861607385
 20
-1.386511781428609
 30
0.0
 11
-1.386511781428595
 21
-2.228208616073857
 31
0.0
  0
LINE
  5
368
330
1F
100
AcDbEntity
  8
SK1
  6
CONTINUOUS
370
50
 62
4
100
AcDbLine
 10
-2.522814524219278
 20
-0.7206748131602438
 30
0.0
 11
-0.7206748131602367
 21
-2.522814524219278
 31
0.0
  0
LINE
  5
369
330
1F
100
AcDbEntity
  8
SK1
  6
CONTINUOUS
370
50
 62
4
100
AcDbLine
 10
-2.610673699883186
 20
-0.261584577373398
 30
0.0
 11
-0.2615845773733838
 21
-2.610673699883193
 31
0.0
  0
LINE
  5
36A
330
1F
100
AcDbEntity
  8
SK1
  6
CONTINUOUS
370
50
 62
4
100
AcDbLine
 10
-2.501027217133647
 20
0.0
 30
0.0
 11
0.0
 21
-2.50102721713364
 31
0.0
  0
LINE
  5
36B
330
1F
100
AcDbEntity
  8
SK1
  6
CONTINUOUS
370
50
 62
4
100
AcDbLine
 10
-2.129796157010709
 20
0.0
 30
0.0
 11
0.0
 21
-2.129796157010702
 31
0.0
  0
LINE
  5
36C
330
1F
100
AcDbEntity
  8
SK1
  6
CONTINUOUS
370
50
 62
4
100
AcDbLine
 10
-1.758565096887772
 20
0.0
 30
0.0
 11
0.0
 21
-1.758565096887764
 31
0.0
  0
LINE
  5
36D
330
1F
100
AcDbEntity
  8
SK1
  6
CONTINUOUS
370
50
 62
4
100
AcDbLine
 10
-1.387334036764827
 20
0.0
 30
0.0
 11
0.0
 21
-1.387334036764827
 31
0.0
  0
LINE
  5
36E
330
1F
100
AcDbEntity
  8
SK1
  6
CONTINUOUS
370
50
 62
4
100
AcDbLine
 10
-1.016102976641889
 20
0.0
 30
0.0
 11
0.0
 21
-1.016102976641889
 31
0.0
  0
LINE
  5
36F
330
1F
100
AcDbEntity
  8
SK1
  6
CONTINUOUS
370
50
 62
4
100
AcDbLine
 10
-0.6448719165189516
 20
0.0
 30
0.0
 11
0.0
 21
-0.6448719165189516
 31
0.0
  0
LINE
  5
370
330
1F
100
AcDbEntity
  8
SK1
  6
CONTINUOUS
370
50
 62
4
100
AcDbLine
 10
-0.273640856396014
 20
0.0
 30
0.0
 11
0.0
 21
-0.273640856396014
 31
0.0
  0
LINE
  5
371
330
1F
100
AcDbEntity
  8
SK1
  6
CONTINUOUS
370
50
 62
4
100
AcDbLine
 10
0.0
 20
0.0975902037269236
 30
0.0
 11
0.0975902037269236
 21
0.0
 31
0.0
  0
LINE
  5
372
330
1F
100
AcDbEntity
  8
SK1
  6
CONTINUOUS
370
50
 62
4
100
AcDbLine
 10
0.0
 20
0.4688212638498612
 30
0.0
 11
0.4688212638498612
 21
0.0
 31
0.0
  0
LINE
  5
373
330
1F
100
AcDbEntity
  8
SK1
  6
CONTINUOUS
370
50
 62
4
100
AcDbLine
 10
0.0
 20
0.8400523239727988
 30
0.0
 11
0.8400523239727988
 21
0.0
 31
0.0
  0
LINE
  5
374
330
1F
100
AcDbEntity
  8
SK1
  6
CONTINUOUS
370
50
 62
4
100
AcDbLine
 10
0.0
 20
1.211283384095736
 30
0.0
 11
1.211283384095736
 21
0.0
 31
0.0
  0
LINE
  5
375
330
1F
100
AcDbEntity
  8
SK1
  6
CONTINUOUS
370
50
 62
4
100
AcDbLine
 10
0.0
 20
1.582514444218674
 30
0.0
 11
1.582514444218674
 21
0.0
 31
0.0
  0
LINE
  5
376
330
1F
100
AcDbEntity
  8
SK1
  6
CONTINUOUS
370
50
 62
4
100
AcDbLine
 10
0.0
 20
1.953745504341612
 30
0.0
 11
1.953745504341612
 21
0.0
 31
0.0
  0
LINE
  5
377
330
1F
100
AcDbEntity
  8
SK1
  6
CONTINUOUS
370
50
 62
4
100
AcDbLine
 10
0.0
 20
2.324976564464549
 30
0.0
 11
2.324976564464549
 21
0.0
 31
0.0
  0
LINE
  5
378
330
1F
100
AcDbEntity
  8
SK1
  6
CONTINUOUS
370
50
 62
4
100
AcDbLine
 10
0.0735180214898037
 20
2.622689603097683
 30
0.0
 11
2.622689603097683
 21
0.0735180214898037
 31
0.0
  0
LINE
  5
379
330
1F
100
AcDbEntity
  8
SK1
  6
CONTINUOUS
370
50
 62
4
100
AcDbLine
 10
0.4883811256193198
 20
2.579057559091105
 30
0.0
 11
2.579057559091105
 21
0.4883811256193198
 31
0.0
  0
LINE
  5
37A
330
1F
100
AcDbEntity
  8
SK1
  6
CONTINUOUS
370
50
 62
4
100
AcDbLine
 10
1.022173375283053
 20
2.416496369550309
 30
0.0
 11
2.416496369550295
 21
1.022173375283067
 31
0.0
  0
LINE
  5
37B
330
1F
100
AcDbEntity
  8
SK1
  6
CONTINUOUS
370
50
 62
4
100
AcDbLine
 10
60.0
 20
0.0
 30
0.0
 11
61.75
 21
0.0
 31
0.0
  0
LINE
  5
37C
330
1F
100
AcDbEntity
  8
SK1
  6
CONTINUOUS
370
50
 62
4
100
AcDbLine
 10
60.0
 20
0.0
 30
0.0
 11
60.0
 21
1.75
 31
0.0
  0
ARC
  5
37D
330
1F
100
AcDbEntity
  8
SK1
  6
CONTINUOUS
370
50
 62
4
100
AcDbCircle
 10
60.0
 20
0.0
 30
0.0
 40
1.75
100
AcDbArc
 50
0.0
 51
90.0
  0
LINE
  5
37E
330
1F
100
AcDbEntity
  8
SK1
  6
CONTINUOUS
370
50
 62
4
100
AcDbLine
 10
60.0
 20
0.0
 30
0.0
 11
58.25
 21
0.0
 31
0.0
  0
ARC
  5
37F
330
1F
100
AcDbEntity
  8
SK1
  6
CONTINUOUS
370
50
 62
4
100
AcDbCircle
 10
60.0
 20
0.0
 30
0.0
 40
1.75
100
AcDbArc
 50
180.0
 51
270.0
  0
LINE
  5
380
330
1F
100
AcDbEntity
  8
SK1
  6
CONTINUOUS
370
50
 62
4
100
AcDbLine
 10
60.0
 20
-1.75
 30
0.0
 11
60.0
 21
0.0
 31
0.0
  0
ARC
  5
381
330
1F
100
AcDbEntity
  8
SK1
  6
CONTINUOUS
370
50
 62
4
100
AcDbCircle
 10
60.0
 20
0.0
 30
0.0
 40
1.75
100
AcDbArc
 50
270.0
 51
0.0
  0
ARC
  5
382
330
1F
100
AcDbEntity
  8
SK1
  6
CONTINUOUS
370
50
 62
4
100
AcDbCircle
 10
60.0
 20
0.0
 30
0.0
 40
1.75
100
AcDbArc
 50
90.0
 51
180.0
  0
LINE
  5
383
330
1F
100
AcDbEntity
  8
SK1
  6
CONTINUOUS
370
50
 62
4
100
AcDbLine
 10
59.77717274741573
 20
-1.73564731720198
 30
0.0
 11
60.0
 21
-1.512820064617713
 31
0.0
  0
LINE
  5
384
330
1F
100
AcDbEntity
  8
SK1
  6
CONTINUOUS
370
50
 62
4
100
AcDbLine
 10
61.51282006461771
 20
0.0
 30
0.0
 11
61.73564731720198
 21
0.2228272525842674
 31
0.0
  0
LINE
  5
385
330
1F
100
AcDbEntity
  8
SK1
  6
CONTINUOUS
370
50
 62
4
100
AcDbLine
 10
59.56930380681873
 20
-1.69602888438369
 30
0.0
 11
60.0
 21
-1.265332691202421
 31
0.0
  0
LINE
  5
386
330
1F
100
AcDbEntity
  8
SK1
  6
CONTINUOUS
370
50
 62
4
100
AcDbLine
 10
61.26533269120242
 20
0.0
 30
0.0
 11
61.69602888438369
 21
0.4306961931812696
 31
0.0
  0
LINE
  5
387
330
1F
100
AcDbEntity
  8
SK1
  6
CONTINUOUS
370
50
 62
4
100
AcDbLine
 10
59.38148340435765
 20
-1.636361913429485
 30
0.0
 11
60.0
 21
-1.01784531778713
 31
0.0
  0
LINE
  5
388
330
1F
100
AcDbEntity
  8
SK1
  6
CONTINUOUS
370
50
 62
4
100
AcDbLine
 10
61.01784531778713
 20
0.0
 30
0.0
 11
61.63636191342948
 21
0.6185165956423557
 31
0.0
  0
LINE
  5
389
330
1F
100
AcDbEntity
  8
SK1
  6
CONTINUOUS
370
50
 62
4
100
AcDbLine
 10
59.2098551094628
 20
-1.560502834909039
 30
0.0
 11
60.0
 21
-0.7703579443718382
 31
0.0
  0
LINE
  5
38A
330
1F
100
AcDbEntity
  8
SK1
  6
CONTINUOUS
370
50
 62
4
100
AcDbLine
 10
60.77035794437184
 20
0.0
 30
0.0
 11
61.56050283490904
 21
0.7901448905372013
 31
0.0
  0
LINE
  5
38B
330
1F
100
AcDbEntity
  8
SK1
  6
CONTINUOUS
370
50
 62
4
100
AcDbLine
 10
59.05217783219447
 20
-1.470692738762079
 30
0.0
 11
60.0
 21
-0.5228705709565462
 31
0.0
  0
LINE
  5
38C
330
1F
100
AcDbEntity
  8
SK1
  6
CONTINUOUS
370
50
 62
4
100
AcDbLine
 10
60.52287057095655
 20
0.0
 30
0.0
 11
61.47069273876208
 21
0.947822167805533
 31
0.0
  0
LINE
  5
38D
330
1F
100
AcDbEntity
  8
SK1
  6
CONTINUOUS
370
50
 62
4
100
AcDbLine
 10
58.90842956711548
 20
-1.366953630425777
 30
0.0
 11
60.0
 21
-0.2753831975412551
 31
0.0
  0
LINE
  5
38E
330
1F
100
AcDbEntity
  8
SK1
  6
CONTINUOUS
370
50
 62
4
100
AcDbLine
 10
60.27538319754125
 20
0.0
 30
0.0
 11
61.36695363042578
 21
1.091570432884522
 31
0.0
  0
LINE
  5
38F
330
1F
100
AcDbEntity
  8
SK1
  6
CONTINUOUS
370
50
 62
4
100
AcDbLine
 10
58.77712164538165
 20
-1.25077417874432
 30
0.0
 11
60.0
 21
-0.0278958241259639
 31
0.0
  0
LINE
  5
390
330
1F
100
AcDbEntity
  8
SK1
  6
CONTINUOUS
370
50
 62
4
100
AcDbLine
 10
60.02789582412596
 20
0.0
 30
0.0
 11
61.25077417874432
 21
1.222878354618356
 31
0.0
  0
LINE
  5
391
330
1F
100
AcDbEntity
  8
SK1
  6
CONTINUOUS
370
50
 62
4
100
AcDbLine
 10
58.65784030371346
 20
-1.122568146997212
 30
0.0
 11
59.78040845071067
 21
0.0
 31
0.0
  0
LINE
  5
392
330
1F
100
AcDbEntity
  8
SK1
  6
CONTINUOUS
370
50
 62
4
100
AcDbLine
 10
60.0
 20
0.2195915492893277
 30
0.0
 11
61.12256814699721
 21
1.34215969628654
 31
0.0
  0
LINE
  5
393
330
1F
100
AcDbEntity
  8
SK1
  6
CONTINUOUS
370
50
 62
4
100
AcDbLine
 10
58.55188167231256
 20
-0.9810394049828186
 30
0.0
 11
59.53292107729538
 21
0.0
 31
0.0
  0
LINE
  5
394
330
1F
100
AcDbEntity
  8
SK1
  6
CONTINUOUS
370
50
 62
4
100
AcDbLine
 10
60.0
 20
0.4670789227046193
 30
0.0
 11
60.98103940498282
 21
1.448118327687438
 31
0.0
  0
LINE
  5
395
330
1F
100
AcDbEntity
  8
SK1
  6
CONTINUOUS
370
50
 62
4
100
AcDbLine
 10
58.45832908651575
 20
-0.8271046173643402
 30
0.0
 11
59.28543370388009
 21
0.0
 31
0.0
  0
LINE
  5
396
330
1F
100
AcDbEntity
  8
SK1
  6
CONTINUOUS
370
50
 62
4
100
AcDbLine
 10
60.0
 20
0.71456629611991
 30
0.0
 11
60.82710461736434
 21
1.54167091348425
 31
0.0
  0
LINE
  5
397
330
1F
100
AcDbEntity
  8
SK1
  6
CONTINUOUS
370
50
 62
4
100
AcDbLine
 10
58.37918473824205
 20
-0.6587615922227528
 30
0.0
 11
59.0379463304648
 21
0.0
 31
0.0
  0
LINE
  5
398
330
1F
100
AcDbEntity
  8
SK1
  6
CONTINUOUS
370
50
 62
4
100
AcDbLine
 10
60.0
 20
0.9620536695352015
 30
0.0
 11
60.65876159222275
 21
1.620815261757954
 31
0.0
  0
LINE
  5
399
330
1F
100
AcDbEntity
  8
SK1
  6
CONTINUOUS
370
50
 62
4
100
AcDbLine
 10
58.31629687706963
 20
-0.474162079979876
 30
0.0
 11
58.79045895704951
 21
0.0
 31
0.0
  0
LINE
  5
39A
330
1F
100
AcDbEntity
  8
SK1
  6
CONTINUOUS
370
50
 62
4
100
AcDbLine
 10
60.0
 20
1.209541042950494
 30
0.0
 11
60.47416207997988
 21
1.683703122930369
 31
0.0
  0
LINE
  5
39B
330
1F
100
AcDbEntity
  8
SK1
  6
CONTINUOUS
370
50
 62
4
100
AcDbLine
 10
58.27198100434271
 20
-0.2709905792915031
 30
0.0
 11
58.54297158363422
 21
0.0
 31
0.0
  0
LINE
  5
39C
330
1F
100
AcDbEntity
  8
SK1
  6
CONTINUOUS
370
50
 62
4
100
AcDbLine
 10
60.0
 20
1.457028416365784
 30
0.0
 11
60.2709905792915
 21
1.728018995657286
 31
0.0
  0
LINE
  5
39D
330
1F
100
AcDbEntity
  8
SK1
  6
CONTINUOUS
370
50
 62
4
100
AcDbLine
 10
58.2513858468978
 20
-0.0440983633211194
 30
0.0
 11
58.29548421021892
 21
0.0
 31
0.0
  0
LINE
  5
39E
330
1F
100
AcDbEntity
  8
SK1
  6
CONTINUOUS
370
50
 62
4
100
AcDbLine
 10
60.0
 20
1.704515789781075
 30
0.0
 11
60.04409836332112
 21
1.748614153102194
 31
0.0
  0
LINE
  5
39F
330
1F
100
AcDbEntity
  8
SK1
  6
CONTINUOUS
370
50
 62
4
100
AcDbLine
 10
58.36386517603682
 20
-0.6191473609004006
 30
0.0
 11
59.3808526390996
 21
-1.636134823963186
 31
0.0
  0
LINE
  5
3A0
330
1F
100
AcDbEntity
  8
SK1
  6
CONTINUOUS
370
50
 62
4
100
AcDbLine
 10
58.27363430643545
 20
-0.2814291178837463
 30
0.0
 11
59.71857088211625
 21
-1.726365693564548
 31
0.0
  0
LINE
  5
3A1
330
1F
100
AcDbEntity
  8
SK1
  6
CONTINUOUS
370
50
 62
4
100
AcDbLine
 10
58.2503344343115
 20
-0.0106418723445003
 30
0.0
 11
59.9893581276555
 21
-1.749665565688503
 31
0.0
  0
LINE
  5
3A2
330
1F
100
AcDbEntity
  8
SK1
  6
CONTINUOUS
370
50
 62
4
100
AcDbLine
 10
58.48717993538229
 20
0.0
 30
0.0
 11
60.0
 21
-1.51282006461771
 31
0.0
  0
LINE
  5
3A3
330
1F
100
AcDbEntity
  8
SK1
  6
CONTINUOUS
370
50
 62
4
100
AcDbLine
 10
58.73466730879758
 20
0.0
 30
0.0
 11
60.0
 21
-1.265332691202418
 31
0.0
  0
LINE
  5
3A4
330
1F
100
AcDbEntity
  8
SK1
  6
CONTINUOUS
370
50
 62
4
100
AcDbLine
 10
58.98215468221287
 20
0.0
 30
0.0
 11
60.0
 21
-1.017845317787128
 31
0.0
  0
LINE
  5
3A5
330
1F
100
AcDbEntity
  8
SK1
  6
CONTINUOUS
370
50
 62
4
100
AcDbLine
 10
59.22964205562816
 20
0.0
 30
0.0
 11
60.0
 21
-0.7703579443718369
 31
0.0
  0
LINE
  5
3A6
330
1F
100
AcDbEntity
  8
SK1
  6
CONTINUOUS
370
50
 62
4
100
AcDbLine
 10
59.47712942904345
 20
0.0
 30
0.0
 11
60.0
 21
-0.5228705709565453
 31
0.0
  0
LINE
  5
3A7
330
1F
100
AcDbEntity
  8
SK1
  6
CONTINUOUS
370
50
 62
4
100
AcDbLine
 10
59.72461680245875
 20
0.0
 30
0.0
 11
60.0
 21
-0.2753831975412537
 31
0.0
  0
LINE
  5
3A8
330
1F
100
AcDbEntity
  8
SK1
  6
CONTINUOUS
370
50
 62
4
100
AcDbLine
 10
59.97210417587404
 20
0.0
 30
0.0
 11
60.0
 21
-0.027895824125963
 31
0.0
  0
LINE
  5
3A9
330
1F
100
AcDbEntity
  8
SK1
  6
CONTINUOUS
370
50
 62
4
100
AcDbLine
 10
60.0
 20
0.219591549289329
 30
0.0
 11
60.21959154928933
 21
0.0
 31
0.0
  0
LINE
  5
3AA
330
1F
100
AcDbEntity
  8
SK1
  6
CONTINUOUS
370
50
 62
4
100
AcDbLine
 10
60.0
 20
0.4670789227046202
 30
0.0
 11
60.46707892270462
 21
0.0
 31
0.0
  0
LINE
  5
3AB
330
1F
100
AcDbEntity
  8
SK1
  6
CONTINUOUS
370
50
 62
4
100
AcDbLine
 10
60.0
 20
0.7145662961199113
 30
0.0
 11
60.71456629611991
 21
0.0
 31
0.0
  0
LINE
  5
3AC
330
1F
100
AcDbEntity
  8
SK1
  6
CONTINUOUS
370
50
 62
4
100
AcDbLine
 10
60.0
 20
0.9620536695352029
 30
0.0
 11
60.9620536695352
 21
0.0
 31
0.0
  0
LINE
  5
3AD
330
1F
100
AcDbEntity
  8
SK1
  6
CONTINUOUS
370
50
 62
4
100
AcDbLine
 10
60.0
 20
1.209541042950494
 30
0.0
 11
61.2095410429505
 21
0.0
 31
0.0
  0
LINE
  5
3AE
330
1F
100
AcDbEntity
  8
SK1
  6
CONTINUOUS
370
50
 62
4
100
AcDbLine
 10
60.0
 20
1.457028416365785
 30
0.0
 11
61.45702841636579
 21
0.0
 31
0.0
  0
LINE
  5
3AF
330
1F
100
AcDbEntity
  8
SK1
  6
CONTINUOUS
370
50
 62
4
100
AcDbLine
 10
60.0
 20
1.704515789781076
 30
0.0
 11
61.70451578978108
 21
0.0
 31
0.0
  0
LINE
  5
3B0
330
1F
100
AcDbEntity
  8
SK1
  6
CONTINUOUS
370
50
 62
4
100
AcDbLine
 10
60.21543384193567
 20
1.736569321260697
 30
0.0
 11
61.7365693212607
 21
0.2154338419356714
 31
0.0
  0
LINE
  5
3B1
330
1F
100
AcDbEntity
  8
SK1
  6
CONTINUOUS
370
50
 62
4
100
AcDbLine
 10
60.53283284728993
 20
1.666657689321729
 30
0.0
 11
61.66665768932173
 21
0.5328328472899322
 31
0.0
  0
LINE
  5
3B2
330
1F
100
AcDbEntity
  8
SK1
  6
CONTINUOUS
370
50
 62
4
100
AcDbLine
 10
61.04009874905675
 20
1.406879160970207
 30
0.0
 11
61.40687916097021
 21
1.040098749056747
 31
0.0
  0
LINE
  5
3B3
330
1F
100
AcDbEntity
  8
4
  6
LONGDASH_DASH
370
25
 62
2
100
AcDbLine
 10
60.0
 20
0.0
 30
0.0
 11
138.0
 21
0.0
 31
0.0
  0
LINE
  5
3B4
330
1F
100
AcDbEntity
  8
SK4
  6
LONGDASH_DASH
370
25
 62
2
100
AcDbLine
 10
-5.0
 20
0.0
 30
0.0
 11
143.0
 21
0.0
 31
0.0
  0
LINE
  5
3B5
330
1F
100
AcDbEntity
  8
CUT
  6
CONTINUOUS
370
25
 62
1
100
AcDbLine
 10
138.0
 20
0.0000000000000001
 30
0.0
 11
138.0
 21
6.76
 31
0.0
  0
ARC
  5
3B6
330
1F
100
AcDbEntity
  8
CUT
  6
CONTINUOUS
370
25
 62
1
100
AcDbCircle
 10
137.1999999999
 20
6.759999999899999
 30
0.0
 40
0.8000000000000114
100
AcDbArc
 50
0.0
 51
89.99999999283892
  0
LINE
  5
3B7
330
1F
100
AcDbEntity
  8
CUT
  6
CONTINUOUS
370
25
 62
1
100
AcDbLine
 10
137.2
 20
7.56
 30
0.0
 11
130.44
 21
7.56
 31
0.0
  0
ARC
  5
3B8
330
1F
100
AcDbEntity
  8
CUT
  6
CONTINUOUS
370
25
 62
1
100
AcDbCircle
 10
130.4400000001
 20
6.7599999999
 30
0.0
 40
0.7999999999999998
100
AcDbArc
 50
90.00000000716311
 51
180.0
  0
LINE
  5
3B9
330
1F
100
AcDbEntity
  8
CUT
  6
CONTINUOUS
370
25
 62
1
100
AcDbLine
 10
129.64
 20
6.76
 30
0.0
 11
129.64
 21
-0.0000000000000001
 31
0.0
  0
ARC
  5
3BA
330
1F
100
AcDbEntity
  8
CUT
  6
CONTINUOUS
370
25
 62
1
100
AcDbCircle
 10
130.4400000001
 20
0.0000000001000002
 30
0.0
 40
0.8000000000000114
100
AcDbArc
 50
180.0
 51
269.9999999928369
  0
LINE
  5
3BB
330
1F
100
AcDbEntity
  8
CUT
  6
CONTINUOUS
370
25
 62
1
100
AcDbLine
 10
130.44
 20
-0.8
 30
0.0
 11
137.2
 21
-0.8
 31
0.0
  0
ARC
  5
3BC
330
1F
100
AcDbEntity
  8
CUT
  6
CONTINUOUS
370
25
 62
1
100
AcDbCircle
 10
137.1999999999
 20
0.0000000001000001
 30
0.0
 40
0.8
100
AcDbArc
 50
270.0000000071611
 51
0.0
  0
LINE
  5
3BD
330
1F
100
AcDbEntity
  8
CUT
  6
CONTINUOUS
370
25
 62
1
100
AcDbLine
 10
138.0
 20
-4.94
 30
0.0
 11
138.0
 21
-11.7
 31
0.0
  0
ARC
  5
3BE
330
1F
100
AcDbEntity
  8
CUT
  6
CONTINUOUS
370
25
 62
1
100
AcDbCircle
 10
137.1999999999
 20
-11.6999999999
 30
0.0
 40
0.8000000000000114
100
AcDbArc
 50
270.0000000071611
 51
360.0
  0
LINE
  5
3BF
330
1F
100
AcDbEntity
  8
CUT
  6
CONTINUOUS
370
25
 62
1
100
AcDbLine
 10
137.2
 20
-12.5
 30
0.0
 11
130.44
 21
-12.5
 31
0.0
  0
ARC
  5
3C0
330
1F
100
AcDbEntity
  8
CUT
  6
CONTINUOUS
370
25
 62
1
100
AcDbCircle
 10
130.4400000001
 20
-11.6999999999
 30
0.0
 40
0.7999999999999989
100
AcDbArc
 50
180.0
 51
269.9999999928369
  0
LINE
  5
3C1
330
1F
100
AcDbEntity
  8
CUT
  6
CONTINUOUS
370
25
 62
1
100
AcDbLine
 10
129.64
 20
-11.7
 30
0.0
 11
129.64
 21
-4.94
 31
0.0
  0
ARC
  5
3C2
330
1F
100
AcDbEntity
  8
CUT
  6
CONTINUOUS
370
25
 62
1
100
AcDbCircle
 10
130.4400000001
 20
-4.940000000100001
 30
0.0
 40
0.8000000000000114
100
AcDbArc
 50
90.00000000716311
 51
180.0
  0
LINE
  5
3C3
330
1F
100
AcDbEntity
  8
CUT
  6
CONTINUOUS
370
25
 62
1
100
AcDbLine
 10
130.44
 20
-4.140000000000001
 30
0.0
 11
137.2
 21
-4.140000000000001
 31
0.0
  0
ARC
  5
3C4
330
1F
100
AcDbEntity
  8
CUT
  6
CONTINUOUS
370
25
 62
1
100
AcDbCircle
 10
137.1999999999
 20
-4.9400000001
 30
0.0
 40
0.7999999999999998
100
AcDbArc
 50
0.0
 51
89.99999999283892
  0
ARC
  5
3C5
330
1F
100
AcDbEntity
  8
SK6
  6
CONTINUOUS
370
25
 62
5
100
AcDbCircle
 10
89.8613820083765
 20
-50.75276003338786
 30
0.0
 40
2.76048912849221
100
AcDbArc
 50
338.9379403434233
 51
90.44457437511365
  0
LINE
  5
3C6
330
1F
100
AcDbEntity
  8
SK6
  6
CONTINUOUS
370
25
 62
5
100
AcDbLine
 10
89.83996279695982
 20
-47.99235400421281
 30
0.0
 11
89.83996279695982
 21
-49.09541263613464
 31
0.0
  0
ARC
  5
3C7
330
1F
100
AcDbEntity
  8
SK6
  6
CONTINUOUS
370
25
 62
5
100
AcDbCircle
 10
89.85050902936915
 20
-50.77275352566821
 30
0.0
 40
1.677374043771779
100
AcDbArc
 50
243.4214706017868
 51
90.36024081226083
  0
ARC
  5
3C8
330
1F
100
AcDbEntity
  8
SK6
  6
CONTINUOUS
370
25
 62
5
100
AcDbCircle
 10
92.37275989684957
 20
-50.3413462721556
 30
0.0
 40
3.800217030022762
100
AcDbArc
 50
210.548373128854
 51
236.97801693668
  0
LINE
  5
3C9
330
1F
100
AcDbEntity
  8
SK6
  6
CONTINUOUS
370
25
 62
5
100
AcDbLine
 10
90.30179068512486
 20
-53.52768209867536
 30
0.0
 11
94.4437309674267
 21
-53.52768209867536
 31
0.0
  0
ARC
  5
3CA
330
1F
100
AcDbEntity
  8
SK6
  6
CONTINUOUS
370
25
 62
5
100
AcDbCircle
 10
92.37276183877256
 20
-50.34134637373459
 30
0.0
 40
3.800216899582478
100
AcDbArc
 50
303.0219828477958
 51
326.3732153033476
  0
LINE
  5
3CB
330
1F
100
AcDbEntity
  8
SK6
  6
CONTINUOUS
370
25
 62
5
100
AcDbLine
 10
95.53705975135722
 20
-52.4458337707709
 30
0.0
 11
92.17976170575461
 21
-52.4458337707709
 31
0.0
  0
LINE
  5
3CC
330
1F
100
AcDbEntity
  8
SK6
  6
CONTINUOUS
370
25
 62
5
100
AcDbLine
 10
92.17976170575461
 20
-52.4458337707709
 30
0.0
 11
96.09962109771986
 21
-51.08443257641694
 31
0.0
  0
ARC
  5
3CD
330
1F
100
AcDbEntity
  8
SK6
  6
CONTINUOUS
370
25
 62
5
100
AcDbCircle
 10
92.3727625615721
 20
-50.34134688485941
 30
0.0
 40
3.800217216614723
100
AcDbArc
 50
348.7238644184695
 51
53.46910512608847
  0
LINE
  5
3CE
330
1F
100
AcDbEntity
  8
SK6
  6
CONTINUOUS
370
25
 62
5
100
AcDbLine
 10
94.63486524538544
 20
-47.28773552429968
 30
0.0
 11
92.43745047882736
 21
-51.74482401507058
 31
0.0
  0
ENDSEC
  0
SECTION
  2
OBJECTS
  0
DICTIONARY
  5
C
330
0
100
AcDbDictionary
281
     1
  3
ACAD_GROUP
350
D
  3
ACAD_LAYOUT
350
1A
  3
ACAD_MATERIAL
350
3B
  3
ACAD_MLEADERSTYLE
350
3D1
  3
ACAD_MLINESTYLE
350
17
  3
ACAD_PLOTSETTINGS
350
19
  3
ACAD_PLOTSTYLENAME
350
E
  3
ACAD_SCALELIST
350
A0
  3
ACAD_VISUALSTYLE
350
2A
  3
AcDbVariableDictionary
350
3CF
  0
DICTIONARY
  5
D
102
{ACAD_REACTORS
330
C
102
}
330
C
100
AcDbDictionary
281
     1
  0
DICTIONARY
  5
1A
102
{ACAD_REACTORS
330
C
102
}
330
C
100
AcDbDictionary
281
     1
  3
Layout1
350
1E
  3
Layout2
350
26
  3
Model
350
22
  0
DICTIONARY
  5
3B
102
{ACAD_REACTORS
330
C
102
}
330
C
100
AcDbDictionary
281
     1
  3
ByBlock
350
3D
  3
ByLayer
350
3C
  3
Global
350
3E
  0
DICTIONARY
  5
3D1
102
{ACAD_REACTORS
330
C
102
}
330
C
100
AcDbDictionary
281
     1
  0
DICTIONARY
  5
17
102
{ACAD_REACTORS
330
C
102
}
330
C
100
AcDbDictionary
281
     1
  3
Standard
350
18
  0
DICTIONARY
  5
19
102
{ACAD_REACTORS
330
C
102
}
330
C
100
AcDbDictionary
281
     1
  0
ACDBDICTIONARYWDFLT
  5
E
102
{ACAD_REACTORS
330
C
102
}
330
C
100
AcDbDictionary
281
     1
  3
Normal
350
F
100
AcDbDictionaryWithDefault
340
F
  0
DICTIONARY
  5
A0
102
{ACAD_REACTORS
330
C
102
}
330
C
100
AcDbDictionary
281
     1
  3
A0
350
A1
  3
A1
350
A2
  3
A2
350
A3
  3
A3
350
A4
  3
A4
350
A5
  3
A5
350
A6
  3
A6
350
A7
  3
A7
350
A8
  3
A8
350
A9
  3
A9
350
AA
  3
B0
350
AB
  3
B1
350
AC
  3
B2
350
AD
  3
B3
350
AE
  3
B4
350
AF
  3
B5
350
B0
  3
B6
350
B1
  3
B7
350
B2
  3
B8
350
B3
  3
B9
350
B4
  3
C0
350
B5
  3
C1
350
B6
  3
C2
350
B7
  3
C3
350
B8
  3
C4
350
B9
  3
C5
350
BA
  3
C6
350
BB
  3
C7
350
BC
  3
C8
350
BD
  3
C9
350
BE
  3
D0
350
BF
  3
D1
350
C0
  3
D2
350
C1
  0
DICTIONARY
  5
2A
102
{ACAD_REACTORS
330
C
102
}
330
C
100
AcDbDictionary
281
     1
  3
2dWireframe
350
2F
  3
3D Hidden
350
31
  3
3dWireframe
350
30
  3
Basic
350
32
  3
Brighten
350
36
  3
ColorChange
350
3A
  3
Conceptual
350
34
  3
Dim
350
35
  3
Facepattern
350
39
  3
Flat
350
2B
  3
FlatWithEdges
350
2C
  3
Gouraud
350
2D
  3
GouraudWithEdges
350
2E
  3
Linepattern
350
38
  3
Realistic
350
33
  3
Thicken
350
37
  0
DICTIONARY
  5
3CF
102
{ACAD_REACTORS
330
C
102
}
330
C
100
AcDbDictionary
281
     1
  3
CANNOSCALE
350
3D4
  3
DIMASSOC
350
3D5
  3
HIDETEXT
350
3D6
  3
PSOLHEIGHT
350
3D3
  3
PSOLWIDTH
350
3D2
  0
LAYOUT
  5
1E
102
{ACAD_REACTORS
330
1A
102
}
330
1A
100
AcDbPlotSettings
  1

  2
none_device
  4

  6

 40
0.0
 41
0.0
 42
0.0
 43
0.0
 44
0.0
 45
0.0
 46
0.0
 47
0.0
 48
0.0
 49
0.0
140
0.0
141
0.0
142
1.0
143
1.0
 70
   688
 72
     0
 73
     0
 74
     5
  7

 75
    16
147
1.0
148
0.0
149
0.0
100
AcDbLayout
  1
Layout1
 70
     1
 71
     1
 10
0.0
 20
0.0
 11
420.0
 21
297.0
 12
0.0
 22
0.0
 32
0.0
 14
1.000000000000000E+20
 24
1.000000000000000E+20
 34
1.000000000000000E+20
 15
-1.000000000000000E+20
 25
-1.000000000000000E+20
 35
-1.000000000000000E+20
146
0.0
 13
0.0
 23
0.0
 33
0.0
 16
1.0
 26
0.0
 36
0.0
 17
0.0
 27
1.0
 37
0.0
 76
     0
330
1B
  0
LAYOUT
  5
26
102
{ACAD_REACTORS
330
1A
102
}
330
1A
100
AcDbPlotSettings
  1

  2
none_device
  4

  6

 40
0.0
 41
0.0
 42
0.0
 43
0.0
 44
0.0
 45
0.0
 46
0.0
 47
0.0
 48
0.0
 49
0.0
140
0.0
141
0.0
142
1.0
143
1.0
 70
   688
 72
     0
 73
     0
 74
     5
  7

 75
    16
147
1.0
148
0.0
149
0.0
100
AcDbLayout
  1
Layout2
 70
     1
 71
     2
 10
0.0
 20
0.0
 11
0.0
 21
0.0
 12
0.0
 22
0.0
 32
0.0
 14
0.0
 24
0.0
 34
0.0
 15
0.0
 25
0.0
 35
0.0
146
0.0
 13
0.0
 23
0.0
 33
0.0
 16
1.0
 26
0.0
 36
0.0
 17
0.0
 27
1.0
 37
0.0
 76
     0
330
23
  0
LAYOUT
  5
22
102
{ACAD_REACTORS
330
1A
102
}
330
1A
100
AcDbPlotSettings
  1

  2
none_device
  4

  6

 40
0.0
 41
0.0
 42
0.0
 43
0.0
 44
0.0
 45
0.0
 46
0.0
 47
0.0
 48
0.0
 49
0.0
140
0.0
141
0.0
142
1.0
143
1.0
 70
  1712
 72
     0
 73
     0
 74
     0
  7

 75
     0
147
1.0
148
0.0
149
0.0
100
AcDbLayout
  1
Model
 70
     1
 71
     0
 10
0.0
 20
0.0
 11
420.0
 21
297.0
 12
0.0
 22
0.0
 32
0.0
 14
0.0
 24
0.0
 34
0.0
 15
25.0
 25
35.0
 35
0.0
146
0.0
 13
0.0
 23
0.0
 33
0.0
 16
1.0
 26
0.0
 36
0.0
 17
0.0
 27
1.0
 37
0.0
 76
     0
330
1F
331
29
  0
MATERIAL
  5
3D
102
{ACAD_REACTORS
330
3B
102
}
102
{ACAD_XDICTIONARY
360
3F9
102
}
330
3B
100
AcDbMaterial
  1
ByBlock
  0
MATERIAL
  5
3C
102
{ACAD_REACTORS
330
3B
102
}
102
{ACAD_XDICTIONARY
360
3F7
102
}
330
3B
100
AcDbMaterial
  1
ByLayer
  0
MATERIAL
  5
3E
102
{ACAD_REACTORS
330
3B
102
}
102
{ACAD_XDICTIONARY
360
3FB
102
}
330
3B
100
AcDbMaterial
  1
Global
  0
MLINESTYLE
  5
18
102
{ACAD_REACTORS
330
17
102
}
330
17
100
AcDbMlineStyle
  2
Standard
 70
     0
  3

 62
   256
 51
90.0
 52
90.0
 71
     2
 49
0.5
 62
   256
  6
BYLAYER
 49
-0.5
 62
   256
  6
BYLAYER
  0
ACDBPLACEHOLDER
  5
F
102
{ACAD_REACTORS
330
E
102
}
330
E
  0
SCALE
  5
A1
102
{ACAD_REACTORS
330
A0
102
}
330
A0
100
AcDbScale
 70
     0
300
1:1
140
1.0
141
1.0
290
     1
  0
SCALE
  5
A2
102
{ACAD_REACTORS
330
A0
102
}
330
A0
100
AcDbScale
 70
     0
300
1:2
140
1.0
141
2.0
290
     0
  0
SCALE
  5
A3
102
{ACAD_REACTORS
330
A0
102
}
330
A0
100
AcDbScale
 70
     0
300
1:4
140
1.0
141
4.0
290
     0
  0
SCALE
  5
A4
102
{ACAD_REACTORS
330
A0
102
}
330
A0
100
AcDbScale
 70
     0
300
1:5
140
1.0
141
5.0
290
     0
  0
SCALE
  5
A5
102
{ACAD_REACTORS
330
A0
102
}
330
A0
100
AcDbScale
 70
     0
300
1:8
140
1.0
141
8.0
290
     0
  0
SCALE
  5
A6
102
{ACAD_REACTORS
330
A0
102
}
330
A0
100
AcDbScale
 70
     0
300
1:10
140
1.0
141
10.0
290
     0
  0
SCALE
  5
A7
102
{ACAD_REACTORS
330
A0
102
}
330
A0
100
AcDbScale
 70
     0
300
1:16
140
1.0
141
16.0
290
     0
  0
SCALE
  5
A8
102
{ACAD_REACTORS
330
A0
102
}
330
A0
100
AcDbScale
 70
     0
300
1:20
140
1.0
141
20.0
290
     0
  0
SCALE
  5
A9
102
{ACAD_REACTORS
330
A0
102
}
330
A0
100
AcDbScale
 70
     0
300
1:30
140
1.0
141
30.0
290
     0
  0
SCALE
  5
AA
102
{ACAD_REACTORS
330
A0
102
}
330
A0
100
AcDbScale
 70
     0
300
1:40
140
1.0
141
40.0
290
     0
  0
SCALE
  5
AB
102
{ACAD_REACTORS
330
A0
102
}
330
A0
100
AcDbScale
 70
     0
300
1:50
140
1.0
141
50.0
290
     0
  0
SCALE
  5
AC
102
{ACAD_REACTORS
330
A0
102
}
330
A0
100
AcDbScale
 70
     0
300
1:100
140
1.0
141
100.0
290
     0
  0
SCALE
  5
AD
102
{ACAD_REACTORS
330
A0
102
}
330
A0
100
AcDbScale
 70
     0
300
2:1
140
2.0
141
1.0
290
     0
  0
SCALE
  5
AE
102
{ACAD_REACTORS
330
A0
102
}
330
A0
100
AcDbScale
 70
     0
300
4:1
140
4.0
141
1.0
290
     0
  0
SCALE
  5
AF
102
{ACAD_REACTORS
330
A0
102
}
330
A0
100
AcDbScale
 70
     0
300
8:1
140
8.0
141
1.0
290
     0
  0
SCALE
  5
B0
102
{ACAD_REACTORS
330
A0
102
}
330
A0
100
AcDbScale
 70
     0
300
10:1
140
10.0
141
1.0
290
     0
  0
SCALE
  5
B1
102
{ACAD_REACTORS
330
A0
102
}
330
A0
100
AcDbScale
 70
     0
300
100:1
140
100.0
141
1.0
290
     0
  0
SCALE
  5
B2
102
{ACAD_REACTORS
330
A0
102
}
330
A0
100
AcDbScale
 70
     0
300
1/128" = 1'-0"
140
0.0078125
141
12.0
290
     0
  0
SCALE
  5
B3
102
{ACAD_REACTORS
330
A0
102
}
330
A0
100
AcDbScale
 70
     0
300
1/64" = 1'-0"
140
0.015625
141
12.0
290
     0
  0
SCALE
  5
B4
102
{ACAD_REACTORS
330
A0
102
}
330
A0
100
AcDbScale
 70
     0
300
1/32" = 1'-0"
140
0.03125
141
12.0
290
     0
  0
SCALE
  5
B5
102
{ACAD_REACTORS
330
A0
102
}
330
A0
100
AcDbScale
 70
     0
300
1/16" = 1'-0"
140
0.0625
141
12.0
290
     0
  0
SCALE
  5
B6
102
{ACAD_REACTORS
330
A0
102
}
330
A0
100
AcDbScale
 70
     0
300
3/32" = 1'-0"
140
0.09375
141
12.0
290
     0
  0
SCALE
  5
B7
102
{ACAD_REACTORS
330
A0
102
}
330
A0
100
AcDbScale
 70
     0
300
1/8" = 1'-0"
140
0.125
141
12.0
290
     0
  0
SCALE
  5
B8
102
{ACAD_REACTORS
330
A0
102
}
330
A0
100
AcDbScale
 70
     0
300
3/16" = 1'-0"
140
0.1875
141
12.0
290
     0
  0
SCALE
  5
B9
102
{ACAD_REACTORS
330
A0
102
}
330
A0
100
AcDbScale
 70
     0
300
1/4" = 1'-0"
140
0.25
141
12.0
290
     0
  0
SCALE
  5
BA
102
{ACAD_REACTORS
330
A0
102
}
330
A0
100
AcDbScale
 70
     0
300
3/8" = 1'-0"
140
0.375
141
12.0
290
     0
  0
SCALE
  5
BB
102
{ACAD_REACTORS
330
A0
102
}
330
A0
100
AcDbScale
 70
     0
300
1/2" = 1'-0"
140
0.5
141
12.0
290
     0
  0
SCALE
  5
BC
102
{ACAD_REACTORS
330
A0
102
}
330
A0
100
AcDbScale
 70
     0
300
3/4" = 1'-0"
140
0.75
141
12.0
290
     0
  0
SCALE
  5
BD
102
{ACAD_REACTORS
330
A0
102
}
330
A0
100
AcDbScale
 70
     0
300
1" = 1'-0"
140
1.0
141
12.0
290
     0
  0
SCALE
  5
BE
102
{ACAD_REACTORS
330
A0
102
}
330
A0
100
AcDbScale
 70
     0
300
1-1/2" = 1'-0"
140
1.5
141
12.0
290
     0
  0
SCALE
  5
BF
102
{ACAD_REACTORS
330
A0
102
}
330
A0
100
AcDbScale
 70
     0
300
3" = 1'-0"
140
3.0
141
12.0
290
     0
  0
SCALE
  5
C0
102
{ACAD_REACTORS
330
A0
102
}
330
A0
100
AcDbScale
 70
     0
300
6" = 1'-0"
140
6.0
141
12.0
290
     0
  0
SCALE
  5
C1
102
{ACAD_REACTORS
330
A0
102
}
330
A0
100
AcDbScale
 70
     0
300
1'-0" = 1'-0"
140
12.0
141
12.0
290
     0
  0
VISUALSTYLE
  5
2F
102
{ACAD_REACTORS
330
2A
102
}
102
{ACAD_XDICTIONARY
360
3DF
102
}
330
2A
100
AcDbVisualStyle
  2
2dWireframe
 70
     4
 71
     0
 72
     2
 73
     0
 90
        0
 40
-0.6
 41
-30.0
 62
     5
 63
     7
 74
     1
 91
        4
 64
     7
 65
   257
 75
     1
175
     1
 42
1.0
 92
        0
 66
   257
 43
1.0
 76
     1
 77
     6
 78
     2
 67
     7
 79
     5
170
     0
171
     0
290
     0
174
     0
 93
        1
 44
0.0
173
     0
291
     0
 45
0.0
1001
ACAD
1000
AcDbSavedByObjectVersion
1070
     0
  0
VISUALSTYLE
  5
31
102
{ACAD_REACTORS
330
2A
102
}
102
{ACAD_XDICTIONARY
360
3E3
102
}
330
2A
100
AcDbVisualStyle
  2
3D Hidden
 70
     6
 71
     1
 72
     2
 73
     2
 90
        0
 40
-0.6
 41
-30.0
 62
     5
 63
     7
 74
     2
 91
        2
 64
     7
 65
   257
 75
     2
175
     1
 42
40.0
 92
        0
 66
   257
 43
1.0
 76
     1
 77
     6
 78
     2
 67
     7
 79
     3
170
     0
171
     0
290
     0
174
     0
 93
        1
 44
0.0
173
     0
291
     0
 45
0.0
1001
ACAD
1000
AcDbSavedByObjectVersion
1070
     0
  0
VISUALSTYLE
  5
30
102
{ACAD_REACTORS
330
2A
102
}
102
{ACAD_XDICTIONARY
360
3E1
102
}
330
2A
100
AcDbVisualStyle
  2
3dWireframe
 70
     5
 71
     0
 72
     2
 73
     0
 90
        0
 40
-0.6
 41
-30.0
 62
     5
 63
     7
 74
     1
 91
        4
 64
     7
 65
   257
 75
     1
175
     1
 42
1.0
 92
        0
 66
   257
 43
1.0
 76
     1
 77
     6
 78
     2
 67
     7
 79
     5
170
     0
171
     0
290
     0
174
     0
 93
        1
 44
0.0
173
     0
291
     0
 45
0.0
1001
ACAD
1000
AcDbSavedByObjectVersion
1070
     0
  0
VISUALSTYLE
  5
32
102
{ACAD_REACTORS
330
2A
102
}
102
{ACAD_XDICTIONARY
360
3E5
102
}
330
2A
100
AcDbVisualStyle
  2
Basic
 70
     7
 71
     1
 72
     0
 73
     1
 90
        0
 40
-0.6
 41
-30.0
 62
     5
 63
     7
 74
     0
 91
        4
 64
     7
 65
   257
 75
     1
175
     1
 42
1.0
 92
        8
 66
     7
 43
1.0
 76
     1
 77
     6
 78
     2
 67
     7
 79
     5
170
     0
171
     0
290
     0
174
     0
 93
        1
 44
0.0
173
     0
291
     1
 45
0.0
1001
ACAD
1000
AcDbSavedByObjectVersion
1070
     0
  0
VISUALSTYLE
  5
36
102
{ACAD_REACTORS
330
2A
102
}
102
{ACAD_XDICTIONARY
360
3ED
102
}
330
2A
100
AcDbVisualStyle
  2
Brighten
 70
    12
 71
     2
 72
     2
 73
     0
 90
        0
 40
-0.6
 41
-30.0
 62
     5
 63
     7
 74
     1
 91
        4
 64
     7
 65
   257
 75
     1
175
     1
 42
1.0
 92
        8
 66
     7
 43
1.0
 76
     1
 77
     6
 78
     2
 67
     7
 79
     5
170
     0
171
     0
290
     0
174
     0
 93
        1
 44
50.0
173
     0
291
     1
 45
0.0
1001
ACAD
1000
AcDbSavedByObjectVersion
1070
     0
  0
VISUALSTYLE
  5
3A
102
{ACAD_REACTORS
330
2A
102
}
102
{ACAD_XDICTIONARY
360
3F5
102
}
330
2A
100
AcDbVisualStyle
  2
ColorChange
 70
    16
 71
     2
 72
     2
 73
     3
 90
        0
 40
-0.6
 41
-30.0
 62
     5
 63
     8
 74
     1
 91
        4
 64
     7
 65
   257
 75
     1
175
     1
 42
1.0
 92
        8
 66
     8
 43
1.0
 76
     1
 77
     6
 78
     2
 67
     7
 79
     5
170
     0
171
     0
290
     0
174
     0
 93
        1
 44
0.0
173
     0
291
     1
 45
0.0
1001
ACAD
1000
AcDbSavedByObjectVersion
1070
     0
  0
VISUALSTYLE
  5
34
102
{ACAD_REACTORS
330
2A
102
}
102
{ACAD_XDICTIONARY
360
3E9
102
}
330
2A
100
AcDbVisualStyle
  2
Conceptual
 70
     9
 71
     3
 72
     2
 73
     0
 90
        0
 40
-0.6
 41
-30.0
 62
     5
 63
     7
 74
     2
 91
        2
 64
     7
 65
   257
 75
     1
175
     1
 42
40.0
 92
        8
 66
     7
 43
1.0
 76
     1
 77
     6
 78
     2
 67
     7
 79
     3
170
     0
171
     0
290
     0
174
     0
 93
        1
 44
0.0
173
     0
291
     0
 45
0.0
1001
ACAD
1000
AcDbSavedByObjectVersion
1070
     0
  0
VISUALSTYLE
  5
35
102
{ACAD_REACTORS
330
2A
102
}
102
{ACAD_XDICTIONARY
360
3EB
102
}
330
2A
100
AcDbVisualStyle
  2
Dim
 70
    11
 71
     2
 72
     2
 73
     0
 90
        0
 40
-0.6
 41
-30.0
 62
     5
 63
     7
 74
     1
 91
        4
 64
     7
 65
   257
 75
     1
175
     1
 42
1.0
 92
        8
 66
     7
 43
1.0
 76
     1
 77
     6
 78
     2
 67
     7
 79
     5
170
     0
171
     0
290
     0
174
     0
 93
        1
 44
-50.0
173
     0
291
     1
 45
0.0
1001
ACAD
1000
AcDbSavedByObjectVersion
1070
     0
  0
VISUALSTYLE
  5
39
102
{ACAD_REACTORS
330
2A
102
}
102
{ACAD_XDICTIONARY
360
3F3
102
}
330
2A
100
AcDbVisualStyle
  2
Facepattern
 70
    15
 71
     2
 72
     2
 73
     0
 90
        0
 40
-0.6
 41
-30.0
 62
     5
 63
     7
 74
     1
 91
        4
 64
     7
 65
   257
 75
     1
175
     1
 42
1.0
 92
        8
 66
     7
 43
1.0
 76
     1
 77
     6
 78
     2
 67
     7
 79
     5
170
     0
171
     0
290
     0
174
     0
 93
        1
 44
0.0
173
     0
291
     1
 45
0.0
1001
ACAD
1000
AcDbSavedByObjectVersion
1070
     0
  0
VISUALSTYLE
  5
2B
102
{ACAD_REACTORS
330
2A
102
}
102
{ACAD_XDICTIONARY
360
3D7
102
}
330
2A
100
AcDbVisualStyle
  2
Flat
 70
     0
 71
     2
 72
     1
 73
     1
 90
        2
 40
-0.6
 41
30.0
 62
     5
 63
     7
 74
     0
 91
        4
 64
     7
 65
   257
 75
     1
175
     1
 42
1.0
 92
        8
 66
     7
 43
1.0
 76
     1
 77
     6
 78
     2
 67
     7
 79
     5
170
     0
171
     0
290
     0
174
     0
 93
       13
 44
0.0
173
     0
291
     1
 45
0.0
1001
ACAD
1000
AcDbSavedByObjectVersion
1070
     0
  0
VISUALSTYLE
  5
2C
102
{ACAD_REACTORS
330
2A
102
}
102
{ACAD_XDICTIONARY
360
3D9
102
}
330
2A
100
AcDbVisualStyle
  2
FlatWithEdges
 70
     1
 71
     2
 72
     1
 73
     1
 90
        2
 40
-0.6
 41
30.0
 62
     5
 63
     7
 74
     1
 91
        4
 64
     7
 65
   257
 75
     1
175
     1
 42
1.0
 92
        0
 66
   257
 43
1.0
 76
     1
 77
     6
 78
     2
 67
     7
 79
     5
170
     0
171
     0
290
     0
174
     0
 93
       13
 44
0.0
173
     0
291
     1
 45
0.0
1001
ACAD
1000
AcDbSavedByObjectVersion
1070
     0
  0
VISUALSTYLE
  5
2D
102
{ACAD_REACTORS
330
2A
102
}
102
{ACAD_XDICTIONARY
360
3DB
102
}
330
2A
100
AcDbVisualStyle
  2
Gouraud
 70
     2
 71
     2
 72
     2
 73
     1
 90
        2
 40
-0.6
 41
30.0
 62
     5
 63
     7
 74
     0
 91
        4
 64
     7
 65
   257
 75
     1
175
     1
 42
1.0
 92
        0
 66
     7
 43
1.0
 76
     1
 77
     6
 78
     2
 67
     7
 79
     5
170
     0
171
     0
290
     0
174
     0
 93
       13
 44
0.0
173
     0
291
     1
 45
0.0
1001
ACAD
1000
AcDbSavedByObjectVersion
1070
     0
  0
VISUALSTYLE
  5
2E
102
{ACAD_REACTORS
330
2A
102
}
102
{ACAD_XDICTIONARY
360
3DD
102
}
330
2A
100
AcDbVisualStyle
  2
GouraudWithEdges
 70
     3
 71
     2
 72
     2
 73
     1
 90
        2
 40
-0.6
 41
30.0
 62
     5
 63
     7
 74
     1
 91
        4
 64
     7
 65
   257
 75
     1
175
     1
 42
1.0
 92
        0
 66
   257
 43
1.0
 76
     1
 77
     6
 78
     2
 67
     7
 79
     5
170
     0
171
     0
290
     0
174
     0
 93
       13
 44
0.0
173
     0
291
     1
 45
0.0
1001
ACAD
1000
AcDbSavedByObjectVersion
1070
     0
  0
VISUALSTYLE
  5
38
102
{ACAD_REACTORS
330
2A
102
}
102
{ACAD_XDICTIONARY
360
3F1
102
}
330
2A
100
AcDbVisualStyle
  2
Linepattern
 70
    14
 71
     2
 72
     2
 73
     0
 90
        0
 40
-0.6
 41
-30.0
 62
     5
 63
     7
 74
     1
 91
        4
 64
     7
 65
   257
 75
     7
175
     7
 42
1.0
 92
        8
 66
     7
 43
1.0
 76
     1
 77
     6
 78
     2
 67
     7
 79
     5
170
     0
171
     0
290
     0
174
     0
 93
        1
 44
0.0
173
     0
291
     1
 45
0.0
1001
ACAD
1000
AcDbSavedByObjectVersion
1070
     0
  0
VISUALSTYLE
  5
33
102
{ACAD_REACTORS
330
2A
102
}
102
{ACAD_XDICTIONARY
360
3E7
102
}
330
2A
100
AcDbVisualStyle
  2
Realistic
 70
     8
 71
     2
 72
     2
 73
     0
 90
        0
 40
-0.6
 41
-30.0
 62
     5
 63
     7
 74
     1
 91
        0
 64
     7
 65
   257
 75
     1
175
     1
 42
1.0
 92
        8
 66
     8
 43
1.0
 76
     1
 77
     6
 78
     2
 67
     7
 79
     5
170
     0
171
     0
290
     0
174
     0
 93
       13
 44
0.0
173
     0
291
     0
 45
0.0
1001
ACAD
1000
AcDbSavedByObjectVersion
1070
     0
  0
VISUALSTYLE
  5
37
102
{ACAD_REACTORS
330
2A
102
}
102
{ACAD_XDICTIONARY
360
3EF
102
}
330
2A
100
AcDbVisualStyle
  2
Thicken
 70
    13
 71
     2
 72
     2
 73
     0
 90
        0
 40
-0.6
 41
-30.0
 62
     5
 63
     7
 74
     1
 91
        4
 64
     7
 65
   257
 75
     1
175
     1
 42
1.0
 92
       12
 66
     7
 43
1.0
 76
     1
 77
     6
 78
     2
 67
     7
 79
     5
170
     0
171
     0
290
     0
174
     0
 93
        1
 44
0.0
173
     0
291
     1
 45
0.0
1001
ACAD
1000
AcDbSavedByObjectVersion
1070
     0
  0
DICTIONARYVAR
  5
3D4
102
{ACAD_REACTORS
330
3CF
102
}
330
3CF
100
DictionaryVariables
280
     0
  1
1:1
  0
DICTIONARYVAR
  5
3D5
102
{ACAD_REACTORS
330
3CF
102
}
330
3CF
100
DictionaryVariables
280
     0
  1
2
  0
DICTIONARYVAR
  5
3D6
102
{ACAD_REACTORS
330
3CF
102
}
330
3CF
100
DictionaryVariables
280
     0
  1
1
  0
DICTIONARYVAR
  5
3D3
102
{ACAD_REACTORS
330
3CF
102
}
330
3CF
100
DictionaryVariables
280
     0
  1
80.000000
  0
DICTIONARYVAR
  5
3D2
102
{ACAD_REACTORS
330
3CF
102
}
330
3CF
100
DictionaryVariables
280
     0
  1
5.000000
  0
DICTIONARY
  5
3F9
330
3D
100
AcDbDictionary
280
     1
281
     1
  3
ACAD_XREC_ROUNDTRIP
360
3FA
  0
DICTIONARY
  5
3F7
330
3C
100
AcDbDictionary
280
     1
281
     1
  3
ACAD_XREC_ROUNDTRIP
360
3F8
  0
DICTIONARY
  5
3FB
330
3E
100
AcDbDictionary
280
     1
281
     1
  3
ACAD_XREC_ROUNDTRIP
360
3FC
  0
DICTIONARY
  5
3DF
330
2F
100
AcDbDictionary
280
     1
281
     1
  3
ACAD_XREC_ROUNDTRIP
360
3E0
  0
DICTIONARY
  5
3E3
330
31
100
AcDbDictionary
280
     1
281
     1
  3
ACAD_XREC_ROUNDTRIP
360
3E4
  0
DICTIONARY
  5
3E1
330
30
100
AcDbDictionary
280
     1
281
     1
  3
ACAD_XREC_ROUNDTRIP
360
3E2
  0
DICTIONARY
  5
3E5
330
32
100
AcDbDictionary
280
     1
281
     1
  3
ACAD_XREC_ROUNDTRIP
360
3E6
  0
DICTIONARY
  5
3ED
330
36
100
AcDbDictionary
280
     1
281
     1
  3
ACAD_XREC_ROUNDTRIP
360
3EE
  0
DICTIONARY
  5
3F5
330
3A
100
AcDbDictionary
280
     1
281
     1
  3
ACAD_XREC_ROUNDTRIP
360
3F6
  0
DICTIONARY
  5
3E9
330
34
100
AcDbDictionary
280
     1
281
     1
  3
ACAD_XREC_ROUNDTRIP
360
3EA
  0
DICTIONARY
  5
3EB
330
35
100
AcDbDictionary
280
     1
281
     1
  3
ACAD_XREC_ROUNDTRIP
360
3EC
  0
DICTIONARY
  5
3F3
330
39
100
AcDbDictionary
280
     1
281
     1
  3
ACAD_XREC_ROUNDTRIP
360
3F4
  0
DICTIONARY
  5
3D7
330
2B
100
AcDbDictionary
280
     1
281
     1
  3
ACAD_XREC_ROUNDTRIP
360
3D8
  0
DICTIONARY
  5
3D9
330
2C
100
AcDbDictionary
280
     1
281
     1
  3
ACAD_XREC_ROUNDTRIP
360
3DA
  0
DICTIONARY
  5
3DB
330
2D
100
AcDbDictionary
280
     1
281
     1
  3
ACAD_XREC_ROUNDTRIP
360
3DC
  0
DICTIONARY
  5
3DD
330
2E
100
AcDbDictionary
280
     1
281
     1
  3
ACAD_XREC_ROUNDTRIP
360
3DE
  0
DICTIONARY
  5
3F1
330
38
100
AcDbDictionary
280
     1
281
     1
  3
ACAD_XREC_ROUNDTRIP
360
3F2
  0
DICTIONARY
  5
3E7
330
33
100
AcDbDictionary
280
     1
281
     1
  3
ACAD_XREC_ROUNDTRIP
360
3E8
  0
DICTIONARY
  5
3EF
330
37
100
AcDbDictionary
280
     1
281
     1
  3
ACAD_XREC_ROUNDTRIP
360
3F0
  0
XRECORD
  5
3FA
102
{ACAD_REACTORS
330
3F9
102
}
330
3F9
100
AcDbXrecord
280
     1
102
MATERIAL
148
0.0
149
0.0
149
0.0
 93
        0
 94
      127
282
     0
 72
     1
 77
     1
171
     1
175
     1
179
     1
273
     0
  0
XRECORD
  5
3F8
102
{ACAD_REACTORS
330
3F7
102
}
330
3F7
100
AcDbXrecord
280
     1
102
MATERIAL
148
0.0
149
0.0
149
0.0
 93
        0
 94
      127
282
     0
 72
     1
 77
     1
171
     1
175
     1
179
     1
273
     0
  0
XRECORD
  5
3FC
102
{ACAD_REACTORS
330
3FB
102
}
330
3FB
100
AcDbXrecord
280
     1
102
MATERIAL
148
0.0
149
0.0
149
0.0
 93
        0
 94
      127
282
     0
 72
     1
 77
     1
171
     1
175
     1
179
     1
273
     0
  0
XRECORD
  5
3E0
102
{ACAD_REACTORS
330
3DF
102
}
330
3DF
100
AcDbXrecord
280
     1
102
RTVSPropertyOp0
 70
     1
102
RTVSPropertyOp1
 70
     1
102
RTVSPropertyOp2
 70
     1
102
RTVSPropertyOp3
 70
     1
102
RTVSPropertyOp4
 70
     1
102
RTVSPropertyOp5
 70
     1
102
RTVSPropertyOp6
 70
     1
102
RTVSPropertyOp7
 70
     1
102
RTVSPropertyOp8
 70
     1
102
RTVSPropertyOp9
 70
     1
102
RTVSPropertyOp10
 70
     1
102
RTVSPropertyOp11
 70
     1
102
RTVSPropertyOp12
 70
     1
102
RTVSPropertyOp13
 70
     1
102
RTVSPropertyOp14
 70
     1
102
RTVSPropertyOp15
 70
     1
102
RTVSPropertyOp16
 70
     1
102
RTVSPropertyOp17
 70
     1
102
RTVSPropertyOp18
 70
     1
102
RTVSPropertyOp19
 70
     1
102
RTVSPropertyOp20
 70
     1
102
RTVSPropertyOp21
 70
     1
102
RTVSPropertyOp22
 70
     1
102
RTVSPropertyOp23
 70
     1
102
RTVSPropertyOp24
 70
     1
102
RTVSPropertyOp25
 70
     1
102
RTVSPropertyOp26
 70
     1
102
RTVSPropertyOp27
 70
     1
  0
XRECORD
  5
3E4
102
{ACAD_REACTORS
330
3E3
102
}
330
3E3
100
AcDbXrecord
280
     1
102
RTVSPropertyOp0
 70
     1
102
RTVSPropertyOp1
 70
     1
102
RTVSPropertyOp2
 70
     1
102
RTVSPropertyOp3
 70
     1
102
RTVSPropertyOp4
 70
     1
102
RTVSPropertyOp5
 70
     1
102
RTVSPropertyOp6
 70
     1
102
RTVSPropertyOp7
 70
     1
102
RTVSPropertyOp8
 70
     1
102
RTVSPropertyOp9
 70
     1
102
RTVSPropertyOp10
 70
     1
102
RTVSPropertyOp11
 70
     1
102
RTVSPropertyOp12
 70
     1
102
RTVSPropertyOp13
 70
     1
102
RTVSPropertyOp14
 70
     1
102
RTVSPropertyOp15
 70
     1
102
RTVSPropertyOp16
 70
     1
102
RTVSPropertyOp17
 70
     1
102
RTVSPropertyOp18
 70
     1
102
RTVSPropertyOp19
 70
     1
102
RTVSPropertyOp20
 70
     1
102
RTVSPropertyOp21
 70
     1
102
RTVSPropertyOp22
 70
     1
102
RTVSPropertyOp23
 70
     1
102
RTVSPropertyOp24
 70
     1
102
RTVSPropertyOp25
 70
     1
102
RTVSPropertyOp26
 70
     1
102
RTVSPropertyOp27
 70
     1
  0
XRECORD
  5
3E2
102
{ACAD_REACTORS
330
3E1
102
}
330
3E1
100
AcDbXrecord
280
     1
102
RTVSPropertyOp0
 70
     1
102
RTVSPropertyOp1
 70
     1
102
RTVSPropertyOp2
 70
     1
102
RTVSPropertyOp3
 70
     1
102
RTVSPropertyOp4
 70
     1
102
RTVSPropertyOp5
 70
     1
102
RTVSPropertyOp6
 70
     1
102
RTVSPropertyOp7
 70
     1
102
RTVSPropertyOp8
 70
     1
102
RTVSPropertyOp9
 70
     1
102
RTVSPropertyOp10
 70
     1
102
RTVSPropertyOp11
 70
     1
102
RTVSPropertyOp12
 70
     1
102
RTVSPropertyOp13
 70
     1
102
RTVSPropertyOp14
 70
     1
102
RTVSPropertyOp15
 70
     1
102
RTVSPropertyOp16
 70
     1
102
RTVSPropertyOp17
 70
     1
102
RTVSPropertyOp18
 70
     1
102
RTVSPropertyOp19
 70
     1
102
RTVSPropertyOp20
 70
     1
102
RTVSPropertyOp21
 70
     1
102
RTVSPropertyOp22
 70
     1
102
RTVSPropertyOp23
 70
     1
102
RTVSPropertyOp24
 70
     1
102
RTVSPropertyOp25
 70
     1
102
RTVSPropertyOp26
 70
     1
102
RTVSPropertyOp27
 70
     1
  0
XRECORD
  5
3E6
102
{ACAD_REACTORS
330
3E5
102
}
330
3E5
100
AcDbXrecord
280
     1
102
RTVSPropertyOp0
 70
     1
102
RTVSPropertyOp1
 70
     1
102
RTVSPropertyOp2
 70
     1
102
RTVSPropertyOp3
 70
     1
102
RTVSPropertyOp4
 70
     1
102
RTVSPropertyOp5
 70
     1
102
RTVSPropertyOp6
 70
     1
102
RTVSPropertyOp7
 70
     1
102
RTVSPropertyOp8
 70
     1
102
RTVSPropertyOp9
 70
     1
102
RTVSPropertyOp10
 70
     1
102
RTVSPropertyOp11
 70
     1
102
RTVSPropertyOp12
 70
     1
102
RTVSPropertyOp13
 70
     1
102
RTVSPropertyOp14
 70
     1
102
RTVSPropertyOp15
 70
     1
102
RTVSPropertyOp16
 70
     1
102
RTVSPropertyOp17
 70
     1
102
RTVSPropertyOp18
 70
     1
102
RTVSPropertyOp19
 70
     1
102
RTVSPropertyOp20
 70
     1
102
RTVSPropertyOp21
 70
     1
102
RTVSPropertyOp22
 70
     1
102
RTVSPropertyOp23
 70
     1
102
RTVSPropertyOp24
 70
     1
102
RTVSPropertyOp25
 70
     1
102
RTVSPropertyOp26
 70
     1
102
RTVSPropertyOp27
 70
     1
  0
XRECORD
  5
3EE
102
{ACAD_REACTORS
330
3ED
102
}
330
3ED
100
AcDbXrecord
280
     1
102
RTVSPropertyOp0
 70
     1
102
RTVSPropertyOp1
 70
     1
102
RTVSPropertyOp2
 70
     1
102
RTVSPropertyOp3
 70
     1
102
RTVSPropertyOp4
 70
     1
102
RTVSPropertyOp5
 70
     1
102
RTVSPropertyOp6
 70
     1
102
RTVSPropertyOp7
 70
     1
102
RTVSPropertyOp8
 70
     1
102
RTVSPropertyOp9
 70
     1
102
RTVSPropertyOp10
 70
     1
102
RTVSPropertyOp11
 70
     1
102
RTVSPropertyOp12
 70
     1
102
RTVSPropertyOp13
 70
     1
102
RTVSPropertyOp14
 70
     1
102
RTVSPropertyOp15
 70
     1
102
RTVSPropertyOp16
 70
     1
102
RTVSPropertyOp17
 70
     1
102
RTVSPropertyOp18
 70
     1
102
RTVSPropertyOp19
 70
     1
102
RTVSPropertyOp20
 70
     1
102
RTVSPropertyOp21
 70
     1
102
RTVSPropertyOp22
 70
     1
102
RTVSPropertyOp23
 70
     1
102
RTVSPropertyOp24
 70
     1
102
RTVSPropertyOp25
 70
     1
102
RTVSPropertyOp26
 70
     1
102
RTVSPropertyOp27
 70
     1
  0
XRECORD
  5
3F6
102
{ACAD_REACTORS
330
3F5
102
}
330
3F5
100
AcDbXrecord
280
     1
102
RTVSPropertyOp0
 70
     1
102
RTVSPropertyOp1
 70
     1
102
RTVSPropertyOp2
 70
     1
102
RTVSPropertyOp3
 70
     1
102
RTVSPropertyOp4
 70
     1
102
RTVSPropertyOp5
 70
     1
102
RTVSPropertyOp6
 70
     1
102
RTVSPropertyOp7
 70
     1
102
RTVSPropertyOp8
 70
     1
102
RTVSPropertyOp9
 70
     1
102
RTVSPropertyOp10
 70
     1
102
RTVSPropertyOp11
 70
     1
102
RTVSPropertyOp12
 70
     1
102
RTVSPropertyOp13
 70
     1
102
RTVSPropertyOp14
 70
     1
102
RTVSPropertyOp15
 70
     1
102
RTVSPropertyOp16
 70
     1
102
RTVSPropertyOp17
 70
     1
102
RTVSPropertyOp18
 70
     1
102
RTVSPropertyOp19
 70
     1
102
RTVSPropertyOp20
 70
     1
102
RTVSPropertyOp21
 70
     1
102
RTVSPropertyOp22
 70
     1
102
RTVSPropertyOp23
 70
     1
102
RTVSPropertyOp24
 70
     1
102
RTVSPropertyOp25
 70
     1
102
RTVSPropertyOp26
 70
     1
102
RTVSPropertyOp27
 70
     1
  0
XRECORD
  5
3EA
102
{ACAD_REACTORS
330
3E9
102
}
330
3E9
100
AcDbXrecord
280
     1
102
RTVSPropertyOp0
 70
     1
102
RTVSPropertyOp1
 70
     1
102
RTVSPropertyOp2
 70
     1
102
RTVSPropertyOp3
 70
     1
102
RTVSPropertyOp4
 70
     1
102
RTVSPropertyOp5
 70
     1
102
RTVSPropertyOp6
 70
     1
102
RTVSPropertyOp7
 70
     1
102
RTVSPropertyOp8
 70
     1
102
RTVSPropertyOp9
 70
     1
102
RTVSPropertyOp10
 70
     1
102
RTVSPropertyOp11
 70
     1
102
RTVSPropertyOp12
 70
     1
102
RTVSPropertyOp13
 70
     1
102
RTVSPropertyOp14
 70
     1
102
RTVSPropertyOp15
 70
     1
102
RTVSPropertyOp16
 70
     1
102
RTVSPropertyOp17
 70
     1
102
RTVSPropertyOp18
 70
     1
102
RTVSPropertyOp19
 70
     1
102
RTVSPropertyOp20
 70
     1
102
RTVSPropertyOp21
 70
     1
102
RTVSPropertyOp22
 70
     1
102
RTVSPropertyOp23
 70
     1
102
RTVSPropertyOp24
 70
     1
102
RTVSPropertyOp25
 70
     1
102
RTVSPropertyOp26
 70
     1
102
RTVSPropertyOp27
 70
     1
  0
XRECORD
  5
3EC
102
{ACAD_REACTORS
330
3EB
102
}
330
3EB
100
AcDbXrecord
280
     1
102
RTVSPropertyOp0
 70
     1
102
RTVSPropertyOp1
 70
     1
102
RTVSPropertyOp2
 70
     1
102
RTVSPropertyOp3
 70
     1
102
RTVSPropertyOp4
 70
     1
102
RTVSPropertyOp5
 70
     1
102
RTVSPropertyOp6
 70
     1
102
RTVSPropertyOp7
 70
     1
102
RTVSPropertyOp8
 70
     1
102
RTVSPropertyOp9
 70
     1
102
RTVSPropertyOp10
 70
     1
102
RTVSPropertyOp11
 70
     1
102
RTVSPropertyOp12
 70
     1
102
RTVSPropertyOp13
 70
     1
102
RTVSPropertyOp14
 70
     1
102
RTVSPropertyOp15
 70
     1
102
RTVSPropertyOp16
 70
     1
102
RTVSPropertyOp17
 70
     1
102
RTVSPropertyOp18
 70
     1
102
RTVSPropertyOp19
 70
     1
102
RTVSPropertyOp20
 70
     1
102
RTVSPropertyOp21
 70
     1
102
RTVSPropertyOp22
 70
     1
102
RTVSPropertyOp23
 70
     1
102
RTVSPropertyOp24
 70
     1
102
RTVSPropertyOp25
 70
     1
102
RTVSPropertyOp26
 70
     1
102
RTVSPropertyOp27
 70
     1
  0
XRECORD
  5
3F4
102
{ACAD_REACTORS
330
3F3
102
}
330
3F3
100
AcDbXrecord
280
     1
102
RTVSPropertyOp0
 70
     1
102
RTVSPropertyOp1
 70
     1
102
RTVSPropertyOp2
 70
     1
102
RTVSPropertyOp3
 70
     1
102
RTVSPropertyOp4
 70
     1
102
RTVSPropertyOp5
 70
     1
102
RTVSPropertyOp6
 70
     1
102
RTVSPropertyOp7
 70
     1
102
RTVSPropertyOp8
 70
     1
102
RTVSPropertyOp9
 70
     1
102
RTVSPropertyOp10
 70
     1
102
RTVSPropertyOp11
 70
     1
102
RTVSPropertyOp12
 70
     1
102
RTVSPropertyOp13
 70
     1
102
RTVSPropertyOp14
 70
     1
102
RTVSPropertyOp15
 70
     1
102
RTVSPropertyOp16
 70
     1
102
RTVSPropertyOp17
 70
     1
102
RTVSPropertyOp18
 70
     1
102
RTVSPropertyOp19
 70
     1
102
RTVSPropertyOp20
 70
     1
102
RTVSPropertyOp21
 70
     1
102
RTVSPropertyOp22
 70
     1
102
RTVSPropertyOp23
 70
     1
102
RTVSPropertyOp24
 70
     1
102
RTVSPropertyOp25
 70
     1
102
RTVSPropertyOp26
 70
     1
102
RTVSPropertyOp27
 70
     1
  0
XRECORD
  5
3D8
102
{ACAD_REACTORS
330
3D7
102
}
330
3D7
100
AcDbXrecord
280
     1
102
RTVSPropertyOp0
 70
     1
102
RTVSPropertyOp1
 70
     1
102
RTVSPropertyOp2
 70
     1
102
RTVSPropertyOp3
 70
     1
102
RTVSPropertyOp4
 70
     1
102
RTVSPropertyOp5
 70
     1
102
RTVSPropertyOp6
 70
     1
102
RTVSPropertyOp7
 70
     1
102
RTVSPropertyOp8
 70
     1
102
RTVSPropertyOp9
 70
     1
102
RTVSPropertyOp10
 70
     1
102
RTVSPropertyOp11
 70
     1
102
RTVSPropertyOp12
 70
     1
102
RTVSPropertyOp13
 70
     1
102
RTVSPropertyOp14
 70
     1
102
RTVSPropertyOp15
 70
     1
102
RTVSPropertyOp16
 70
     1
102
RTVSPropertyOp17
 70
     1
102
RTVSPropertyOp18
 70
     1
102
RTVSPropertyOp19
 70
     1
102
RTVSPropertyOp20
 70
     1
102
RTVSPropertyOp21
 70
     1
102
RTVSPropertyOp22
 70
     1
102
RTVSPropertyOp23
 70
     1
102
RTVSPropertyOp24
 70
     1
102
RTVSPropertyOp25
 70
     1
102
RTVSPropertyOp26
 70
     1
102
RTVSPropertyOp27
 70
     1
  0
XRECORD
  5
3DA
102
{ACAD_REACTORS
330
3D9
102
}
330
3D9
100
AcDbXrecord
280
     1
102
RTVSPropertyOp0
 70
     1
102
RTVSPropertyOp1
 70
     1
102
RTVSPropertyOp2
 70
     1
102
RTVSPropertyOp3
 70
     1
102
RTVSPropertyOp4
 70
     1
102
RTVSPropertyOp5
 70
     1
102
RTVSPropertyOp6
 70
     1
102
RTVSPropertyOp7
 70
     1
102
RTVSPropertyOp8
 70
     1
102
RTVSPropertyOp9
 70
     1
102
RTVSPropertyOp10
 70
     1
102
RTVSPropertyOp11
 70
     1
102
RTVSPropertyOp12
 70
     1
102
RTVSPropertyOp13
 70
     1
102
RTVSPropertyOp14
 70
     1
102
RTVSPropertyOp15
 70
     1
102
RTVSPropertyOp16
 70
     1
102
RTVSPropertyOp17
 70
     1
102
RTVSPropertyOp18
 70
     1
102
RTVSPropertyOp19
 70
     1
102
RTVSPropertyOp20
 70
     1
102
RTVSPropertyOp21
 70
     1
102
RTVSPropertyOp22
 70
     1
102
RTVSPropertyOp23
 70
     1
102
RTVSPropertyOp24
 70
     1
102
RTVSPropertyOp25
 70
     1
102
RTVSPropertyOp26
 70
     1
102
RTVSPropertyOp27
 70
     1
  0
XRECORD
  5
3DC
102
{ACAD_REACTORS
330
3DB
102
}
330
3DB
100
AcDbXrecord
280
     1
102
RTVSPropertyOp0
 70
     1
102
RTVSPropertyOp1
 70
     1
102
RTVSPropertyOp2
 70
     1
102
RTVSPropertyOp3
 70
     1
102
RTVSPropertyOp4
 70
     1
102
RTVSPropertyOp5
 70
     1
102
RTVSPropertyOp6
 70
     1
102
RTVSPropertyOp7
 70
     1
102
RTVSPropertyOp8
 70
     1
102
RTVSPropertyOp9
 70
     1
102
RTVSPropertyOp10
 70
     1
102
RTVSPropertyOp11
 70
     1
102
RTVSPropertyOp12
 70
     1
102
RTVSPropertyOp13
 70
     1
102
RTVSPropertyOp14
 70
     1
102
RTVSPropertyOp15
 70
     1
102
RTVSPropertyOp16
 70
     1
102
RTVSPropertyOp17
 70
     1
102
RTVSPropertyOp18
 70
     1
102
RTVSPropertyOp19
 70
     1
102
RTVSPropertyOp20
 70
     1
102
RTVSPropertyOp21
 70
     1
102
RTVSPropertyOp22
 70
     1
102
RTVSPropertyOp23
 70
     1
102
RTVSPropertyOp24
 70
     1
102
RTVSPropertyOp25
 70
     1
102
RTVSPropertyOp26
 70
     1
102
RTVSPropertyOp27
 70
     1
  0
XRECORD
  5
3DE
102
{ACAD_REACTORS
330
3DD
102
}
330
3DD
100
AcDbXrecord
280
     1
102
RTVSPropertyOp0
 70
     1
102
RTVSPropertyOp1
 70
     1
102
RTVSPropertyOp2
 70
     1
102
RTVSPropertyOp3
 70
     1
102
RTVSPropertyOp4
 70
     1
102
RTVSPropertyOp5
 70
     1
102
RTVSPropertyOp6
 70
     1
102
RTVSPropertyOp7
 70
     1
102
RTVSPropertyOp8
 70
     1
102
RTVSPropertyOp9
 70
     1
102
RTVSPropertyOp10
 70
     1
102
RTVSPropertyOp11
 70
     1
102
RTVSPropertyOp12
 70
     1
102
RTVSPropertyOp13
 70
     1
102
RTVSPropertyOp14
 70
     1
102
RTVSPropertyOp15
 70
     1
102
RTVSPropertyOp16
 70
     1
102
RTVSPropertyOp17
 70
     1
102
RTVSPropertyOp18
 70
     1
102
RTVSPropertyOp19
 70
     1
102
RTVSPropertyOp20
 70
     1
102
RTVSPropertyOp21
 70
     1
102
RTVSPropertyOp22
 70
     1
102
RTVSPropertyOp23
 70
     1
102
RTVSPropertyOp24
 70
     1
102
RTVSPropertyOp25
 70
     1
102
RTVSPropertyOp26
 70
     1
102
RTVSPropertyOp27
 70
     1
  0
XRECORD
  5
3F2
102
{ACAD_REACTORS
330
3F1
102
}
330
3F1
100
AcDbXrecord
280
     1
102
RTVSPropertyOp0
 70
     1
102
RTVSPropertyOp1
 70
     1
102
RTVSPropertyOp2
 70
     1
102
RTVSPropertyOp3
 70
     1
102
RTVSPropertyOp4
 70
     1
102
RTVSPropertyOp5
 70
     1
102
RTVSPropertyOp6
 70
     1
102
RTVSPropertyOp7
 70
     1
102
RTVSPropertyOp8
 70
     1
102
RTVSPropertyOp9
 70
     1
102
RTVSPropertyOp10
 70
     1
102
RTVSPropertyOp11
 70
     1
102
RTVSPropertyOp12
 70
     1
102
RTVSPropertyOp13
 70
     1
102
RTVSPropertyOp14
 70
     1
102
RTVSPropertyOp15
 70
     1
102
RTVSPropertyOp16
 70
     1
102
RTVSPropertyOp17
 70
     1
102
RTVSPropertyOp18
 70
     1
102
RTVSPropertyOp19
 70
     1
102
RTVSPropertyOp20
 70
     1
102
RTVSPropertyOp21
 70
     1
102
RTVSPropertyOp22
 70
     1
102
RTVSPropertyOp23
 70
     1
102
RTVSPropertyOp24
 70
     1
102
RTVSPropertyOp25
 70
     1
102
RTVSPropertyOp26
 70
     1
102
RTVSPropertyOp27
 70
     1
  0
XRECORD
  5
3E8
102
{ACAD_REACTORS
330
3E7
102
}
330
3E7
100
AcDbXrecord
280
     1
102
RTVSPropertyOp0
 70
     1
102
RTVSPropertyOp1
 70
     1
102
RTVSPropertyOp2
 70
     1
102
RTVSPropertyOp3
 70
     1
102
RTVSPropertyOp4
 70
     1
102
RTVSPropertyOp5
 70
     1
102
RTVSPropertyOp6
 70
     1
102
RTVSPropertyOp7
 70
     1
102
RTVSPropertyOp8
 70
     1
102
RTVSPropertyOp9
 70
     1
102
RTVSPropertyOp10
 70
     1
102
RTVSPropertyOp11
 70
     1
102
RTVSPropertyOp12
 70
     1
102
RTVSPropertyOp13
 70
     1
102
RTVSPropertyOp14
 70
     1
102
RTVSPropertyOp15
 70
     1
102
RTVSPropertyOp16
 70
     1
102
RTVSPropertyOp17
 70
     1
102
RTVSPropertyOp18
 70
     1
102
RTVSPropertyOp19
 70
     1
102
RTVSPropertyOp20
 70
     1
102
RTVSPropertyOp21
 70
     1
102
RTVSPropertyOp22
 70
     1
102
RTVSPropertyOp23
 70
     1
102
RTVSPropertyOp24
 70
     1
102
RTVSPropertyOp25
 70
     1
102
RTVSPropertyOp26
 70
     1
102
RTVSPropertyOp27
 70
     1
  0
XRECORD
  5
3F0
102
{ACAD_REACTORS
330
3EF
102
}
330
3EF
100
AcDbXrecord
280
     1
102
RTVSPropertyOp0
 70
     1
102
RTVSPropertyOp1
 70
     1
102
RTVSPropertyOp2
 70
     1
102
RTVSPropertyOp3
 70
     1
102
RTVSPropertyOp4
 70
     1
102
RTVSPropertyOp5
 70
     1
102
RTVSPropertyOp6
 70
     1
102
RTVSPropertyOp7
 70
     1
102
RTVSPropertyOp8
 70
     1
102
RTVSPropertyOp9
 70
     1
102
RTVSPropertyOp10
 70
     1
102
RTVSPropertyOp11
 70
     1
102
RTVSPropertyOp12
 70
     1
102
RTVSPropertyOp13
 70
     1
102
RTVSPropertyOp14
 70
     1
102
RTVSPropertyOp15
 70
     1
102
RTVSPropertyOp16
 70
     1
102
RTVSPropertyOp17
 70
     1
102
RTVSPropertyOp18
 70
     1
102
RTVSPropertyOp19
 70
     1
102
RTVSPropertyOp20
 70
     1
102
RTVSPropertyOp21
 70
     1
102
RTVSPropertyOp22
 70
     1
102
RTVSPropertyOp23
 70
     1
102
RTVSPropertyOp24
 70
     1
102
RTVSPropertyOp25
 70
     1
102
RTVSPropertyOp26
 70
     1
102
RTVSPropertyOp27
 70
     1
  0
ENDSEC
  0
EOF
