  0
SECTION
  2
HEADER
  9
$ACADVER
  1
AC1015
  9
$ACADMAINTVER
 70
     6
  9
$DWGCODEPAGE
  3
ANSI_1252
  9
$INSBASE
 10
0.0
 20
0.0
 30
0.0
  9
$EXTMIN
 10
0.0
 20
0.0
 30
0.0
  9
$EXTMAX
 10
25.0
 20
35.0
 30
0.0
  9
$LIMMIN
 10
0.0
 20
0.0
  9
$LIMMAX
 10
420.0
 20
297.0
  9
$ORTHOMODE
 70
     0
  9
$REGENMODE
 70
     1
  9
$FILLMODE
 70
     1
  9
$QTEXTMODE
 70
     0
  9
$MIRRTEXT
 70
     1
  9
$LTSCALE
 40
4.8
  9
$ATTMODE
 70
     1
  9
$TEXTSIZE
 40
2.5
  9
$TRACEWID
 40
1.0
  9
$TEXTSTYLE
  7
Standard
  9
$CLAYER
  8
0
  9
$CELTYPE
  6
ByLayer
  9
$CECOLOR
 62
   256
  9
$CELTSCALE
 40
1.0
  9
$DISPSILH
 70
     0
  9
$DIMSCALE
 40
1.0
  9
$DIMASZ
 40
2.5
  9
$DIMEXO
 40
0.625
  9
$DIMDLI
 40
3.75
  9
$DIMRND
 40
0.0
  9
$DIMDLE
 40
0.0
  9
$DIMEXE
 40
1.25
  9
$DIMTP
 40
0.0
  9
$DIMTM
 40
0.0
  9
$DIMTXT
 40
2.5
  9
$DIMCEN
 40
2.5
  9
$DIMTSZ
 40
0.0
  9
$DIMTOL
 70
     0
  9
$DIMLIM
 70
     0
  9
$DIMTIH
 70
     0
  9
$DIMTOH
 70
     0
  9
$DIMSE1
 70
     0
  9
$DIMSE2
 70
     0
  9
$DIMTAD
 70
     1
  9
$DIMZIN
 70
     8
  9
$DIMBLK
  1

  9
$DIMASO
 70
     1
  9
$DIMSHO
 70
     1
  9
$DIMPOST
  1

  9
$DIMAPOST
  1

  9
$DIMALT
 70
     0
  9
$DIMALTD
 70
     3
  9
$DIMALTF
 40
0.03937007874016
  9
$DIMLFAC
 40
1.0
  9
$DIMTOFL
 70
     1
  9
$DIMTVP
 40
0.0
  9
$DIMTIX
 70
     0
  9
$DIMSOXD
 70
     0
  9
$DIMSAH
 70
     0
  9
$DIMBLK1
  1

  9
$DIMBLK2
  1

  9
$DIMSTYLE
  2
ISO-25
  9
$DIMCLRD
 70
     0
  9
$DIMCLRE
 70
     0
  9
$DIMCLRT
 70
     0
  9
$DIMTFAC
 40
1.0
  9
$DIMGAP
 40
0.625
  9
$DIMJUST
 70
     0
  9
$DIMSD1
 70
     0
  9
$DIMSD2
 70
     0
  9
$DIMTOLJ
 70
     0
  9
$DIMTZIN
 70
     8
  9
$DIMALTZ
 70
     0
  9
$DIMALTTZ
 70
     0
  9
$DIMUPT
 70
     0
  9
$DIMDEC
 70
     2
  9
$DIMTDEC
 70
     2
  9
$DIMALTU
 70
     2
  9
$DIMALTTD
 70
     3
  9
$DIMTXSTY
  7
Standard
  9
$DIMAUNIT
 70
     0
  9
$DIMADEC
 70
     0
  9
$DIMALTRND
 40
0.0
  9
$DIMAZIN
 70
     0
  9
$DIMDSEP
 70
    44
  9
$DIMATFIT
 70
     3
  9
$DIMFRAC
 70
     0
  9
$DIMLDRBLK
  1

  9
$DIMLUNIT
 70
     2
  9
$DIMLWD
 70
    -2
  9
$DIMLWE
 70
    -2
  9
$DIMTMOVE
 70
     0
  9
$LUNITS
 70
     2
  9
$LUPREC
 70
     4
  9
$SKETCHINC
 40
1.0
  9
$FILLETRAD
 40
10.0
  9
$AUNITS
 70
     0
  9
$AUPREC
 70
     0
  9
$MENU
  1
.
  9
$ELEVATION
 40
0.0
  9
$PELEVATION
 40
0.0
  9
$THICKNESS
 40
0.0
  9
$LIMCHECK
 70
     0
  9
$CHAMFERA
 40
10.0
  9
$CHAMFERB
 40
10.0
  9
$CHAMFERC
 40
20.0
  9
$CHAMFERD
 40
0.0
  9
$SKPOLY
 70
     0
  9
$TDCREATE
 40
2458577.989583333
  9
$TDUCREATE
 40
2458577.90625
  9
$TDUPDATE
 40
2458577.993055556
  9
$TDUUPDATE
 40
2458577.909722222
  9
$TDINDWG
 40
0.0000000116
  9
$TDUSRTIMER
 40
0.0000000116
  9
$USRTIMER
 70
     1
  9
$ANGBASE
 50
0.0
  9
$ANGDIR
 70
     0
  9
$PDMODE
 70
     0
  9
$PDSIZE
 40
0.0
  9
$PLINEWID
 40
0.0
  9
$SPLFRAME
 70
     0
  9
$SPLINETYPE
 70
     6
  9
$SPLINESEGS
 70
     8
  9
$HANDSEED
  5
3C1
  9
$SURFTAB1
 70
     6
  9
$SURFTAB2
 70
     6
  9
$SURFTYPE
 70
     6
  9
$SURFU
 70
     6
  9
$SURFV
 70
     6
  9
$UCSBASE
  2

  9
$UCSNAME
  2

  9
$UCSORG
 10
0.0
 20
0.0
 30
0.0
  9
$UCSXDIR
 10
1.0
 20
0.0
 30
0.0
  9
$UCSYDIR
 10
0.0
 20
1.0
 30
0.0
  9
$UCSORTHOREF
  2

  9
$UCSORTHOVIEW
 70
     0
  9
$UCSORGTOP
 10
0.0
 20
0.0
 30
0.0
  9
$UCSORGBOTTOM
 10
0.0
 20
0.0
 30
0.0
  9
$UCSORGLEFT
 10
0.0
 20
0.0
 30
0.0
  9
$UCSORGRIGHT
 10
0.0
 20
0.0
 30
0.0
  9
$UCSORGFRONT
 10
0.0
 20
0.0
 30
0.0
  9
$UCSORGBACK
 10
0.0
 20
0.0
 30
0.0
  9
$PUCSBASE
  2

  9
$PUCSNAME
  2

  9
$PUCSORG
 10
0.0
 20
0.0
 30
0.0
  9
$PUCSXDIR
 10
1.0
 20
0.0
 30
0.0
  9
$PUCSYDIR
 10
0.0
 20
1.0
 30
0.0
  9
$PUCSORTHOREF
  2

  9
$PUCSORTHOVIEW
 70
     0
  9
$PUCSORGTOP
 10
0.0
 20
0.0
 30
0.0
  9
$PUCSORGBOTTOM
 10
0.0
 20
0.0
 30
0.0
  9
$PUCSORGLEFT
 10
0.0
 20
0.0
 30
0.0
  9
$PUCSORGRIGHT
 10
0.0
 20
0.0
 30
0.0
  9
$PUCSORGFRONT
 10
0.0
 20
0.0
 30
0.0
  9
$PUCSORGBACK
 10
0.0
 20
0.0
 30
0.0
  9
$USERI1
 70
     0
  9
$USERI2
 70
     0
  9
$USERI3
 70
     0
  9
$USERI4
 70
     0
  9
$USERI5
 70
     0
  9
$USERR1
 40
0.0
  9
$USERR2
 40
0.0
  9
$USERR3
 40
0.0
  9
$USERR4
 40
0.0
  9
$USERR5
 40
0.0
  9
$WORLDVIEW
 70
     1
  9
$SHADEDGE
 70
     3
  9
$SHADEDIF
 70
    70
  9
$TILEMODE
 70
     1
  9
$MAXACTVP
 70
    64
  9
$PINSBASE
 10
0.0
 20
0.0
 30
0.0
  9
$PLIMCHECK
 70
     0
  9
$PEXTMIN
 10
1.000000000000000E+20
 20
1.000000000000000E+20
 30
1.000000000000000E+20
  9
$PEXTMAX
 10
-1.000000000000000E+20
 20
-1.000000000000000E+20
 30
-1.000000000000000E+20
  9
$PLIMMIN
 10
0.0
 20
0.0
  9
$PLIMMAX
 10
420.0
 20
297.0
  9
$UNITMODE
 70
     0
  9
$VISRETAIN
 70
     1
  9
$PLINEGEN
 70
     0
  9
$PSLTSCALE
 70
     1
  9
$TREEDEPTH
 70
  3020
  9
$CMLSTYLE
  2
Standard
  9
$CMLJUST
 70
     0
  9
$CMLSCALE
 40
20.0
  9
$PROXYGRAPHICS
 70
     1
  9
$MEASUREMENT
 70
     1
  9
$CELWEIGHT
370
    -1
  9
$ENDCAPS
280
     0
  9
$JOINSTYLE
280
     0
  9
$LWDISPLAY
290
     0
  9
$INSUNITS
 70
     4
  9
$HYPERLINKBASE
  1

  9
$STYLESHEET
  1

  9
$XEDIT
290
     1
  9
$CEPSNTYPE
380
     0
  9
$PSTYLEMODE
290
     1
  9
$FINGERPRINTGUID
  2
{E2D4949F-B0FD-4305-ACF2-4119F6706471}
  9
$VERSIONGUID
  2
{FAEB1C32-E019-11D5-929B-00C0DF256EC4}
  9
$EXTNAMES
290
     1
  9
$PSVPSCALE
 40
0.0
  9
$OLESTARTUP
290
     0
  0
ENDSEC
  0
SECTION
  2
CLASSES
  0
CLASS
  1
ACDBDICTIONARYWDFLT
  2
AcDbDictionaryWithDefault
  3
ObjectDBX Classes
 90
        0
280
     0
281
     0
  0
CLASS
  1
VISUALSTYLE
  2
AcDbVisualStyle
  3
ObjectDBX Classes
 90
     4095
280
     0
281
     0
  0
CLASS
  1
MATERIAL
  2
AcDbMaterial
  3
ObjectDBX Classes
 90
     1153
280
     0
281
     0
  0
CLASS
  1
SCALE
  2
AcDbScale
  3
ObjectDBX Classes
 90
     1153
280
     0
281
     0
  0
CLASS
  1
DICTIONARYVAR
  2
AcDbDictionaryVar
  3
ObjectDBX Classes
 90
        0
280
     0
281
     0
  0
CLASS
  1
ACDBPLACEHOLDER
  2
AcDbPlaceHolder
  3
ObjectDBX Classes
 90
        0
280
     0
281
     0
  0
CLASS
  1
LAYOUT
  2
AcDbLayout
  3
ObjectDBX Classes
 90
        0
280
     0
281
     0
  0
ENDSEC
  0
SECTION
  2
TABLES
  0
TABLE
  2
VPORT
  5
8
330
0
100
AcDbSymbolTable
 70
     1
  0
VPORT
  5
29
330
8
100
AcDbSymbolTableRecord
100
AcDbViewportTableRecord
  2
*Active
 70
     0
 10
0.0
 20
0.0
 11
1.0
 21
1.0
 12
11.26
 22
4.5
 13
0.0
 23
0.0
 14
10.0
 24
10.0
 15
10.0
 25
10.0
 16
0.0
 26
0.0
 36
1.0
 17
0.0
 27
0.0
 37
0.0
 40
9.0
 41
2.503333333333333
 42
50.0
 43
0.0
 44
0.0
 50
0.0
 51
0.0
 71
     0
 72
   100
 73
     1
 74
     3
 75
     0
 76
     0
 77
     0
 78
     0
281
     0
 65
     1
110
0.0
120
0.0
130
0.0
111
1.0
121
0.0
131
0.0
112
0.0
122
1.0
132
0.0
 79
     0
146
0.0
  0
ENDTAB
  0
TABLE
  2
LTYPE
  5
5
330
0
100
AcDbSymbolTable
 70
     8
  0
LTYPE
  5
14
330
5
100
AcDbSymbolTableRecord
100
AcDbLinetypeTableRecord
  2
ByBlock
 70
     0
  3

 72
    65
 73
     0
 40
0.0
  0
LTYPE
  5
15
330
5
100
AcDbSymbolTableRecord
100
AcDbLinetypeTableRecord
  2
ByLayer
 70
     0
  3

 72
    65
 73
     0
 40
0.0
  0
LTYPE
  5
16
330
5
100
AcDbSymbolTableRecord
100
AcDbLinetypeTableRecord
  2
Continuous
 70
     0
  3
Solid line
 72
    65
 73
     0
 40
0.0
  0
LTYPE
  5
45
330
5
100
AcDbSymbolTableRecord
100
AcDbLinetypeTableRecord
  2
phl_thick
 70
     0
  3
THICK
 72
    65
 73
     0
 40
0.0
  0
LTYPE
  5
4F
330
5
100
AcDbSymbolTableRecord
100
AcDbLinetypeTableRecord
  2
CUT
 70
     0
  3
THICK
 72
    65
 73
     0
 40
0.0
  0
LTYPE
  5
59
330
5
100
AcDbSymbolTableRecord
100
AcDbLinetypeTableRecord
  2
SKVIEW1
 70
     0
  3
THICK
 72
    65
 73
     0
 40
0.0
  0
LTYPE
  5
5F
330
5
100
AcDbSymbolTableRecord
100
AcDbLinetypeTableRecord
  2
ls_SKVIEW2
 70
     0
  3
THIN
 72
    65
 73
     0
 40
0.0
  0
LTYPE
  5
107
330
5
100
AcDbSymbolTableRecord
100
AcDbLinetypeTableRecord
  2
LONGDASH_DASH
 70
     0
  3
THIN_DASHDOT
 72
    65
 73
     4
 40
0.85
 49
0.4
 74
     0
 49
-0.2
 74
     0
 49
0.05
 74
     0
 49
-0.2
 74
     0
  0
LTYPE
  5
10A
330
5
100
AcDbSymbolTableRecord
100
AcDbLinetypeTableRecord
  2
ls_SK2
 70
     0
  3
THIN
 72
    65
 73
     0
 40
0.0
  0
LTYPE
  5
1EF
330
5
100
AcDbSymbolTableRecord
100
AcDbLinetypeTableRecord
  2
ls1
 70
     0
  3
THICK
 72
    65
 73
     0
 40
0.0
  0
ENDTAB
  0
TABLE
  2
LAYER
  5
2
330
0
100
AcDbSymbolTable
 70
     8
  0
LAYER
  5
10
330
2
100
AcDbSymbolTableRecord
100
AcDbLayerTableRecord
  2
0
 70
     0
 62
     7
  6
Continuous
370
    -3
390
F
  0
LAYER
  5
44
330
2
100
AcDbSymbolTableRecord
100
AcDbLayerTableRecord
  2
1
 70
     0
 62
4
  6
CONTINUOUS
370
50
370
    -3
390
F
  0
LAYER
  5
4E
330
2
100
AcDbSymbolTableRecord
100
AcDbLayerTableRecord
  2
CUT
 70
     0
 62
1
  6
CONTINUOUS
370
25
370
    -3
390
F
  0
LAYER
  5
58
330
2
100
AcDbSymbolTableRecord
100
AcDbLayerTableRecord
  2
SKVIEW1
 70
     0
 62
4
  6
CONTINUOUS
370
50
370
    -3
390
F
  0
LAYER
  5
5E
330
2
100
AcDbSymbolTableRecord
100
AcDbLayerTableRecord
  2
SKVIEW2
 70
     0
 62
7
  6
CONTINUOUS
370
25
370
    -3
390
F
  0
LAYER
  5
106
330
2
100
AcDbSymbolTableRecord
100
AcDbLayerTableRecord
  2
SK4
 70
     0
 62
2
  6
LONGDASH_DASH
370
25
370
    -3
390
F
  0
LAYER
  5
109
330
2
100
AcDbSymbolTableRecord
100
AcDbLayerTableRecord
  2
SK2
 70
     0
 62
7
  6
CONTINUOUS
370
25
370
    -3
390
F
  0
LAYER
  5
1EE
330
2
100
AcDbSymbolTableRecord
100
AcDbLayerTableRecord
  2
SK6
 70
     0
 62
5
  6
CONTINUOUS
370
25
370
    -3
390
F
  0
ENDTAB
  0
TABLE
  2
STYLE
  5
3
330
0
100
AcDbSymbolTable
 70
     1
  0
STYLE
  5
11
330
3
100
AcDbSymbolTableRecord
100
AcDbTextStyleTableRecord
  2
Standard
 70
     0
 40
0.0
 41
1.0
 50
0.0
 71
     0
 42
2.5
  3
Monospac821 BT
  4

  0
ENDTAB
  0
TABLE
  2
VIEW
  5
6
330
0
100
AcDbSymbolTable
 70
     0
  0
ENDTAB
  0
TABLE
  2
UCS
  5
7
330
0
100
AcDbSymbolTable
 70
     0
  0
ENDTAB
  0
TABLE
  2
APPID
  5
9
330
0
100
AcDbSymbolTable
 70
     2
  0
APPID
  5
12
330
9
100
AcDbSymbolTableRecord
100
AcDbRegAppTableRecord
  2
ACAD
 70
     0
  0
APPID
  5
3F
330
9
100
AcDbSymbolTableRecord
100
AcDbRegAppTableRecord
  2
ccLab
 70
     0
  0
ENDTAB
  0
TABLE
  2
DIMSTYLE
  5
A
330
0
100
AcDbSymbolTable
 70
     1
100
AcDbDimStyleTable
  0
DIMSTYLE
105
27
330
A
100
AcDbSymbolTableRecord
100
AcDbDimStyleTableRecord
  2
ISO-25
 70
     0
 41
2.5
 42
0.625
 43
3.75
 44
1.25
 73
     0
 74
     0
 77
     1
 78
     8
140
2.5
141
2.5
143
0.03937007874016
147
0.625
171
     3
172
     1
271
     2
272
     2
274
     3
278
    44
283
     0
284
     8
340
11
  0
ENDTAB
  0
TABLE
  2
BLOCK_RECORD
  5
1
330
0
100
AcDbSymbolTable
 70
     2
  0
BLOCK_RECORD
  5
1F
330
1
100
AcDbSymbolTableRecord
100
AcDbBlockTableRecord
  2
*Model_Space
340
22
  0
BLOCK_RECORD
  5
1B
330
1
100
AcDbSymbolTableRecord
100
AcDbBlockTableRecord
  2
*Paper_Space
340
1E
  0
BLOCK_RECORD
  5
23
330
1
100
AcDbSymbolTableRecord
100
AcDbBlockTableRecord
  2
*Paper_Space0
340
26
  0
ENDTAB
  0
ENDSEC
  0
SECTION
  2
BLOCKS
  0
BLOCK
  5
20
330
1F
100
AcDbEntity
  8
0
100
AcDbBlockBegin
  2
*Model_Space
 70
     0
 10
0.0
 20
0.0
 30
0.0
  3
*Model_Space
  1

  0
ENDBLK
  5
21
330
1F
100
AcDbEntity
  8
0
100
AcDbBlockEnd
  0
BLOCK
  5
1C
330
1B
100
AcDbEntity
 67
     1
  8
0
100
AcDbBlockBegin
  2
*Paper_Space
 70
     0
 10
0.0
 20
0.0
 30
0.0
  3
*Paper_Space
  1

  0
ENDBLK
  5
1D
330
1B
100
AcDbEntity
 67
     1
  8
0
100
AcDbBlockEnd
  0
BLOCK
  5
24
330
23
100
AcDbEntity
  8
0
100
AcDbBlockBegin
  2
*Paper_Space0
 70
     0
 10
0.0
 20
0.0
 30
0.0
  3
*Paper_Space0
  1

  0
ENDBLK
  5
25
330
23
100
AcDbEntity
  8
0
100
AcDbBlockEnd
  0
ENDSEC
  0
SECTION
  2
ENTITIES
  0
LINE
  5
203
330
1F
100
AcDbEntity
  8
1
  6
CONTINUOUS
370
50
 62
4
100
AcDbLine
 10
0.5
 20
0.0
 30
0.0
 11
6.5
 21
0.0
 31
0.0
  0
LINE
  5
204
330
1F
100
AcDbEntity
  8
1
  6
CONTINUOUS
370
50
 62
4
100
AcDbLine
 10
0.5
 20
7.0
 30
0.0
 11
6.5
 21
7.0
 31
0.0
  0
LINE
  5
205
330
1F
100
AcDbEntity
  8
1
  6
CONTINUOUS
370
50
 62
4
100
AcDbLine
 10
0.0
 20
0.5
 30
0.0
 11
0.0
 21
6.5
 31
0.0
  0
LINE
  5
206
330
1F
100
AcDbEntity
  8
1
  6
CONTINUOUS
370
50
 62
4
100
AcDbLine
 10
7.0
 20
0.5
 30
0.0
 11
7.0
 21
6.5
 31
0.0
  0
ARC
  5
207
330
1F
100
AcDbEntity
  8
1
  6
CONTINUOUS
370
50
 62
4
100
AcDbCircle
 10
0.5
 20
0.5
 30
0.0
 40
0.5
100
AcDbArc
 50
180.0
 51
269.9999999885408
  0
ARC
  5
208
330
1F
100
AcDbEntity
  8
1
  6
CONTINUOUS
370
50
 62
4
100
AcDbCircle
 10
0.5
 20
6.5
 30
0.0
 40
0.5
100
AcDbArc
 50
90.00000001145888
 51
180.0
  0
ARC
  5
209
330
1F
100
AcDbEntity
  8
1
  6
CONTINUOUS
370
50
 62
4
100
AcDbCircle
 10
6.5
 20
0.5
 30
0.0
 40
0.5
100
AcDbArc
 50
270.0000000114592
 51
0.0
  0
ARC
  5
20A
330
1F
100
AcDbEntity
  8
1
  6
CONTINUOUS
370
50
 62
4
100
AcDbCircle
 10
6.5
 20
6.5
 30
0.0
 40
0.5
100
AcDbArc
 50
0.0
 51
89.99999998854115
  0
LINE
  5
20B
330
1F
100
AcDbEntity
  8
CUT
  6
CONTINUOUS
370
25
 62
1
100
AcDbLine
 10
0.5000000000000001
 20
0.0
 30
0.0
 11
6.5
 21
0.0
 31
0.0
  0
ARC
  5
20C
330
1F
100
AcDbEntity
  8
CUT
  6
CONTINUOUS
370
25
 62
1
100
AcDbCircle
 10
6.4999999999
 20
0.5000000001
 30
0.0
 40
0.5
100
AcDbArc
 50
270.0000000114592
 51
360.0
  0
LINE
  5
20D
330
1F
100
AcDbEntity
  8
CUT
  6
CONTINUOUS
370
25
 62
1
100
AcDbLine
 10
7.0
 20
0.4999999999999999
 30
0.0
 11
7.0
 21
6.5
 31
0.0
  0
ARC
  5
20E
330
1F
100
AcDbEntity
  8
CUT
  6
CONTINUOUS
370
25
 62
1
100
AcDbCircle
 10
6.4999999999
 20
6.4999999999
 30
0.0
 40
0.5
100
AcDbArc
 50
0.0
 51
89.99999998854085
  0
LINE
  5
20F
330
1F
100
AcDbEntity
  8
CUT
  6
CONTINUOUS
370
25
 62
1
100
AcDbLine
 10
6.5
 20
7.0
 30
0.0
 11
0.4999999999999999
 21
7.0
 31
0.0
  0
ARC
  5
210
330
1F
100
AcDbEntity
  8
CUT
  6
CONTINUOUS
370
25
 62
1
100
AcDbCircle
 10
0.5000000001
 20
6.4999999999
 30
0.0
 40
0.5
100
AcDbArc
 50
90.00000001145918
 51
180.0
  0
LINE
  5
211
330
1F
100
AcDbEntity
  8
CUT
  6
CONTINUOUS
370
25
 62
1
100
AcDbLine
 10
0.0
 20
6.5
 30
0.0
 11
0.0
 21
0.5000000000000001
 31
0.0
  0
ARC
  5
212
330
1F
100
AcDbEntity
  8
CUT
  6
CONTINUOUS
370
25
 62
1
100
AcDbCircle
 10
0.5000000001
 20
0.5000000001
 30
0.0
 40
0.5
100
AcDbArc
 50
180.0
 51
269.9999999885409
  0
LINE
  5
213
330
1F
100
AcDbEntity
  8
SKVIEW1
  6
CONTINUOUS
370
50
 62
4
100
AcDbLine
 10
-62.75
 20
0.0
 30
0.0
 11
-62.75
 21
7.0
 31
0.0
  0
LINE
  5
214
330
1F
100
AcDbEntity
  8
SKVIEW1
  6
CONTINUOUS
370
50
 62
4
100
AcDbLine
 10
-62.75
 20
7.0
 30
0.0
 11
-60.0
 21
6.465454149871274
 31
0.0
  0
LINE
  5
215
330
1F
100
AcDbEntity
  8
SKVIEW1
  6
CONTINUOUS
370
50
 62
4
100
AcDbLine
 10
-60.0
 20
6.465454149871274
 30
0.0
 11
-60.0
 21
0.5345458501287252
 31
0.0
  0
LINE
  5
216
330
1F
100
AcDbEntity
  8
SKVIEW1
  6
CONTINUOUS
370
50
 62
4
100
AcDbLine
 10
-60.0
 20
0.5345458501287252
 30
0.0
 11
-62.75
 21
0.0
 31
0.0
  0
LINE
  5
217
330
1F
100
AcDbEntity
  8
SKVIEW2
  6
CONTINUOUS
370
25
 62
7
100
AcDbLine
 10
-44.83530403394321
 20
3.482265158707051
 30
0.0
 11
-43.8536769094414
 21
3.673074142625681
 31
0.0
  0
LINE
  5
218
330
1F
100
AcDbEntity
  8
SKVIEW2
  6
CONTINUOUS
370
25
 62
7
100
AcDbLine
 10
-60.00000019191513
 20
0.5345468315408967
 30
0.0
 11
-44.83530443440953
 21
3.482265080864284
 31
0.0
  0
LINE
  5
219
330
1F
100
AcDbEntity
  8
SKVIEW2
  6
CONTINUOUS
370
25
 62
7
100
AcDbLine
 10
-62.75
 20
0.0
 30
0.0
 11
-43.5
 21
0.0
 31
0.0
  0
ARC
  5
21A
330
1F
100
AcDbEntity
  8
SKVIEW2
  6
CONTINUOUS
370
25
 62
7
100
AcDbCircle
 10
-62.75
 20
-0.0000000000000004
 30
0.0
 40
18.25
100
AcDbArc
 50
337.8865415954818
 51
51.87718955503679
  0
LINE
  5
21B
330
1F
100
AcDbEntity
  8
SKVIEW2
  6
CONTINUOUS
370
25
 62
7
100
AcDbLine
 10
-44.83530390208013
 20
3.482264165621932
 30
0.0
 11
-47.39893753588315
 21
7.889960002636314
 31
0.0
  0
LINE
  5
21C
330
1F
100
AcDbEntity
  8
SKVIEW2
  6
CONTINUOUS
370
25
 62
7
100
AcDbLine
 10
-47.39893753588315
 20
7.889960002636314
 30
0.0
 11
-45.50646731904662
 21
8.536919412790215
 31
0.0
  0
LINE
  5
21D
330
1F
100
AcDbEntity
  8
SKVIEW2
  6
CONTINUOUS
370
25
 62
7
100
AcDbLine
 10
-45.50646731904662
 20
8.536919412790215
 30
0.0
 11
-44.83530390208013
 21
3.482264165621932
 31
0.0
  0
LINE
  5
21E
330
1F
100
AcDbEntity
  8
SKVIEW2
  6
CONTINUOUS
370
25
 62
7
100
AcDbLine
 10
-44.85990479820982
 20
3.52456087527182
 30
0.0
 11
-44.84314544026282
 21
3.541320233218826
 31
0.0
  0
LINE
  5
21F
330
1F
100
AcDbEntity
  8
SKVIEW2
  6
CONTINUOUS
370
25
 62
7
100
AcDbLine
 10
-45.01592348025849
 20
3.792806261935073
 30
0.0
 11
-44.89287641128298
 21
3.91585333091059
 31
0.0
  0
LINE
  5
220
330
1F
100
AcDbEntity
  8
SKVIEW2
  6
CONTINUOUS
370
25
 62
7
100
AcDbLine
 10
-45.17194216230717
 20
4.061051648598323
 30
0.0
 11
-44.94260738230314
 21
4.290386428602353
 31
0.0
  0
LINE
  5
221
330
1F
100
AcDbEntity
  8
SKVIEW2
  6
CONTINUOUS
370
25
 62
7
100
AcDbLine
 10
-45.32796084435584
 20
4.329297035261577
 30
0.0
 11
-44.99233835332331
 21
4.664919526294119
 31
0.0
  0
LINE
  5
222
330
1F
100
AcDbEntity
  8
SKVIEW2
  6
CONTINUOUS
370
25
 62
7
100
AcDbLine
 10
-45.48397952640452
 20
4.59754242192483
 30
0.0
 11
-45.04206932434347
 21
5.039452623985879
 31
0.0
  0
LINE
  5
223
330
1F
100
AcDbEntity
  8
SKVIEW2
  6
CONTINUOUS
370
25
 62
7
100
AcDbLine
 10
-45.63999820845319
 20
4.865787808588083
 30
0.0
 11
-45.09180029536363
 21
5.413985721677642
 31
0.0
  0
LINE
  5
224
330
1F
100
AcDbEntity
  8
SKVIEW2
  6
CONTINUOUS
370
25
 62
7
100
AcDbLine
 10
-45.79601689050186
 20
5.134033195251339
 30
0.0
 11
-45.14153126638379
 21
5.788518819369406
 31
0.0
  0
LINE
  5
225
330
1F
100
AcDbEntity
  8
SKVIEW2
  6
CONTINUOUS
370
25
 62
7
100
AcDbLine
 10
-45.95203557255054
 20
5.402278581914594
 30
0.0
 11
-45.19126223740396
 21
6.163051917061171
 31
0.0
  0
LINE
  5
226
330
1F
100
AcDbEntity
  8
SKVIEW2
  6
CONTINUOUS
370
25
 62
7
100
AcDbLine
 10
-46.10805425459921
 20
5.670523968577847
 30
0.0
 11
-45.24099320842413
 21
6.537585014752935
 31
0.0
  0
LINE
  5
227
330
1F
100
AcDbEntity
  8
SKVIEW2
  6
CONTINUOUS
370
25
 62
7
100
AcDbLine
 10
-46.26407293664789
 20
5.938769355241099
 30
0.0
 11
-45.29072417944429
 21
6.912118112444698
 31
0.0
  0
LINE
  5
228
330
1F
100
AcDbEntity
  8
SKVIEW2
  6
CONTINUOUS
370
25
 62
7
100
AcDbLine
 10
-46.42009161869656
 20
6.207014741904352
 30
0.0
 11
-45.34045515046445
 21
7.286651210136462
 31
0.0
  0
LINE
  5
229
330
1F
100
AcDbEntity
  8
SKVIEW2
  6
CONTINUOUS
370
25
 62
7
100
AcDbLine
 10
-46.57611030074524
 20
6.475260128567605
 30
0.0
 11
-45.39018612148462
 21
7.661184307828226
 31
0.0
  0
LINE
  5
22A
330
1F
100
AcDbEntity
  8
SKVIEW2
  6
CONTINUOUS
370
25
 62
7
100
AcDbLine
 10
-46.73212898279391
 20
6.743505515230858
 30
0.0
 11
-45.43991709250479
 21
8.03571740551999
 31
0.0
  0
LINE
  5
22B
330
1F
100
AcDbEntity
  8
SKVIEW2
  6
CONTINUOUS
370
25
 62
7
100
AcDbLine
 10
-46.88814766484259
 20
7.011750901894112
 30
0.0
 11
-45.48964806352495
 21
8.410250503211753
 31
0.0
  0
LINE
  5
22C
330
1F
100
AcDbEntity
  8
SKVIEW2
  6
CONTINUOUS
370
25
 62
7
100
AcDbLine
 10
-47.04416634689126
 20
7.279996288557369
 30
0.0
 11
-45.9330874915411
 21
8.391075143907525
 31
0.0
  0
LINE
  5
22D
330
1F
100
AcDbEntity
  8
SKVIEW2
  6
CONTINUOUS
370
25
 62
7
100
AcDbLine
 10
-47.20018502893994
 20
7.548241675220618
 30
0.0
 11
-46.57772831665744
 21
8.170698387503109
 31
0.0
  0
LINE
  5
22E
330
1F
100
AcDbEntity
  8
SKVIEW2
  6
CONTINUOUS
370
25
 62
7
100
AcDbLine
 10
-47.35620371098861
 20
7.816487061883873
 30
0.0
 11
-47.22236914177378
 21
7.950321631098701
 31
0.0
  0
LINE
  5
22F
330
1F
100
AcDbEntity
  8
SKVIEW2
  6
CONTINUOUS
370
25
 62
7
100
AcDbLine
 10
-45.16965946260763
 20
4.057126966915977
 30
0.0
 11
-44.87212834883874
 21
3.759595853147097
 31
0.0
  0
LINE
  5
230
330
1F
100
AcDbEntity
  8
SKVIEW2
  6
CONTINUOUS
370
25
 62
7
100
AcDbLine
 10
-45.75947559476948
 20
5.071207167789769
 30
0.0
 11
-44.93708809624626
 21
4.248819669266538
 31
0.0
  0
LINE
  5
231
330
1F
100
AcDbEntity
  8
SKVIEW2
  6
CONTINUOUS
370
25
 62
7
100
AcDbLine
 10
-46.34929172693136
 20
6.085287368663561
 30
0.0
 11
-45.00204784365377
 21
4.738043485385976
 31
0.0
  0
LINE
  5
232
330
1F
100
AcDbEntity
  8
SKVIEW2
  6
CONTINUOUS
370
25
 62
7
100
AcDbLine
 10
-46.93910785909321
 20
7.099367569537351
 30
0.0
 11
-45.06700759106128
 21
5.227267301505417
 31
0.0
  0
LINE
  5
233
330
1F
100
AcDbEntity
  8
SKVIEW2
  6
CONTINUOUS
370
25
 62
7
100
AcDbLine
 10
-47.32925714502809
 20
7.913780924184151
 30
0.0
 11
-45.13196733846879
 21
5.716491117624855
 31
0.0
  0
LINE
  5
234
330
1F
100
AcDbEntity
  8
SKVIEW2
  6
CONTINUOUS
370
25
 62
7
100
AcDbLine
 10
-47.01308098264207
 20
8.021868830510053
 30
0.0
 11
-45.1969270858763
 21
6.205714933744297
 31
0.0
  0
LINE
  5
235
330
1F
100
AcDbEntity
  8
SKVIEW2
  6
CONTINUOUS
370
25
 62
7
100
AcDbLine
 10
-46.69690482025604
 20
8.129956736835958
 30
0.0
 11
-45.26188683328381
 21
6.694938749863734
 31
0.0
  0
LINE
  5
236
330
1F
100
AcDbEntity
  8
SKVIEW2
  6
CONTINUOUS
370
25
 62
7
100
AcDbLine
 10
-46.38072865787001
 20
8.238044643161857
 30
0.0
 11
-45.32684658069132
 21
7.184162565983176
 31
0.0
  0
LINE
  5
237
330
1F
100
AcDbEntity
  8
SKVIEW2
  6
CONTINUOUS
370
25
 62
7
100
AcDbLine
 10
-46.06455249548399
 20
8.34613254948776
 30
0.0
 11
-45.39180632809884
 21
7.673386382102613
 31
0.0
  0
LINE
  5
238
330
1F
100
AcDbEntity
  8
SKVIEW2
  6
CONTINUOUS
370
25
 62
7
100
AcDbLine
 10
-45.74837633309797
 20
8.454220455813665
 30
0.0
 11
-45.45676607550635
 21
8.162610198222051
 31
0.0
  0
LINE
  5
239
330
1F
100
AcDbEntity
  8
SKVIEW2
  6
CONTINUOUS
370
25
 62
7
100
AcDbLine
 10
-44.5
 20
0.0
 30
0.0
 11
-44.19435856494296
 21
-5.089851010901623
 31
0.0
  0
LINE
  5
23A
330
1F
100
AcDbEntity
  8
SKVIEW2
  6
CONTINUOUS
370
25
 62
7
100
AcDbLine
 10
-44.19435856494296
 20
-5.089851010901623
 30
0.0
 11
-46.17550444875566
 21
-4.815878408161898
 31
0.0
  0
LINE
  5
23B
330
1F
100
AcDbEntity
  8
SKVIEW2
  6
CONTINUOUS
370
25
 62
7
100
AcDbLine
 10
-46.17550444875566
 20
-4.815878408161898
 30
0.0
 11
-44.5
 21
0.0
 31
0.0
  0
LINE
  5
23C
330
1F
100
AcDbEntity
  8
SKVIEW2
  6
CONTINUOUS
370
25
 62
7
100
AcDbLine
 10
-44.53235704463711
 20
-5.043109211642673
 30
0.0
 11
-44.21615315962756
 21
-4.726905326633126
 31
0.0
  0
LINE
  5
23D
330
1F
100
AcDbEntity
  8
SKVIEW2
  6
CONTINUOUS
370
25
 62
7
100
AcDbLine
 10
-44.90507759940638
 20
-4.991565697700018
 30
0.0
 11
-44.24018668021962
 21
-4.326674778513258
 31
0.0
  0
LINE
  5
23E
330
1F
100
AcDbEntity
  8
SKVIEW2
  6
CONTINUOUS
370
25
 62
7
100
AcDbLine
 10
-45.27779815417566
 20
-4.940022183757364
 30
0.0
 11
-44.26422020081168
 21
-3.92644423039339
 31
0.0
  0
LINE
  5
23F
330
1F
100
AcDbEntity
  8
SKVIEW2
  6
CONTINUOUS
370
25
 62
7
100
AcDbLine
 10
-45.65051870894493
 20
-4.88847866981471
 30
0.0
 11
-44.28825372140373
 21
-3.526213682273521
 31
0.0
  0
LINE
  5
240
330
1F
100
AcDbEntity
  8
SKVIEW2
  6
CONTINUOUS
370
25
 62
7
100
AcDbLine
 10
-46.0232392637142
 20
-4.836935155872055
 30
0.0
 11
-44.3122872419958
 21
-3.125983134153653
 31
0.0
  0
LINE
  5
241
330
1F
100
AcDbEntity
  8
SKVIEW2
  6
CONTINUOUS
370
25
 62
7
100
AcDbLine
 10
-46.04161763444096
 20
-4.431049457886886
 30
0.0
 11
-44.33632076258786
 21
-2.725752586033781
 31
0.0
  0
LINE
  5
242
330
1F
100
AcDbEntity
  8
SKVIEW2
  6
CONTINUOUS
370
25
 62
7
100
AcDbLine
 10
-45.81525722521491
 20
-3.780424979948911
 30
0.0
 11
-44.36035428317992
 21
-2.325522037913913
 31
0.0
  0
LINE
  5
243
330
1F
100
AcDbEntity
  8
SKVIEW2
  6
CONTINUOUS
370
25
 62
7
100
AcDbLine
 10
-45.58889681598887
 20
-3.129800502010937
 30
0.0
 11
-44.38438780377197
 21
-1.925291489794045
 31
0.0
  0
LINE
  5
244
330
1F
100
AcDbEntity
  8
SKVIEW2
  6
CONTINUOUS
370
25
 62
7
100
AcDbLine
 10
-45.36253640676282
 20
-2.479176024072963
 30
0.0
 11
-44.40842132436403
 21
-1.525060941674177
 31
0.0
  0
LINE
  5
245
330
1F
100
AcDbEntity
  8
SKVIEW2
  6
CONTINUOUS
370
25
 62
7
100
AcDbLine
 10
-45.13617599753677
 20
-1.828551546134989
 30
0.0
 11
-44.4324548449561
 21
-1.124830393554312
 31
0.0
  0
LINE
  5
246
330
1F
100
AcDbEntity
  8
SKVIEW2
  6
CONTINUOUS
370
25
 62
7
100
AcDbLine
 10
-44.90981558831074
 20
-1.177927068197022
 30
0.0
 11
-44.45648836554815
 21
-0.7245998454344473
 31
0.0
  0
LINE
  5
247
330
1F
100
AcDbEntity
  8
SKVIEW2
  6
CONTINUOUS
370
25
 62
7
100
AcDbLine
 10
-44.68345517908469
 20
-0.5273025902590476
 30
0.0
 11
-44.48052188614022
 21
-0.3243692973145791
 31
0.0
  0
LINE
  5
248
330
1F
100
AcDbEntity
  8
SKVIEW2
  6
CONTINUOUS
370
25
 62
7
100
AcDbLine
 10
-46.14433050044855
 20
-4.726275575617437
 30
0.0
 11
-46.03534502563381
 21
-4.835261050432182
 31
0.0
  0
LINE
  5
249
330
1F
100
AcDbEntity
  8
SKVIEW2
  6
CONTINUOUS
370
25
 62
7
100
AcDbLine
 10
-46.03482281152577
 20
-4.411519195828287
 30
0.0
 11
-45.54299370857829
 21
-4.903348298775771
 31
0.0
  0
LINE
  5
24A
330
1F
100
AcDbEntity
  8
SKVIEW2
  6
CONTINUOUS
370
25
 62
7
100
AcDbLine
 10
-45.92531512260299
 20
-4.096762816039147
 30
0.0
 11
-45.05064239152278
 21
-4.971435547119357
 31
0.0
  0
LINE
  5
24B
330
1F
100
AcDbEntity
  8
SKVIEW2
  6
CONTINUOUS
370
25
 62
7
100
AcDbLine
 10
-45.81580743368021
 20
-3.782006436250002
 30
0.0
 11
-44.55829107446726
 21
-5.039522795462945
 31
0.0
  0
LINE
  5
24C
330
1F
100
AcDbEntity
  8
SKVIEW2
  6
CONTINUOUS
370
25
 62
7
100
AcDbLine
 10
-45.70629974475742
 20
-3.467250056460857
 30
0.0
 11
-44.20142811567725
 21
-4.972121685541039
 31
0.0
  0
LINE
  5
24D
330
1F
100
AcDbEntity
  8
SKVIEW2
  6
CONTINUOUS
370
25
 62
7
100
AcDbLine
 10
-45.59679205583464
 20
-3.15249367667171
 30
0.0
 11
-44.22853242136213
 21
-4.520753311144219
 31
0.0
  0
LINE
  5
24E
330
1F
100
AcDbEntity
  8
SKVIEW2
  6
CONTINUOUS
370
25
 62
7
100
AcDbLine
 10
-45.48728436691186
 20
-2.837737296882565
 30
0.0
 11
-44.25563672704702
 21
-4.069384936747408
 31
0.0
  0
LINE
  5
24F
330
1F
100
AcDbEntity
  8
SKVIEW2
  6
CONTINUOUS
370
25
 62
7
100
AcDbLine
 10
-45.37777667798908
 20
-2.522980917093424
 30
0.0
 11
-44.28274103273191
 21
-3.618016562350594
 31
0.0
  0
LINE
  5
250
330
1F
100
AcDbEntity
  8
SKVIEW2
  6
CONTINUOUS
370
25
 62
7
100
AcDbLine
 10
-45.26826898906629
 20
-2.208224537304275
 30
0.0
 11
-44.30984533841679
 21
-3.166648187953779
 31
0.0
  0
LINE
  5
251
330
1F
100
AcDbEntity
  8
SKVIEW2
  6
CONTINUOUS
370
25
 62
7
100
AcDbLine
 10
-45.15876130014351
 20
-1.893468157515132
 30
0.0
 11
-44.33694964410167
 21
-2.715279813556966
 31
0.0
  0
LINE
  5
252
330
1F
100
AcDbEntity
  8
SKVIEW2
  6
CONTINUOUS
370
25
 62
7
100
AcDbLine
 10
-45.04925361122072
 20
-1.578711777725989
 30
0.0
 11
-44.36405394978656
 21
-2.263911439160154
 31
0.0
  0
LINE
  5
253
330
1F
100
AcDbEntity
  8
SKVIEW2
  6
CONTINUOUS
370
25
 62
7
100
AcDbLine
 10
-44.93974592229794
 20
-1.26395539793684
 30
0.0
 11
-44.39115825547145
 21
-1.812543064763336
 31
0.0
  0
LINE
  5
254
330
1F
100
AcDbEntity
  8
SKVIEW2
  6
CONTINUOUS
370
25
 62
7
100
AcDbLine
 10
-44.83023823337516
 20
-0.949199018147695
 30
0.0
 11
-44.41826256115633
 21
-1.361174690366521
 31
0.0
  0
LINE
  5
255
330
1F
100
AcDbEntity
  8
SKVIEW2
  6
CONTINUOUS
370
25
 62
7
100
AcDbLine
 10
-44.72073054445238
 20
-0.6344426383585464
 30
0.0
 11
-44.44536686684122
 21
-0.909806315969707
 31
0.0
  0
LINE
  5
256
330
1F
100
AcDbEntity
  8
SKVIEW2
  6
CONTINUOUS
370
25
 62
7
100
AcDbLine
 10
-44.61122285552959
 20
-0.3196862585694014
 30
0.0
 11
-44.47247117252611
 21
-0.458437941572889
 31
0.0
  0
LINE
  5
257
330
1F
100
AcDbEntity
  8
SKVIEW2
  6
CONTINUOUS
370
25
 62
7
100
AcDbLine
 10
-44.50171516660681
 20
-0.0049298787802563
 30
0.0
 11
-44.49957547821099
 21
-0.0070695671760745
 31
0.0
  0
TEXT
  5
258
330
1F
100
AcDbEntity
  8
SKVIEW2
  6
CONTINUOUS
370
25
 62
7
100
AcDbText
 10
-49.8782155042574
 20
15.26062280313634
 30
0.0
 40
3.500000000000001
  1
11°
 50
311.4528944714153
 72
     1
 11
-47.94737029143496
 21
13.07458044111197
 31
0.0
100
AcDbText
  0
LINE
  5
259
330
1F
100
AcDbEntity
  8
SKVIEW2
  6
CONTINUOUS
370
25
 62
7
100
AcDbLine
 10
-62.75
 20
0.0
 30
0.0
 11
-62.75
 21
-13.0
 31
0.0
  0
LINE
  5
25A
330
1F
100
AcDbEntity
  8
SKVIEW2
  6
CONTINUOUS
370
25
 62
7
100
AcDbLine
 10
-60.0
 20
-13.0
 30
0.0
 11
-60.0
 21
0.5345458500000007
 31
0.0
  0
LINE
  5
25B
330
1F
100
AcDbEntity
  8
SKVIEW2
  6
CONTINUOUS
370
25
 62
7
100
AcDbLine
 10
-81.65
 20
-12.0
 30
0.0
 11
-53.0
 21
-12.0
 31
0.0
  0
LINE
  5
25C
330
1F
100
AcDbEntity
  8
SKVIEW2
  6
CONTINUOUS
370
25
 62
7
100
AcDbLine
 10
-62.75
 20
-12.0
 30
0.0
 11
-67.75
 21
-13.0
 31
0.0
  0
LINE
  5
25D
330
1F
100
AcDbEntity
  8
SKVIEW2
  6
CONTINUOUS
370
25
 62
7
100
AcDbLine
 10
-67.75
 20
-13.0
 30
0.0
 11
-67.75
 21
-11.0
 31
0.0
  0
LINE
  5
25E
330
1F
100
AcDbEntity
  8
SKVIEW2
  6
CONTINUOUS
370
25
 62
7
100
AcDbLine
 10
-67.75
 20
-11.0
 30
0.0
 11
-62.75
 21
-12.0
 31
0.0
  0
LINE
  5
25F
330
1F
100
AcDbEntity
  8
SKVIEW2
  6
CONTINUOUS
370
25
 62
7
100
AcDbLine
 10
-63.15052010206593
 20
-12.08010402041319
 30
0.0
 11
-63.01701340137729
 21
-11.94659731972454
 31
0.0
  0
LINE
  5
260
330
1F
100
AcDbEntity
  8
SKVIEW2
  6
CONTINUOUS
370
25
 62
7
100
AcDbLine
 10
-63.68085018795584
 20
-12.18617003759117
 30
0.0
 11
-63.37056679197056
 21
-11.87588664160589
 31
0.0
  0
LINE
  5
261
330
1F
100
AcDbEntity
  8
SKVIEW2
  6
CONTINUOUS
370
25
 62
7
100
AcDbLine
 10
-64.21118027384576
 20
-12.29223605476915
 30
0.0
 11
-63.72412018256384
 21
-11.80517596348723
 31
0.0
  0
LINE
  5
262
330
1F
100
AcDbEntity
  8
SKVIEW2
  6
CONTINUOUS
370
25
 62
7
100
AcDbLine
 10
-64.74151035973566
 20
-12.39830207194713
 30
0.0
 11
-64.0776735731571
 21
-11.73446528536858
 31
0.0
  0
LINE
  5
263
330
1F
100
AcDbEntity
  8
SKVIEW2
  6
CONTINUOUS
370
25
 62
7
100
AcDbLine
 10
-65.27184044562557
 20
-12.50436808912511
 30
0.0
 11
-64.43122696375038
 21
-11.66375460724992
 31
0.0
  0
LINE
  5
264
330
1F
100
AcDbEntity
  8
SKVIEW2
  6
CONTINUOUS
370
25
 62
7
100
AcDbLine
 10
-65.80217053151547
 20
-12.6104341063031
 30
0.0
 11
-64.78478035434365
 21
-11.59304392913127
 31
0.0
  0
LINE
  5
265
330
1F
100
AcDbEntity
  8
SKVIEW2
  6
CONTINUOUS
370
25
 62
7
100
AcDbLine
 10
-66.33250061740539
 20
-12.71650012348108
 30
0.0
 11
-65.13833374493693
 21
-11.52233325101261
 31
0.0
  0
LINE
  5
266
330
1F
100
AcDbEntity
  8
SKVIEW2
  6
CONTINUOUS
370
25
 62
7
100
AcDbLine
 10
-66.8628307032953
 20
-12.82256614065906
 30
0.0
 11
-65.4918871355302
 21
-11.45162257289396
 31
0.0
  0
LINE
  5
267
330
1F
100
AcDbEntity
  8
SKVIEW2
  6
CONTINUOUS
370
25
 62
7
100
AcDbLine
 10
-67.3931607891852
 20
-12.92863215783704
 30
0.0
 11
-65.84544052612347
 21
-11.38091189477531
 31
0.0
  0
LINE
  5
268
330
1F
100
AcDbEntity
  8
SKVIEW2
  6
CONTINUOUS
370
25
 62
7
100
AcDbLine
 10
-67.75
 20
-12.86120729993991
 30
0.0
 11
-66.19899391671674
 21
-11.31020121665665
 31
0.0
  0
LINE
  5
269
330
1F
100
AcDbEntity
  8
SKVIEW2
  6
CONTINUOUS
370
25
 62
7
100
AcDbLine
 10
-67.75
 20
-12.43694323122798
 30
0.0
 11
-66.55254730731002
 21
-11.239490538538
 31
0.0
  0
LINE
  5
26A
330
1F
100
AcDbEntity
  8
SKVIEW2
  6
CONTINUOUS
370
25
 62
7
100
AcDbLine
 10
-67.75
 20
-12.01267916251605
 30
0.0
 11
-66.9061006979033
 21
-11.16877986041934
 31
0.0
  0
LINE
  5
26B
330
1F
100
AcDbEntity
  8
SKVIEW2
  6
CONTINUOUS
370
25
 62
7
100
AcDbLine
 10
-67.75
 20
-11.58841509380412
 30
0.0
 11
-67.25965408849656
 21
-11.09806918230069
 31
0.0
  0
LINE
  5
26C
330
1F
100
AcDbEntity
  8
SKVIEW2
  6
CONTINUOUS
370
25
 62
7
100
AcDbLine
 10
-67.75
 20
-11.16415102509219
 30
0.0
 11
-67.61320747908984
 21
-11.02735850418203
 31
0.0
  0
LINE
  5
26D
330
1F
100
AcDbEntity
  8
SKVIEW2
  6
CONTINUOUS
370
25
 62
7
100
AcDbLine
 10
-67.75
 20
-12.8612072999399
 30
0.0
 11
-67.63433941661658
 21
-12.97686788332332
 31
0.0
  0
LINE
  5
26E
330
1F
100
AcDbEntity
  8
SKVIEW2
  6
CONTINUOUS
370
25
 62
7
100
AcDbLine
 10
-67.75
 20
-12.43694323122797
 30
0.0
 11
-67.2807860260233
 21
-12.90615720520466
 31
0.0
  0
LINE
  5
26F
330
1F
100
AcDbEntity
  8
SKVIEW2
  6
CONTINUOUS
370
25
 62
7
100
AcDbLine
 10
-67.75
 20
-12.01267916251604
 30
0.0
 11
-66.92723263543003
 21
-12.83544652708601
 31
0.0
  0
LINE
  5
270
330
1F
100
AcDbEntity
  8
SKVIEW2
  6
CONTINUOUS
370
25
 62
7
100
AcDbLine
 10
-67.75
 20
-11.58841509380412
 30
0.0
 11
-66.57367924483677
 21
-12.76473584896735
 31
0.0
  0
LINE
  5
271
330
1F
100
AcDbEntity
  8
SKVIEW2
  6
CONTINUOUS
370
25
 62
7
100
AcDbLine
 10
-67.75
 20
-11.16415102509219
 30
0.0
 11
-66.22012585424349
 21
-12.6940251708487
 31
0.0
  0
LINE
  5
272
330
1F
100
AcDbEntity
  8
SKVIEW2
  6
CONTINUOUS
370
25
 62
7
100
AcDbLine
 10
-67.42485869547532
 20
-11.06502826090493
 30
0.0
 11
-65.86657246365021
 21
-12.62331449273004
 31
0.0
  0
LINE
  5
273
330
1F
100
AcDbEntity
  8
SKVIEW2
  6
CONTINUOUS
370
25
 62
7
100
AcDbLine
 10
-66.89452860958542
 20
-11.17109427808292
 30
0.0
 11
-65.51301907305694
 21
-12.55260381461139
 31
0.0
  0
LINE
  5
274
330
1F
100
AcDbEntity
  8
SKVIEW2
  6
CONTINUOUS
370
25
 62
7
100
AcDbLine
 10
-66.3641985236955
 20
-11.2771602952609
 30
0.0
 11
-65.15946568246368
 21
-12.48189313649273
 31
0.0
  0
LINE
  5
275
330
1F
100
AcDbEntity
  8
SKVIEW2
  6
CONTINUOUS
370
25
 62
7
100
AcDbLine
 10
-65.83386843780559
 20
-11.38322631243888
 30
0.0
 11
-64.8059122918704
 21
-12.41118245837408
 31
0.0
  0
LINE
  5
276
330
1F
100
AcDbEntity
  8
SKVIEW2
  6
CONTINUOUS
370
25
 62
7
100
AcDbLine
 10
-65.30353835191568
 20
-11.48929232961686
 30
0.0
 11
-64.45235890127712
 21
-12.34047178025542
 31
0.0
  0
LINE
  5
277
330
1F
100
AcDbEntity
  8
SKVIEW2
  6
CONTINUOUS
370
25
 62
7
100
AcDbLine
 10
-64.77320826602578
 20
-11.59535834679485
 30
0.0
 11
-64.09880551068385
 21
-12.26976110213677
 31
0.0
  0
LINE
  5
278
330
1F
100
AcDbEntity
  8
SKVIEW2
  6
CONTINUOUS
370
25
 62
7
100
AcDbLine
 10
-64.24287818013586
 20
-11.70142436397283
 30
0.0
 11
-63.74525212009058
 21
-12.19905042401811
 31
0.0
  0
LINE
  5
279
330
1F
100
AcDbEntity
  8
SKVIEW2
  6
CONTINUOUS
370
25
 62
7
100
AcDbLine
 10
-63.71254809424595
 20
-11.80749038115081
 30
0.0
 11
-63.3916987294973
 21
-12.12833974589946
 31
0.0
  0
LINE
  5
27A
330
1F
100
AcDbEntity
  8
SKVIEW2
  6
CONTINUOUS
370
25
 62
7
100
AcDbLine
 10
-63.18221800835604
 20
-11.91355639832879
 30
0.0
 11
-63.03814533890403
 21
-12.05762906778081
 31
0.0
  0
LINE
  5
27B
330
1F
100
AcDbEntity
  8
SKVIEW2
  6
CONTINUOUS
370
25
 62
7
100
AcDbLine
 10
-60.0
 20
-12.0
 30
0.0
 11
-55.0
 21
-11.0
 31
0.0
  0
LINE
  5
27C
330
1F
100
AcDbEntity
  8
SKVIEW2
  6
CONTINUOUS
370
25
 62
7
100
AcDbLine
 10
-55.0
 20
-11.0
 30
0.0
 11
-55.0
 21
-13.0
 31
0.0
  0
LINE
  5
27D
330
1F
100
AcDbEntity
  8
SKVIEW2
  6
CONTINUOUS
370
25
 62
7
100
AcDbLine
 10
-55.0
 20
-13.0
 30
0.0
 11
-60.0
 21
-12.0
 31
0.0
  0
LINE
  5
27E
330
1F
100
AcDbEntity
  8
SKVIEW2
  6
CONTINUOUS
370
25
 62
7
100
AcDbLine
 10
-55.29886765086967
 20
-12.94022646982607
 30
0.0
 11
-55.0
 21
-12.6413588189564
 31
0.0
  0
LINE
  5
27F
330
1F
100
AcDbEntity
  8
SKVIEW2
  6
CONTINUOUS
370
25
 62
7
100
AcDbLine
 10
-55.65242104146294
 20
-12.86951579170741
 30
0.0
 11
-55.0
 21
-12.21709475024447
 31
0.0
  0
LINE
  5
280
330
1F
100
AcDbEntity
  8
SKVIEW2
  6
CONTINUOUS
370
25
 62
7
100
AcDbLine
 10
-56.00597443205621
 20
-12.79880511358876
 30
0.0
 11
-55.0
 21
-11.79283068153255
 31
0.0
  0
LINE
  5
281
330
1F
100
AcDbEntity
  8
SKVIEW2
  6
CONTINUOUS
370
25
 62
7
100
AcDbLine
 10
-56.35952782264949
 20
-12.7280944354701
 30
0.0
 11
-55.0
 21
-11.36856661282062
 31
0.0
  0
LINE
  5
282
330
1F
100
AcDbEntity
  8
SKVIEW2
  6
CONTINUOUS
370
25
 62
7
100
AcDbLine
 10
-56.71308121324276
 20
-12.65738375735145
 30
0.0
 11
-55.06962181986414
 21
-11.01392436397283
 31
0.0
  0
LINE
  5
283
330
1F
100
AcDbEntity
  8
SKVIEW2
  6
CONTINUOUS
370
25
 62
7
100
AcDbLine
 10
-57.06663460383604
 20
-12.58667307923279
 30
0.0
 11
-55.59995190575405
 21
-11.11999038115081
 31
0.0
  0
LINE
  5
284
330
1F
100
AcDbEntity
  8
SKVIEW2
  6
CONTINUOUS
370
25
 62
7
100
AcDbLine
 10
-57.42018799442931
 20
-12.51596240111414
 30
0.0
 11
-56.13028199164395
 21
-11.22605639832879
 31
0.0
  0
LINE
  5
285
330
1F
100
AcDbEntity
  8
SKVIEW2
  6
CONTINUOUS
370
25
 62
7
100
AcDbLine
 10
-57.77374138502258
 20
-12.44525172299548
 30
0.0
 11
-56.66061207753387
 21
-11.33212241550677
 31
0.0
  0
LINE
  5
286
330
1F
100
AcDbEntity
  8
SKVIEW2
  6
CONTINUOUS
370
25
 62
7
100
AcDbLine
 10
-58.12729477561585
 20
-12.37454104487683
 30
0.0
 11
-57.19094216342378
 21
-11.43818843268476
 31
0.0
  0
LINE
  5
287
330
1F
100
AcDbEntity
  8
SKVIEW2
  6
CONTINUOUS
370
25
 62
7
100
AcDbLine
 10
-58.48084816620913
 20
-12.30383036675817
 30
0.0
 11
-57.72127224931369
 21
-11.54425444986274
 31
0.0
  0
LINE
  5
288
330
1F
100
AcDbEntity
  8
SKVIEW2
  6
CONTINUOUS
370
25
 62
7
100
AcDbLine
 10
-58.8344015568024
 20
-12.23311968863952
 30
0.0
 11
-58.2516023352036
 21
-11.65032046704072
 31
0.0
  0
LINE
  5
289
330
1F
100
AcDbEntity
  8
SKVIEW2
  6
CONTINUOUS
370
25
 62
7
100
AcDbLine
 10
-59.18795494739567
 20
-12.16240901052086
 30
0.0
 11
-58.78193242109351
 21
-11.7563864842187
 31
0.0
  0
LINE
  5
28A
330
1F
100
AcDbEntity
  8
SKVIEW2
  6
CONTINUOUS
370
25
 62
7
100
AcDbLine
 10
-59.54150833798894
 20
-12.09169833240221
 30
0.0
 11
-59.31226250698342
 21
-11.86245250139669
 31
0.0
  0
LINE
  5
28B
330
1F
100
AcDbEntity
  8
SKVIEW2
  6
CONTINUOUS
370
25
 62
7
100
AcDbLine
 10
-59.89506172858222
 20
-12.02098765428356
 30
0.0
 11
-59.84259259287333
 21
-11.96851851857467
 31
0.0
  0
LINE
  5
28C
330
1F
100
AcDbEntity
  8
SKVIEW2
  6
CONTINUOUS
370
25
 62
7
100
AcDbLine
 10
-59.91619366610897
 20
-11.98323873322179
 30
0.0
 11
-59.87429049916345
 21
-12.02514190016731
 31
0.0
  0
LINE
  5
28D
330
1F
100
AcDbEntity
  8
SKVIEW2
  6
CONTINUOUS
370
25
 62
7
100
AcDbLine
 10
-59.5626402755157
 20
-11.91252805510314
 30
0.0
 11
-59.34396041327354
 21
-12.13120791734529
 31
0.0
  0
LINE
  5
28E
330
1F
100
AcDbEntity
  8
SKVIEW2
  6
CONTINUOUS
370
25
 62
7
100
AcDbLine
 10
-59.20908688492242
 20
-11.84181737698449
 30
0.0
 11
-58.81363032738363
 21
-12.23727393452327
 31
0.0
  0
LINE
  5
28F
330
1F
100
AcDbEntity
  8
SKVIEW2
  6
CONTINUOUS
370
25
 62
7
100
AcDbLine
 10
-58.85553349432914
 20
-11.77110669886583
 30
0.0
 11
-58.28330024149372
 21
-12.34333995170125
 31
0.0
  0
LINE
  5
290
330
1F
100
AcDbEntity
  8
SKVIEW2
  6
CONTINUOUS
370
25
 62
7
100
AcDbLine
 10
-58.50198010373587
 20
-11.70039602074717
 30
0.0
 11
-57.75297015560381
 21
-12.44940596887924
 31
0.0
  0
LINE
  5
291
330
1F
100
AcDbEntity
  8
SKVIEW2
  6
CONTINUOUS
370
25
 62
7
100
AcDbLine
 10
-58.1484267131426
 20
-11.62968534262852
 30
0.0
 11
-57.2226400697139
 21
-12.55547198605722
 31
0.0
  0
LINE
  5
292
330
1F
100
AcDbEntity
  8
SKVIEW2
  6
CONTINUOUS
370
25
 62
7
100
AcDbLine
 10
-57.79487332254933
 20
-11.55897466450986
 30
0.0
 11
-56.69230998382399
 21
-12.6615380032352
 31
0.0
  0
LINE
  5
293
330
1F
100
AcDbEntity
  8
SKVIEW2
  6
CONTINUOUS
370
25
 62
7
100
AcDbLine
 10
-57.44131993195605
 20
-11.48826398639121
 30
0.0
 11
-56.16197989793408
 21
-12.76760402041318
 31
0.0
  0
LINE
  5
294
330
1F
100
AcDbEntity
  8
SKVIEW2
  6
CONTINUOUS
370
25
 62
7
100
AcDbLine
 10
-57.08776654136278
 20
-11.41755330827256
 30
0.0
 11
-55.63164981204417
 21
-12.87367003759116
 31
0.0
  0
LINE
  5
295
330
1F
100
AcDbEntity
  8
SKVIEW2
  6
CONTINUOUS
370
25
 62
7
100
AcDbLine
 10
-56.73421315076951
 20
-11.3468426301539
 30
0.0
 11
-55.10131972615426
 21
-12.97973605476915
 31
0.0
  0
LINE
  5
296
330
1F
100
AcDbEntity
  8
SKVIEW2
  6
CONTINUOUS
370
25
 62
7
100
AcDbLine
 10
-56.38065976017623
 20
-11.27613195203525
 30
0.0
 11
-55.0
 21
-12.65679171221148
 31
0.0
  0
LINE
  5
297
330
1F
100
AcDbEntity
  8
SKVIEW2
  6
CONTINUOUS
370
25
 62
7
100
AcDbLine
 10
-56.02710636958296
 20
-11.20542127391659
 30
0.0
 11
-55.0
 21
-12.23252764349955
 31
0.0
  0
LINE
  5
298
330
1F
100
AcDbEntity
  8
SKVIEW2
  6
CONTINUOUS
370
25
 62
7
100
AcDbLine
 10
-55.67355297898968
 20
-11.13471059579794
 30
0.0
 11
-55.0
 21
-11.80826357478762
 31
0.0
  0
LINE
  5
299
330
1F
100
AcDbEntity
  8
SKVIEW2
  6
CONTINUOUS
370
25
 62
7
100
AcDbLine
 10
-55.31999958839641
 20
-11.06399991767928
 30
0.0
 11
-55.0
 21
-11.3839995060757
 31
0.0
  0
TEXT
  5
29A
330
1F
100
AcDbEntity
  8
SKVIEW2
  6
CONTINUOUS
370
25
 62
7
100
AcDbText
 10
-79.95
 20
-10.5
 30
0.0
 40
3.5
  1
2.75
 72
     1
 11
-74.7
 21
-10.5
 31
0.0
100
AcDbText
  0
CIRCLE
  5
29B
330
1F
100
AcDbEntity
  8
SK4
  6
LONGDASH_DASH
370
25
 62
2
100
AcDbCircle
 10
3.5
 20
3.5
 30
0.0
 40
3.5
  0
LINE
  5
29C
330
1F
100
AcDbEntity
  8
SK2
  6
CONTINUOUS
370
25
 62
7
100
AcDbLine
 10
7.0
 20
6.5
 30
0.0
 11
7.000000000000001
 21
22.4
 31
0.0
  0
LINE
  5
29D
330
1F
100
AcDbEntity
  8
SK2
  6
CONTINUOUS
370
25
 62
7
100
AcDbLine
 10
6.5
 20
7.000001
 30
0.0
 11
21.39999960995993
 21
7.000001
 31
0.0
  0
LINE
  5
29E
330
1F
100
AcDbEntity
  8
SK2
  6
CONTINUOUS
370
25
 62
7
100
AcDbLine
 10
21.40000002290428
 20
7.000001
 30
0.0
 11
22.40000000000006
 21
7.000001
 31
0.0
  0
ARC
  5
29F
330
1F
100
AcDbEntity
  8
SK2
  6
CONTINUOUS
370
25
 62
7
100
AcDbCircle
 10
6.999999999999999
 20
6.999999999999997
 30
0.0
 40
14.4
100
AcDbArc
 50
0.0
 51
90.0
  0
LINE
  5
2A0
330
1F
100
AcDbEntity
  8
SK2
  6
CONTINUOUS
370
25
 62
7
100
AcDbLine
 10
7.0
 20
21.4
 30
0.0
 11
12.09768255174529
 21
21.51675873257128
 31
0.0
  0
LINE
  5
2A1
330
1F
100
AcDbEntity
  8
SK2
  6
CONTINUOUS
370
25
 62
7
100
AcDbLine
 10
12.09768255174529
 20
21.51675873257128
 30
0.0
 11
11.75046032952306
 21
19.54713015631761
 31
0.0
  0
LINE
  5
2A2
330
1F
100
AcDbEntity
  8
SK2
  6
CONTINUOUS
370
25
 62
7
100
AcDbLine
 10
11.75046032952306
 20
19.54713015631761
 30
0.0
 11
7.0
 21
21.4
 31
0.0
  0
LINE
  5
2A3
330
1F
100
AcDbEntity
  8
SK2
  6
CONTINUOUS
370
25
 62
7
100
AcDbLine
 10
11.56028776840812
 20
19.62130507393471
 30
0.0
 11
11.80703513199231
 21
19.86805243751891
 31
0.0
  0
LINE
  5
2A4
330
1F
100
AcDbEntity
  8
SK2
  6
CONTINUOUS
370
25
 62
7
100
AcDbLine
 10
11.25507061663882
 20
19.74035199087734
 30
0.0
 11
11.8978347719106
 21
20.38311614614913
 31
0.0
  0
LINE
  5
2A5
330
1F
100
AcDbEntity
  8
SK2
  6
CONTINUOUS
370
25
 62
7
100
AcDbLine
 10
10.94985346486951
 20
19.85939890781997
 30
0.0
 11
11.98863441182889
 21
20.89817985477935
 31
0.0
  0
LINE
  5
2A6
330
1F
100
AcDbEntity
  8
SK2
  6
CONTINUOUS
370
25
 62
7
100
AcDbLine
 10
10.64463631310021
 20
19.97844582476259
 30
0.0
 11
12.07943405174718
 21
21.41324356340956
 31
0.0
  0
LINE
  5
2A7
330
1F
100
AcDbEntity
  8
SK2
  6
CONTINUOUS
370
25
 62
7
100
AcDbLine
 10
10.33941916133091
 20
20.09749274170522
 30
0.0
 11
11.75073865308292
 21
21.50881223345722
 31
0.0
  0
LINE
  5
2A8
330
1F
100
AcDbEntity
  8
SK2
  6
CONTINUOUS
370
25
 62
7
100
AcDbLine
 10
10.03420200956161
 20
20.21653965864785
 30
0.0
 11
11.31652933390407
 21
21.4988669829903
 31
0.0
  0
LINE
  5
2A9
330
1F
100
AcDbEntity
  8
SK2
  6
CONTINUOUS
370
25
 62
7
100
AcDbLine
 10
9.728984857792307
 20
20.33558657559047
 30
0.0
 11
10.88232001472522
 21
21.48892173252338
 31
0.0
  0
LINE
  5
2AA
330
1F
100
AcDbEntity
  8
SK2
  6
CONTINUOUS
370
25
 62
7
100
AcDbLine
 10
9.423767706023005
 20
20.4546334925331
 30
0.0
 11
10.44811069554637
 21
21.47897648205646
 31
0.0
  0
LINE
  5
2AB
330
1F
100
AcDbEntity
  8
SK2
  6
CONTINUOUS
370
25
 62
7
100
AcDbLine
 10
9.118550554253703
 20
20.57368040947572
 30
0.0
 11
10.01390137636752
 21
21.46903123158954
 31
0.0
  0
LINE
  5
2AC
330
1F
100
AcDbEntity
  8
SK2
  6
CONTINUOUS
370
25
 62
7
100
AcDbLine
 10
8.813333402484401
 20
20.69272732641835
 30
0.0
 11
9.579692057188671
 21
21.45908598112262
 31
0.0
  0
LINE
  5
2AD
330
1F
100
AcDbEntity
  8
SK2
  6
CONTINUOUS
370
25
 62
7
100
AcDbLine
 10
8.5081162507151
 20
20.81177424336098
 30
0.0
 11
9.145482738009822
 21
21.4491407306557
 31
0.0
  0
LINE
  5
2AE
330
1F
100
AcDbEntity
  8
SK2
  6
CONTINUOUS
370
25
 62
7
100
AcDbLine
 10
8.202899098945798
 20
20.9308211603036
 30
0.0
 11
8.711273418830974
 21
21.43919548018878
 31
0.0
  0
LINE
  5
2AF
330
1F
100
AcDbEntity
  8
SK2
  6
CONTINUOUS
370
25
 62
7
100
AcDbLine
 10
7.897681947176496
 20
21.04986807724623
 30
0.0
 11
8.277064099652124
 21
21.42925022972186
 31
0.0
  0
LINE
  5
2B0
330
1F
100
AcDbEntity
  8
SK2
  6
CONTINUOUS
370
25
 62
7
100
AcDbLine
 10
7.592464795407195
 20
21.16891499418885
 30
0.0
 11
7.842854780473276
 21
21.41930497925494
 31
0.0
  0
LINE
  5
2B1
330
1F
100
AcDbEntity
  8
SK2
  6
CONTINUOUS
370
25
 62
7
100
AcDbLine
 10
7.287247643637893
 20
21.28796191113148
 30
0.0
 11
7.408645461294427
 21
21.40935972878802
 31
0.0
  0
LINE
  5
2B2
330
1F
100
AcDbEntity
  8
SK2
  6
CONTINUOUS
370
25
 62
7
100
AcDbLine
 10
7.025117309879431
 20
21.40057529381976
 30
0.0
 11
7.042121788855804
 21
21.38357081484339
 31
0.0
  0
LINE
  5
2B3
330
1F
100
AcDbEntity
  8
SK2
  6
CONTINUOUS
370
25
 62
7
100
AcDbLine
 10
7.439881504637974
 20
21.41007516777314
 30
0.0
 11
7.737682337355231
 21
21.11227433505589
 31
0.0
  0
LINE
  5
2B4
330
1F
100
AcDbEntity
  8
SK2
  6
CONTINUOUS
370
25
 62
7
100
AcDbLine
 10
7.854645699396515
 20
21.41957504172653
 30
0.0
 11
8.433242885854659
 21
20.84097785526839
 31
0.0
  0
LINE
  5
2B5
330
1F
100
AcDbEntity
  8
SK2
  6
CONTINUOUS
370
25
 62
7
100
AcDbLine
 10
8.269409894155057
 20
21.42907491567992
 30
0.0
 11
9.128803434354086
 21
20.56968137548089
 31
0.0
  0
LINE
  5
2B6
330
1F
100
AcDbEntity
  8
SK2
  6
CONTINUOUS
370
25
 62
7
100
AcDbLine
 10
8.6841740889136
 20
21.4385747896333
 30
0.0
 11
9.824363982853514
 21
20.29838489569339
 31
0.0
  0
LINE
  5
2B7
330
1F
100
AcDbEntity
  8
SK2
  6
CONTINUOUS
370
25
 62
7
100
AcDbLine
 10
9.098938283672144
 20
21.44807466358669
 30
0.0
 11
10.51992453135295
 21
20.02708841590589
 31
0.0
  0
LINE
  5
2B8
330
1F
100
AcDbEntity
  8
SK2
  6
CONTINUOUS
370
25
 62
7
100
AcDbLine
 10
9.513702478430684
 20
21.45757453754007
 30
0.0
 11
11.21548507985237
 21
19.75579193611839
 31
0.0
  0
LINE
  5
2B9
330
1F
100
AcDbEntity
  8
SK2
  6
CONTINUOUS
370
25
 62
7
100
AcDbLine
 10
9.928466673189225
 20
21.46707441149346
 30
0.0
 11
11.76514000791249
 21
19.63040107677019
 31
0.0
  0
LINE
  5
2BA
330
1F
100
AcDbEntity
  8
SK2
  6
CONTINUOUS
370
25
 62
7
100
AcDbLine
 10
10.34323086794777
 20
21.47657428544684
 30
0.0
 11
11.82872369351025
 21
19.99108145988436
 31
0.0
  0
LINE
  5
2BB
330
1F
100
AcDbEntity
  8
SK2
  6
CONTINUOUS
370
25
 62
7
100
AcDbLine
 10
10.75799506270631
 20
21.48607415940023
 30
0.0
 11
11.892307379108
 21
20.35176184299853
 31
0.0
  0
LINE
  5
2BC
330
1F
100
AcDbEntity
  8
SK2
  6
CONTINUOUS
370
25
 62
7
100
AcDbLine
 10
11.17275925746485
 20
21.49557403335362
 30
0.0
 11
11.95589106470576
 21
20.71244222611271
 31
0.0
  0
LINE
  5
2BD
330
1F
100
AcDbEntity
  8
SK2
  6
CONTINUOUS
370
25
 62
7
100
AcDbLine
 10
11.5875234522234
 20
21.505073907307
 30
0.0
 11
12.01947475030351
 21
21.07312260922688
 31
0.0
  0
LINE
  5
2BE
330
1F
100
AcDbEntity
  8
SK2
  6
CONTINUOUS
370
25
 62
7
100
AcDbLine
 10
12.00228764698194
 20
21.51457378126039
 30
0.0
 11
12.08305843590127
 21
21.43380299234105
 31
0.0
  0
LINE
  5
2BF
330
1F
100
AcDbEntity
  8
SK2
  6
CONTINUOUS
370
25
 62
7
100
AcDbLine
 10
21.4
 20
6.999999999999997
 30
0.0
 11
19.54713015631761
 21
11.75046032952306
 31
0.0
  0
LINE
  5
2C0
330
1F
100
AcDbEntity
  8
SK2
  6
CONTINUOUS
370
25
 62
7
100
AcDbLine
 10
19.54713015631761
 20
11.75046032952306
 30
0.0
 11
21.51675873257128
 21
12.09768255174528
 31
0.0
  0
LINE
  5
2C1
330
1F
100
AcDbEntity
  8
SK2
  6
CONTINUOUS
370
25
 62
7
100
AcDbLine
 10
21.51675873257128
 20
12.09768255174528
 30
0.0
 11
21.4
 21
6.999999999999997
 31
0.0
  0
LINE
  5
2C2
330
1F
100
AcDbEntity
  8
SK2
  6
CONTINUOUS
370
25
 62
7
100
AcDbLine
 10
21.38475258868828
 20
7.039091910751974
 30
0.0
 11
21.40127377783786
 21
7.055613099901556
 31
0.0
  0
LINE
  5
2C3
330
1F
100
AcDbEntity
  8
SK2
  6
CONTINUOUS
370
25
 62
7
100
AcDbLine
 10
21.26570567174565
 20
7.344309062521273
 30
0.0
 11
21.41121902830478
 21
7.489822419080404
 31
0.0
  0
LINE
  5
2C4
330
1F
100
AcDbEntity
  8
SK2
  6
CONTINUOUS
370
25
 62
7
100
AcDbLine
 10
21.14665875480302
 20
7.649526214290574
 30
0.0
 11
21.4211642787717
 21
7.924031738259252
 31
0.0
  0
LINE
  5
2C5
330
1F
100
AcDbEntity
  8
SK2
  6
CONTINUOUS
370
25
 62
7
100
AcDbLine
 10
21.0276118378604
 20
7.954743366059876
 30
0.0
 11
21.43110952923863
 21
8.358241057438104
 31
0.0
  0
LINE
  5
2C6
330
1F
100
AcDbEntity
  8
SK2
  6
CONTINUOUS
370
25
 62
7
100
AcDbLine
 10
20.90856492091778
 20
8.259960517829182
 30
0.0
 11
21.44105477970555
 21
8.792450376616952
 31
0.0
  0
LINE
  5
2C7
330
1F
100
AcDbEntity
  8
SK2
  6
CONTINUOUS
370
25
 62
7
100
AcDbLine
 10
20.78951800397515
 20
8.565177669598484
 30
0.0
 11
21.45100003017247
 21
9.2266596957958
 31
0.0
  0
LINE
  5
2C8
330
1F
100
AcDbEntity
  8
SK2
  6
CONTINUOUS
370
25
 62
7
100
AcDbLine
 10
20.67047108703252
 20
8.870394821367782
 30
0.0
 11
21.46094528063939
 21
9.660869014974647
 31
0.0
  0
LINE
  5
2C9
330
1F
100
AcDbEntity
  8
SK2
  6
CONTINUOUS
370
25
 62
7
100
AcDbLine
 10
20.5514241700899
 20
9.17561197313709
 30
0.0
 11
21.47089053110631
 21
10.0950783341535
 31
0.0
  0
LINE
  5
2CA
330
1F
100
AcDbEntity
  8
SK2
  6
CONTINUOUS
370
25
 62
7
100
AcDbLine
 10
20.43237725314727
 20
9.480829124906393
 30
0.0
 11
21.48083578157323
 21
10.52928765333235
 31
0.0
  0
LINE
  5
2CB
330
1F
100
AcDbEntity
  8
SK2
  6
CONTINUOUS
370
25
 62
7
100
AcDbLine
 10
20.31333033620465
 20
9.786046276675695
 30
0.0
 11
21.49078103204015
 21
10.96349697251119
 31
0.0
  0
LINE
  5
2CC
330
1F
100
AcDbEntity
  8
SK2
  6
CONTINUOUS
370
25
 62
7
100
AcDbLine
 10
20.19428341926202
 20
10.09126342844499
 30
0.0
 11
21.50072628250707
 21
11.39770629169005
 31
0.0
  0
LINE
  5
2CD
330
1F
100
AcDbEntity
  8
SK2
  6
CONTINUOUS
370
25
 62
7
100
AcDbLine
 10
20.0752365023194
 20
10.3964805802143
 30
0.0
 11
21.51067153297399
 21
11.83191561086889
 31
0.0
  0
LINE
  5
2CE
330
1F
100
AcDbEntity
  8
SK2
  6
CONTINUOUS
370
25
 62
7
100
AcDbLine
 10
19.95618958537677
 20
10.7016977319836
 30
0.0
 11
21.31695059343914
 21
12.06245874004597
 31
0.0
  0
LINE
  5
2CF
330
1F
100
AcDbEntity
  8
SK2
  6
CONTINUOUS
370
25
 62
7
100
AcDbLine
 10
19.83714266843414
 20
11.0069148837529
 30
0.0
 11
20.80188688480893
 21
11.97165910012768
 31
0.0
  0
LINE
  5
2D0
330
1F
100
AcDbEntity
  8
SK2
  6
CONTINUOUS
370
25
 62
7
100
AcDbLine
 10
19.71809575149152
 20
11.3121320355222
 30
0.0
 11
20.28682317617871
 21
11.8808594602094
 31
0.0
  0
LINE
  5
2D1
330
1F
100
AcDbEntity
  8
SK2
  6
CONTINUOUS
370
25
 62
7
100
AcDbLine
 10
19.59904883454889
 20
11.6173491872915
 30
0.0
 11
19.7717594675485
 21
11.79005982029111
 31
0.0
  0
LINE
  5
2D2
330
1F
100
AcDbEntity
  8
SK2
  6
CONTINUOUS
370
25
 62
7
100
AcDbLine
 10
21.38357081484336
 20
7.042121788855869
 30
0.0
 11
21.40057529381976
 21
7.025117309879469
 31
0.0
  0
LINE
  5
2D3
330
1F
100
AcDbEntity
  8
SK2
  6
CONTINUOUS
370
25
 62
7
100
AcDbLine
 10
21.11227433505586
 20
7.737682337355295
 30
0.0
 11
21.41007516777315
 21
7.439881504638009
 31
0.0
  0
LINE
  5
2D4
330
1F
100
AcDbEntity
  8
SK2
  6
CONTINUOUS
370
25
 62
7
100
AcDbLine
 10
20.84097785526836
 20
8.433242885854721
 30
0.0
 11
21.41957504172653
 21
7.854645699396553
 31
0.0
  0
LINE
  5
2D5
330
1F
100
AcDbEntity
  8
SK2
  6
CONTINUOUS
370
25
 62
7
100
AcDbLine
 10
20.56968137548086
 20
9.12880343435415
 30
0.0
 11
21.42907491567992
 21
8.269409894155093
 31
0.0
  0
LINE
  5
2D6
330
1F
100
AcDbEntity
  8
SK2
  6
CONTINUOUS
370
25
 62
7
100
AcDbLine
 10
20.29838489569337
 20
9.824363982853573
 30
0.0
 11
21.4385747896333
 21
8.684174088913636
 31
0.0
  0
LINE
  5
2D7
330
1F
100
AcDbEntity
  8
SK2
  6
CONTINUOUS
370
25
 62
7
100
AcDbLine
 10
20.02708841590587
 20
10.519924531353
 30
0.0
 11
21.44807466358669
 21
9.098938283672176
 31
0.0
  0
LINE
  5
2D8
330
1F
100
AcDbEntity
  8
SK2
  6
CONTINUOUS
370
25
 62
7
100
AcDbLine
 10
19.75579193611837
 20
11.21548507985242
 30
0.0
 11
21.45757453754008
 21
9.51370247843072
 31
0.0
  0
LINE
  5
2D9
330
1F
100
AcDbEntity
  8
SK2
  6
CONTINUOUS
370
25
 62
7
100
AcDbLine
 10
19.63040107677022
 20
11.7651400079125
 30
0.0
 11
21.46707441149346
 21
9.928466673189263
 31
0.0
  0
LINE
  5
2DA
330
1F
100
AcDbEntity
  8
SK2
  6
CONTINUOUS
370
25
 62
7
100
AcDbLine
 10
19.9910814598844
 20
11.82872369351025
 30
0.0
 11
21.47657428544685
 21
10.34323086794781
 31
0.0
  0
LINE
  5
2DB
330
1F
100
AcDbEntity
  8
SK2
  6
CONTINUOUS
370
25
 62
7
100
AcDbLine
 10
20.35176184299857
 20
11.892307379108
 30
0.0
 11
21.48607415940023
 21
10.75799506270635
 31
0.0
  0
LINE
  5
2DC
330
1F
100
AcDbEntity
  8
SK2
  6
CONTINUOUS
370
25
 62
7
100
AcDbLine
 10
20.71244222611275
 20
11.95589106470576
 30
0.0
 11
21.49557403335362
 21
11.17275925746489
 31
0.0
  0
LINE
  5
2DD
330
1F
100
AcDbEntity
  8
SK2
  6
CONTINUOUS
370
25
 62
7
100
AcDbLine
 10
21.07312260922691
 20
12.01947475030352
 30
0.0
 11
21.505073907307
 21
11.58752345222343
 31
0.0
  0
LINE
  5
2DE
330
1F
100
AcDbEntity
  8
SK2
  6
CONTINUOUS
370
25
 62
7
100
AcDbLine
 10
21.43380299234109
 20
12.08305843590127
 30
0.0
 11
21.51457378126039
 21
12.00228764698197
 31
0.0
  0
TEXT
  5
2DF
330
1F
100
AcDbEntity
  8
SK2
  6
CONTINUOUS
370
25
 62
7
100
AcDbText
 10
15.56188460886711
 20
20.9241110328651
 30
0.0
 40
3.499999999999999
  1
90°
 50
315.0000000000001
 72
     1
 11
18.2429978208661
 21
18.24299782086611
 31
0.0
100
AcDbText
  0
LINE
  5
2E0
330
1F
100
AcDbEntity
  8
SK2
  6
CONTINUOUS
370
25
 62
7
100
AcDbLine
 10
0.0
 20
0.5
 30
0.0
 11
-0.0000000000000012
 21
-19.5
 31
0.0
  0
LINE
  5
2E1
330
1F
100
AcDbEntity
  8
SK2
  6
CONTINUOUS
370
25
 62
7
100
AcDbLine
 10
6.999999999999999
 20
0.0488155366666669
 30
0.0
 11
7.0
 21
0.5
 31
0.0
  0
LINE
  5
2E2
330
1F
100
AcDbEntity
  8
SK2
  6
CONTINUOUS
370
25
 62
7
100
AcDbLine
 10
6.999999999999999
 20
-19.5
 30
0.0
 11
6.999999999999999
 21
-0.0732233049999991
 31
0.0
  0
LINE
  5
2E3
330
1F
100
AcDbEntity
  8
SK2
  6
CONTINUOUS
370
25
 62
7
100
AcDbLine
 10
-13.475
 20
-18.5
 30
0.0
 11
14.0
 21
-18.5
 31
0.0
  0
LINE
  5
2E4
330
1F
100
AcDbEntity
  8
SK2
  6
CONTINUOUS
370
25
 62
7
100
AcDbLine
 10
0.0
 20
-18.5
 30
0.0
 11
-5.0
 21
-19.5
 31
0.0
  0
LINE
  5
2E5
330
1F
100
AcDbEntity
  8
SK2
  6
CONTINUOUS
370
25
 62
7
100
AcDbLine
 10
-5.0
 20
-19.5
 30
0.0
 11
-5.0
 21
-17.5
 31
0.0
  0
LINE
  5
2E6
330
1F
100
AcDbEntity
  8
SK2
  6
CONTINUOUS
370
25
 62
7
100
AcDbLine
 10
-5.0
 20
-17.5
 30
0.0
 11
0.0
 21
-18.5
 31
0.0
  0
LINE
  5
2E7
330
1F
100
AcDbEntity
  8
SK2
  6
CONTINUOUS
370
25
 62
7
100
AcDbLine
 10
-0.2304713904145528
 20
-18.54609427808291
 30
0.0
 11
-0.1536475936097019
 21
-18.46927048127806
 31
0.0
  0
LINE
  5
2E8
330
1F
100
AcDbEntity
  8
SK2
  6
CONTINUOUS
370
25
 62
7
100
AcDbLine
 10
-0.7608014763044666
 20
-18.65216029526089
 30
0.0
 11
-0.5072009842029778
 21
-18.3985598031594
 31
0.0
  0
LINE
  5
2E9
330
1F
100
AcDbEntity
  8
SK2
  6
CONTINUOUS
370
25
 62
7
100
AcDbLine
 10
-1.291131562194376
 20
-18.75822631243888
 30
0.0
 11
-0.8607543747962508
 21
-18.32784912504075
 31
0.0
  0
LINE
  5
2EA
330
1F
100
AcDbEntity
  8
SK2
  6
CONTINUOUS
370
25
 62
7
100
AcDbLine
 10
-1.821461648084285
 20
-18.86429232961686
 30
0.0
 11
-1.214307765389524
 21
-18.2571384469221
 31
0.0
  0
LINE
  5
2EB
330
1F
100
AcDbEntity
  8
SK2
  6
CONTINUOUS
370
25
 62
7
100
AcDbLine
 10
-2.351791733974194
 20
-18.97035834679484
 30
0.0
 11
-1.567861155982797
 21
-18.18642776880344
 31
0.0
  0
LINE
  5
2EC
330
1F
100
AcDbEntity
  8
SK2
  6
CONTINUOUS
370
25
 62
7
100
AcDbLine
 10
-2.882121819864103
 20
-19.07642436397282
 30
0.0
 11
-1.921414546576069
 21
-18.11571709068479
 31
0.0
  0
LINE
  5
2ED
330
1F
100
AcDbEntity
  8
SK2
  6
CONTINUOUS
370
25
 62
7
100
AcDbLine
 10
-3.412451905754013
 20
-19.1824903811508
 30
0.0
 11
-2.274967937169342
 21
-18.04500641256613
 31
0.0
  0
LINE
  5
2EE
330
1F
100
AcDbEntity
  8
SK2
  6
CONTINUOUS
370
25
 62
7
100
AcDbLine
 10
-3.942781991643922
 20
-19.28855639832878
 30
0.0
 11
-2.628521327762615
 21
-17.97429573444748
 31
0.0
  0
LINE
  5
2EF
330
1F
100
AcDbEntity
  8
SK2
  6
CONTINUOUS
370
25
 62
7
100
AcDbLine
 10
-4.473112077533831
 20
-19.39462241550677
 30
0.0
 11
-2.982074718355888
 21
-17.90358505632882
 31
0.0
  0
LINE
  5
2F0
330
1F
100
AcDbEntity
  8
SK2
  6
CONTINUOUS
370
25
 62
7
100
AcDbLine
 10
-5.0
 20
-19.49724626926101
 30
0.0
 11
-3.335628108949164
 21
-17.83287437821017
 31
0.0
  0
LINE
  5
2F1
330
1F
100
AcDbEntity
  8
SK2
  6
CONTINUOUS
370
25
 62
7
100
AcDbLine
 10
-5.0
 20
-19.07298220054908
 30
0.0
 11
-3.689181499542436
 21
-17.76216370009151
 31
0.0
  0
LINE
  5
2F2
330
1F
100
AcDbEntity
  8
SK2
  6
CONTINUOUS
370
25
 62
7
100
AcDbLine
 10
-5.0
 20
-18.64871813183715
 30
0.0
 11
-4.042734890135709
 21
-17.69145302197286
 31
0.0
  0
LINE
  5
2F3
330
1F
100
AcDbEntity
  8
SK2
  6
CONTINUOUS
370
25
 62
7
100
AcDbLine
 10
-5.0
 20
-18.22445406312522
 30
0.0
 11
-4.396288280728982
 21
-17.6207423438542
 31
0.0
  0
LINE
  5
2F4
330
1F
100
AcDbEntity
  8
SK2
  6
CONTINUOUS
370
25
 62
7
100
AcDbLine
 10
-5.0
 20
-17.80018999441329
 30
0.0
 11
-4.749841671322256
 21
-17.55003166573555
 31
0.0
  0
LINE
  5
2F5
330
1F
100
AcDbEntity
  8
SK2
  6
CONTINUOUS
370
25
 62
7
100
AcDbLine
 10
-5.0
 20
-19.49724626926099
 30
0.0
 11
-4.997705224384163
 21
-19.49954104487683
 31
0.0
  0
LINE
  5
2F6
330
1F
100
AcDbEntity
  8
SK2
  6
CONTINUOUS
370
25
 62
7
100
AcDbLine
 10
-5.0
 20
-19.07298220054906
 30
0.0
 11
-4.644151833790887
 21
-19.42883036675818
 31
0.0
  0
LINE
  5
2F7
330
1F
100
AcDbEntity
  8
SK2
  6
CONTINUOUS
370
25
 62
7
100
AcDbLine
 10
-5.0
 20
-18.64871813183714
 30
0.0
 11
-4.290598443197617
 21
-19.35811968863952
 31
0.0
  0
LINE
  5
2F8
330
1F
100
AcDbEntity
  8
SK2
  6
CONTINUOUS
370
25
 62
7
100
AcDbLine
 10
-5.0
 20
-18.22445406312521
 30
0.0
 11
-3.937045052604343
 21
-19.28740901052087
 31
0.0
  0
LINE
  5
2F9
330
1F
100
AcDbEntity
  8
SK2
  6
CONTINUOUS
370
25
 62
7
100
AcDbLine
 10
-5.0
 20
-17.80018999441329
 30
0.0
 11
-3.58349166201107
 21
-19.21669833240221
 31
0.0
  0
LINE
  5
2FA
330
1F
100
AcDbEntity
  8
SK2
  6
CONTINUOUS
370
25
 62
7
100
AcDbLine
 10
-4.844907407126697
 20
-17.53101851857466
 30
0.0
 11
-3.229938271417796
 21
-19.14598765428356
 31
0.0
  0
LINE
  5
2FB
330
1F
100
AcDbEntity
  8
SK2
  6
CONTINUOUS
370
25
 62
7
100
AcDbLine
 10
-4.314577321236786
 20
-17.63708453575264
 30
0.0
 11
-2.876384880824522
 21
-19.0752769761649
 31
0.0
  0
LINE
  5
2FC
330
1F
100
AcDbEntity
  8
SK2
  6
CONTINUOUS
370
25
 62
7
100
AcDbLine
 10
-3.784247235346875
 20
-17.74315055293063
 30
0.0
 11
-2.522831490231249
 21
-19.00456629804625
 31
0.0
  0
LINE
  5
2FD
330
1F
100
AcDbEntity
  8
SK2
  6
CONTINUOUS
370
25
 62
7
100
AcDbLine
 10
-3.253917149456965
 20
-17.84921657010861
 30
0.0
 11
-2.169278099637975
 21
-18.93385561992759
 31
0.0
  0
LINE
  5
2FE
330
1F
100
AcDbEntity
  8
SK2
  6
CONTINUOUS
370
25
 62
7
100
AcDbLine
 10
-2.723587063567054
 20
-17.95528258728659
 30
0.0
 11
-1.815724709044701
 21
-18.86314494180894
 31
0.0
  0
LINE
  5
2FF
330
1F
100
AcDbEntity
  8
SK2
  6
CONTINUOUS
370
25
 62
7
100
AcDbLine
 10
-2.193256977677148
 20
-18.06134860446457
 30
0.0
 11
-1.462171318451431
 21
-18.79243426369029
 31
0.0
  0
LINE
  5
300
330
1F
100
AcDbEntity
  8
SK2
  6
CONTINUOUS
370
25
 62
7
100
AcDbLine
 10
-1.662926891787237
 20
-18.16741462164255
 30
0.0
 11
-1.108617927858157
 21
-18.72172358557163
 31
0.0
  0
LINE
  5
301
330
1F
100
AcDbEntity
  8
SK2
  6
CONTINUOUS
370
25
 62
7
100
AcDbLine
 10
-1.132596805897326
 20
-18.27348063882053
 30
0.0
 11
-0.7550645372648834
 21
-18.65101290745298
 31
0.0
  0
LINE
  5
302
330
1F
100
AcDbEntity
  8
SK2
  6
CONTINUOUS
370
25
 62
7
100
AcDbLine
 10
-0.6022667200074155
 20
-18.37954665599852
 30
0.0
 11
-0.4015111466716099
 21
-18.58030222933432
 31
0.0
  0
LINE
  5
303
330
1F
100
AcDbEntity
  8
SK2
  6
CONTINUOUS
370
25
 62
7
100
AcDbLine
 10
-0.0719366341175045
 20
-18.4856126731765
 30
0.0
 11
-0.0479577560783363
 21
-18.50959155121567
 31
0.0
  0
LINE
  5
304
330
1F
100
AcDbEntity
  8
SK2
  6
CONTINUOUS
370
25
 62
7
100
AcDbLine
 10
6.999999999999999
 20
-18.5
 30
0.0
 11
12.0
 21
-17.5
 31
0.0
  0
LINE
  5
305
330
1F
100
AcDbEntity
  8
SK2
  6
CONTINUOUS
370
25
 62
7
100
AcDbLine
 10
12.0
 20
-17.5
 30
0.0
 11
12.0
 21
-19.5
 31
0.0
  0
LINE
  5
306
330
1F
100
AcDbEntity
  8
SK2
  6
CONTINUOUS
370
25
 62
7
100
AcDbLine
 10
12.0
 20
-19.5
 30
0.0
 11
6.999999999999999
 21
-18.5
 31
0.0
  0
LINE
  5
307
330
1F
100
AcDbEntity
  8
SK2
  6
CONTINUOUS
370
25
 62
7
100
AcDbLine
 10
11.82063091763183
 20
-19.46412618352637
 30
0.0
 11
12.0
 21
-19.2847571011582
 31
0.0
  0
LINE
  5
308
330
1F
100
AcDbEntity
  8
SK2
  6
CONTINUOUS
370
25
 62
7
100
AcDbLine
 10
11.46707752703856
 20
-19.39341550540771
 30
0.0
 11
12.0
 21
-18.86049303244627
 31
0.0
  0
LINE
  5
309
330
1F
100
AcDbEntity
  8
SK2
  6
CONTINUOUS
370
25
 62
7
100
AcDbLine
 10
11.11352413644529
 20
-19.32270482728906
 30
0.0
 11
12.0
 21
-18.43622896373435
 31
0.0
  0
LINE
  5
30A
330
1F
100
AcDbEntity
  8
SK2
  6
CONTINUOUS
370
25
 62
7
100
AcDbLine
 10
10.75997074585202
 20
-19.2519941491704
 30
0.0
 11
12.0
 21
-18.01196489502242
 31
0.0
  0
LINE
  5
30B
330
1F
100
AcDbEntity
  8
SK2
  6
CONTINUOUS
370
25
 62
7
100
AcDbLine
 10
10.40641735525874
 20
-19.18128347105175
 30
0.0
 11
12.0
 21
-17.58770082631049
 31
0.0
  0
LINE
  5
30C
330
1F
100
AcDbEntity
  8
SK2
  6
CONTINUOUS
370
25
 62
7
100
AcDbLine
 10
10.05286396466547
 20
-19.11057279293309
 30
0.0
 11
11.57929594699821
 21
-17.58414081060036
 31
0.0
  0
LINE
  5
30D
330
1F
100
AcDbEntity
  8
SK2
  6
CONTINUOUS
370
25
 62
7
100
AcDbLine
 10
9.699310574072197
 20
-19.03986211481444
 30
0.0
 11
11.0489658611083
 21
-17.69020682777834
 31
0.0
  0
LINE
  5
30E
330
1F
100
AcDbEntity
  8
SK2
  6
CONTINUOUS
370
25
 62
7
100
AcDbLine
 10
9.345757183478923
 20
-18.96915143669579
 30
0.0
 11
10.51863577521839
 21
-17.79627284495632
 31
0.0
  0
LINE
  5
30F
330
1F
100
AcDbEntity
  8
SK2
  6
CONTINUOUS
370
25
 62
7
100
AcDbLine
 10
8.99220379288565
 20
-18.89844075857713
 30
0.0
 11
9.988305689328477
 21
-17.9023388621343
 31
0.0
  0
LINE
  5
310
330
1F
100
AcDbEntity
  8
SK2
  6
CONTINUOUS
370
25
 62
7
100
AcDbLine
 10
8.638650402292377
 20
-18.82773008045848
 30
0.0
 11
9.457975603438568
 21
-18.00840487931229
 31
0.0
  0
LINE
  5
311
330
1F
100
AcDbEntity
  8
SK2
  6
CONTINUOUS
370
25
 62
7
100
AcDbLine
 10
8.285097011699104
 20
-18.75701940233982
 30
0.0
 11
8.927645517548658
 21
-18.11447089649027
 31
0.0
  0
LINE
  5
312
330
1F
100
AcDbEntity
  8
SK2
  6
CONTINUOUS
370
25
 62
7
100
AcDbLine
 10
7.931543621105831
 20
-18.68630872422117
 30
0.0
 11
8.397315431658749
 21
-18.22053691366825
 31
0.0
  0
LINE
  5
313
330
1F
100
AcDbEntity
  8
SK2
  6
CONTINUOUS
370
25
 62
7
100
AcDbLine
 10
7.577990230512558
 20
-18.61559804610251
 30
0.0
 11
7.86698534576884
 21
-18.32660293084623
 31
0.0
  0
LINE
  5
314
330
1F
100
AcDbEntity
  8
SK2
  6
CONTINUOUS
370
25
 62
7
100
AcDbLine
 10
7.224436839919285
 20
-18.54488736798386
 30
0.0
 11
7.33665525987893
 21
-18.43266894802421
 31
0.0
  0
LINE
  5
315
330
1F
100
AcDbEntity
  8
SK2
  6
CONTINUOUS
370
25
 62
7
100
AcDbLine
 10
7.330126677450642
 20
-18.43397466450987
 30
0.0
 11
7.495190016175966
 21
-18.59903800323519
 31
0.0
  0
LINE
  5
316
330
1F
100
AcDbEntity
  8
SK2
  6
CONTINUOUS
370
25
 62
7
100
AcDbLine
 10
7.683680068043916
 20
-18.36326398639122
 30
0.0
 11
8.025520102065878
 21
-18.70510402041318
 31
0.0
  0
LINE
  5
317
330
1F
100
AcDbEntity
  8
SK2
  6
CONTINUOUS
370
25
 62
7
100
AcDbLine
 10
8.03723345863719
 20
-18.29255330827256
 30
0.0
 11
8.555850187955787
 21
-18.81117003759116
 31
0.0
  0
LINE
  5
318
330
1F
100
AcDbEntity
  8
SK2
  6
CONTINUOUS
370
25
 62
7
100
AcDbLine
 10
8.390786849230462
 20
-18.22184263015391
 30
0.0
 11
9.086180273845697
 21
-18.91723605476914
 31
0.0
  0
LINE
  5
319
330
1F
100
AcDbEntity
  8
SK2
  6
CONTINUOUS
370
25
 62
7
100
AcDbLine
 10
8.744340239823735
 20
-18.15113195203525
 30
0.0
 11
9.616510359735608
 21
-19.02330207194712
 31
0.0
  0
LINE
  5
31A
330
1F
100
AcDbEntity
  8
SK2
  6
CONTINUOUS
370
25
 62
7
100
AcDbLine
 10
9.09789363041701
 20
-18.0804212739166
 30
0.0
 11
10.14684044562552
 21
-19.12936808912511
 31
0.0
  0
LINE
  5
31B
330
1F
100
AcDbEntity
  8
SK2
  6
CONTINUOUS
370
25
 62
7
100
AcDbLine
 10
9.451447021010283
 20
-18.00971059579794
 30
0.0
 11
10.67717053151543
 21
-19.23543410630309
 31
0.0
  0
LINE
  5
31C
330
1F
100
AcDbEntity
  8
SK2
  6
CONTINUOUS
370
25
 62
7
100
AcDbLine
 10
9.805000411603555
 20
-17.93899991767929
 30
0.0
 11
11.20750061740534
 21
-19.34150012348107
 31
0.0
  0
LINE
  5
31D
330
1F
100
AcDbEntity
  8
SK2
  6
CONTINUOUS
370
25
 62
7
100
AcDbLine
 10
10.15855380219683
 20
-17.86828923956063
 30
0.0
 11
11.73783070329525
 21
-19.44756614065905
 31
0.0
  0
LINE
  5
31E
330
1F
100
AcDbEntity
  8
SK2
  6
CONTINUOUS
370
25
 62
7
100
AcDbLine
 10
10.5121071927901
 20
-17.79757856144198
 30
0.0
 11
12.0
 21
-19.28547136865188
 31
0.0
  0
LINE
  5
31F
330
1F
100
AcDbEntity
  8
SK2
  6
CONTINUOUS
370
25
 62
7
100
AcDbLine
 10
10.86566058338338
 20
-17.72686788332332
 30
0.0
 11
12.0
 21
-18.86120729993995
 31
0.0
  0
LINE
  5
320
330
1F
100
AcDbEntity
  8
SK2
  6
CONTINUOUS
370
25
 62
7
100
AcDbLine
 10
11.21921397397665
 20
-17.65615720520467
 30
0.0
 11
12.0
 21
-18.43694323122802
 31
0.0
  0
LINE
  5
321
330
1F
100
AcDbEntity
  8
SK2
  6
CONTINUOUS
370
25
 62
7
100
AcDbLine
 10
11.57276736456992
 20
-17.58544652708601
 30
0.0
 11
12.0
 21
-18.01267916251609
 31
0.0
  0
LINE
  5
322
330
1F
100
AcDbEntity
  8
SK2
  6
CONTINUOUS
370
25
 62
7
100
AcDbLine
 10
11.92632075516319
 20
-17.51473584896736
 30
0.0
 11
12.0
 21
-17.58841509380417
 31
0.0
  0
TEXT
  5
323
330
1F
100
AcDbEntity
  8
SK2
  6
CONTINUOUS
370
25
 62
7
100
AcDbText
 10
-8.129166666666668
 20
-17.0
 30
0.0
 40
3.5
  1
7
 72
     1
 11
-6.962500000000002
 21
-17.0
 31
0.0
100
AcDbText
  0
LINE
  5
324
330
1F
100
AcDbEntity
  8
SK2
  6
CONTINUOUS
370
25
 62
7
100
AcDbLine
 10
-11.6875
 20
-16.65
 30
0.0
 11
-8.887500000000003
 21
-16.65
 31
0.0
  0
LINE
  5
325
330
1F
100
AcDbEntity
  8
SK2
  6
CONTINUOUS
370
25
 62
7
100
AcDbLine
 10
-8.887500000000003
 20
-16.65
 30
0.0
 11
-8.887500000000003
 21
-13.85
 31
0.0
  0
LINE
  5
326
330
1F
100
AcDbEntity
  8
SK2
  6
CONTINUOUS
370
25
 62
7
100
AcDbLine
 10
-8.887500000000003
 20
-13.85
 30
0.0
 11
-11.6875
 21
-13.85
 31
0.0
  0
LINE
  5
327
330
1F
100
AcDbEntity
  8
SK2
  6
CONTINUOUS
370
25
 62
7
100
AcDbLine
 10
-11.6875
 20
-13.85
 30
0.0
 11
-11.6875
 21
-16.65
 31
0.0
  0
LINE
  5
328
330
1F
100
AcDbEntity
  8
SK2
  6
CONTINUOUS
370
25
 62
7
100
AcDbLine
 10
-15.20279664108395
 20
17.25304776687039
 30
0.0
 11
-15.90990328084917
 21
17.96015440663561
 31
0.0
  0
LINE
  5
329
330
1F
100
AcDbEntity
  8
SK2
  6
CONTINUOUS
370
25
 62
7
100
AcDbLine
 10
1.025125562893219
 20
1.025125562893219
 30
0.0
 11
-15.20279635824124
 21
17.25304748402768
 31
0.0
  0
LINE
  5
32A
330
1F
100
AcDbEntity
  8
SK2
  6
CONTINUOUS
370
25
 62
7
100
AcDbLine
 10
-10.96015510543653
 20
22.9099025820482
 30
0.0
 11
5.974873738305833
 21
5.974873738305835
 31
0.0
  0
LINE
  5
32B
330
1F
100
AcDbEntity
  8
SK2
  6
CONTINUOUS
370
25
 62
7
100
AcDbLine
 10
-20.15254326086164
 20
12.30330086424999
 30
0.0
 11
-0.7247844477612482
 21
31.73105967735038
 31
0.0
  0
LINE
  5
32C
330
1F
100
AcDbEntity
  8
SK2
  6
CONTINUOUS
370
25
 62
7
100
AcDbLine
 10
-15.20279579255581
 20
17.25304833255582
 30
0.0
 11
-18.031222917302
 21
13.01040764543653
 31
0.0
  0
LINE
  5
32D
330
1F
100
AcDbEntity
  8
SK2
  6
CONTINUOUS
370
25
 62
7
100
AcDbLine
 10
-18.031222917302
 20
13.01040764543653
 30
0.0
 11
-19.4454364796751
 21
14.42462120780963
 31
0.0
  0
LINE
  5
32E
330
1F
100
AcDbEntity
  8
SK2
  6
CONTINUOUS
370
25
 62
7
100
AcDbLine
 10
-19.4454364796751
 20
14.42462120780963
 30
0.0
 11
-15.20279579255581
 21
17.25304833255582
 31
0.0
  0
LINE
  5
32F
330
1F
100
AcDbEntity
  8
SK2
  6
CONTINUOUS
370
25
 62
7
100
AcDbLine
 10
-18.20817817827408
 20
13.18736290640862
 30
0.0
 11
-17.32340187341368
 21
14.07213921126903
 31
0.0
  0
LINE
  5
330
330
1F
100
AcDbEntity
  8
SK2
  6
CONTINUOUS
370
25
 62
7
100
AcDbLine
 10
-18.42031021263005
 20
13.39949494076458
 30
0.0
 11
-16.47487373598982
 21
15.34493141740481
 31
0.0
  0
LINE
  5
331
330
1F
100
AcDbEntity
  8
SK2
  6
CONTINUOUS
370
25
 62
7
100
AcDbLine
 10
-18.63244224698601
 20
13.61162697512054
 30
0.0
 11
-15.62634559856597
 21
16.61772362354058
 31
0.0
  0
LINE
  5
332
330
1F
100
AcDbEntity
  8
SK2
  6
CONTINUOUS
370
25
 62
7
100
AcDbLine
 10
-18.84457428134198
 20
13.82375900947651
 30
0.0
 11
-15.84026328967638
 21
16.8280700011421
 31
0.0
  0
LINE
  5
333
330
1F
100
AcDbEntity
  8
SK2
  6
CONTINUOUS
370
25
 62
7
100
AcDbLine
 10
-19.05670631569794
 20
14.03589104383247
 30
0.0
 11
-17.11305549581214
 21
15.97954186371826
 31
0.0
  0
LINE
  5
334
330
1F
100
AcDbEntity
  8
SK2
  6
CONTINUOUS
370
25
 62
7
100
AcDbLine
 10
-19.2688383500539
 20
14.24802307818844
 30
0.0
 11
-18.38584770194795
 21
15.13101372629439
 31
0.0
  0
LINE
  5
335
330
1F
100
AcDbEntity
  8
SK2
  6
CONTINUOUS
370
25
 62
7
100
AcDbLine
 10
-19.31837417432606
 20
14.50932941137566
 30
0.0
 11
-17.94651471373598
 21
13.13746995078558
 31
0.0
  0
LINE
  5
336
330
1F
100
AcDbEntity
  8
SK2
  6
CONTINUOUS
370
25
 62
7
100
AcDbLine
 10
-19.0638157330989
 20
14.67903503886042
 30
0.0
 11
-17.77680908625121
 21
13.39202839201273
 31
0.0
  0
LINE
  5
337
330
1F
100
AcDbEntity
  8
SK2
  6
CONTINUOUS
370
25
 62
7
100
AcDbLine
 10
-18.80925729187175
 20
14.84874066634519
 30
0.0
 11
-17.60710345876644
 21
13.64658683323989
 31
0.0
  0
LINE
  5
338
330
1F
100
AcDbEntity
  8
SK2
  6
CONTINUOUS
370
25
 62
7
100
AcDbLine
 10
-18.55469885064459
 20
15.01844629382996
 30
0.0
 11
-17.43739783128166
 21
13.90114527446704
 31
0.0
  0
LINE
  5
339
330
1F
100
AcDbEntity
  8
SK2
  6
CONTINUOUS
370
25
 62
7
100
AcDbLine
 10
-18.30014040941743
 20
15.18815192131474
 30
0.0
 11
-17.26769220379689
 21
14.1557037156942
 31
0.0
  0
LINE
  5
33A
330
1F
100
AcDbEntity
  8
SK2
  6
CONTINUOUS
370
25
 62
7
100
AcDbLine
 10
-18.04558196819027
 20
15.35785754879951
 30
0.0
 11
-17.09798657631212
 21
14.41026215692136
 31
0.0
  0
LINE
  5
33B
330
1F
100
AcDbEntity
  8
SK2
  6
CONTINUOUS
370
25
 62
7
100
AcDbLine
 10
-17.79102352696312
 20
15.52756317628428
 30
0.0
 11
-16.92828094882735
 21
14.66482059814851
 31
0.0
  0
LINE
  5
33C
330
1F
100
AcDbEntity
  8
SK2
  6
CONTINUOUS
370
25
 62
7
100
AcDbLine
 10
-17.53646508573596
 20
15.69726880376905
 30
0.0
 11
-16.75857532134258
 21
14.91937903937567
 31
0.0
  0
LINE
  5
33D
330
1F
100
AcDbEntity
  8
SK2
  6
CONTINUOUS
370
25
 62
7
100
AcDbLine
 10
-17.2819066445088
 20
15.86697443125382
 30
0.0
 11
-16.58886969385781
 21
15.17393748060283
 31
0.0
  0
LINE
  5
33E
330
1F
100
AcDbEntity
  8
SK2
  6
CONTINUOUS
370
25
 62
7
100
AcDbLine
 10
-17.02734820328165
 20
16.03668005873859
 30
0.0
 11
-16.41916406637304
 21
15.42849592182998
 31
0.0
  0
LINE
  5
33F
330
1F
100
AcDbEntity
  8
SK2
  6
CONTINUOUS
370
25
 62
7
100
AcDbLine
 10
-16.77278976205449
 20
16.20638568622336
 30
0.0
 11
-16.24945843888827
 21
15.68305436305714
 31
0.0
  0
LINE
  5
340
330
1F
100
AcDbEntity
  8
SK2
  6
CONTINUOUS
370
25
 62
7
100
AcDbLine
 10
-16.51823132082733
 20
16.37609131370813
 30
0.0
 11
-16.07975281140349
 21
15.9376128042843
 31
0.0
  0
LINE
  5
341
330
1F
100
AcDbEntity
  8
SK2
  6
CONTINUOUS
370
25
 62
7
100
AcDbLine
 10
-16.26367287960018
 20
16.5457969411929
 30
0.0
 11
-15.91004718391872
 21
16.19217124551145
 31
0.0
  0
LINE
  5
342
330
1F
100
AcDbEntity
  8
SK2
  6
CONTINUOUS
370
25
 62
7
100
AcDbLine
 10
-16.00911443837302
 20
16.71550256867768
 30
0.0
 11
-15.74034155643395
 21
16.44672968673861
 31
0.0
  0
LINE
  5
343
330
1F
100
AcDbEntity
  8
SK2
  6
CONTINUOUS
370
25
 62
7
100
AcDbLine
 10
-15.75455599714587
 20
16.88520819616245
 30
0.0
 11
-15.57063592894918
 21
16.70128812796576
 31
0.0
  0
LINE
  5
344
330
1F
100
AcDbEntity
  8
SK2
  6
CONTINUOUS
370
25
 62
7
100
AcDbLine
 10
-15.49999755591871
 20
17.05491382364722
 30
0.0
 11
-15.40093030146441
 21
16.95584656919292
 31
0.0
  0
LINE
  5
345
330
1F
100
AcDbEntity
  8
SK2
  6
CONTINUOUS
370
25
 62
7
100
AcDbLine
 10
-15.24543911469155
 20
17.22461945113199
 30
0.0
 11
-15.23122467397964
 21
17.21040501042008
 31
0.0
  0
LINE
  5
346
330
1F
100
AcDbEntity
  8
SK2
  6
CONTINUOUS
370
25
 62
7
100
AcDbLine
 10
-10.25304832424998
 20
22.20279580086165
 30
0.0
 11
-7.424621199503788
 21
26.44543648798093
 31
0.0
  0
LINE
  5
347
330
1F
100
AcDbEntity
  8
SK2
  6
CONTINUOUS
370
25
 62
7
100
AcDbLine
 10
-7.424621199503788
 20
26.44543648798093
 30
0.0
 11
-6.010407637130692
 21
25.03122292560784
 31
0.0
  0
LINE
  5
348
330
1F
100
AcDbEntity
  8
SK2
  6
CONTINUOUS
370
25
 62
7
100
AcDbLine
 10
-6.010407637130692
 20
25.03122292560784
 30
0.0
 11
-10.25304832424998
 21
22.20279580086165
 31
0.0
  0
LINE
  5
349
330
1F
100
AcDbEntity
  8
SK2
  6
CONTINUOUS
370
25
 62
7
100
AcDbLine
 10
-7.072139202963135
 20
24.32340188171955
 30
0.0
 11
-6.187362898102767
 21
25.20817818657992
 31
0.0
  0
LINE
  5
34A
330
1F
100
AcDbEntity
  8
SK2
  6
CONTINUOUS
370
25
 62
7
100
AcDbLine
 10
-8.344931409098924
 20
23.47487374429569
 30
0.0
 11
-6.399494932458731
 21
25.42031022093588
 31
0.0
  0
LINE
  5
34B
330
1F
100
AcDbEntity
  8
SK2
  6
CONTINUOUS
370
25
 62
7
100
AcDbLine
 10
-9.617723615234718
 20
22.62634560687183
 30
0.0
 11
-6.611626966814697
 21
25.63244225529185
 31
0.0
  0
LINE
  5
34C
330
1F
100
AcDbEntity
  8
SK2
  6
CONTINUOUS
370
25
 62
7
100
AcDbLine
 10
-9.828069992836314
 20
22.84026329798215
 30
0.0
 11
-6.823759001170658
 21
25.84457428964781
 31
0.0
  0
LINE
  5
34D
330
1F
100
AcDbEntity
  8
SK2
  6
CONTINUOUS
370
25
 62
7
100
AcDbLine
 10
-8.979541855412448
 20
24.11305550411795
 30
0.0
 11
-7.035891035526626
 21
26.05670632400377
 31
0.0
  0
LINE
  5
34E
330
1F
100
AcDbEntity
  8
SK2
  6
CONTINUOUS
370
25
 62
7
100
AcDbLine
 10
-8.13101371798859
 20
25.38584771025373
 30
0.0
 11
-7.248023069882589
 21
26.26883835835974
 31
0.0
  0
LINE
  5
34F
330
1F
100
AcDbEntity
  8
SK2
  6
CONTINUOUS
370
25
 62
7
100
AcDbLine
 10
-10.1114841178363
 20
22.41514211048218
 30
0.0
 11
-10.04070201462945
 21
22.34436000727533
 31
0.0
  0
LINE
  5
350
330
1F
100
AcDbEntity
  8
SK2
  6
CONTINUOUS
370
25
 62
7
100
AcDbLine
 10
-9.941778490351526
 20
22.66970055170933
 30
0.0
 11
-9.786143573402299
 21
22.51406563476011
 31
0.0
  0
LINE
  5
351
330
1F
100
AcDbEntity
  8
SK2
  6
CONTINUOUS
370
25
 62
7
100
AcDbLine
 10
-9.772072862866755
 20
22.92425899293649
 30
0.0
 11
-9.53158513217514
 21
22.68377126224487
 31
0.0
  0
LINE
  5
352
330
1F
100
AcDbEntity
  8
SK2
  6
CONTINUOUS
370
25
 62
7
100
AcDbLine
 10
-9.602367235381983
 20
23.17881743416365
 30
0.0
 11
-9.277026690947984
 21
22.85347688972965
 31
0.0
  0
LINE
  5
353
330
1F
100
AcDbEntity
  8
SK2
  6
CONTINUOUS
370
25
 62
7
100
AcDbLine
 10
-9.432661607897213
 20
23.43337587539081
 30
0.0
 11
-9.022468249720827
 21
23.02318251721442
 31
0.0
  0
LINE
  5
354
330
1F
100
AcDbEntity
  8
SK2
  6
CONTINUOUS
370
25
 62
7
100
AcDbLine
 10
-9.262955980412439
 20
23.68793431661796
 30
0.0
 11
-8.76790980849367
 21
23.19288814469919
 31
0.0
  0
LINE
  5
355
330
1F
100
AcDbEntity
  8
SK2
  6
CONTINUOUS
370
25
 62
7
100
AcDbLine
 10
-9.093250352927669
 20
23.94249275784512
 30
0.0
 11
-8.513351367266514
 21
23.36259377218396
 31
0.0
  0
LINE
  5
356
330
1F
100
AcDbEntity
  8
SK2
  6
CONTINUOUS
370
25
 62
7
100
AcDbLine
 10
-8.923544725442898
 20
24.19705119907227
 30
0.0
 11
-8.258792926039359
 21
23.53229939966873
 31
0.0
  0
LINE
  5
357
330
1F
100
AcDbEntity
  8
SK2
  6
CONTINUOUS
370
25
 62
7
100
AcDbLine
 10
-8.753839097958128
 20
24.45160964029943
 30
0.0
 11
-8.0042344848122
 21
23.7020050271535
 31
0.0
  0
LINE
  5
358
330
1F
100
AcDbEntity
  8
SK2
  6
CONTINUOUS
370
25
 62
7
100
AcDbLine
 10
-8.584133470473356
 20
24.70616808152659
 30
0.0
 11
-7.749676043585042
 21
23.87171065463827
 31
0.0
  0
LINE
  5
359
330
1F
100
AcDbEntity
  8
SK2
  6
CONTINUOUS
370
25
 62
7
100
AcDbLine
 10
-8.414427842988585
 20
24.96072652275375
 30
0.0
 11
-7.495117602357886
 21
24.04141628212305
 31
0.0
  0
LINE
  5
35A
330
1F
100
AcDbEntity
  8
SK2
  6
CONTINUOUS
370
25
 62
7
100
AcDbLine
 10
-8.244722215503813
 20
25.2152849639809
 30
0.0
 11
-7.240559161130729
 21
24.21112190960782
 31
0.0
  0
LINE
  5
35B
330
1F
100
AcDbEntity
  8
SK2
  6
CONTINUOUS
370
25
 62
7
100
AcDbLine
 10
-8.075016588019043
 20
25.46984340520806
 30
0.0
 11
-6.986000719903572
 21
24.38082753709259
 31
0.0
  0
LINE
  5
35C
330
1F
100
AcDbEntity
  8
SK2
  6
CONTINUOUS
370
25
 62
7
100
AcDbLine
 10
-7.905310960534271
 20
25.72440184643521
 30
0.0
 11
-6.731442278676417
 21
24.55053316457736
 31
0.0
  0
LINE
  5
35D
330
1F
100
AcDbEntity
  8
SK2
  6
CONTINUOUS
370
25
 62
7
100
AcDbLine
 10
-7.7356053330495
 20
25.97896028766237
 30
0.0
 11
-6.476883837449259
 21
24.72023879206213
 31
0.0
  0
LINE
  5
35E
330
1F
100
AcDbEntity
  8
SK2
  6
CONTINUOUS
370
25
 62
7
100
AcDbLine
 10
-7.565899705564728
 20
26.23351872888953
 30
0.0
 11
-6.222325396222103
 21
24.8899444195469
 31
0.0
  0
TEXT
  5
35F
330
1F
100
AcDbEntity
  8
SK2
  6
CONTINUOUS
370
25
 62
7
100
AcDbText
 10
-3.998099589003975
 20
30.57906487966729
 30
0.0
 40
3.500000000000001
  1
7
 50
44.99999999999999
 72
     1
 11
-3.173141677619669
 21
31.4040227910516
 31
0.0
100
AcDbText
  0
CIRCLE
  5
360
330
1F
100
AcDbEntity
  8
SK2
  6
CONTINUOUS
370
25
 62
7
100
AcDbCircle
 10
-6.761708592141398
 20
30.29032961068279
 30
0.0
 40
1.400000000000001
  0
LINE
  5
361
330
1F
100
AcDbEntity
  8
SK2
  6
CONTINUOUS
370
25
 62
7
100
AcDbLine
 10
-6.761708592141398
 20
28.31043062336046
 30
0.0
 11
-6.761708592141398
 21
32.27022859800512
 31
0.0
  0
LINE
  5
362
330
1F
100
AcDbEntity
  8
SK2
  6
CONTINUOUS
370
25
 62
7
100
AcDbLine
 10
6.85355339
 20
0.14644661
 30
0.0
 11
14.10139789716212
 21
-7.101397897162108
 31
0.0
  0
LINE
  5
363
330
1F
100
AcDbEntity
  8
SK2
  6
CONTINUOUS
370
25
 62
7
100
AcDbLine
 10
14.10139789716212
 20
-7.101397897162108
 30
0.0
 11
27.52639789716212
 21
-7.101397897162108
 31
0.0
  0
LINE
  5
364
330
1F
100
AcDbEntity
  8
SK2
  6
CONTINUOUS
370
25
 62
7
100
AcDbLine
 10
6.85355339
 20
0.14644661
 30
0.0
 11
6.499999999406726
 21
0.5000000005932738
 31
0.0
  0
LINE
  5
365
330
1F
100
AcDbEntity
  8
SK2
  6
CONTINUOUS
370
25
 62
7
100
AcDbLine
 10
6.85355339
 20
0.14644661
 30
0.0
 11
11.09619407711929
 21
-2.681980514746187
 31
0.0
  0
LINE
  5
366
330
1F
100
AcDbEntity
  8
SK2
  6
CONTINUOUS
370
25
 62
7
100
AcDbLine
 10
11.09619407711929
 20
-2.681980514746187
 30
0.0
 11
9.681980514746193
 21
-4.096194077119283
 31
0.0
  0
LINE
  5
367
330
1F
100
AcDbEntity
  8
SK2
  6
CONTINUOUS
370
25
 62
7
100
AcDbLine
 10
9.681980514746193
 20
-4.096194077119283
 30
0.0
 11
6.85355339
 21
0.14644661
 31
0.0
  0
LINE
  5
368
330
1F
100
AcDbEntity
  8
SK2
  6
CONTINUOUS
370
25
 62
7
100
AcDbLine
 10
9.536397862000001
 20
-3.877820097999995
 30
0.0
 11
10.877820098
 21
-2.536397861999998
 31
0.0
  0
LINE
  5
369
330
1F
100
AcDbEntity
  8
SK2
  6
CONTINUOUS
370
25
 62
7
100
AcDbLine
 10
9.366692234515229
 20
-3.623261656772838
 30
0.0
 11
10.62326165677284
 21
-2.366692234515224
 31
0.0
  0
LINE
  5
36A
330
1F
100
AcDbEntity
  8
SK2
  6
CONTINUOUS
370
25
 62
7
100
AcDbLine
 10
9.196986607030457
 20
-3.368703215545683
 30
0.0
 11
10.36870321554568
 21
-2.196986607030453
 31
0.0
  0
LINE
  5
36B
330
1F
100
AcDbEntity
  8
SK2
  6
CONTINUOUS
370
25
 62
7
100
AcDbLine
 10
9.027280979545687
 20
-3.114144774318525
 30
0.0
 11
10.11414477431853
 21
-2.027280979545683
 31
0.0
  0
LINE
  5
36C
330
1F
100
AcDbEntity
  8
SK2
  6
CONTINUOUS
370
25
 62
7
100
AcDbLine
 10
8.857575352060914
 20
-2.85958633309137
 30
0.0
 11
9.859586333091372
 21
-1.857575352060913
 31
0.0
  0
LINE
  5
36D
330
1F
100
AcDbEntity
  8
SK2
  6
CONTINUOUS
370
25
 62
7
100
AcDbLine
 10
8.687869724576144
 20
-2.605027891864212
 30
0.0
 11
9.605027891864214
 21
-1.687869724576142
 31
0.0
  0
LINE
  5
36E
330
1F
100
AcDbEntity
  8
SK2
  6
CONTINUOUS
370
25
 62
7
100
AcDbLine
 10
8.518164097091372
 20
-2.350469450637057
 30
0.0
 11
9.350469450637057
 21
-1.518164097091372
 31
0.0
  0
LINE
  5
36F
330
1F
100
AcDbEntity
  8
SK2
  6
CONTINUOUS
370
25
 62
7
100
AcDbLine
 10
8.348458469606602
 20
-2.0959110094099
 30
0.0
 11
9.095911009409901
 21
-1.3484584696066
 31
0.0
  0
LINE
  5
370
330
1F
100
AcDbEntity
  8
SK2
  6
CONTINUOUS
370
25
 62
7
100
AcDbLine
 10
8.17875284212183
 20
-1.841352568182744
 30
0.0
 11
8.841352568182744
 21
-1.178752842121829
 31
0.0
  0
LINE
  5
371
330
1F
100
AcDbEntity
  8
SK2
  6
CONTINUOUS
370
25
 62
7
100
AcDbLine
 10
8.009047214637059
 20
-1.586794126955585
 30
0.0
 11
8.586794126955587
 21
-1.009047214637057
 31
0.0
  0
LINE
  5
372
330
1F
100
AcDbEntity
  8
SK2
  6
CONTINUOUS
370
25
 62
7
100
AcDbLine
 10
7.839341587152288
 20
-1.332235685728429
 30
0.0
 11
8.332235685728431
 21
-0.8393415871522851
 31
0.0
  0
LINE
  5
373
330
1F
100
AcDbEntity
  8
SK2
  6
CONTINUOUS
370
25
 62
7
100
AcDbLine
 10
7.669635959667517
 20
-1.077677244501272
 30
0.0
 11
8.077677244501274
 21
-0.6696359596675148
 31
0.0
  0
LINE
  5
374
330
1F
100
AcDbEntity
  8
SK2
  6
CONTINUOUS
370
25
 62
7
100
AcDbLine
 10
7.499930332182744
 20
-0.8231188032741157
 30
0.0
 11
7.823118803274116
 21
-0.4999303321827435
 31
0.0
  0
LINE
  5
375
330
1F
100
AcDbEntity
  8
SK2
  6
CONTINUOUS
370
25
 62
7
100
AcDbLine
 10
7.330224704697972
 20
-0.5685603620469593
 30
0.0
 11
7.568560362046958
 21
-0.3302247046979732
 31
0.0
  0
LINE
  5
376
330
1F
100
AcDbEntity
  8
SK2
  6
CONTINUOUS
370
25
 62
7
100
AcDbLine
 10
7.160519077213203
 20
-0.3140019208198019
 30
0.0
 11
7.314001920819803
 21
-0.1605190772132019
 31
0.0
  0
LINE
  5
377
330
1F
100
AcDbEntity
  8
SK2
  6
CONTINUOUS
370
25
 62
7
100
AcDbLine
 10
6.99081344972843
 20
-0.0594434795926464
 30
0.0
 11
7.059443479592646
 21
0.0091865502715702
 31
0.0
  0
LINE
  5
378
330
1F
100
AcDbEntity
  8
SK2
  6
CONTINUOUS
370
25
 62
7
100
AcDbLine
 10
8.974159466066
 20
-3.034462504098995
 30
0.0
 11
9.858935776916242
 21
-3.919238814949237
 31
0.0
  0
LINE
  5
379
330
1F
100
AcDbEntity
  8
SK2
  6
CONTINUOUS
370
25
 62
7
100
AcDbLine
 10
8.12563132864214
 20
-1.761670297963207
 30
0.0
 11
10.07106781127221
 21
-3.707106780593271
 31
0.0
  0
LINE
  5
37A
330
1F
100
AcDbEntity
  8
SK2
  6
CONTINUOUS
370
25
 62
7
100
AcDbLine
 10
7.277103191218282
 20
-0.4888780918274218
 30
0.0
 11
10.28319984562817
 21
-3.494974746237308
 31
0.0
  0
LINE
  5
37B
330
1F
100
AcDbEntity
  8
SK2
  6
CONTINUOUS
370
25
 62
7
100
AcDbLine
 10
7.491020894308365
 20
-0.2785317262055758
 30
0.0
 11
10.49533187998413
 21
-3.282842711881344
 31
0.0
  0
LINE
  5
37C
330
1F
100
AcDbEntity
  8
SK2
  6
CONTINUOUS
370
25
 62
7
100
AcDbLine
 10
8.763813100444148
 20
-1.12705986362943
 30
0.0
 11
10.7074639143401
 21
-3.07071067752538
 31
0.0
  0
LINE
  5
37D
330
1F
100
AcDbEntity
  8
SK2
  6
CONTINUOUS
370
25
 62
7
100
AcDbLine
 10
10.03660530657993
 20
-1.975588001053284
 30
0.0
 11
10.91959594869606
 21
-2.858578643169416
 31
0.0
  0
TEXT
  5
37E
330
1F
100
AcDbEntity
  8
SK2
  6
CONTINUOUS
370
25
 62
7
100
AcDbText
 10
15.85556456382878
 20
-5.601397897162107
 30
0.0
 40
3.5
  1
R0.5
 72
     1
 11
20.81389789716212
 21
-5.601397897162107
 31
0.0
100
AcDbText
  0
ARC
  5
37F
330
1F
100
AcDbEntity
  8
SK6
  6
CONTINUOUS
370
25
 62
5
100
AcDbCircle
 10
0.7613710083765058
 20
-43.34523475338786
 30
0.0
 40
2.760489128492208
100
AcDbArc
 50
338.9379403434233
 51
90.44457437511382
  0
LINE
  5
380
330
1F
100
AcDbEntity
  8
SK6
  6
CONTINUOUS
370
25
 62
5
100
AcDbLine
 10
0.7399517969598258
 20
-40.58482872421281
 30
0.0
 11
0.7399517969598258
 21
-41.68788735613464
 31
0.0
  0
ARC
  5
381
330
1F
100
AcDbEntity
  8
SK6
  6
CONTINUOUS
370
25
 62
5
100
AcDbCircle
 10
0.7504980293691587
 20
-43.36522824566821
 30
0.0
 40
1.677374043771784
100
AcDbArc
 50
243.4214706017865
 51
90.3602408122611
  0
ARC
  5
382
330
1F
100
AcDbEntity
  8
SK6
  6
CONTINUOUS
370
25
 62
5
100
AcDbCircle
 10
3.272748896849577
 20
-42.9338209921556
 30
0.0
 40
3.800217030022756
100
AcDbArc
 50
210.548373128854
 51
236.9780169366801
  0
LINE
  5
383
330
1F
100
AcDbEntity
  8
SK6
  6
CONTINUOUS
370
25
 62
5
100
AcDbLine
 10
1.201779685124864
 20
-46.12015681867535
 30
0.0
 11
5.34371996742671
 21
-46.12015681867535
 31
0.0
  0
ARC
  5
384
330
1F
100
AcDbEntity
  8
SK6
  6
CONTINUOUS
370
25
 62
5
100
AcDbCircle
 10
3.272750838772569
 20
-42.93382109373459
 30
0.0
 40
3.800216899582476
100
AcDbArc
 50
303.0219828477958
 51
326.3732153033476
  0
LINE
  5
385
330
1F
100
AcDbEntity
  8
SK6
  6
CONTINUOUS
370
25
 62
5
100
AcDbLine
 10
6.437048751357221
 20
-45.0383084907709
 30
0.0
 11
3.079750705754615
 21
-45.0383084907709
 31
0.0
  0
LINE
  5
386
330
1F
100
AcDbEntity
  8
SK6
  6
CONTINUOUS
370
25
 62
5
100
AcDbLine
 10
3.079750705754615
 20
-45.0383084907709
 30
0.0
 11
6.99961009771987
 21
-43.67690729641694
 31
0.0
  0
ARC
  5
387
330
1F
100
AcDbEntity
  8
SK6
  6
CONTINUOUS
370
25
 62
5
100
AcDbCircle
 10
3.272751561572103
 20
-42.9338216048594
 30
0.0
 40
3.800217216614731
100
AcDbArc
 50
348.7238644184695
 51
53.46910512608832
  0
LINE
  5
388
330
1F
100
AcDbEntity
  8
SK6
  6
CONTINUOUS
370
25
 62
5
100
AcDbLine
 10
5.534854245385451
 20
-39.88021024429968
 30
0.0
 11
3.337439478827362
 21
-44.33729873507058
 31
0.0
  0
ARC
  5
389
330
1F
100
AcDbEntity
  8
SK6
  6
CONTINUOUS
370
25
 62
5
100
AcDbCircle
 10
27.16138200837651
 20
-24.54524575338786
 30
0.0
 40
2.760489128492207
100
AcDbArc
 50
338.9379403434233
 51
90.44457437511385
  0
LINE
  5
38A
330
1F
100
AcDbEntity
  8
SK6
  6
CONTINUOUS
370
25
 62
5
100
AcDbLine
 10
27.13996279695982
 20
-21.78483972421281
 30
0.0
 11
27.13996279695982
 21
-22.88789835613463
 31
0.0
  0
ARC
  5
38B
330
1F
100
AcDbEntity
  8
SK6
  6
CONTINUOUS
370
25
 62
5
100
AcDbCircle
 10
27.15050902936916
 20
-24.56523924566821
 30
0.0
 40
1.677374043771784
100
AcDbArc
 50
243.4214706017865
 51
90.36024081226107
  0
ARC
  5
38C
330
1F
100
AcDbEntity
  8
SK6
  6
CONTINUOUS
370
25
 62
5
100
AcDbCircle
 10
29.67275989684958
 20
-24.13383199215561
 30
0.0
 40
3.800217030022754
100
AcDbArc
 50
210.5483731288539
 51
236.97801693668
  0
LINE
  5
38D
330
1F
100
AcDbEntity
  8
SK6
  6
CONTINUOUS
370
25
 62
5
100
AcDbLine
 10
27.60179068512486
 20
-27.32016781867535
 30
0.0
 11
31.74373096742671
 21
-27.32016781867535
 31
0.0
  0
ARC
  5
38E
330
1F
100
AcDbEntity
  8
SK6
  6
CONTINUOUS
370
25
 62
5
100
AcDbCircle
 10
29.67276183877257
 20
-24.1338320937346
 30
0.0
 40
3.80021689958247
100
AcDbArc
 50
303.0219828477959
 51
326.3732153033475
  0
LINE
  5
38F
330
1F
100
AcDbEntity
  8
SK6
  6
CONTINUOUS
370
25
 62
5
100
AcDbLine
 10
32.83705975135722
 20
-26.2383194907709
 30
0.0
 11
29.47976170575461
 21
-26.2383194907709
 31
0.0
  0
LINE
  5
390
330
1F
100
AcDbEntity
  8
SK6
  6
CONTINUOUS
370
25
 62
5
100
AcDbLine
 10
29.47976170575461
 20
-26.2383194907709
 30
0.0
 11
33.39962109771987
 21
-24.87691829641694
 31
0.0
  0
ARC
  5
391
330
1F
100
AcDbEntity
  8
SK6
  6
CONTINUOUS
370
25
 62
5
100
AcDbCircle
 10
29.6727625615721
 20
-24.1338326048594
 30
0.0
 40
3.800217216614734
100
AcDbArc
 50
348.7238644184696
 51
53.46910512608841
  0
LINE
  5
392
330
1F
100
AcDbEntity
  8
SK6
  6
CONTINUOUS
370
25
 62
5
100
AcDbLine
 10
31.93486524538545
 20
-21.08022124429967
 30
0.0
 11
29.73745047882736
 21
-25.53730973507058
 31
0.0
  0
ENDSEC
  0
SECTION
  2
OBJECTS
  0
DICTIONARY
  5
C
330
0
100
AcDbDictionary
281
     1
  3
ACAD_GROUP
350
D
  3
ACAD_LAYOUT
350
1A
  3
ACAD_MATERIAL
350
3B
  3
ACAD_MLEADERSTYLE
350
395
  3
ACAD_MLINESTYLE
350
17
  3
ACAD_PLOTSETTINGS
350
19
  3
ACAD_PLOTSTYLENAME
350
E
  3
ACAD_SCALELIST
350
A1
  3
ACAD_VISUALSTYLE
350
2A
  3
AcDbVariableDictionary
350
393
  0
DICTIONARY
  5
D
102
{ACAD_REACTORS
330
C
102
}
330
C
100
AcDbDictionary
281
     1
  0
DICTIONARY
  5
1A
102
{ACAD_REACTORS
330
C
102
}
330
C
100
AcDbDictionary
281
     1
  3
Layout1
350
1E
  3
Layout2
350
26
  3
Model
350
22
  0
DICTIONARY
  5
3B
102
{ACAD_REACTORS
330
C
102
}
330
C
100
AcDbDictionary
281
     1
  3
ByBlock
350
3D
  3
ByLayer
350
3C
  3
Global
350
3E
  0
DICTIONARY
  5
395
102
{ACAD_REACTORS
330
C
102
}
330
C
100
AcDbDictionary
281
     1
  0
DICTIONARY
  5
17
102
{ACAD_REACTORS
330
C
102
}
330
C
100
AcDbDictionary
281
     1
  3
Standard
350
18
  0
DICTIONARY
  5
19
102
{ACAD_REACTORS
330
C
102
}
330
C
100
AcDbDictionary
281
     1
  0
ACDBDICTIONARYWDFLT
  5
E
102
{ACAD_REACTORS
330
C
102
}
330
C
100
AcDbDictionary
281
     1
  3
Normal
350
F
100
AcDbDictionaryWithDefault
340
F
  0
DICTIONARY
  5
A1
102
{ACAD_REACTORS
330
C
102
}
330
C
100
AcDbDictionary
281
     1
  3
A0
350
A2
  3
A1
350
A3
  3
A2
350
A4
  3
A3
350
A5
  3
A4
350
A6
  3
A5
350
A7
  3
A6
350
A8
  3
A7
350
A9
  3
A8
350
AA
  3
A9
350
AB
  3
B0
350
AC
  3
B1
350
AD
  3
B2
350
AE
  3
B3
350
AF
  3
B4
350
B0
  3
B5
350
B1
  3
B6
350
B2
  3
B7
350
B3
  3
B8
350
B4
  3
B9
350
B5
  3
C0
350
B6
  3
C1
350
B7
  3
C2
350
B8
  3
C3
350
B9
  3
C4
350
BA
  3
C5
350
BB
  3
C6
350
BC
  3
C7
350
BD
  3
C8
350
BE
  3
C9
350
BF
  3
D0
350
C0
  3
D1
350
C1
  3
D2
350
C2
  0
DICTIONARY
  5
2A
102
{ACAD_REACTORS
330
C
102
}
330
C
100
AcDbDictionary
281
     1
  3
2dWireframe
350
2F
  3
3D Hidden
350
31
  3
3dWireframe
350
30
  3
Basic
350
32
  3
Brighten
350
36
  3
ColorChange
350
3A
  3
Conceptual
350
34
  3
Dim
350
35
  3
Facepattern
350
39
  3
Flat
350
2B
  3
FlatWithEdges
350
2C
  3
Gouraud
350
2D
  3
GouraudWithEdges
350
2E
  3
Linepattern
350
38
  3
Realistic
350
33
  3
Thicken
350
37
  0
DICTIONARY
  5
393
102
{ACAD_REACTORS
330
C
102
}
330
C
100
AcDbDictionary
281
     1
  3
CANNOSCALE
350
398
  3
DIMASSOC
350
399
  3
HIDETEXT
350
39A
  3
PSOLHEIGHT
350
397
  3
PSOLWIDTH
350
396
  0
LAYOUT
  5
1E
102
{ACAD_REACTORS
330
1A
102
}
330
1A
100
AcDbPlotSettings
  1

  2
none_device
  4

  6

 40
0.0
 41
0.0
 42
0.0
 43
0.0
 44
0.0
 45
0.0
 46
0.0
 47
0.0
 48
0.0
 49
0.0
140
0.0
141
0.0
142
1.0
143
1.0
 70
   688
 72
     0
 73
     0
 74
     5
  7

 75
    16
147
1.0
148
0.0
149
0.0
100
AcDbLayout
  1
Layout1
 70
     1
 71
     1
 10
0.0
 20
0.0
 11
420.0
 21
297.0
 12
0.0
 22
0.0
 32
0.0
 14
1.000000000000000E+20
 24
1.000000000000000E+20
 34
1.000000000000000E+20
 15
-1.000000000000000E+20
 25
-1.000000000000000E+20
 35
-1.000000000000000E+20
146
0.0
 13
0.0
 23
0.0
 33
0.0
 16
1.0
 26
0.0
 36
0.0
 17
0.0
 27
1.0
 37
0.0
 76
     0
330
1B
  0
LAYOUT
  5
26
102
{ACAD_REACTORS
330
1A
102
}
330
1A
100
AcDbPlotSettings
  1

  2
none_device
  4

  6

 40
0.0
 41
0.0
 42
0.0
 43
0.0
 44
0.0
 45
0.0
 46
0.0
 47
0.0
 48
0.0
 49
0.0
140
0.0
141
0.0
142
1.0
143
1.0
 70
   688
 72
     0
 73
     0
 74
     5
  7

 75
    16
147
1.0
148
0.0
149
0.0
100
AcDbLayout
  1
Layout2
 70
     1
 71
     2
 10
0.0
 20
0.0
 11
0.0
 21
0.0
 12
0.0
 22
0.0
 32
0.0
 14
0.0
 24
0.0
 34
0.0
 15
0.0
 25
0.0
 35
0.0
146
0.0
 13
0.0
 23
0.0
 33
0.0
 16
1.0
 26
0.0
 36
0.0
 17
0.0
 27
1.0
 37
0.0
 76
     0
330
23
  0
LAYOUT
  5
22
102
{ACAD_REACTORS
330
1A
102
}
330
1A
100
AcDbPlotSettings
  1

  2
none_device
  4

  6

 40
0.0
 41
0.0
 42
0.0
 43
0.0
 44
0.0
 45
0.0
 46
0.0
 47
0.0
 48
0.0
 49
0.0
140
0.0
141
0.0
142
1.0
143
1.0
 70
  1712
 72
     0
 73
     0
 74
     0
  7

 75
     0
147
1.0
148
0.0
149
0.0
100
AcDbLayout
  1
Model
 70
     1
 71
     0
 10
0.0
 20
0.0
 11
420.0
 21
297.0
 12
0.0
 22
0.0
 32
0.0
 14
0.0
 24
0.0
 34
0.0
 15
25.0
 25
35.0
 35
0.0
146
0.0
 13
0.0
 23
0.0
 33
0.0
 16
1.0
 26
0.0
 36
0.0
 17
0.0
 27
1.0
 37
0.0
 76
     0
330
1F
331
29
  0
MATERIAL
  5
3D
102
{ACAD_REACTORS
330
3B
102
}
102
{ACAD_XDICTIONARY
360
3BD
102
}
330
3B
100
AcDbMaterial
  1
ByBlock
  0
MATERIAL
  5
3C
102
{ACAD_REACTORS
330
3B
102
}
102
{ACAD_XDICTIONARY
360
3BB
102
}
330
3B
100
AcDbMaterial
  1
ByLayer
  0
MATERIAL
  5
3E
102
{ACAD_REACTORS
330
3B
102
}
102
{ACAD_XDICTIONARY
360
3BF
102
}
330
3B
100
AcDbMaterial
  1
Global
  0
MLINESTYLE
  5
18
102
{ACAD_REACTORS
330
17
102
}
330
17
100
AcDbMlineStyle
  2
Standard
 70
     0
  3

 62
   256
 51
90.0
 52
90.0
 71
     2
 49
0.5
 62
   256
  6
BYLAYER
 49
-0.5
 62
   256
  6
BYLAYER
  0
ACDBPLACEHOLDER
  5
F
102
{ACAD_REACTORS
330
E
102
}
330
E
  0
SCALE
  5
A2
102
{ACAD_REACTORS
330
A1
102
}
330
A1
100
AcDbScale
 70
     0
300
1:1
140
1.0
141
1.0
290
     1
  0
SCALE
  5
A3
102
{ACAD_REACTORS
330
A1
102
}
330
A1
100
AcDbScale
 70
     0
300
1:2
140
1.0
141
2.0
290
     0
  0
SCALE
  5
A4
102
{ACAD_REACTORS
330
A1
102
}
330
A1
100
AcDbScale
 70
     0
300
1:4
140
1.0
141
4.0
290
     0
  0
SCALE
  5
A5
102
{ACAD_REACTORS
330
A1
102
}
330
A1
100
AcDbScale
 70
     0
300
1:5
140
1.0
141
5.0
290
     0
  0
SCALE
  5
A6
102
{ACAD_REACTORS
330
A1
102
}
330
A1
100
AcDbScale
 70
     0
300
1:8
140
1.0
141
8.0
290
     0
  0
SCALE
  5
A7
102
{ACAD_REACTORS
330
A1
102
}
330
A1
100
AcDbScale
 70
     0
300
1:10
140
1.0
141
10.0
290
     0
  0
SCALE
  5
A8
102
{ACAD_REACTORS
330
A1
102
}
330
A1
100
AcDbScale
 70
     0
300
1:16
140
1.0
141
16.0
290
     0
  0
SCALE
  5
A9
102
{ACAD_REACTORS
330
A1
102
}
330
A1
100
AcDbScale
 70
     0
300
1:20
140
1.0
141
20.0
290
     0
  0
SCALE
  5
AA
102
{ACAD_REACTORS
330
A1
102
}
330
A1
100
AcDbScale
 70
     0
300
1:30
140
1.0
141
30.0
290
     0
  0
SCALE
  5
AB
102
{ACAD_REACTORS
330
A1
102
}
330
A1
100
AcDbScale
 70
     0
300
1:40
140
1.0
141
40.0
290
     0
  0
SCALE
  5
AC
102
{ACAD_REACTORS
330
A1
102
}
330
A1
100
AcDbScale
 70
     0
300
1:50
140
1.0
141
50.0
290
     0
  0
SCALE
  5
AD
102
{ACAD_REACTORS
330
A1
102
}
330
A1
100
AcDbScale
 70
     0
300
1:100
140
1.0
141
100.0
290
     0
  0
SCALE
  5
AE
102
{ACAD_REACTORS
330
A1
102
}
330
A1
100
AcDbScale
 70
     0
300
2:1
140
2.0
141
1.0
290
     0
  0
SCALE
  5
AF
102
{ACAD_REACTORS
330
A1
102
}
330
A1
100
AcDbScale
 70
     0
300
4:1
140
4.0
141
1.0
290
     0
  0
SCALE
  5
B0
102
{ACAD_REACTORS
330
A1
102
}
330
A1
100
AcDbScale
 70
     0
300
8:1
140
8.0
141
1.0
290
     0
  0
SCALE
  5
B1
102
{ACAD_REACTORS
330
A1
102
}
330
A1
100
AcDbScale
 70
     0
300
10:1
140
10.0
141
1.0
290
     0
  0
SCALE
  5
B2
102
{ACAD_REACTORS
330
A1
102
}
330
A1
100
AcDbScale
 70
     0
300
100:1
140
100.0
141
1.0
290
     0
  0
SCALE
  5
B3
102
{ACAD_REACTORS
330
A1
102
}
330
A1
100
AcDbScale
 70
     0
300
1/128" = 1'-0"
140
0.0078125
141
12.0
290
     0
  0
SCALE
  5
B4
102
{ACAD_REACTORS
330
A1
102
}
330
A1
100
AcDbScale
 70
     0
300
1/64" = 1'-0"
140
0.015625
141
12.0
290
     0
  0
SCALE
  5
B5
102
{ACAD_REACTORS
330
A1
102
}
330
A1
100
AcDbScale
 70
     0
300
1/32" = 1'-0"
140
0.03125
141
12.0
290
     0
  0
SCALE
  5
B6
102
{ACAD_REACTORS
330
A1
102
}
330
A1
100
AcDbScale
 70
     0
300
1/16" = 1'-0"
140
0.0625
141
12.0
290
     0
  0
SCALE
  5
B7
102
{ACAD_REACTORS
330
A1
102
}
330
A1
100
AcDbScale
 70
     0
300
3/32" = 1'-0"
140
0.09375
141
12.0
290
     0
  0
SCALE
  5
B8
102
{ACAD_REACTORS
330
A1
102
}
330
A1
100
AcDbScale
 70
     0
300
1/8" = 1'-0"
140
0.125
141
12.0
290
     0
  0
SCALE
  5
B9
102
{ACAD_REACTORS
330
A1
102
}
330
A1
100
AcDbScale
 70
     0
300
3/16" = 1'-0"
140
0.1875
141
12.0
290
     0
  0
SCALE
  5
BA
102
{ACAD_REACTORS
330
A1
102
}
330
A1
100
AcDbScale
 70
     0
300
1/4" = 1'-0"
140
0.25
141
12.0
290
     0
  0
SCALE
  5
BB
102
{ACAD_REACTORS
330
A1
102
}
330
A1
100
AcDbScale
 70
     0
300
3/8" = 1'-0"
140
0.375
141
12.0
290
     0
  0
SCALE
  5
BC
102
{ACAD_REACTORS
330
A1
102
}
330
A1
100
AcDbScale
 70
     0
300
1/2" = 1'-0"
140
0.5
141
12.0
290
     0
  0
SCALE
  5
BD
102
{ACAD_REACTORS
330
A1
102
}
330
A1
100
AcDbScale
 70
     0
300
3/4" = 1'-0"
140
0.75
141
12.0
290
     0
  0
SCALE
  5
BE
102
{ACAD_REACTORS
330
A1
102
}
330
A1
100
AcDbScale
 70
     0
300
1" = 1'-0"
140
1.0
141
12.0
290
     0
  0
SCALE
  5
BF
102
{ACAD_REACTORS
330
A1
102
}
330
A1
100
AcDbScale
 70
     0
300
1-1/2" = 1'-0"
140
1.5
141
12.0
290
     0
  0
SCALE
  5
C0
102
{ACAD_REACTORS
330
A1
102
}
330
A1
100
AcDbScale
 70
     0
300
3" = 1'-0"
140
3.0
141
12.0
290
     0
  0
SCALE
  5
C1
102
{ACAD_REACTORS
330
A1
102
}
330
A1
100
AcDbScale
 70
     0
300
6" = 1'-0"
140
6.0
141
12.0
290
     0
  0
SCALE
  5
C2
102
{ACAD_REACTORS
330
A1
102
}
330
A1
100
AcDbScale
 70
     0
300
1'-0" = 1'-0"
140
12.0
141
12.0
290
     0
  0
VISUALSTYLE
  5
2F
102
{ACAD_REACTORS
330
2A
102
}
102
{ACAD_XDICTIONARY
360
3A3
102
}
330
2A
100
AcDbVisualStyle
  2
2dWireframe
 70
     4
 71
     0
 72
     2
 73
     0
 90
        0
 40
-0.6
 41
-30.0
 62
     5
 63
     7
 74
     1
 91
        4
 64
     7
 65
   257
 75
     1
175
     1
 42
1.0
 92
        0
 66
   257
 43
1.0
 76
     1
 77
     6
 78
     2
 67
     7
 79
     5
170
     0
171
     0
290
     0
174
     0
 93
        1
 44
0.0
173
     0
291
     0
 45
0.0
1001
ACAD
1000
AcDbSavedByObjectVersion
1070
     0
  0
VISUALSTYLE
  5
31
102
{ACAD_REACTORS
330
2A
102
}
102
{ACAD_XDICTIONARY
360
3A7
102
}
330
2A
100
AcDbVisualStyle
  2
3D Hidden
 70
     6
 71
     1
 72
     2
 73
     2
 90
        0
 40
-0.6
 41
-30.0
 62
     5
 63
     7
 74
     2
 91
        2
 64
     7
 65
   257
 75
     2
175
     1
 42
40.0
 92
        0
 66
   257
 43
1.0
 76
     1
 77
     6
 78
     2
 67
     7
 79
     3
170
     0
171
     0
290
     0
174
     0
 93
        1
 44
0.0
173
     0
291
     0
 45
0.0
1001
ACAD
1000
AcDbSavedByObjectVersion
1070
     0
  0
VISUALSTYLE
  5
30
102
{ACAD_REACTORS
330
2A
102
}
102
{ACAD_XDICTIONARY
360
3A5
102
}
330
2A
100
AcDbVisualStyle
  2
3dWireframe
 70
     5
 71
     0
 72
     2
 73
     0
 90
        0
 40
-0.6
 41
-30.0
 62
     5
 63
     7
 74
     1
 91
        4
 64
     7
 65
   257
 75
     1
175
     1
 42
1.0
 92
        0
 66
   257
 43
1.0
 76
     1
 77
     6
 78
     2
 67
     7
 79
     5
170
     0
171
     0
290
     0
174
     0
 93
        1
 44
0.0
173
     0
291
     0
 45
0.0
1001
ACAD
1000
AcDbSavedByObjectVersion
1070
     0
  0
VISUALSTYLE
  5
32
102
{ACAD_REACTORS
330
2A
102
}
102
{ACAD_XDICTIONARY
360
3A9
102
}
330
2A
100
AcDbVisualStyle
  2
Basic
 70
     7
 71
     1
 72
     0
 73
     1
 90
        0
 40
-0.6
 41
-30.0
 62
     5
 63
     7
 74
     0
 91
        4
 64
     7
 65
   257
 75
     1
175
     1
 42
1.0
 92
        8
 66
     7
 43
1.0
 76
     1
 77
     6
 78
     2
 67
     7
 79
     5
170
     0
171
     0
290
     0
174
     0
 93
        1
 44
0.0
173
     0
291
     1
 45
0.0
1001
ACAD
1000
AcDbSavedByObjectVersion
1070
     0
  0
VISUALSTYLE
  5
36
102
{ACAD_REACTORS
330
2A
102
}
102
{ACAD_XDICTIONARY
360
3B1
102
}
330
2A
100
AcDbVisualStyle
  2
Brighten
 70
    12
 71
     2
 72
     2
 73
     0
 90
        0
 40
-0.6
 41
-30.0
 62
     5
 63
     7
 74
     1
 91
        4
 64
     7
 65
   257
 75
     1
175
     1
 42
1.0
 92
        8
 66
     7
 43
1.0
 76
     1
 77
     6
 78
     2
 67
     7
 79
     5
170
     0
171
     0
290
     0
174
     0
 93
        1
 44
50.0
173
     0
291
     1
 45
0.0
1001
ACAD
1000
AcDbSavedByObjectVersion
1070
     0
  0
VISUALSTYLE
  5
3A
102
{ACAD_REACTORS
330
2A
102
}
102
{ACAD_XDICTIONARY
360
3B9
102
}
330
2A
100
AcDbVisualStyle
  2
ColorChange
 70
    16
 71
     2
 72
     2
 73
     3
 90
        0
 40
-0.6
 41
-30.0
 62
     5
 63
     8
 74
     1
 91
        4
 64
     7
 65
   257
 75
     1
175
     1
 42
1.0
 92
        8
 66
     8
 43
1.0
 76
     1
 77
     6
 78
     2
 67
     7
 79
     5
170
     0
171
     0
290
     0
174
     0
 93
        1
 44
0.0
173
     0
291
     1
 45
0.0
1001
ACAD
1000
AcDbSavedByObjectVersion
1070
     0
  0
VISUALSTYLE
  5
34
102
{ACAD_REACTORS
330
2A
102
}
102
{ACAD_XDICTIONARY
360
3AD
102
}
330
2A
100
AcDbVisualStyle
  2
Conceptual
 70
     9
 71
     3
 72
     2
 73
     0
 90
        0
 40
-0.6
 41
-30.0
 62
     5
 63
     7
 74
     2
 91
        2
 64
     7
 65
   257
 75
     1
175
     1
 42
40.0
 92
        8
 66
     7
 43
1.0
 76
     1
 77
     6
 78
     2
 67
     7
 79
     3
170
     0
171
     0
290
     0
174
     0
 93
        1
 44
0.0
173
     0
291
     0
 45
0.0
1001
ACAD
1000
AcDbSavedByObjectVersion
1070
     0
  0
VISUALSTYLE
  5
35
102
{ACAD_REACTORS
330
2A
102
}
102
{ACAD_XDICTIONARY
360
3AF
102
}
330
2A
100
AcDbVisualStyle
  2
Dim
 70
    11
 71
     2
 72
     2
 73
     0
 90
        0
 40
-0.6
 41
-30.0
 62
     5
 63
     7
 74
     1
 91
        4
 64
     7
 65
   257
 75
     1
175
     1
 42
1.0
 92
        8
 66
     7
 43
1.0
 76
     1
 77
     6
 78
     2
 67
     7
 79
     5
170
     0
171
     0
290
     0
174
     0
 93
        1
 44
-50.0
173
     0
291
     1
 45
0.0
1001
ACAD
1000
AcDbSavedByObjectVersion
1070
     0
  0
VISUALSTYLE
  5
39
102
{ACAD_REACTORS
330
2A
102
}
102
{ACAD_XDICTIONARY
360
3B7
102
}
330
2A
100
AcDbVisualStyle
  2
Facepattern
 70
    15
 71
     2
 72
     2
 73
     0
 90
        0
 40
-0.6
 41
-30.0
 62
     5
 63
     7
 74
     1
 91
        4
 64
     7
 65
   257
 75
     1
175
     1
 42
1.0
 92
        8
 66
     7
 43
1.0
 76
     1
 77
     6
 78
     2
 67
     7
 79
     5
170
     0
171
     0
290
     0
174
     0
 93
        1
 44
0.0
173
     0
291
     1
 45
0.0
1001
ACAD
1000
AcDbSavedByObjectVersion
1070
     0
  0
VISUALSTYLE
  5
2B
102
{ACAD_REACTORS
330
2A
102
}
102
{ACAD_XDICTIONARY
360
39B
102
}
330
2A
100
AcDbVisualStyle
  2
Flat
 70
     0
 71
     2
 72
     1
 73
     1
 90
        2
 40
-0.6
 41
30.0
 62
     5
 63
     7
 74
     0
 91
        4
 64
     7
 65
   257
 75
     1
175
     1
 42
1.0
 92
        8
 66
     7
 43
1.0
 76
     1
 77
     6
 78
     2
 67
     7
 79
     5
170
     0
171
     0
290
     0
174
     0
 93
       13
 44
0.0
173
     0
291
     1
 45
0.0
1001
ACAD
1000
AcDbSavedByObjectVersion
1070
     0
  0
VISUALSTYLE
  5
2C
102
{ACAD_REACTORS
330
2A
102
}
102
{ACAD_XDICTIONARY
360
39D
102
}
330
2A
100
AcDbVisualStyle
  2
FlatWithEdges
 70
     1
 71
     2
 72
     1
 73
     1
 90
        2
 40
-0.6
 41
30.0
 62
     5
 63
     7
 74
     1
 91
        4
 64
     7
 65
   257
 75
     1
175
     1
 42
1.0
 92
        0
 66
   257
 43
1.0
 76
     1
 77
     6
 78
     2
 67
     7
 79
     5
170
     0
171
     0
290
     0
174
     0
 93
       13
 44
0.0
173
     0
291
     1
 45
0.0
1001
ACAD
1000
AcDbSavedByObjectVersion
1070
     0
  0
VISUALSTYLE
  5
2D
102
{ACAD_REACTORS
330
2A
102
}
102
{ACAD_XDICTIONARY
360
39F
102
}
330
2A
100
AcDbVisualStyle
  2
Gouraud
 70
     2
 71
     2
 72
     2
 73
     1
 90
        2
 40
-0.6
 41
30.0
 62
     5
 63
     7
 74
     0
 91
        4
 64
     7
 65
   257
 75
     1
175
     1
 42
1.0
 92
        0
 66
     7
 43
1.0
 76
     1
 77
     6
 78
     2
 67
     7
 79
     5
170
     0
171
     0
290
     0
174
     0
 93
       13
 44
0.0
173
     0
291
     1
 45
0.0
1001
ACAD
1000
AcDbSavedByObjectVersion
1070
     0
  0
VISUALSTYLE
  5
2E
102
{ACAD_REACTORS
330
2A
102
}
102
{ACAD_XDICTIONARY
360
3A1
102
}
330
2A
100
AcDbVisualStyle
  2
GouraudWithEdges
 70
     3
 71
     2
 72
     2
 73
     1
 90
        2
 40
-0.6
 41
30.0
 62
     5
 63
     7
 74
     1
 91
        4
 64
     7
 65
   257
 75
     1
175
     1
 42
1.0
 92
        0
 66
   257
 43
1.0
 76
     1
 77
     6
 78
     2
 67
     7
 79
     5
170
     0
171
     0
290
     0
174
     0
 93
       13
 44
0.0
173
     0
291
     1
 45
0.0
1001
ACAD
1000
AcDbSavedByObjectVersion
1070
     0
  0
VISUALSTYLE
  5
38
102
{ACAD_REACTORS
330
2A
102
}
102
{ACAD_XDICTIONARY
360
3B5
102
}
330
2A
100
AcDbVisualStyle
  2
Linepattern
 70
    14
 71
     2
 72
     2
 73
     0
 90
        0
 40
-0.6
 41
-30.0
 62
     5
 63
     7
 74
     1
 91
        4
 64
     7
 65
   257
 75
     7
175
     7
 42
1.0
 92
        8
 66
     7
 43
1.0
 76
     1
 77
     6
 78
     2
 67
     7
 79
     5
170
     0
171
     0
290
     0
174
     0
 93
        1
 44
0.0
173
     0
291
     1
 45
0.0
1001
ACAD
1000
AcDbSavedByObjectVersion
1070
     0
  0
VISUALSTYLE
  5
33
102
{ACAD_REACTORS
330
2A
102
}
102
{ACAD_XDICTIONARY
360
3AB
102
}
330
2A
100
AcDbVisualStyle
  2
Realistic
 70
     8
 71
     2
 72
     2
 73
     0
 90
        0
 40
-0.6
 41
-30.0
 62
     5
 63
     7
 74
     1
 91
        0
 64
     7
 65
   257
 75
     1
175
     1
 42
1.0
 92
        8
 66
     8
 43
1.0
 76
     1
 77
     6
 78
     2
 67
     7
 79
     5
170
     0
171
     0
290
     0
174
     0
 93
       13
 44
0.0
173
     0
291
     0
 45
0.0
1001
ACAD
1000
AcDbSavedByObjectVersion
1070
     0
  0
VISUALSTYLE
  5
37
102
{ACAD_REACTORS
330
2A
102
}
102
{ACAD_XDICTIONARY
360
3B3
102
}
330
2A
100
AcDbVisualStyle
  2
Thicken
 70
    13
 71
     2
 72
     2
 73
     0
 90
        0
 40
-0.6
 41
-30.0
 62
     5
 63
     7
 74
     1
 91
        4
 64
     7
 65
   257
 75
     1
175
     1
 42
1.0
 92
       12
 66
     7
 43
1.0
 76
     1
 77
     6
 78
     2
 67
     7
 79
     5
170
     0
171
     0
290
     0
174
     0
 93
        1
 44
0.0
173
     0
291
     1
 45
0.0
1001
ACAD
1000
AcDbSavedByObjectVersion
1070
     0
  0
DICTIONARYVAR
  5
398
102
{ACAD_REACTORS
330
393
102
}
330
393
100
DictionaryVariables
280
     0
  1
1:1
  0
DICTIONARYVAR
  5
399
102
{ACAD_REACTORS
330
393
102
}
330
393
100
DictionaryVariables
280
     0
  1
2
  0
DICTIONARYVAR
  5
39A
102
{ACAD_REACTORS
330
393
102
}
330
393
100
DictionaryVariables
280
     0
  1
1
  0
DICTIONARYVAR
  5
397
102
{ACAD_REACTORS
330
393
102
}
330
393
100
DictionaryVariables
280
     0
  1
80.000000
  0
DICTIONARYVAR
  5
396
102
{ACAD_REACTORS
330
393
102
}
330
393
100
DictionaryVariables
280
     0
  1
5.000000
  0
DICTIONARY
  5
3BD
330
3D
100
AcDbDictionary
280
     1
281
     1
  3
ACAD_XREC_ROUNDTRIP
360
3BE
  0
DICTIONARY
  5
3BB
330
3C
100
AcDbDictionary
280
     1
281
     1
  3
ACAD_XREC_ROUNDTRIP
360
3BC
  0
DICTIONARY
  5
3BF
330
3E
100
AcDbDictionary
280
     1
281
     1
  3
ACAD_XREC_ROUNDTRIP
360
3C0
  0
DICTIONARY
  5
3A3
330
2F
100
AcDbDictionary
280
     1
281
     1
  3
ACAD_XREC_ROUNDTRIP
360
3A4
  0
DICTIONARY
  5
3A7
330
31
100
AcDbDictionary
280
     1
281
     1
  3
ACAD_XREC_ROUNDTRIP
360
3A8
  0
DICTIONARY
  5
3A5
330
30
100
AcDbDictionary
280
     1
281
     1
  3
ACAD_XREC_ROUNDTRIP
360
3A6
  0
DICTIONARY
  5
3A9
330
32
100
AcDbDictionary
280
     1
281
     1
  3
ACAD_XREC_ROUNDTRIP
360
3AA
  0
DICTIONARY
  5
3B1
330
36
100
AcDbDictionary
280
     1
281
     1
  3
ACAD_XREC_ROUNDTRIP
360
3B2
  0
DICTIONARY
  5
3B9
330
3A
100
AcDbDictionary
280
     1
281
     1
  3
ACAD_XREC_ROUNDTRIP
360
3BA
  0
DICTIONARY
  5
3AD
330
34
100
AcDbDictionary
280
     1
281
     1
  3
ACAD_XREC_ROUNDTRIP
360
3AE
  0
DICTIONARY
  5
3AF
330
35
100
AcDbDictionary
280
     1
281
     1
  3
ACAD_XREC_ROUNDTRIP
360
3B0
  0
DICTIONARY
  5
3B7
330
39
100
AcDbDictionary
280
     1
281
     1
  3
ACAD_XREC_ROUNDTRIP
360
3B8
  0
DICTIONARY
  5
39B
330
2B
100
AcDbDictionary
280
     1
281
     1
  3
ACAD_XREC_ROUNDTRIP
360
39C
  0
DICTIONARY
  5
39D
330
2C
100
AcDbDictionary
280
     1
281
     1
  3
ACAD_XREC_ROUNDTRIP
360
39E
  0
DICTIONARY
  5
39F
330
2D
100
AcDbDictionary
280
     1
281
     1
  3
ACAD_XREC_ROUNDTRIP
360
3A0
  0
DICTIONARY
  5
3A1
330
2E
100
AcDbDictionary
280
     1
281
     1
  3
ACAD_XREC_ROUNDTRIP
360
3A2
  0
DICTIONARY
  5
3B5
330
38
100
AcDbDictionary
280
     1
281
     1
  3
ACAD_XREC_ROUNDTRIP
360
3B6
  0
DICTIONARY
  5
3AB
330
33
100
AcDbDictionary
280
     1
281
     1
  3
ACAD_XREC_ROUNDTRIP
360
3AC
  0
DICTIONARY
  5
3B3
330
37
100
AcDbDictionary
280
     1
281
     1
  3
ACAD_XREC_ROUNDTRIP
360
3B4
  0
XRECORD
  5
3BE
102
{ACAD_REACTORS
330
3BD
102
}
330
3BD
100
AcDbXrecord
280
     1
102
MATERIAL
148
0.0
149
0.0
149
0.0
 93
        0
 94
      127
282
     0
 72
     1
 77
     1
171
     1
175
     1
179
     1
273
     0
  0
XRECORD
  5
3BC
102
{ACAD_REACTORS
330
3BB
102
}
330
3BB
100
AcDbXrecord
280
     1
102
MATERIAL
148
0.0
149
0.0
149
0.0
 93
        0
 94
      127
282
     0
 72
     1
 77
     1
171
     1
175
     1
179
     1
273
     0
  0
XRECORD
  5
3C0
102
{ACAD_REACTORS
330
3BF
102
}
330
3BF
100
AcDbXrecord
280
     1
102
MATERIAL
148
0.0
149
0.0
149
0.0
 93
        0
 94
      127
282
     0
 72
     1
 77
     1
171
     1
175
     1
179
     1
273
     0
  0
XRECORD
  5
3A4
102
{ACAD_REACTORS
330
3A3
102
}
330
3A3
100
AcDbXrecord
280
     1
102
RTVSPropertyOp0
 70
     1
102
RTVSPropertyOp1
 70
     1
102
RTVSPropertyOp2
 70
     1
102
RTVSPropertyOp3
 70
     1
102
RTVSPropertyOp4
 70
     1
102
RTVSPropertyOp5
 70
     1
102
RTVSPropertyOp6
 70
     1
102
RTVSPropertyOp7
 70
     1
102
RTVSPropertyOp8
 70
     1
102
RTVSPropertyOp9
 70
     1
102
RTVSPropertyOp10
 70
     1
102
RTVSPropertyOp11
 70
     1
102
RTVSPropertyOp12
 70
     1
102
RTVSPropertyOp13
 70
     1
102
RTVSPropertyOp14
 70
     1
102
RTVSPropertyOp15
 70
     1
102
RTVSPropertyOp16
 70
     1
102
RTVSPropertyOp17
 70
     1
102
RTVSPropertyOp18
 70
     1
102
RTVSPropertyOp19
 70
     1
102
RTVSPropertyOp20
 70
     1
102
RTVSPropertyOp21
 70
     1
102
RTVSPropertyOp22
 70
     1
102
RTVSPropertyOp23
 70
     1
102
RTVSPropertyOp24
 70
     1
102
RTVSPropertyOp25
 70
     1
102
RTVSPropertyOp26
 70
     1
102
RTVSPropertyOp27
 70
     1
  0
XRECORD
  5
3A8
102
{ACAD_REACTORS
330
3A7
102
}
330
3A7
100
AcDbXrecord
280
     1
102
RTVSPropertyOp0
 70
     1
102
RTVSPropertyOp1
 70
     1
102
RTVSPropertyOp2
 70
     1
102
RTVSPropertyOp3
 70
     1
102
RTVSPropertyOp4
 70
     1
102
RTVSPropertyOp5
 70
     1
102
RTVSPropertyOp6
 70
     1
102
RTVSPropertyOp7
 70
     1
102
RTVSPropertyOp8
 70
     1
102
RTVSPropertyOp9
 70
     1
102
RTVSPropertyOp10
 70
     1
102
RTVSPropertyOp11
 70
     1
102
RTVSPropertyOp12
 70
     1
102
RTVSPropertyOp13
 70
     1
102
RTVSPropertyOp14
 70
     1
102
RTVSPropertyOp15
 70
     1
102
RTVSPropertyOp16
 70
     1
102
RTVSPropertyOp17
 70
     1
102
RTVSPropertyOp18
 70
     1
102
RTVSPropertyOp19
 70
     1
102
RTVSPropertyOp20
 70
     1
102
RTVSPropertyOp21
 70
     1
102
RTVSPropertyOp22
 70
     1
102
RTVSPropertyOp23
 70
     1
102
RTVSPropertyOp24
 70
     1
102
RTVSPropertyOp25
 70
     1
102
RTVSPropertyOp26
 70
     1
102
RTVSPropertyOp27
 70
     1
  0
XRECORD
  5
3A6
102
{ACAD_REACTORS
330
3A5
102
}
330
3A5
100
AcDbXrecord
280
     1
102
RTVSPropertyOp0
 70
     1
102
RTVSPropertyOp1
 70
     1
102
RTVSPropertyOp2
 70
     1
102
RTVSPropertyOp3
 70
     1
102
RTVSPropertyOp4
 70
     1
102
RTVSPropertyOp5
 70
     1
102
RTVSPropertyOp6
 70
     1
102
RTVSPropertyOp7
 70
     1
102
RTVSPropertyOp8
 70
     1
102
RTVSPropertyOp9
 70
     1
102
RTVSPropertyOp10
 70
     1
102
RTVSPropertyOp11
 70
     1
102
RTVSPropertyOp12
 70
     1
102
RTVSPropertyOp13
 70
     1
102
RTVSPropertyOp14
 70
     1
102
RTVSPropertyOp15
 70
     1
102
RTVSPropertyOp16
 70
     1
102
RTVSPropertyOp17
 70
     1
102
RTVSPropertyOp18
 70
     1
102
RTVSPropertyOp19
 70
     1
102
RTVSPropertyOp20
 70
     1
102
RTVSPropertyOp21
 70
     1
102
RTVSPropertyOp22
 70
     1
102
RTVSPropertyOp23
 70
     1
102
RTVSPropertyOp24
 70
     1
102
RTVSPropertyOp25
 70
     1
102
RTVSPropertyOp26
 70
     1
102
RTVSPropertyOp27
 70
     1
  0
XRECORD
  5
3AA
102
{ACAD_REACTORS
330
3A9
102
}
330
3A9
100
AcDbXrecord
280
     1
102
RTVSPropertyOp0
 70
     1
102
RTVSPropertyOp1
 70
     1
102
RTVSPropertyOp2
 70
     1
102
RTVSPropertyOp3
 70
     1
102
RTVSPropertyOp4
 70
     1
102
RTVSPropertyOp5
 70
     1
102
RTVSPropertyOp6
 70
     1
102
RTVSPropertyOp7
 70
     1
102
RTVSPropertyOp8
 70
     1
102
RTVSPropertyOp9
 70
     1
102
RTVSPropertyOp10
 70
     1
102
RTVSPropertyOp11
 70
     1
102
RTVSPropertyOp12
 70
     1
102
RTVSPropertyOp13
 70
     1
102
RTVSPropertyOp14
 70
     1
102
RTVSPropertyOp15
 70
     1
102
RTVSPropertyOp16
 70
     1
102
RTVSPropertyOp17
 70
     1
102
RTVSPropertyOp18
 70
     1
102
RTVSPropertyOp19
 70
     1
102
RTVSPropertyOp20
 70
     1
102
RTVSPropertyOp21
 70
     1
102
RTVSPropertyOp22
 70
     1
102
RTVSPropertyOp23
 70
     1
102
RTVSPropertyOp24
 70
     1
102
RTVSPropertyOp25
 70
     1
102
RTVSPropertyOp26
 70
     1
102
RTVSPropertyOp27
 70
     1
  0
XRECORD
  5
3B2
102
{ACAD_REACTORS
330
3B1
102
}
330
3B1
100
AcDbXrecord
280
     1
102
RTVSPropertyOp0
 70
     1
102
RTVSPropertyOp1
 70
     1
102
RTVSPropertyOp2
 70
     1
102
RTVSPropertyOp3
 70
     1
102
RTVSPropertyOp4
 70
     1
102
RTVSPropertyOp5
 70
     1
102
RTVSPropertyOp6
 70
     1
102
RTVSPropertyOp7
 70
     1
102
RTVSPropertyOp8
 70
     1
102
RTVSPropertyOp9
 70
     1
102
RTVSPropertyOp10
 70
     1
102
RTVSPropertyOp11
 70
     1
102
RTVSPropertyOp12
 70
     1
102
RTVSPropertyOp13
 70
     1
102
RTVSPropertyOp14
 70
     1
102
RTVSPropertyOp15
 70
     1
102
RTVSPropertyOp16
 70
     1
102
RTVSPropertyOp17
 70
     1
102
RTVSPropertyOp18
 70
     1
102
RTVSPropertyOp19
 70
     1
102
RTVSPropertyOp20
 70
     1
102
RTVSPropertyOp21
 70
     1
102
RTVSPropertyOp22
 70
     1
102
RTVSPropertyOp23
 70
     1
102
RTVSPropertyOp24
 70
     1
102
RTVSPropertyOp25
 70
     1
102
RTVSPropertyOp26
 70
     1
102
RTVSPropertyOp27
 70
     1
  0
XRECORD
  5
3BA
102
{ACAD_REACTORS
330
3B9
102
}
330
3B9
100
AcDbXrecord
280
     1
102
RTVSPropertyOp0
 70
     1
102
RTVSPropertyOp1
 70
     1
102
RTVSPropertyOp2
 70
     1
102
RTVSPropertyOp3
 70
     1
102
RTVSPropertyOp4
 70
     1
102
RTVSPropertyOp5
 70
     1
102
RTVSPropertyOp6
 70
     1
102
RTVSPropertyOp7
 70
     1
102
RTVSPropertyOp8
 70
     1
102
RTVSPropertyOp9
 70
     1
102
RTVSPropertyOp10
 70
     1
102
RTVSPropertyOp11
 70
     1
102
RTVSPropertyOp12
 70
     1
102
RTVSPropertyOp13
 70
     1
102
RTVSPropertyOp14
 70
     1
102
RTVSPropertyOp15
 70
     1
102
RTVSPropertyOp16
 70
     1
102
RTVSPropertyOp17
 70
     1
102
RTVSPropertyOp18
 70
     1
102
RTVSPropertyOp19
 70
     1
102
RTVSPropertyOp20
 70
     1
102
RTVSPropertyOp21
 70
     1
102
RTVSPropertyOp22
 70
     1
102
RTVSPropertyOp23
 70
     1
102
RTVSPropertyOp24
 70
     1
102
RTVSPropertyOp25
 70
     1
102
RTVSPropertyOp26
 70
     1
102
RTVSPropertyOp27
 70
     1
  0
XRECORD
  5
3AE
102
{ACAD_REACTORS
330
3AD
102
}
330
3AD
100
AcDbXrecord
280
     1
102
RTVSPropertyOp0
 70
     1
102
RTVSPropertyOp1
 70
     1
102
RTVSPropertyOp2
 70
     1
102
RTVSPropertyOp3
 70
     1
102
RTVSPropertyOp4
 70
     1
102
RTVSPropertyOp5
 70
     1
102
RTVSPropertyOp6
 70
     1
102
RTVSPropertyOp7
 70
     1
102
RTVSPropertyOp8
 70
     1
102
RTVSPropertyOp9
 70
     1
102
RTVSPropertyOp10
 70
     1
102
RTVSPropertyOp11
 70
     1
102
RTVSPropertyOp12
 70
     1
102
RTVSPropertyOp13
 70
     1
102
RTVSPropertyOp14
 70
     1
102
RTVSPropertyOp15
 70
     1
102
RTVSPropertyOp16
 70
     1
102
RTVSPropertyOp17
 70
     1
102
RTVSPropertyOp18
 70
     1
102
RTVSPropertyOp19
 70
     1
102
RTVSPropertyOp20
 70
     1
102
RTVSPropertyOp21
 70
     1
102
RTVSPropertyOp22
 70
     1
102
RTVSPropertyOp23
 70
     1
102
RTVSPropertyOp24
 70
     1
102
RTVSPropertyOp25
 70
     1
102
RTVSPropertyOp26
 70
     1
102
RTVSPropertyOp27
 70
     1
  0
XRECORD
  5
3B0
102
{ACAD_REACTORS
330
3AF
102
}
330
3AF
100
AcDbXrecord
280
     1
102
RTVSPropertyOp0
 70
     1
102
RTVSPropertyOp1
 70
     1
102
RTVSPropertyOp2
 70
     1
102
RTVSPropertyOp3
 70
     1
102
RTVSPropertyOp4
 70
     1
102
RTVSPropertyOp5
 70
     1
102
RTVSPropertyOp6
 70
     1
102
RTVSPropertyOp7
 70
     1
102
RTVSPropertyOp8
 70
     1
102
RTVSPropertyOp9
 70
     1
102
RTVSPropertyOp10
 70
     1
102
RTVSPropertyOp11
 70
     1
102
RTVSPropertyOp12
 70
     1
102
RTVSPropertyOp13
 70
     1
102
RTVSPropertyOp14
 70
     1
102
RTVSPropertyOp15
 70
     1
102
RTVSPropertyOp16
 70
     1
102
RTVSPropertyOp17
 70
     1
102
RTVSPropertyOp18
 70
     1
102
RTVSPropertyOp19
 70
     1
102
RTVSPropertyOp20
 70
     1
102
RTVSPropertyOp21
 70
     1
102
RTVSPropertyOp22
 70
     1
102
RTVSPropertyOp23
 70
     1
102
RTVSPropertyOp24
 70
     1
102
RTVSPropertyOp25
 70
     1
102
RTVSPropertyOp26
 70
     1
102
RTVSPropertyOp27
 70
     1
  0
XRECORD
  5
3B8
102
{ACAD_REACTORS
330
3B7
102
}
330
3B7
100
AcDbXrecord
280
     1
102
RTVSPropertyOp0
 70
     1
102
RTVSPropertyOp1
 70
     1
102
RTVSPropertyOp2
 70
     1
102
RTVSPropertyOp3
 70
     1
102
RTVSPropertyOp4
 70
     1
102
RTVSPropertyOp5
 70
     1
102
RTVSPropertyOp6
 70
     1
102
RTVSPropertyOp7
 70
     1
102
RTVSPropertyOp8
 70
     1
102
RTVSPropertyOp9
 70
     1
102
RTVSPropertyOp10
 70
     1
102
RTVSPropertyOp11
 70
     1
102
RTVSPropertyOp12
 70
     1
102
RTVSPropertyOp13
 70
     1
102
RTVSPropertyOp14
 70
     1
102
RTVSPropertyOp15
 70
     1
102
RTVSPropertyOp16
 70
     1
102
RTVSPropertyOp17
 70
     1
102
RTVSPropertyOp18
 70
     1
102
RTVSPropertyOp19
 70
     1
102
RTVSPropertyOp20
 70
     1
102
RTVSPropertyOp21
 70
     1
102
RTVSPropertyOp22
 70
     1
102
RTVSPropertyOp23
 70
     1
102
RTVSPropertyOp24
 70
     1
102
RTVSPropertyOp25
 70
     1
102
RTVSPropertyOp26
 70
     1
102
RTVSPropertyOp27
 70
     1
  0
XRECORD
  5
39C
102
{ACAD_REACTORS
330
39B
102
}
330
39B
100
AcDbXrecord
280
     1
102
RTVSPropertyOp0
 70
     1
102
RTVSPropertyOp1
 70
     1
102
RTVSPropertyOp2
 70
     1
102
RTVSPropertyOp3
 70
     1
102
RTVSPropertyOp4
 70
     1
102
RTVSPropertyOp5
 70
     1
102
RTVSPropertyOp6
 70
     1
102
RTVSPropertyOp7
 70
     1
102
RTVSPropertyOp8
 70
     1
102
RTVSPropertyOp9
 70
     1
102
RTVSPropertyOp10
 70
     1
102
RTVSPropertyOp11
 70
     1
102
RTVSPropertyOp12
 70
     1
102
RTVSPropertyOp13
 70
     1
102
RTVSPropertyOp14
 70
     1
102
RTVSPropertyOp15
 70
     1
102
RTVSPropertyOp16
 70
     1
102
RTVSPropertyOp17
 70
     1
102
RTVSPropertyOp18
 70
     1
102
RTVSPropertyOp19
 70
     1
102
RTVSPropertyOp20
 70
     1
102
RTVSPropertyOp21
 70
     1
102
RTVSPropertyOp22
 70
     1
102
RTVSPropertyOp23
 70
     1
102
RTVSPropertyOp24
 70
     1
102
RTVSPropertyOp25
 70
     1
102
RTVSPropertyOp26
 70
     1
102
RTVSPropertyOp27
 70
     1
  0
XRECORD
  5
39E
102
{ACAD_REACTORS
330
39D
102
}
330
39D
100
AcDbXrecord
280
     1
102
RTVSPropertyOp0
 70
     1
102
RTVSPropertyOp1
 70
     1
102
RTVSPropertyOp2
 70
     1
102
RTVSPropertyOp3
 70
     1
102
RTVSPropertyOp4
 70
     1
102
RTVSPropertyOp5
 70
     1
102
RTVSPropertyOp6
 70
     1
102
RTVSPropertyOp7
 70
     1
102
RTVSPropertyOp8
 70
     1
102
RTVSPropertyOp9
 70
     1
102
RTVSPropertyOp10
 70
     1
102
RTVSPropertyOp11
 70
     1
102
RTVSPropertyOp12
 70
     1
102
RTVSPropertyOp13
 70
     1
102
RTVSPropertyOp14
 70
     1
102
RTVSPropertyOp15
 70
     1
102
RTVSPropertyOp16
 70
     1
102
RTVSPropertyOp17
 70
     1
102
RTVSPropertyOp18
 70
     1
102
RTVSPropertyOp19
 70
     1
102
RTVSPropertyOp20
 70
     1
102
RTVSPropertyOp21
 70
     1
102
RTVSPropertyOp22
 70
     1
102
RTVSPropertyOp23
 70
     1
102
RTVSPropertyOp24
 70
     1
102
RTVSPropertyOp25
 70
     1
102
RTVSPropertyOp26
 70
     1
102
RTVSPropertyOp27
 70
     1
  0
XRECORD
  5
3A0
102
{ACAD_REACTORS
330
39F
102
}
330
39F
100
AcDbXrecord
280
     1
102
RTVSPropertyOp0
 70
     1
102
RTVSPropertyOp1
 70
     1
102
RTVSPropertyOp2
 70
     1
102
RTVSPropertyOp3
 70
     1
102
RTVSPropertyOp4
 70
     1
102
RTVSPropertyOp5
 70
     1
102
RTVSPropertyOp6
 70
     1
102
RTVSPropertyOp7
 70
     1
102
RTVSPropertyOp8
 70
     1
102
RTVSPropertyOp9
 70
     1
102
RTVSPropertyOp10
 70
     1
102
RTVSPropertyOp11
 70
     1
102
RTVSPropertyOp12
 70
     1
102
RTVSPropertyOp13
 70
     1
102
RTVSPropertyOp14
 70
     1
102
RTVSPropertyOp15
 70
     1
102
RTVSPropertyOp16
 70
     1
102
RTVSPropertyOp17
 70
     1
102
RTVSPropertyOp18
 70
     1
102
RTVSPropertyOp19
 70
     1
102
RTVSPropertyOp20
 70
     1
102
RTVSPropertyOp21
 70
     1
102
RTVSPropertyOp22
 70
     1
102
RTVSPropertyOp23
 70
     1
102
RTVSPropertyOp24
 70
     1
102
RTVSPropertyOp25
 70
     1
102
RTVSPropertyOp26
 70
     1
102
RTVSPropertyOp27
 70
     1
  0
XRECORD
  5
3A2
102
{ACAD_REACTORS
330
3A1
102
}
330
3A1
100
AcDbXrecord
280
     1
102
RTVSPropertyOp0
 70
     1
102
RTVSPropertyOp1
 70
     1
102
RTVSPropertyOp2
 70
     1
102
RTVSPropertyOp3
 70
     1
102
RTVSPropertyOp4
 70
     1
102
RTVSPropertyOp5
 70
     1
102
RTVSPropertyOp6
 70
     1
102
RTVSPropertyOp7
 70
     1
102
RTVSPropertyOp8
 70
     1
102
RTVSPropertyOp9
 70
     1
102
RTVSPropertyOp10
 70
     1
102
RTVSPropertyOp11
 70
     1
102
RTVSPropertyOp12
 70
     1
102
RTVSPropertyOp13
 70
     1
102
RTVSPropertyOp14
 70
     1
102
RTVSPropertyOp15
 70
     1
102
RTVSPropertyOp16
 70
     1
102
RTVSPropertyOp17
 70
     1
102
RTVSPropertyOp18
 70
     1
102
RTVSPropertyOp19
 70
     1
102
RTVSPropertyOp20
 70
     1
102
RTVSPropertyOp21
 70
     1
102
RTVSPropertyOp22
 70
     1
102
RTVSPropertyOp23
 70
     1
102
RTVSPropertyOp24
 70
     1
102
RTVSPropertyOp25
 70
     1
102
RTVSPropertyOp26
 70
     1
102
RTVSPropertyOp27
 70
     1
  0
XRECORD
  5
3B6
102
{ACAD_REACTORS
330
3B5
102
}
330
3B5
100
AcDbXrecord
280
     1
102
RTVSPropertyOp0
 70
     1
102
RTVSPropertyOp1
 70
     1
102
RTVSPropertyOp2
 70
     1
102
RTVSPropertyOp3
 70
     1
102
RTVSPropertyOp4
 70
     1
102
RTVSPropertyOp5
 70
     1
102
RTVSPropertyOp6
 70
     1
102
RTVSPropertyOp7
 70
     1
102
RTVSPropertyOp8
 70
     1
102
RTVSPropertyOp9
 70
     1
102
RTVSPropertyOp10
 70
     1
102
RTVSPropertyOp11
 70
     1
102
RTVSPropertyOp12
 70
     1
102
RTVSPropertyOp13
 70
     1
102
RTVSPropertyOp14
 70
     1
102
RTVSPropertyOp15
 70
     1
102
RTVSPropertyOp16
 70
     1
102
RTVSPropertyOp17
 70
     1
102
RTVSPropertyOp18
 70
     1
102
RTVSPropertyOp19
 70
     1
102
RTVSPropertyOp20
 70
     1
102
RTVSPropertyOp21
 70
     1
102
RTVSPropertyOp22
 70
     1
102
RTVSPropertyOp23
 70
     1
102
RTVSPropertyOp24
 70
     1
102
RTVSPropertyOp25
 70
     1
102
RTVSPropertyOp26
 70
     1
102
RTVSPropertyOp27
 70
     1
  0
XRECORD
  5
3AC
102
{ACAD_REACTORS
330
3AB
102
}
330
3AB
100
AcDbXrecord
280
     1
102
RTVSPropertyOp0
 70
     1
102
RTVSPropertyOp1
 70
     1
102
RTVSPropertyOp2
 70
     1
102
RTVSPropertyOp3
 70
     1
102
RTVSPropertyOp4
 70
     1
102
RTVSPropertyOp5
 70
     1
102
RTVSPropertyOp6
 70
     1
102
RTVSPropertyOp7
 70
     1
102
RTVSPropertyOp8
 70
     1
102
RTVSPropertyOp9
 70
     1
102
RTVSPropertyOp10
 70
     1
102
RTVSPropertyOp11
 70
     1
102
RTVSPropertyOp12
 70
     1
102
RTVSPropertyOp13
 70
     1
102
RTVSPropertyOp14
 70
     1
102
RTVSPropertyOp15
 70
     1
102
RTVSPropertyOp16
 70
     1
102
RTVSPropertyOp17
 70
     1
102
RTVSPropertyOp18
 70
     1
102
RTVSPropertyOp19
 70
     1
102
RTVSPropertyOp20
 70
     1
102
RTVSPropertyOp21
 70
     1
102
RTVSPropertyOp22
 70
     1
102
RTVSPropertyOp23
 70
     1
102
RTVSPropertyOp24
 70
     1
102
RTVSPropertyOp25
 70
     1
102
RTVSPropertyOp26
 70
     1
102
RTVSPropertyOp27
 70
     1
  0
XRECORD
  5
3B4
102
{ACAD_REACTORS
330
3B3
102
}
330
3B3
100
AcDbXrecord
280
     1
102
RTVSPropertyOp0
 70
     1
102
RTVSPropertyOp1
 70
     1
102
RTVSPropertyOp2
 70
     1
102
RTVSPropertyOp3
 70
     1
102
RTVSPropertyOp4
 70
     1
102
RTVSPropertyOp5
 70
     1
102
RTVSPropertyOp6
 70
     1
102
RTVSPropertyOp7
 70
     1
102
RTVSPropertyOp8
 70
     1
102
RTVSPropertyOp9
 70
     1
102
RTVSPropertyOp10
 70
     1
102
RTVSPropertyOp11
 70
     1
102
RTVSPropertyOp12
 70
     1
102
RTVSPropertyOp13
 70
     1
102
RTVSPropertyOp14
 70
     1
102
RTVSPropertyOp15
 70
     1
102
RTVSPropertyOp16
 70
     1
102
RTVSPropertyOp17
 70
     1
102
RTVSPropertyOp18
 70
     1
102
RTVSPropertyOp19
 70
     1
102
RTVSPropertyOp20
 70
     1
102
RTVSPropertyOp21
 70
     1
102
RTVSPropertyOp22
 70
     1
102
RTVSPropertyOp23
 70
     1
102
RTVSPropertyOp24
 70
     1
102
RTVSPropertyOp25
 70
     1
102
RTVSPropertyOp26
 70
     1
102
RTVSPropertyOp27
 70
     1
  0
ENDSEC
  0
EOF
