  0
SECTION
  2
HEADER
  9
$ACADVER
  1
AC1015
  9
$ACADMAINTVER
 70
     6
  9
$DWGCODEPAGE
  3
ANSI_1252
  9
$INSBASE
 10
0.0
 20
0.0
 30
0.0
  9
$EXTMIN
 10
0.0
 20
0.0
 30
0.0
  9
$EXTMAX
 10
25.0
 20
35.0
 30
0.0
  9
$LIMMIN
 10
0.0
 20
0.0
  9
$LIMMAX
 10
420.0
 20
297.0
  9
$ORTHOMODE
 70
     0
  9
$REGENMODE
 70
     1
  9
$FILLMODE
 70
     1
  9
$QTEXTMODE
 70
     0
  9
$MIRRTEXT
 70
     1
  9
$LTSCALE
 40
4.85
  9
$ATTMODE
 70
     1
  9
$TEXTSIZE
 40
2.5
  9
$TRACEWID
 40
1.0
  9
$TEXTSTYLE
  7
Standard
  9
$CLAYER
  8
0
  9
$CELTYPE
  6
ByLayer
  9
$CECOLOR
 62
   256
  9
$CELTSCALE
 40
1.0
  9
$DISPSILH
 70
     0
  9
$DIMSCALE
 40
1.0
  9
$DIMASZ
 40
2.5
  9
$DIMEXO
 40
0.625
  9
$DIMDLI
 40
3.75
  9
$DIMRND
 40
0.0
  9
$DIMDLE
 40
0.0
  9
$DIMEXE
 40
1.25
  9
$DIMTP
 40
0.0
  9
$DIMTM
 40
0.0
  9
$DIMTXT
 40
2.5
  9
$DIMCEN
 40
2.5
  9
$DIMTSZ
 40
0.0
  9
$DIMTOL
 70
     0
  9
$DIMLIM
 70
     0
  9
$DIMTIH
 70
     0
  9
$DIMTOH
 70
     0
  9
$DIMSE1
 70
     0
  9
$DIMSE2
 70
     0
  9
$DIMTAD
 70
     1
  9
$DIMZIN
 70
     8
  9
$DIMBLK
  1

  9
$DIMASO
 70
     1
  9
$DIMSHO
 70
     1
  9
$DIMPOST
  1

  9
$DIMAPOST
  1

  9
$DIMALT
 70
     0
  9
$DIMALTD
 70
     3
  9
$DIMALTF
 40
0.03937007874016
  9
$DIMLFAC
 40
1.0
  9
$DIMTOFL
 70
     1
  9
$DIMTVP
 40
0.0
  9
$DIMTIX
 70
     0
  9
$DIMSOXD
 70
     0
  9
$DIMSAH
 70
     0
  9
$DIMBLK1
  1

  9
$DIMBLK2
  1

  9
$DIMSTYLE
  2
ISO-25
  9
$DIMCLRD
 70
     0
  9
$DIMCLRE
 70
     0
  9
$DIMCLRT
 70
     0
  9
$DIMTFAC
 40
1.0
  9
$DIMGAP
 40
0.625
  9
$DIMJUST
 70
     0
  9
$DIMSD1
 70
     0
  9
$DIMSD2
 70
     0
  9
$DIMTOLJ
 70
     0
  9
$DIMTZIN
 70
     8
  9
$DIMALTZ
 70
     0
  9
$DIMALTTZ
 70
     0
  9
$DIMUPT
 70
     0
  9
$DIMDEC
 70
     2
  9
$DIMTDEC
 70
     2
  9
$DIMALTU
 70
     2
  9
$DIMALTTD
 70
     3
  9
$DIMTXSTY
  7
Standard
  9
$DIMAUNIT
 70
     0
  9
$DIMADEC
 70
     0
  9
$DIMALTRND
 40
0.0
  9
$DIMAZIN
 70
     0
  9
$DIMDSEP
 70
    44
  9
$DIMATFIT
 70
     3
  9
$DIMFRAC
 70
     0
  9
$DIMLDRBLK
  1

  9
$DIMLUNIT
 70
     2
  9
$DIMLWD
 70
    -2
  9
$DIMLWE
 70
    -2
  9
$DIMTMOVE
 70
     0
  9
$LUNITS
 70
     2
  9
$LUPREC
 70
     4
  9
$SKETCHINC
 40
1.0
  9
$FILLETRAD
 40
10.0
  9
$AUNITS
 70
     0
  9
$AUPREC
 70
     0
  9
$MENU
  1
.
  9
$ELEVATION
 40
0.0
  9
$PELEVATION
 40
0.0
  9
$THICKNESS
 40
0.0
  9
$LIMCHECK
 70
     0
  9
$CHAMFERA
 40
10.0
  9
$CHAMFERB
 40
10.0
  9
$CHAMFERC
 40
20.0
  9
$CHAMFERD
 40
0.0
  9
$SKPOLY
 70
     0
  9
$TDCREATE
 40
2458579.04375
  9
$TDUCREATE
 40
2458578.960416667
  9
$TDUPDATE
 40
2458579.047222222
  9
$TDUUPDATE
 40
2458578.963888889
  9
$TDINDWG
 40
0.0000000116
  9
$TDUSRTIMER
 40
0.0000000116
  9
$USRTIMER
 70
     1
  9
$ANGBASE
 50
0.0
  9
$ANGDIR
 70
     0
  9
$PDMODE
 70
     0
  9
$PDSIZE
 40
0.0
  9
$PLINEWID
 40
0.0
  9
$SPLFRAME
 70
     0
  9
$SPLINETYPE
 70
     6
  9
$SPLINESEGS
 70
     8
  9
$HANDSEED
  5
3C5
  9
$SURFTAB1
 70
     6
  9
$SURFTAB2
 70
     6
  9
$SURFTYPE
 70
     6
  9
$SURFU
 70
     6
  9
$SURFV
 70
     6
  9
$UCSBASE
  2

  9
$UCSNAME
  2

  9
$UCSORG
 10
0.0
 20
0.0
 30
0.0
  9
$UCSXDIR
 10
1.0
 20
0.0
 30
0.0
  9
$UCSYDIR
 10
0.0
 20
1.0
 30
0.0
  9
$UCSORTHOREF
  2

  9
$UCSORTHOVIEW
 70
     0
  9
$UCSORGTOP
 10
0.0
 20
0.0
 30
0.0
  9
$UCSORGBOTTOM
 10
0.0
 20
0.0
 30
0.0
  9
$UCSORGLEFT
 10
0.0
 20
0.0
 30
0.0
  9
$UCSORGRIGHT
 10
0.0
 20
0.0
 30
0.0
  9
$UCSORGFRONT
 10
0.0
 20
0.0
 30
0.0
  9
$UCSORGBACK
 10
0.0
 20
0.0
 30
0.0
  9
$PUCSBASE
  2

  9
$PUCSNAME
  2

  9
$PUCSORG
 10
0.0
 20
0.0
 30
0.0
  9
$PUCSXDIR
 10
1.0
 20
0.0
 30
0.0
  9
$PUCSYDIR
 10
0.0
 20
1.0
 30
0.0
  9
$PUCSORTHOREF
  2

  9
$PUCSORTHOVIEW
 70
     0
  9
$PUCSORGTOP
 10
0.0
 20
0.0
 30
0.0
  9
$PUCSORGBOTTOM
 10
0.0
 20
0.0
 30
0.0
  9
$PUCSORGLEFT
 10
0.0
 20
0.0
 30
0.0
  9
$PUCSORGRIGHT
 10
0.0
 20
0.0
 30
0.0
  9
$PUCSORGFRONT
 10
0.0
 20
0.0
 30
0.0
  9
$PUCSORGBACK
 10
0.0
 20
0.0
 30
0.0
  9
$USERI1
 70
     0
  9
$USERI2
 70
     0
  9
$USERI3
 70
     0
  9
$USERI4
 70
     0
  9
$USERI5
 70
     0
  9
$USERR1
 40
0.0
  9
$USERR2
 40
0.0
  9
$USERR3
 40
0.0
  9
$USERR4
 40
0.0
  9
$USERR5
 40
0.0
  9
$WORLDVIEW
 70
     1
  9
$SHADEDGE
 70
     3
  9
$SHADEDIF
 70
    70
  9
$TILEMODE
 70
     1
  9
$MAXACTVP
 70
    64
  9
$PINSBASE
 10
0.0
 20
0.0
 30
0.0
  9
$PLIMCHECK
 70
     0
  9
$PEXTMIN
 10
1.000000000000000E+20
 20
1.000000000000000E+20
 30
1.000000000000000E+20
  9
$PEXTMAX
 10
-1.000000000000000E+20
 20
-1.000000000000000E+20
 30
-1.000000000000000E+20
  9
$PLIMMIN
 10
0.0
 20
0.0
  9
$PLIMMAX
 10
420.0
 20
297.0
  9
$UNITMODE
 70
     0
  9
$VISRETAIN
 70
     1
  9
$PLINEGEN
 70
     0
  9
$PSLTSCALE
 70
     1
  9
$TREEDEPTH
 70
  3020
  9
$CMLSTYLE
  2
Standard
  9
$CMLJUST
 70
     0
  9
$CMLSCALE
 40
20.0
  9
$PROXYGRAPHICS
 70
     1
  9
$MEASUREMENT
 70
     1
  9
$CELWEIGHT
370
    -1
  9
$ENDCAPS
280
     0
  9
$JOINSTYLE
280
     0
  9
$LWDISPLAY
290
     0
  9
$INSUNITS
 70
     4
  9
$HYPERLINKBASE
  1

  9
$STYLESHEET
  1

  9
$XEDIT
290
     1
  9
$CEPSNTYPE
380
     0
  9
$PSTYLEMODE
290
     1
  9
$FINGERPRINTGUID
  2
{3E9CE965-4F9C-40A7-82E1-EEBD5BD7A719}
  9
$VERSIONGUID
  2
{FAEB1C32-E019-11D5-929B-00C0DF256EC4}
  9
$EXTNAMES
290
     1
  9
$PSVPSCALE
 40
0.0
  9
$OLESTARTUP
290
     0
  0
ENDSEC
  0
SECTION
  2
CLASSES
  0
CLASS
  1
ACDBDICTIONARYWDFLT
  2
AcDbDictionaryWithDefault
  3
ObjectDBX Classes
 90
        0
280
     0
281
     0
  0
CLASS
  1
VISUALSTYLE
  2
AcDbVisualStyle
  3
ObjectDBX Classes
 90
     4095
280
     0
281
     0
  0
CLASS
  1
MATERIAL
  2
AcDbMaterial
  3
ObjectDBX Classes
 90
     1153
280
     0
281
     0
  0
CLASS
  1
SCALE
  2
AcDbScale
  3
ObjectDBX Classes
 90
     1153
280
     0
281
     0
  0
CLASS
  1
DICTIONARYVAR
  2
AcDbDictionaryVar
  3
ObjectDBX Classes
 90
        0
280
     0
281
     0
  0
CLASS
  1
ACDBPLACEHOLDER
  2
AcDbPlaceHolder
  3
ObjectDBX Classes
 90
        0
280
     0
281
     0
  0
CLASS
  1
LAYOUT
  2
AcDbLayout
  3
ObjectDBX Classes
 90
        0
280
     0
281
     0
  0
ENDSEC
  0
SECTION
  2
TABLES
  0
TABLE
  2
VPORT
  5
8
330
0
100
AcDbSymbolTable
 70
     1
  0
VPORT
  5
29
330
8
100
AcDbSymbolTableRecord
100
AcDbViewportTableRecord
  2
*Active
 70
     0
 10
0.0
 20
0.0
 11
1.0
 21
1.0
 12
11.26
 22
4.5
 13
0.0
 23
0.0
 14
10.0
 24
10.0
 15
10.0
 25
10.0
 16
0.0
 26
0.0
 36
1.0
 17
0.0
 27
0.0
 37
0.0
 40
9.0
 41
2.503333333333333
 42
50.0
 43
0.0
 44
0.0
 50
0.0
 51
0.0
 71
     0
 72
   100
 73
     1
 74
     3
 75
     0
 76
     0
 77
     0
 78
     0
281
     0
 65
     1
110
0.0
120
0.0
130
0.0
111
1.0
121
0.0
131
0.0
112
0.0
122
1.0
132
0.0
 79
     0
146
0.0
  0
ENDTAB
  0
TABLE
  2
LTYPE
  5
5
330
0
100
AcDbSymbolTable
 70
     8
  0
LTYPE
  5
14
330
5
100
AcDbSymbolTableRecord
100
AcDbLinetypeTableRecord
  2
ByBlock
 70
     0
  3

 72
    65
 73
     0
 40
0.0
  0
LTYPE
  5
15
330
5
100
AcDbSymbolTableRecord
100
AcDbLinetypeTableRecord
  2
ByLayer
 70
     0
  3

 72
    65
 73
     0
 40
0.0
  0
LTYPE
  5
16
330
5
100
AcDbSymbolTableRecord
100
AcDbLinetypeTableRecord
  2
Continuous
 70
     0
  3
Solid line
 72
    65
 73
     0
 40
0.0
  0
LTYPE
  5
45
330
5
100
AcDbSymbolTableRecord
100
AcDbLinetypeTableRecord
  2
phl_thick
 70
     0
  3
THICK
 72
    65
 73
     0
 40
0.0
  0
LTYPE
  5
4F
330
5
100
AcDbSymbolTableRecord
100
AcDbLinetypeTableRecord
  2
CUT
 70
     0
  3
THICK
 72
    65
 73
     0
 40
0.0
  0
LTYPE
  5
59
330
5
100
AcDbSymbolTableRecord
100
AcDbLinetypeTableRecord
  2
SKVIEW1
 70
     0
  3
THICK
 72
    65
 73
     0
 40
0.0
  0
LTYPE
  5
5F
330
5
100
AcDbSymbolTableRecord
100
AcDbLinetypeTableRecord
  2
ls_SKVIEW2
 70
     0
  3
THIN
 72
    65
 73
     0
 40
0.0
  0
LTYPE
  5
106
330
5
100
AcDbSymbolTableRecord
100
AcDbLinetypeTableRecord
  2
LONGDASH_DASH
 70
     0
  3
THIN_DASHDOT
 72
    65
 73
     4
 40
0.85
 49
0.4
 74
     0
 49
-0.2
 74
     0
 49
0.05
 74
     0
 49
-0.2
 74
     0
  0
LTYPE
  5
109
330
5
100
AcDbSymbolTableRecord
100
AcDbLinetypeTableRecord
  2
ls_SK2
 70
     0
  3
THIN
 72
    65
 73
     0
 40
0.0
  0
LTYPE
  5
1F1
330
5
100
AcDbSymbolTableRecord
100
AcDbLinetypeTableRecord
  2
ls1
 70
     0
  3
THICK
 72
    65
 73
     0
 40
0.0
  0
ENDTAB
  0
TABLE
  2
LAYER
  5
2
330
0
100
AcDbSymbolTable
 70
     8
  0
LAYER
  5
10
330
2
100
AcDbSymbolTableRecord
100
AcDbLayerTableRecord
  2
0
 70
     0
 62
     7
  6
Continuous
370
    -3
390
F
  0
LAYER
  5
44
330
2
100
AcDbSymbolTableRecord
100
AcDbLayerTableRecord
  2
1
 70
     0
 62
4
  6
CONTINUOUS
370
50
370
    -3
390
F
  0
LAYER
  5
4E
330
2
100
AcDbSymbolTableRecord
100
AcDbLayerTableRecord
  2
CUT
 70
     0
 62
1
  6
CONTINUOUS
370
25
370
    -3
390
F
  0
LAYER
  5
58
330
2
100
AcDbSymbolTableRecord
100
AcDbLayerTableRecord
  2
SKVIEW1
 70
     0
 62
4
  6
CONTINUOUS
370
50
370
    -3
390
F
  0
LAYER
  5
5E
330
2
100
AcDbSymbolTableRecord
100
AcDbLayerTableRecord
  2
SKVIEW2
 70
     0
 62
7
  6
CONTINUOUS
370
25
370
    -3
390
F
  0
LAYER
  5
105
330
2
100
AcDbSymbolTableRecord
100
AcDbLayerTableRecord
  2
SK4
 70
     0
 62
2
  6
LONGDASH_DASH
370
25
370
    -3
390
F
  0
LAYER
  5
108
330
2
100
AcDbSymbolTableRecord
100
AcDbLayerTableRecord
  2
SK2
 70
     0
 62
7
  6
CONTINUOUS
370
25
370
    -3
390
F
  0
LAYER
  5
1F0
330
2
100
AcDbSymbolTableRecord
100
AcDbLayerTableRecord
  2
SK6
 70
     0
 62
5
  6
CONTINUOUS
370
25
370
    -3
390
F
  0
ENDTAB
  0
TABLE
  2
STYLE
  5
3
330
0
100
AcDbSymbolTable
 70
     1
  0
STYLE
  5
11
330
3
100
AcDbSymbolTableRecord
100
AcDbTextStyleTableRecord
  2
Standard
 70
     0
 40
0.0
 41
1.0
 50
0.0
 71
     0
 42
2.5
  3
Monospac821 BT
  4

  0
ENDTAB
  0
TABLE
  2
VIEW
  5
6
330
0
100
AcDbSymbolTable
 70
     0
  0
ENDTAB
  0
TABLE
  2
UCS
  5
7
330
0
100
AcDbSymbolTable
 70
     0
  0
ENDTAB
  0
TABLE
  2
APPID
  5
9
330
0
100
AcDbSymbolTable
 70
     2
  0
APPID
  5
12
330
9
100
AcDbSymbolTableRecord
100
AcDbRegAppTableRecord
  2
ACAD
 70
     0
  0
APPID
  5
3F
330
9
100
AcDbSymbolTableRecord
100
AcDbRegAppTableRecord
  2
ccLab
 70
     0
  0
ENDTAB
  0
TABLE
  2
DIMSTYLE
  5
A
330
0
100
AcDbSymbolTable
 70
     1
100
AcDbDimStyleTable
  0
DIMSTYLE
105
27
330
A
100
AcDbSymbolTableRecord
100
AcDbDimStyleTableRecord
  2
ISO-25
 70
     0
 41
2.5
 42
0.625
 43
3.75
 44
1.25
 73
     0
 74
     0
 77
     1
 78
     8
140
2.5
141
2.5
143
0.03937007874016
147
0.625
171
     3
172
     1
271
     2
272
     2
274
     3
278
    44
283
     0
284
     8
340
11
  0
ENDTAB
  0
TABLE
  2
BLOCK_RECORD
  5
1
330
0
100
AcDbSymbolTable
 70
     2
  0
BLOCK_RECORD
  5
1F
330
1
100
AcDbSymbolTableRecord
100
AcDbBlockTableRecord
  2
*Model_Space
340
22
  0
BLOCK_RECORD
  5
1B
330
1
100
AcDbSymbolTableRecord
100
AcDbBlockTableRecord
  2
*Paper_Space
340
1E
  0
BLOCK_RECORD
  5
23
330
1
100
AcDbSymbolTableRecord
100
AcDbBlockTableRecord
  2
*Paper_Space0
340
26
  0
ENDTAB
  0
ENDSEC
  0
SECTION
  2
BLOCKS
  0
BLOCK
  5
20
330
1F
100
AcDbEntity
  8
0
100
AcDbBlockBegin
  2
*Model_Space
 70
     0
 10
0.0
 20
0.0
 30
0.0
  3
*Model_Space
  1

  0
ENDBLK
  5
21
330
1F
100
AcDbEntity
  8
0
100
AcDbBlockEnd
  0
BLOCK
  5
1C
330
1B
100
AcDbEntity
 67
     1
  8
0
100
AcDbBlockBegin
  2
*Paper_Space
 70
     0
 10
0.0
 20
0.0
 30
0.0
  3
*Paper_Space
  1

  0
ENDBLK
  5
1D
330
1B
100
AcDbEntity
 67
     1
  8
0
100
AcDbBlockEnd
  0
BLOCK
  5
24
330
23
100
AcDbEntity
  8
0
100
AcDbBlockBegin
  2
*Paper_Space0
 70
     0
 10
0.0
 20
0.0
 30
0.0
  3
*Paper_Space0
  1

  0
ENDBLK
  5
25
330
23
100
AcDbEntity
  8
0
100
AcDbBlockEnd
  0
ENDSEC
  0
SECTION
  2
ENTITIES
  0
LINE
  5
205
330
1F
100
AcDbEntity
  8
1
  6
CONTINUOUS
370
50
 62
4
100
AcDbLine
 10
0.4
 20
0.0
 30
0.0
 11
5.0
 21
0.0
 31
0.0
  0
LINE
  5
206
330
1F
100
AcDbEntity
  8
1
  6
CONTINUOUS
370
50
 62
4
100
AcDbLine
 10
0.4
 20
5.399999999999999
 30
0.0
 11
5.0
 21
5.399999999999999
 31
0.0
  0
LINE
  5
207
330
1F
100
AcDbEntity
  8
1
  6
CONTINUOUS
370
50
 62
4
100
AcDbLine
 10
0.0
 20
0.4
 30
0.0
 11
0.0
 21
5.0
 31
0.0
  0
LINE
  5
208
330
1F
100
AcDbEntity
  8
1
  6
CONTINUOUS
370
50
 62
4
100
AcDbLine
 10
5.399999999999999
 20
0.4
 30
0.0
 11
5.399999999999999
 21
5.0
 31
0.0
  0
ARC
  5
209
330
1F
100
AcDbEntity
  8
1
  6
CONTINUOUS
370
50
 62
4
100
AcDbCircle
 10
0.4
 20
0.4
 30
0.0
 40
0.4
100
AcDbArc
 50
180.0
 51
269.999999985676
  0
ARC
  5
20A
330
1F
100
AcDbEntity
  8
1
  6
CONTINUOUS
370
50
 62
4
100
AcDbCircle
 10
0.4
 20
5.0
 30
0.0
 40
0.4000000000000004
100
AcDbArc
 50
90.00000001432394
 51
180.0
  0
ARC
  5
20B
330
1F
100
AcDbEntity
  8
1
  6
CONTINUOUS
370
50
 62
4
100
AcDbCircle
 10
5.0
 20
0.4
 30
0.0
 40
0.4
100
AcDbArc
 50
270.0000000143238
 51
0.0
  0
ARC
  5
20C
330
1F
100
AcDbEntity
  8
1
  6
CONTINUOUS
370
50
 62
4
100
AcDbCircle
 10
5.0
 20
5.0
 30
0.0
 40
0.4000000000000004
100
AcDbArc
 50
0.0
 51
89.99999998567593
  0
LINE
  5
20D
330
1F
100
AcDbEntity
  8
CUT
  6
CONTINUOUS
370
25
 62
1
100
AcDbLine
 10
0.4000000000000001
 20
0.0
 30
0.0
 11
5.0
 21
0.0
 31
0.0
  0
ARC
  5
20E
330
1F
100
AcDbEntity
  8
CUT
  6
CONTINUOUS
370
25
 62
1
100
AcDbCircle
 10
4.9999999999
 20
0.4000000001
 30
0.0
 40
0.4
100
AcDbArc
 50
270.0000000143241
 51
360.0
  0
LINE
  5
20F
330
1F
100
AcDbEntity
  8
CUT
  6
CONTINUOUS
370
25
 62
1
100
AcDbLine
 10
5.4
 20
0.4
 30
0.0
 11
5.4
 21
5.0
 31
0.0
  0
ARC
  5
210
330
1F
100
AcDbEntity
  8
CUT
  6
CONTINUOUS
370
25
 62
1
100
AcDbCircle
 10
4.9999999999
 20
4.9999999999
 30
0.0
 40
0.4000000000000004
100
AcDbArc
 50
0.0
 51
89.99999998567606
  0
LINE
  5
211
330
1F
100
AcDbEntity
  8
CUT
  6
CONTINUOUS
370
25
 62
1
100
AcDbLine
 10
5.0
 20
5.4
 30
0.0
 11
0.4
 21
5.4
 31
0.0
  0
ARC
  5
212
330
1F
100
AcDbEntity
  8
CUT
  6
CONTINUOUS
370
25
 62
1
100
AcDbCircle
 10
0.4000000001000001
 20
4.9999999999
 30
0.0
 40
0.4000000000000004
100
AcDbArc
 50
90.00000001432399
 51
180.0
  0
LINE
  5
213
330
1F
100
AcDbEntity
  8
CUT
  6
CONTINUOUS
370
25
 62
1
100
AcDbLine
 10
0.0
 20
5.0
 30
0.0
 11
0.0
 21
0.4000000000000001
 31
0.0
  0
ARC
  5
214
330
1F
100
AcDbEntity
  8
CUT
  6
CONTINUOUS
370
25
 62
1
100
AcDbCircle
 10
0.4000000001
 20
0.4000000001
 30
0.0
 40
0.4
100
AcDbArc
 50
180.0
 51
269.999999985676
  0
LINE
  5
215
330
1F
100
AcDbEntity
  8
SKVIEW1
  6
CONTINUOUS
370
50
 62
4
100
AcDbLine
 10
-62.4
 20
0.0
 30
0.0
 11
-62.4
 21
5.4
 31
0.0
  0
LINE
  5
216
330
1F
100
AcDbEntity
  8
SKVIEW1
  6
CONTINUOUS
370
50
 62
4
100
AcDbLine
 10
-62.4
 20
5.4
 30
0.0
 11
-60.0
 21
5.105317053833029
 31
0.0
  0
LINE
  5
217
330
1F
100
AcDbEntity
  8
SKVIEW1
  6
CONTINUOUS
370
50
 62
4
100
AcDbLine
 10
-60.0
 20
5.105317053833029
 30
0.0
 11
-60.0
 21
0.2946829461669704
 31
0.0
  0
LINE
  5
218
330
1F
100
AcDbEntity
  8
SKVIEW1
  6
CONTINUOUS
370
50
 62
4
100
AcDbLine
 10
-60.0
 20
0.2946829461669704
 30
0.0
 11
-62.4
 21
0.0
 31
0.0
  0
LINE
  5
219
330
1F
100
AcDbEntity
  8
SKVIEW2
  6
CONTINUOUS
370
25
 62
7
100
AcDbLine
 10
-60.00000000109303
 20
0.2946829460327646
 30
0.0
 11
-44.63342388562034
 21
2.18146124695214
 31
0.0
  0
LINE
  5
21A
330
1F
100
AcDbEntity
  8
SKVIEW2
  6
CONTINUOUS
370
25
 62
7
100
AcDbLine
 10
-62.4
 20
0.0
 30
0.0
 11
-44.5
 21
0.0
 31
0.0
  0
ARC
  5
21B
330
1F
100
AcDbEntity
  8
SKVIEW2
  6
CONTINUOUS
370
25
 62
7
100
AcDbCircle
 10
-62.40000000000002
 20
0.0000000000000005
 30
0.0
 40
17.90000000000002
100
AcDbArc
 50
337.448542392247
 51
39.08507444722779
  0
LINE
  5
21C
330
1F
100
AcDbEntity
  8
SKVIEW2
  6
CONTINUOUS
370
25
 62
7
100
AcDbLine
 10
-44.63342388562033
 20
2.181461246952143
 30
0.0
 11
-46.89571430866093
 21
6.75114854936341
 31
0.0
  0
LINE
  5
21D
330
1F
100
AcDbEntity
  8
SKVIEW2
  6
CONTINUOUS
370
25
 62
7
100
AcDbLine
 10
-46.89571430866093
 20
6.75114854936341
 30
0.0
 11
-44.96411992903809
 21
7.269745842655084
 31
0.0
  0
LINE
  5
21E
330
1F
100
AcDbEntity
  8
SKVIEW2
  6
CONTINUOUS
370
25
 62
7
100
AcDbLine
 10
-44.96411992903809
 20
7.269745842655084
 30
0.0
 11
-44.63342388562033
 21
2.181461246952143
 31
0.0
  0
LINE
  5
21F
330
1F
100
AcDbEntity
  8
SKVIEW2
  6
CONTINUOUS
370
25
 62
7
100
AcDbLine
 10
-44.65773201752926
 20
2.23056217608052
 30
0.0
 11
-44.63790371082229
 21
2.250390482787482
 31
0.0
  0
LINE
  5
220
330
1F
100
AcDbEntity
  8
SKVIEW2
  6
CONTINUOUS
370
25
 62
7
100
AcDbLine
 10
-44.79821967396753
 20
2.514338588354169
 30
0.0
 11
-44.66379464091244
 21
2.648763621409261
 31
0.0
  0
LINE
  5
221
330
1F
100
AcDbEntity
  8
SKVIEW2
  6
CONTINUOUS
370
25
 62
7
100
AcDbLine
 10
-44.9387073304058
 20
2.798115000627821
 30
0.0
 11
-44.6896855710026
 21
3.047136760031034
 31
0.0
  0
LINE
  5
222
330
1F
100
AcDbEntity
  8
SKVIEW2
  6
CONTINUOUS
370
25
 62
7
100
AcDbLine
 10
-45.07919498684407
 20
3.081891412901477
 30
0.0
 11
-44.71557650109274
 21
3.445509898652809
 31
0.0
  0
LINE
  5
223
330
1F
100
AcDbEntity
  8
SKVIEW2
  6
CONTINUOUS
370
25
 62
7
100
AcDbLine
 10
-45.21968264328235
 20
3.365667825175127
 30
0.0
 11
-44.7414674311829
 21
3.843883037274587
 31
0.0
  0
LINE
  5
224
330
1F
100
AcDbEntity
  8
SKVIEW2
  6
CONTINUOUS
370
25
 62
7
100
AcDbLine
 10
-45.36017029972063
 20
3.64944423744878
 30
0.0
 11
-44.76735836127305
 21
4.242256175896362
 31
0.0
  0
LINE
  5
225
330
1F
100
AcDbEntity
  8
SKVIEW2
  6
CONTINUOUS
370
25
 62
7
100
AcDbLine
 10
-45.5006579561589
 20
3.933220649722429
 30
0.0
 11
-44.7932492913632
 21
4.64062931451814
 31
0.0
  0
LINE
  5
226
330
1F
100
AcDbEntity
  8
SKVIEW2
  6
CONTINUOUS
370
25
 62
7
100
AcDbLine
 10
-45.64114561259719
 20
4.216997061996084
 30
0.0
 11
-44.81914022145335
 21
5.03900245313992
 31
0.0
  0
LINE
  5
227
330
1F
100
AcDbEntity
  8
SKVIEW2
  6
CONTINUOUS
370
25
 62
7
100
AcDbLine
 10
-45.78163326903546
 20
4.500773474269733
 30
0.0
 11
-44.84503115154349
 21
5.437375591761699
 31
0.0
  0
LINE
  5
228
330
1F
100
AcDbEntity
  8
SKVIEW2
  6
CONTINUOUS
370
25
 62
7
100
AcDbLine
 10
-45.92212092547373
 20
4.784549886543386
 30
0.0
 11
-44.87092208163365
 21
5.83574873038347
 31
0.0
  0
LINE
  5
229
330
1F
100
AcDbEntity
  8
SKVIEW2
  6
CONTINUOUS
370
25
 62
7
100
AcDbLine
 10
-46.06260858191201
 20
5.068326298817039
 30
0.0
 11
-44.8968130117238
 21
6.234121869005248
 31
0.0
  0
LINE
  5
22A
330
1F
100
AcDbEntity
  8
SKVIEW2
  6
CONTINUOUS
370
25
 62
7
100
AcDbLine
 10
-46.20309623835028
 20
5.352102711090692
 30
0.0
 11
-44.92270394181395
 21
6.632495007627027
 31
0.0
  0
LINE
  5
22B
330
1F
100
AcDbEntity
  8
SKVIEW2
  6
CONTINUOUS
370
25
 62
7
100
AcDbLine
 10
-46.34358389478857
 20
5.635879123364342
 30
0.0
 11
-44.94859487190411
 21
7.030868146248801
 31
0.0
  0
LINE
  5
22C
330
1F
100
AcDbEntity
  8
SKVIEW2
  6
CONTINUOUS
370
25
 62
7
100
AcDbLine
 10
-46.48407155122683
 20
5.919655535637997
 30
0.0
 11
-45.19632363623244
 21
7.207403450632389
 31
0.0
  0
LINE
  5
22D
330
1F
100
AcDbEntity
  8
SKVIEW2
  6
CONTINUOUS
370
25
 62
7
100
AcDbLine
 10
-46.62455920766511
 20
6.20343194791165
 30
0.0
 11
-45.77630083401119
 21
7.051690321565571
 31
0.0
  0
LINE
  5
22E
330
1F
100
AcDbEntity
  8
SKVIEW2
  6
CONTINUOUS
370
25
 62
7
100
AcDbLine
 10
-46.76504686410339
 20
6.487208360185301
 30
0.0
 11
-46.35627803178993
 21
6.895977192498759
 31
0.0
  0
LINE
  5
22F
330
1F
100
AcDbEntity
  8
SKVIEW2
  6
CONTINUOUS
370
25
 62
7
100
AcDbLine
 10
-45.04191712006006
 20
3.006592418232643
 30
0.0
 11
-44.66238404384688
 21
2.627059342019461
 31
0.0
  0
LINE
  5
230
330
1F
100
AcDbEntity
  8
SKVIEW2
  6
CONTINUOUS
370
25
 62
7
100
AcDbLine
 10
-45.45788740591267
 20
3.846826772797179
 30
0.0
 11
-44.69187428818925
 21
3.080813655073761
 31
0.0
  0
LINE
  5
231
330
1F
100
AcDbEntity
  8
SKVIEW2
  6
CONTINUOUS
370
25
 62
7
100
AcDbLine
 10
-45.87385769176528
 20
4.687061127361716
 30
0.0
 11
-44.72136453253162
 21
3.534567968128059
 31
0.0
  0
LINE
  5
232
330
1F
100
AcDbEntity
  8
SKVIEW2
  6
CONTINUOUS
370
25
 62
7
100
AcDbLine
 10
-46.28982797761789
 20
5.527295481926252
 30
0.0
 11
-44.75085477687399
 21
3.988322281182359
 31
0.0
  0
LINE
  5
233
330
1F
100
AcDbEntity
  8
SKVIEW2
  6
CONTINUOUS
370
25
 62
7
100
AcDbLine
 10
-46.7057982634705
 20
6.367529836490784
 30
0.0
 11
-44.78034502121636
 21
4.442076594236653
 31
0.0
  0
LINE
  5
234
330
1F
100
AcDbEntity
  8
SKVIEW2
  6
CONTINUOUS
370
25
 62
7
100
AcDbLine
 10
-46.71395256678984
 20
6.79994820852205
 30
0.0
 11
-44.80983526555873
 21
4.89583090729095
 31
0.0
  0
LINE
  5
235
330
1F
100
AcDbEntity
  8
SKVIEW2
  6
CONTINUOUS
370
25
 62
7
100
AcDbLine
 10
-46.37948645148177
 20
6.889746161925917
 30
0.0
 11
-44.8393255099011
 21
5.349585220345247
 31
0.0
  0
LINE
  5
236
330
1F
100
AcDbEntity
  8
SKVIEW2
  6
CONTINUOUS
370
25
 62
7
100
AcDbLine
 10
-46.04502033617371
 20
6.97954411532978
 30
0.0
 11
-44.86881575424347
 21
5.803339533399548
 31
0.0
  0
LINE
  5
237
330
1F
100
AcDbEntity
  8
SKVIEW2
  6
CONTINUOUS
370
25
 62
7
100
AcDbLine
 10
-45.71055422086565
 20
7.069342068733647
 30
0.0
 11
-44.89830599858585
 21
6.257093846453849
 31
0.0
  0
LINE
  5
238
330
1F
100
AcDbEntity
  8
SKVIEW2
  6
CONTINUOUS
370
25
 62
7
100
AcDbLine
 10
-45.37608810555759
 20
7.15914002213751
 30
0.0
 11
-44.92779624292822
 21
6.710848159508146
 31
0.0
  0
LINE
  5
239
330
1F
100
AcDbEntity
  8
SKVIEW2
  6
CONTINUOUS
370
25
 62
7
100
AcDbLine
 10
-45.04162199024952
 20
7.248937975541377
 30
0.0
 11
-44.95728648727059
 21
7.164602472562439
 31
0.0
  0
LINE
  5
23A
330
1F
100
AcDbEntity
  8
SKVIEW2
  6
CONTINUOUS
370
25
 62
7
100
AcDbLine
 10
-44.5
 20
0.0
 30
0.0
 11
-44.20812518252047
 21
-5.090659003598777
 31
0.0
  0
LINE
  5
23B
330
1F
100
AcDbEntity
  8
SKVIEW2
  6
CONTINUOUS
370
25
 62
7
100
AcDbLine
 10
-44.20812518252047
 20
-5.090659003598777
 30
0.0
 11
-46.18852286217227
 21
-4.811329394660229
 31
0.0
  0
LINE
  5
23C
330
1F
100
AcDbEntity
  8
SKVIEW2
  6
CONTINUOUS
370
25
 62
7
100
AcDbLine
 10
-46.18852286217227
 20
-4.811329394660229
 30
0.0
 11
-44.5
 21
0.0
 31
0.0
  0
LINE
  5
23D
330
1F
100
AcDbEntity
  8
SKVIEW2
  6
CONTINUOUS
370
25
 62
7
100
AcDbLine
 10
-44.49097529208754
 20
-5.050763778864173
 30
0.0
 11
-44.22562646326909
 21
-4.785414950045723
 31
0.0
  0
LINE
  5
23E
330
1F
100
AcDbEntity
  8
SKVIEW2
  6
CONTINUOUS
370
25
 62
7
100
AcDbLine
 10
-44.8627951933115
 20
-4.9983196113762
 30
0.0
 11
-44.2486327279271
 21
-4.384157145991807
 31
0.0
  0
LINE
  5
23F
330
1F
100
AcDbEntity
  8
SKVIEW2
  6
CONTINUOUS
370
25
 62
7
100
AcDbLine
 10
-45.23461509453545
 20
-4.945875443888223
 30
0.0
 11
-44.27163899258511
 21
-3.982899341937888
 31
0.0
  0
LINE
  5
240
330
1F
100
AcDbEntity
  8
SKVIEW2
  6
CONTINUOUS
370
25
 62
7
100
AcDbLine
 10
-45.60643499575941
 20
-4.89343127640025
 30
0.0
 11
-44.29464525724313
 21
-3.581641537883968
 31
0.0
  0
LINE
  5
241
330
1F
100
AcDbEntity
  8
SKVIEW2
  6
CONTINUOUS
370
25
 62
7
100
AcDbLine
 10
-45.97825489698336
 20
-4.840987108912273
 30
0.0
 11
-44.31765152190113
 21
-3.180383733830048
 31
0.0
  0
LINE
  5
242
330
1F
100
AcDbEntity
  8
SKVIEW2
  6
CONTINUOUS
370
25
 62
7
100
AcDbLine
 10
-46.08884983362508
 20
-4.52731797684206
 30
0.0
 11
-44.34065778655915
 21
-2.779125929776132
 31
0.0
  0
LINE
  5
243
330
1F
100
AcDbEntity
  8
SKVIEW2
  6
CONTINUOUS
370
25
 62
7
100
AcDbLine
 10
-45.85944734833964
 20
-3.873651422844702
 30
0.0
 11
-44.36366405121716
 21
-2.377868125722216
 31
0.0
  0
LINE
  5
244
330
1F
100
AcDbEntity
  8
SKVIEW2
  6
CONTINUOUS
370
25
 62
7
100
AcDbLine
 10
-45.63004486305421
 20
-3.219984868847344
 30
0.0
 11
-44.38667031587516
 21
-1.976610321668296
 31
0.0
  0
LINE
  5
245
330
1F
100
AcDbEntity
  8
SKVIEW2
  6
CONTINUOUS
370
25
 62
7
100
AcDbLine
 10
-45.40064237776878
 20
-2.56631831484999
 30
0.0
 11
-44.40967658053317
 21
-1.575352517614384
 31
0.0
  0
LINE
  5
246
330
1F
100
AcDbEntity
  8
SKVIEW2
  6
CONTINUOUS
370
25
 62
7
100
AcDbLine
 10
-45.17123989248336
 20
-1.912651760852633
 30
0.0
 11
-44.43268284519118
 21
-1.174094713560464
 31
0.0
  0
LINE
  5
247
330
1F
100
AcDbEntity
  8
SKVIEW2
  6
CONTINUOUS
370
25
 62
7
100
AcDbLine
 10
-44.94183740719792
 20
-1.258985206855272
 30
0.0
 11
-44.45568910984919
 21
-0.7728369095065446
 31
0.0
  0
LINE
  5
248
330
1F
100
AcDbEntity
  8
SKVIEW2
  6
CONTINUOUS
370
25
 62
7
100
AcDbLine
 10
-44.71243492191249
 20
-0.6053186528579104
 30
0.0
 11
-44.4786953745072
 21
-0.371579105452625
 31
0.0
  0
LINE
  5
249
330
1F
100
AcDbEntity
  8
SKVIEW2
  6
CONTINUOUS
370
25
 62
7
100
AcDbLine
 10
-46.17423968317892
 20
-4.770630461599
 30
0.0
 11
-46.12451222731885
 21
-4.820357917459072
 31
0.0
  0
LINE
  5
24A
330
1F
100
AcDbEntity
  8
SKVIEW2
  6
CONTINUOUS
370
25
 62
7
100
AcDbLine
 10
-46.06402493501056
 20
-4.456581141055427
 30
0.0
 11
-45.63058044898358
 21
-4.890025627082409
 31
0.0
  0
LINE
  5
24B
330
1F
100
AcDbEntity
  8
SKVIEW2
  6
CONTINUOUS
370
25
 62
7
100
AcDbLine
 10
-45.9538101868422
 20
-4.142531820511854
 30
0.0
 11
-45.13664867064831
 21
-4.959693336705746
 31
0.0
  0
LINE
  5
24C
330
1F
100
AcDbEntity
  8
SKVIEW2
  6
CONTINUOUS
370
25
 62
7
100
AcDbLine
 10
-45.84359543867385
 20
-3.828482499968283
 30
0.0
 11
-44.64271689231305
 21
-5.029361046329081
 31
0.0
  0
LINE
  5
24D
330
1F
100
AcDbEntity
  8
SKVIEW2
  6
CONTINUOUS
370
25
 62
7
100
AcDbLine
 10
-45.7333806905055
 20
-3.514433179424712
 30
0.0
 11
-44.21122533271634
 21
-5.036588537213868
 31
0.0
  0
LINE
  5
24E
330
1F
100
AcDbEntity
  8
SKVIEW2
  6
CONTINUOUS
370
25
 62
7
100
AcDbLine
 10
-45.62316594233714
 20
-3.200383858881139
 30
0.0
 11
-44.23703020178642
 21
-4.586519599431849
 31
0.0
  0
LINE
  5
24F
330
1F
100
AcDbEntity
  8
SKVIEW2
  6
CONTINUOUS
370
25
 62
7
100
AcDbLine
 10
-45.51295119416878
 20
-2.886334538337566
 30
0.0
 11
-44.26283507085652
 21
-4.13645066164983
 31
0.0
  0
LINE
  5
250
330
1F
100
AcDbEntity
  8
SKVIEW2
  6
CONTINUOUS
370
25
 62
7
100
AcDbLine
 10
-45.40273644600042
 20
-2.572285217793999
 30
0.0
 11
-44.28863993992661
 21
-3.686381723867813
 31
0.0
  0
LINE
  5
251
330
1F
100
AcDbEntity
  8
SKVIEW2
  6
CONTINUOUS
370
25
 62
7
100
AcDbLine
 10
-45.29252169783207
 20
-2.258235897250426
 30
0.0
 11
-44.3144448089967
 21
-3.236312786085801
 31
0.0
  0
LINE
  5
252
330
1F
100
AcDbEntity
  8
SKVIEW2
  6
CONTINUOUS
370
25
 62
7
100
AcDbLine
 10
-45.18230694966371
 20
-1.944186576706857
 30
0.0
 11
-44.34024967806678
 21
-2.786243848303782
 31
0.0
  0
LINE
  5
253
330
1F
100
AcDbEntity
  8
SKVIEW2
  6
CONTINUOUS
370
25
 62
7
100
AcDbLine
 10
-45.07209220149535
 20
-1.630137256163282
 30
0.0
 11
-44.36605454713687
 21
-2.336174910521768
 31
0.0
  0
LINE
  5
254
330
1F
100
AcDbEntity
  8
SKVIEW2
  6
CONTINUOUS
370
25
 62
7
100
AcDbLine
 10
-44.961877453327
 20
-1.316087935619709
 30
0.0
 11
-44.39185941620696
 21
-1.886105972739749
 31
0.0
  0
LINE
  5
255
330
1F
100
AcDbEntity
  8
SKVIEW2
  6
CONTINUOUS
370
25
 62
7
100
AcDbLine
 10
-44.85166270515865
 20
-1.002038615076138
 30
0.0
 11
-44.41766428527704
 21
-1.436037034957735
 31
0.0
  0
LINE
  5
256
330
1F
100
AcDbEntity
  8
SKVIEW2
  6
CONTINUOUS
370
25
 62
7
100
AcDbLine
 10
-44.74144795699029
 20
-0.6879892945325672
 30
0.0
 11
-44.44346915434713
 21
-0.9859680971757179
 31
0.0
  0
LINE
  5
257
330
1F
100
AcDbEntity
  8
SKVIEW2
  6
CONTINUOUS
370
25
 62
7
100
AcDbLine
 10
-44.63123320882193
 20
-0.3739399739889926
 30
0.0
 11
-44.46927402341723
 21
-0.535899159393697
 31
0.0
  0
LINE
  5
258
330
1F
100
AcDbEntity
  8
SKVIEW2
  6
CONTINUOUS
370
25
 62
7
100
AcDbLine
 10
-44.52101846065357
 20
-0.0598906534454215
 30
0.0
 11
-44.49507889248731
 21
-0.0858302216116797
 31
0.0
  0
TEXT
  5
259
330
1F
100
AcDbEntity
  8
SKVIEW2
  6
CONTINUOUS
370
25
 62
7
100
AcDbText
 10
-47.57439620382259
 20
12.72815448221833
 30
0.0
 40
3.499999999999999
  1
7°
 50
303.7886206475196
 72
     1
 11
-46.27675821868679
 21
10.78893296212911
 31
0.0
100
AcDbText
  0
LINE
  5
25A
330
1F
100
AcDbEntity
  8
SKVIEW2
  6
CONTINUOUS
370
25
 62
7
100
AcDbLine
 10
-62.4
 20
0.0
 30
0.0
 11
-62.4
 21
-12.0
 31
0.0
  0
LINE
  5
25B
330
1F
100
AcDbEntity
  8
SKVIEW2
  6
CONTINUOUS
370
25
 62
7
100
AcDbLine
 10
-60.0
 20
-13.0
 30
0.0
 11
-60.0
 21
0.2946829500000003
 31
0.0
  0
LINE
  5
25C
330
1F
100
AcDbEntity
  8
SKVIEW2
  6
CONTINUOUS
370
25
 62
7
100
AcDbLine
 10
-78.325
 20
-12.0
 30
0.0
 11
-53.0
 21
-12.0
 31
0.0
  0
LINE
  5
25D
330
1F
100
AcDbEntity
  8
SKVIEW2
  6
CONTINUOUS
370
25
 62
7
100
AcDbLine
 10
-62.4
 20
-12.0
 30
0.0
 11
-67.4
 21
-13.0
 31
0.0
  0
LINE
  5
25E
330
1F
100
AcDbEntity
  8
SKVIEW2
  6
CONTINUOUS
370
25
 62
7
100
AcDbLine
 10
-67.4
 20
-13.0
 30
0.0
 11
-67.4
 21
-11.0
 31
0.0
  0
LINE
  5
25F
330
1F
100
AcDbEntity
  8
SKVIEW2
  6
CONTINUOUS
370
25
 62
7
100
AcDbLine
 10
-67.4
 20
-11.0
 30
0.0
 11
-62.4
 21
-12.0
 31
0.0
  0
LINE
  5
260
330
1F
100
AcDbEntity
  8
SKVIEW2
  6
CONTINUOUS
370
25
 62
7
100
AcDbLine
 10
-62.80052010206593
 20
-12.08010402041319
 30
0.0
 11
-62.66701340137729
 21
-11.94659731972454
 31
0.0
  0
LINE
  5
261
330
1F
100
AcDbEntity
  8
SKVIEW2
  6
CONTINUOUS
370
25
 62
7
100
AcDbLine
 10
-63.33085018795584
 20
-12.18617003759117
 30
0.0
 11
-63.02056679197056
 21
-11.87588664160589
 31
0.0
  0
LINE
  5
262
330
1F
100
AcDbEntity
  8
SKVIEW2
  6
CONTINUOUS
370
25
 62
7
100
AcDbLine
 10
-63.86118027384575
 20
-12.29223605476915
 30
0.0
 11
-63.37412018256383
 21
-11.80517596348723
 31
0.0
  0
LINE
  5
263
330
1F
100
AcDbEntity
  8
SKVIEW2
  6
CONTINUOUS
370
25
 62
7
100
AcDbLine
 10
-64.39151035973566
 20
-12.39830207194713
 30
0.0
 11
-63.72767357315711
 21
-11.73446528536858
 31
0.0
  0
LINE
  5
264
330
1F
100
AcDbEntity
  8
SKVIEW2
  6
CONTINUOUS
370
25
 62
7
100
AcDbLine
 10
-64.92184044562556
 20
-12.50436808912511
 30
0.0
 11
-64.08122696375038
 21
-11.66375460724992
 31
0.0
  0
LINE
  5
265
330
1F
100
AcDbEntity
  8
SKVIEW2
  6
CONTINUOUS
370
25
 62
7
100
AcDbLine
 10
-65.45217053151548
 20
-12.6104341063031
 30
0.0
 11
-64.43478035434364
 21
-11.59304392913127
 31
0.0
  0
LINE
  5
266
330
1F
100
AcDbEntity
  8
SKVIEW2
  6
CONTINUOUS
370
25
 62
7
100
AcDbLine
 10
-65.98250061740539
 20
-12.71650012348108
 30
0.0
 11
-64.78833374493692
 21
-11.52233325101261
 31
0.0
  0
LINE
  5
267
330
1F
100
AcDbEntity
  8
SKVIEW2
  6
CONTINUOUS
370
25
 62
7
100
AcDbLine
 10
-66.5128307032953
 20
-12.82256614065906
 30
0.0
 11
-65.1418871355302
 21
-11.45162257289396
 31
0.0
  0
LINE
  5
268
330
1F
100
AcDbEntity
  8
SKVIEW2
  6
CONTINUOUS
370
25
 62
7
100
AcDbLine
 10
-67.04316078918521
 20
-12.92863215783704
 30
0.0
 11
-65.49544052612347
 21
-11.38091189477531
 31
0.0
  0
LINE
  5
269
330
1F
100
AcDbEntity
  8
SKVIEW2
  6
CONTINUOUS
370
25
 62
7
100
AcDbLine
 10
-67.4
 20
-12.86120729993991
 30
0.0
 11
-65.84899391671675
 21
-11.31020121665665
 31
0.0
  0
LINE
  5
26A
330
1F
100
AcDbEntity
  8
SKVIEW2
  6
CONTINUOUS
370
25
 62
7
100
AcDbLine
 10
-67.4
 20
-12.43694323122798
 30
0.0
 11
-66.20254730731001
 21
-11.239490538538
 31
0.0
  0
LINE
  5
26B
330
1F
100
AcDbEntity
  8
SKVIEW2
  6
CONTINUOUS
370
25
 62
7
100
AcDbLine
 10
-67.4
 20
-12.01267916251605
 30
0.0
 11
-66.55610069790329
 21
-11.16877986041934
 31
0.0
  0
LINE
  5
26C
330
1F
100
AcDbEntity
  8
SKVIEW2
  6
CONTINUOUS
370
25
 62
7
100
AcDbLine
 10
-67.4
 20
-11.58841509380412
 30
0.0
 11
-66.90965408849657
 21
-11.09806918230069
 31
0.0
  0
LINE
  5
26D
330
1F
100
AcDbEntity
  8
SKVIEW2
  6
CONTINUOUS
370
25
 62
7
100
AcDbLine
 10
-67.4
 20
-11.16415102509219
 30
0.0
 11
-67.26320747908984
 21
-11.02735850418203
 31
0.0
  0
LINE
  5
26E
330
1F
100
AcDbEntity
  8
SKVIEW2
  6
CONTINUOUS
370
25
 62
7
100
AcDbLine
 10
-67.4
 20
-12.8612072999399
 30
0.0
 11
-67.28433941661659
 21
-12.97686788332332
 31
0.0
  0
LINE
  5
26F
330
1F
100
AcDbEntity
  8
SKVIEW2
  6
CONTINUOUS
370
25
 62
7
100
AcDbLine
 10
-67.4
 20
-12.43694323122797
 30
0.0
 11
-66.93078602602331
 21
-12.90615720520466
 31
0.0
  0
LINE
  5
270
330
1F
100
AcDbEntity
  8
SKVIEW2
  6
CONTINUOUS
370
25
 62
7
100
AcDbLine
 10
-67.4
 20
-12.01267916251604
 30
0.0
 11
-66.57723263543004
 21
-12.83544652708601
 31
0.0
  0
LINE
  5
271
330
1F
100
AcDbEntity
  8
SKVIEW2
  6
CONTINUOUS
370
25
 62
7
100
AcDbLine
 10
-67.4
 20
-11.58841509380412
 30
0.0
 11
-66.22367924483676
 21
-12.76473584896735
 31
0.0
  0
LINE
  5
272
330
1F
100
AcDbEntity
  8
SKVIEW2
  6
CONTINUOUS
370
25
 62
7
100
AcDbLine
 10
-67.4
 20
-11.16415102509219
 30
0.0
 11
-65.87012585424348
 21
-12.6940251708487
 31
0.0
  0
LINE
  5
273
330
1F
100
AcDbEntity
  8
SKVIEW2
  6
CONTINUOUS
370
25
 62
7
100
AcDbLine
 10
-67.07485869547533
 20
-11.06502826090493
 30
0.0
 11
-65.51657246365022
 21
-12.62331449273004
 31
0.0
  0
LINE
  5
274
330
1F
100
AcDbEntity
  8
SKVIEW2
  6
CONTINUOUS
370
25
 62
7
100
AcDbLine
 10
-66.54452860958541
 20
-11.17109427808292
 30
0.0
 11
-65.16301907305694
 21
-12.55260381461139
 31
0.0
  0
LINE
  5
275
330
1F
100
AcDbEntity
  8
SKVIEW2
  6
CONTINUOUS
370
25
 62
7
100
AcDbLine
 10
-66.01419852369551
 20
-11.2771602952609
 30
0.0
 11
-64.80946568246367
 21
-12.48189313649273
 31
0.0
  0
LINE
  5
276
330
1F
100
AcDbEntity
  8
SKVIEW2
  6
CONTINUOUS
370
25
 62
7
100
AcDbLine
 10
-65.4838684378056
 20
-11.38322631243888
 30
0.0
 11
-64.45591229187039
 21
-12.41118245837408
 31
0.0
  0
LINE
  5
277
330
1F
100
AcDbEntity
  8
SKVIEW2
  6
CONTINUOUS
370
25
 62
7
100
AcDbLine
 10
-64.95353835191568
 20
-11.48929232961686
 30
0.0
 11
-64.10235890127711
 21
-12.34047178025542
 31
0.0
  0
LINE
  5
278
330
1F
100
AcDbEntity
  8
SKVIEW2
  6
CONTINUOUS
370
25
 62
7
100
AcDbLine
 10
-64.42320826602577
 20
-11.59535834679485
 30
0.0
 11
-63.74880551068384
 21
-12.26976110213677
 31
0.0
  0
LINE
  5
279
330
1F
100
AcDbEntity
  8
SKVIEW2
  6
CONTINUOUS
370
25
 62
7
100
AcDbLine
 10
-63.89287818013586
 20
-11.70142436397283
 30
0.0
 11
-63.39525212009057
 21
-12.19905042401811
 31
0.0
  0
LINE
  5
27A
330
1F
100
AcDbEntity
  8
SKVIEW2
  6
CONTINUOUS
370
25
 62
7
100
AcDbLine
 10
-63.36254809424595
 20
-11.80749038115081
 30
0.0
 11
-63.0416987294973
 21
-12.12833974589946
 31
0.0
  0
LINE
  5
27B
330
1F
100
AcDbEntity
  8
SKVIEW2
  6
CONTINUOUS
370
25
 62
7
100
AcDbLine
 10
-62.83221800835604
 20
-11.91355639832879
 30
0.0
 11
-62.68814533890403
 21
-12.05762906778081
 31
0.0
  0
LINE
  5
27C
330
1F
100
AcDbEntity
  8
SKVIEW2
  6
CONTINUOUS
370
25
 62
7
100
AcDbLine
 10
-60.0
 20
-12.0
 30
0.0
 11
-55.0
 21
-11.0
 31
0.0
  0
LINE
  5
27D
330
1F
100
AcDbEntity
  8
SKVIEW2
  6
CONTINUOUS
370
25
 62
7
100
AcDbLine
 10
-55.0
 20
-11.0
 30
0.0
 11
-55.0
 21
-13.0
 31
0.0
  0
LINE
  5
27E
330
1F
100
AcDbEntity
  8
SKVIEW2
  6
CONTINUOUS
370
25
 62
7
100
AcDbLine
 10
-55.0
 20
-13.0
 30
0.0
 11
-60.0
 21
-12.0
 31
0.0
  0
LINE
  5
27F
330
1F
100
AcDbEntity
  8
SKVIEW2
  6
CONTINUOUS
370
25
 62
7
100
AcDbLine
 10
-55.23698092694306
 20
-12.95260381461139
 30
0.0
 11
-55.0
 21
-12.71562288766833
 31
0.0
  0
LINE
  5
280
330
1F
100
AcDbEntity
  8
SKVIEW2
  6
CONTINUOUS
370
25
 62
7
100
AcDbLine
 10
-55.59053431753633
 20
-12.88189313649273
 30
0.0
 11
-55.0
 21
-12.2913588189564
 31
0.0
  0
LINE
  5
281
330
1F
100
AcDbEntity
  8
SKVIEW2
  6
CONTINUOUS
370
25
 62
7
100
AcDbLine
 10
-55.94408770812961
 20
-12.81118245837408
 30
0.0
 11
-55.0
 21
-11.86709475024447
 31
0.0
  0
LINE
  5
282
330
1F
100
AcDbEntity
  8
SKVIEW2
  6
CONTINUOUS
370
25
 62
7
100
AcDbLine
 10
-56.29764109872288
 20
-12.74047178025542
 30
0.0
 11
-55.0
 21
-11.44283068153254
 31
0.0
  0
LINE
  5
283
330
1F
100
AcDbEntity
  8
SKVIEW2
  6
CONTINUOUS
370
25
 62
7
100
AcDbLine
 10
-56.65119448931615
 20
-12.66976110213677
 30
0.0
 11
-55.0
 21
-11.01856661282061
 31
0.0
  0
LINE
  5
284
330
1F
100
AcDbEntity
  8
SKVIEW2
  6
CONTINUOUS
370
25
 62
7
100
AcDbLine
 10
-57.00474787990943
 20
-12.59905042401811
 30
0.0
 11
-55.50712181986414
 21
-11.10142436397283
 31
0.0
  0
LINE
  5
285
330
1F
100
AcDbEntity
  8
SKVIEW2
  6
CONTINUOUS
370
25
 62
7
100
AcDbLine
 10
-57.3583012705027
 20
-12.52833974589946
 30
0.0
 11
-56.03745190575405
 21
-11.20749038115081
 31
0.0
  0
LINE
  5
286
330
1F
100
AcDbEntity
  8
SKVIEW2
  6
CONTINUOUS
370
25
 62
7
100
AcDbLine
 10
-57.71185466109598
 20
-12.4576290677808
 30
0.0
 11
-56.56778199164396
 21
-11.31355639832879
 31
0.0
  0
LINE
  5
287
330
1F
100
AcDbEntity
  8
SKVIEW2
  6
CONTINUOUS
370
25
 62
7
100
AcDbLine
 10
-58.06540805168925
 20
-12.38691838966215
 30
0.0
 11
-57.09811207753387
 21
-11.41962241550678
 31
0.0
  0
LINE
  5
288
330
1F
100
AcDbEntity
  8
SKVIEW2
  6
CONTINUOUS
370
25
 62
7
100
AcDbLine
 10
-58.41896144228252
 20
-12.31620771154349
 30
0.0
 11
-57.62844216342378
 21
-11.52568843268476
 31
0.0
  0
LINE
  5
289
330
1F
100
AcDbEntity
  8
SKVIEW2
  6
CONTINUOUS
370
25
 62
7
100
AcDbLine
 10
-58.77251483287579
 20
-12.24549703342484
 30
0.0
 11
-58.15877224931369
 21
-11.63175444986274
 31
0.0
  0
LINE
  5
28A
330
1F
100
AcDbEntity
  8
SKVIEW2
  6
CONTINUOUS
370
25
 62
7
100
AcDbLine
 10
-59.12606822346907
 20
-12.17478635530619
 30
0.0
 11
-58.6891023352036
 21
-11.73782046704072
 31
0.0
  0
LINE
  5
28B
330
1F
100
AcDbEntity
  8
SKVIEW2
  6
CONTINUOUS
370
25
 62
7
100
AcDbLine
 10
-59.47962161406234
 20
-12.10407567718753
 30
0.0
 11
-59.21943242109351
 21
-11.8438864842187
 31
0.0
  0
LINE
  5
28C
330
1F
100
AcDbEntity
  8
SKVIEW2
  6
CONTINUOUS
370
25
 62
7
100
AcDbLine
 10
-59.83317500465562
 20
-12.03336499906888
 30
0.0
 11
-59.74976250698342
 21
-11.94995250139668
 31
0.0
  0
LINE
  5
28D
330
1F
100
AcDbEntity
  8
SKVIEW2
  6
CONTINUOUS
370
25
 62
7
100
AcDbLine
 10
-59.85430694218236
 20
-11.97086138843647
 30
0.0
 11
-59.78146041327354
 21
-12.04370791734529
 31
0.0
  0
LINE
  5
28E
330
1F
100
AcDbEntity
  8
SKVIEW2
  6
CONTINUOUS
370
25
 62
7
100
AcDbLine
 10
-59.50075355158909
 20
-11.90015071031782
 30
0.0
 11
-59.25113032738363
 21
-12.14977393452327
 31
0.0
  0
LINE
  5
28F
330
1F
100
AcDbEntity
  8
SKVIEW2
  6
CONTINUOUS
370
25
 62
7
100
AcDbLine
 10
-59.14720016099582
 20
-11.82944003219916
 30
0.0
 11
-58.72080024149373
 21
-12.25583995170125
 31
0.0
  0
LINE
  5
290
330
1F
100
AcDbEntity
  8
SKVIEW2
  6
CONTINUOUS
370
25
 62
7
100
AcDbLine
 10
-58.79364677040254
 20
-11.75872935408051
 30
0.0
 11
-58.19047015560381
 21
-12.36190596887924
 31
0.0
  0
LINE
  5
291
330
1F
100
AcDbEntity
  8
SKVIEW2
  6
CONTINUOUS
370
25
 62
7
100
AcDbLine
 10
-58.44009337980927
 20
-11.68801867596185
 30
0.0
 11
-57.6601400697139
 21
-12.46797198605722
 31
0.0
  0
LINE
  5
292
330
1F
100
AcDbEntity
  8
SKVIEW2
  6
CONTINUOUS
370
25
 62
7
100
AcDbLine
 10
-58.08653998921599
 20
-11.6173079978432
 30
0.0
 11
-57.12980998382399
 21
-12.5740380032352
 31
0.0
  0
LINE
  5
293
330
1F
100
AcDbEntity
  8
SKVIEW2
  6
CONTINUOUS
370
25
 62
7
100
AcDbLine
 10
-57.73298659862272
 20
-11.54659731972454
 30
0.0
 11
-56.59947989793408
 21
-12.68010402041318
 31
0.0
  0
LINE
  5
294
330
1F
100
AcDbEntity
  8
SKVIEW2
  6
CONTINUOUS
370
25
 62
7
100
AcDbLine
 10
-57.37943320802945
 20
-11.47588664160589
 30
0.0
 11
-56.06914981204417
 21
-12.78617003759116
 31
0.0
  0
LINE
  5
295
330
1F
100
AcDbEntity
  8
SKVIEW2
  6
CONTINUOUS
370
25
 62
7
100
AcDbLine
 10
-57.02587981743617
 20
-11.40517596348723
 30
0.0
 11
-55.53881972615426
 21
-12.89223605476915
 31
0.0
  0
LINE
  5
296
330
1F
100
AcDbEntity
  8
SKVIEW2
  6
CONTINUOUS
370
25
 62
7
100
AcDbLine
 10
-56.6723264268429
 20
-11.33446528536858
 30
0.0
 11
-55.00848964026435
 21
-12.99830207194713
 31
0.0
  0
LINE
  5
297
330
1F
100
AcDbEntity
  8
SKVIEW2
  6
CONTINUOUS
370
25
 62
7
100
AcDbLine
 10
-56.31877303624962
 20
-11.26375460724993
 30
0.0
 11
-55.0
 21
-12.58252764349955
 31
0.0
  0
LINE
  5
298
330
1F
100
AcDbEntity
  8
SKVIEW2
  6
CONTINUOUS
370
25
 62
7
100
AcDbLine
 10
-55.96521964565635
 20
-11.19304392913127
 30
0.0
 11
-55.0
 21
-12.15826357478762
 31
0.0
  0
LINE
  5
299
330
1F
100
AcDbEntity
  8
SKVIEW2
  6
CONTINUOUS
370
25
 62
7
100
AcDbLine
 10
-55.61166625506308
 20
-11.12233325101262
 30
0.0
 11
-55.0
 21
-11.7339995060757
 31
0.0
  0
LINE
  5
29A
330
1F
100
AcDbEntity
  8
SKVIEW2
  6
CONTINUOUS
370
25
 62
7
100
AcDbLine
 10
-55.25811286446981
 20
-11.05162257289396
 30
0.0
 11
-55.0
 21
-11.30973543736377
 31
0.0
  0
TEXT
  5
29B
330
1F
100
AcDbEntity
  8
SKVIEW2
  6
CONTINUOUS
370
25
 62
7
100
AcDbText
 10
-76.3625
 20
-10.5
 30
0.0
 40
3.5
  1
2.4
 72
     1
 11
-72.8625
 21
-10.5
 31
0.0
100
AcDbText
  0
CIRCLE
  5
29C
330
1F
100
AcDbEntity
  8
SK4
  6
LONGDASH_DASH
370
25
 62
2
100
AcDbCircle
 10
2.7
 20
2.7
 30
0.0
 40
2.7
  0
LINE
  5
29D
330
1F
100
AcDbEntity
  8
SK2
  6
CONTINUOUS
370
25
 62
7
100
AcDbLine
 10
5.4
 20
5.0
 30
0.0
 11
5.400000000000001
 21
20.8
 31
0.0
  0
LINE
  5
29E
330
1F
100
AcDbEntity
  8
SK2
  6
CONTINUOUS
370
25
 62
7
100
AcDbLine
 10
5.0
 20
5.400001
 30
0.0
 11
19.79999960995994
 21
5.400001
 31
0.0
  0
LINE
  5
29F
330
1F
100
AcDbEntity
  8
SK2
  6
CONTINUOUS
370
25
 62
7
100
AcDbLine
 10
19.80000002290428
 20
5.400001
 30
0.0
 11
20.80000000000006
 21
5.400001
 31
0.0
  0
ARC
  5
2A0
330
1F
100
AcDbEntity
  8
SK2
  6
CONTINUOUS
370
25
 62
7
100
AcDbCircle
 10
5.399999999999999
 20
5.399999999999998
 30
0.0
 40
14.4
100
AcDbArc
 50
0.0
 51
90.0
  0
LINE
  5
2A1
330
1F
100
AcDbEntity
  8
SK2
  6
CONTINUOUS
370
25
 62
7
100
AcDbLine
 10
5.4
 20
19.8
 30
0.0
 11
10.49768255174529
 21
19.91675873257128
 31
0.0
  0
LINE
  5
2A2
330
1F
100
AcDbEntity
  8
SK2
  6
CONTINUOUS
370
25
 62
7
100
AcDbLine
 10
10.49768255174529
 20
19.91675873257128
 30
0.0
 11
10.15046032952306
 21
17.94713015631761
 31
0.0
  0
LINE
  5
2A3
330
1F
100
AcDbEntity
  8
SK2
  6
CONTINUOUS
370
25
 62
7
100
AcDbLine
 10
10.15046032952306
 20
17.94713015631761
 30
0.0
 11
5.4
 21
19.8
 31
0.0
  0
LINE
  5
2A4
330
1F
100
AcDbEntity
  8
SK2
  6
CONTINUOUS
370
25
 62
7
100
AcDbLine
 10
9.960287768408117
 20
18.02130507393472
 30
0.0
 11
10.20703513199232
 21
18.26805243751892
 31
0.0
  0
LINE
  5
2A5
330
1F
100
AcDbEntity
  8
SK2
  6
CONTINUOUS
370
25
 62
7
100
AcDbLine
 10
9.655070616638815
 20
18.14035199087735
 30
0.0
 11
10.2978347719106
 21
18.78311614614914
 31
0.0
  0
LINE
  5
2A6
330
1F
100
AcDbEntity
  8
SK2
  6
CONTINUOUS
370
25
 62
7
100
AcDbLine
 10
9.349853464869513
 20
18.25939890781997
 30
0.0
 11
10.38863441182889
 21
19.29817985477935
 31
0.0
  0
LINE
  5
2A7
330
1F
100
AcDbEntity
  8
SK2
  6
CONTINUOUS
370
25
 62
7
100
AcDbLine
 10
9.044636313100211
 20
18.3784458247626
 30
0.0
 11
10.47943405174718
 21
19.81324356340957
 31
0.0
  0
LINE
  5
2A8
330
1F
100
AcDbEntity
  8
SK2
  6
CONTINUOUS
370
25
 62
7
100
AcDbLine
 10
8.73941916133091
 20
18.49749274170522
 30
0.0
 11
10.15073865308291
 21
19.90881223345723
 31
0.0
  0
LINE
  5
2A9
330
1F
100
AcDbEntity
  8
SK2
  6
CONTINUOUS
370
25
 62
7
100
AcDbLine
 10
8.434202009561607
 20
18.61653965864785
 30
0.0
 11
9.716529333904063
 21
19.89886698299031
 31
0.0
  0
LINE
  5
2AA
330
1F
100
AcDbEntity
  8
SK2
  6
CONTINUOUS
370
25
 62
7
100
AcDbLine
 10
8.128984857792304
 20
18.73558657559047
 30
0.0
 11
9.282320014725215
 21
19.88892173252339
 31
0.0
  0
LINE
  5
2AB
330
1F
100
AcDbEntity
  8
SK2
  6
CONTINUOUS
370
25
 62
7
100
AcDbLine
 10
7.823767706023003
 20
18.8546334925331
 30
0.0
 11
8.848110695546366
 21
19.87897648205647
 31
0.0
  0
LINE
  5
2AC
330
1F
100
AcDbEntity
  8
SK2
  6
CONTINUOUS
370
25
 62
7
100
AcDbLine
 10
7.518550554253701
 20
18.97368040947573
 30
0.0
 11
8.413901376367518
 21
19.86903123158955
 31
0.0
  0
LINE
  5
2AD
330
1F
100
AcDbEntity
  8
SK2
  6
CONTINUOUS
370
25
 62
7
100
AcDbLine
 10
7.2133334024844
 20
19.09272732641836
 30
0.0
 11
7.979692057188668
 21
19.85908598112262
 31
0.0
  0
LINE
  5
2AE
330
1F
100
AcDbEntity
  8
SK2
  6
CONTINUOUS
370
25
 62
7
100
AcDbLine
 10
6.908116250715098
 20
19.21177424336098
 30
0.0
 11
7.545482738009819
 21
19.8491407306557
 31
0.0
  0
LINE
  5
2AF
330
1F
100
AcDbEntity
  8
SK2
  6
CONTINUOUS
370
25
 62
7
100
AcDbLine
 10
6.602899098945795
 20
19.33082116030361
 30
0.0
 11
7.111273418830971
 21
19.83919548018878
 31
0.0
  0
LINE
  5
2B0
330
1F
100
AcDbEntity
  8
SK2
  6
CONTINUOUS
370
25
 62
7
100
AcDbLine
 10
6.297681947176494
 20
19.44986807724623
 30
0.0
 11
6.677064099652122
 21
19.82925022972186
 31
0.0
  0
LINE
  5
2B1
330
1F
100
AcDbEntity
  8
SK2
  6
CONTINUOUS
370
25
 62
7
100
AcDbLine
 10
5.992464795407192
 20
19.56891499418886
 30
0.0
 11
6.242854780473273
 21
19.81930497925494
 31
0.0
  0
LINE
  5
2B2
330
1F
100
AcDbEntity
  8
SK2
  6
CONTINUOUS
370
25
 62
7
100
AcDbLine
 10
5.687247643637888
 20
19.68796191113148
 30
0.0
 11
5.808645461294423
 21
19.80935972878802
 31
0.0
  0
LINE
  5
2B3
330
1F
100
AcDbEntity
  8
SK2
  6
CONTINUOUS
370
25
 62
7
100
AcDbLine
 10
5.650115410112489
 20
19.8057287126032
 30
0.0
 11
5.819444142104119
 21
19.63639998061157
 31
0.0
  0
LINE
  5
2B4
330
1F
100
AcDbEntity
  8
SK2
  6
CONTINUOUS
370
25
 62
7
100
AcDbLine
 10
6.064879604871032
 20
19.81522858655659
 30
0.0
 11
6.515004690603548
 21
19.36510350082407
 31
0.0
  0
LINE
  5
2B5
330
1F
100
AcDbEntity
  8
SK2
  6
CONTINUOUS
370
25
 62
7
100
AcDbLine
 10
6.479643799629573
 20
19.82472846050997
 30
0.0
 11
7.210565239102974
 21
19.09380702103657
 31
0.0
  0
LINE
  5
2B6
330
1F
100
AcDbEntity
  8
SK2
  6
CONTINUOUS
370
25
 62
7
100
AcDbLine
 10
6.894407994388115
 20
19.83422833446335
 30
0.0
 11
7.906125787602402
 21
18.82251054124907
 31
0.0
  0
LINE
  5
2B7
330
1F
100
AcDbEntity
  8
SK2
  6
CONTINUOUS
370
25
 62
7
100
AcDbLine
 10
7.309172189146658
 20
19.84372820841674
 30
0.0
 11
8.60168633610183
 21
18.55121406146157
 31
0.0
  0
LINE
  5
2B8
330
1F
100
AcDbEntity
  8
SK2
  6
CONTINUOUS
370
25
 62
7
100
AcDbLine
 10
7.723936383905202
 20
19.85322808237013
 30
0.0
 11
9.297246884601261
 21
18.27991758167407
 31
0.0
  0
LINE
  5
2B9
330
1F
100
AcDbEntity
  8
SK2
  6
CONTINUOUS
370
25
 62
7
100
AcDbLine
 10
8.138700578663745
 20
19.86272795632351
 30
0.0
 11
9.992807433100689
 21
18.00862110188657
 31
0.0
  0
LINE
  5
2BA
330
1F
100
AcDbEntity
  8
SK2
  6
CONTINUOUS
370
25
 62
7
100
AcDbLine
 10
8.553464773422286
 20
19.8722278302769
 30
0.0
 11
10.19963239815761
 21
18.22606020554158
 31
0.0
  0
LINE
  5
2BB
330
1F
100
AcDbEntity
  8
SK2
  6
CONTINUOUS
370
25
 62
7
100
AcDbLine
 10
8.968228968180828
 20
19.88172770423029
 30
0.0
 11
10.26321608375536
 21
18.58674058865575
 31
0.0
  0
LINE
  5
2BC
330
1F
100
AcDbEntity
  8
SK2
  6
CONTINUOUS
370
25
 62
7
100
AcDbLine
 10
9.382993162939371
 20
19.89122757818367
 30
0.0
 11
10.32679976935312
 21
18.94742097176992
 31
0.0
  0
LINE
  5
2BD
330
1F
100
AcDbEntity
  8
SK2
  6
CONTINUOUS
370
25
 62
7
100
AcDbLine
 10
9.797757357697913
 20
19.90072745213705
 30
0.0
 11
10.39038345495087
 21
19.30810135488409
 31
0.0
  0
LINE
  5
2BE
330
1F
100
AcDbEntity
  8
SK2
  6
CONTINUOUS
370
25
 62
7
100
AcDbLine
 10
10.21252155245645
 20
19.91022732609044
 30
0.0
 11
10.45396714054862
 21
19.66878173799827
 31
0.0
  0
LINE
  5
2BF
330
1F
100
AcDbEntity
  8
SK2
  6
CONTINUOUS
370
25
 62
7
100
AcDbLine
 10
19.8
 20
5.399999999999998
 30
0.0
 11
17.94713015631761
 21
10.15046032952306
 31
0.0
  0
LINE
  5
2C0
330
1F
100
AcDbEntity
  8
SK2
  6
CONTINUOUS
370
25
 62
7
100
AcDbLine
 10
17.94713015631761
 20
10.15046032952306
 30
0.0
 11
19.91675873257128
 21
10.49768255174529
 31
0.0
  0
LINE
  5
2C1
330
1F
100
AcDbEntity
  8
SK2
  6
CONTINUOUS
370
25
 62
7
100
AcDbLine
 10
19.91675873257128
 20
10.49768255174529
 30
0.0
 11
19.8
 21
5.399999999999998
 31
0.0
  0
LINE
  5
2C2
330
1F
100
AcDbEntity
  8
SK2
  6
CONTINUOUS
370
25
 62
7
100
AcDbLine
 10
19.78475258868828
 20
5.439091910751973
 30
0.0
 11
19.80127377783786
 21
5.455613099901559
 31
0.0
  0
LINE
  5
2C3
330
1F
100
AcDbEntity
  8
SK2
  6
CONTINUOUS
370
25
 62
7
100
AcDbLine
 10
19.66570567174565
 20
5.744309062521275
 30
0.0
 11
19.81121902830478
 21
5.889822419080406
 31
0.0
  0
LINE
  5
2C4
330
1F
100
AcDbEntity
  8
SK2
  6
CONTINUOUS
370
25
 62
7
100
AcDbLine
 10
19.54665875480303
 20
6.049526214290577
 30
0.0
 11
19.82116427877171
 21
6.324031738259258
 31
0.0
  0
LINE
  5
2C5
330
1F
100
AcDbEntity
  8
SK2
  6
CONTINUOUS
370
25
 62
7
100
AcDbLine
 10
19.4276118378604
 20
6.35474336605988
 30
0.0
 11
19.83110952923863
 21
6.758241057438108
 31
0.0
  0
LINE
  5
2C6
330
1F
100
AcDbEntity
  8
SK2
  6
CONTINUOUS
370
25
 62
7
100
AcDbLine
 10
19.30856492091778
 20
6.659960517829186
 30
0.0
 11
19.84105477970555
 21
7.192450376616955
 31
0.0
  0
LINE
  5
2C7
330
1F
100
AcDbEntity
  8
SK2
  6
CONTINUOUS
370
25
 62
7
100
AcDbLine
 10
19.18951800397515
 20
6.965177669598484
 30
0.0
 11
19.85100003017247
 21
7.626659695795807
 31
0.0
  0
LINE
  5
2C8
330
1F
100
AcDbEntity
  8
SK2
  6
CONTINUOUS
370
25
 62
7
100
AcDbLine
 10
19.07047108703253
 20
7.270394821367788
 30
0.0
 11
19.86094528063939
 21
8.060869014974653
 31
0.0
  0
LINE
  5
2C9
330
1F
100
AcDbEntity
  8
SK2
  6
CONTINUOUS
370
25
 62
7
100
AcDbLine
 10
18.9514241700899
 20
7.575611973137088
 30
0.0
 11
19.87089053110631
 21
8.495078334153503
 31
0.0
  0
LINE
  5
2CA
330
1F
100
AcDbEntity
  8
SK2
  6
CONTINUOUS
370
25
 62
7
100
AcDbLine
 10
18.83237725314727
 20
7.880829124906393
 30
0.0
 11
19.88083578157323
 21
8.92928765333235
 31
0.0
  0
LINE
  5
2CB
330
1F
100
AcDbEntity
  8
SK2
  6
CONTINUOUS
370
25
 62
7
100
AcDbLine
 10
18.71333033620465
 20
8.186046276675691
 30
0.0
 11
19.89078103204016
 21
9.363496972511202
 31
0.0
  0
LINE
  5
2CC
330
1F
100
AcDbEntity
  8
SK2
  6
CONTINUOUS
370
25
 62
7
100
AcDbLine
 10
18.59428341926202
 20
8.491263428444999
 30
0.0
 11
19.90072628250708
 21
9.797706291690055
 31
0.0
  0
LINE
  5
2CD
330
1F
100
AcDbEntity
  8
SK2
  6
CONTINUOUS
370
25
 62
7
100
AcDbLine
 10
18.4752365023194
 20
8.796480580214299
 30
0.0
 11
19.910671532974
 21
10.2319156108689
 31
0.0
  0
LINE
  5
2CE
330
1F
100
AcDbEntity
  8
SK2
  6
CONTINUOUS
370
25
 62
7
100
AcDbLine
 10
18.35618958537677
 20
9.101697731983597
 30
0.0
 11
19.71695059343914
 21
10.46245874004597
 31
0.0
  0
LINE
  5
2CF
330
1F
100
AcDbEntity
  8
SK2
  6
CONTINUOUS
370
25
 62
7
100
AcDbLine
 10
18.23714266843415
 20
9.406914883752902
 30
0.0
 11
19.20188688480892
 21
10.37165910012768
 31
0.0
  0
LINE
  5
2D0
330
1F
100
AcDbEntity
  8
SK2
  6
CONTINUOUS
370
25
 62
7
100
AcDbLine
 10
18.11809575149152
 20
9.7121320355222
 30
0.0
 11
18.68682317617871
 21
10.28085946020939
 31
0.0
  0
LINE
  5
2D1
330
1F
100
AcDbEntity
  8
SK2
  6
CONTINUOUS
370
25
 62
7
100
AcDbLine
 10
17.99904883454889
 20
10.01734918729151
 30
0.0
 11
18.17175946754849
 21
10.19005982029111
 31
0.0
  0
LINE
  5
2D2
330
1F
100
AcDbEntity
  8
SK2
  6
CONTINUOUS
370
25
 62
7
100
AcDbLine
 10
19.63639998061154
 20
5.819444142104185
 30
0.0
 11
19.8057287126032
 21
5.65011541011253
 31
0.0
  0
LINE
  5
2D3
330
1F
100
AcDbEntity
  8
SK2
  6
CONTINUOUS
370
25
 62
7
100
AcDbLine
 10
19.36510350082404
 20
6.515004690603607
 30
0.0
 11
19.81522858655659
 21
6.06487960487107
 31
0.0
  0
LINE
  5
2D4
330
1F
100
AcDbEntity
  8
SK2
  6
CONTINUOUS
370
25
 62
7
100
AcDbLine
 10
19.09380702103655
 20
7.210565239103033
 30
0.0
 11
19.82472846050997
 21
6.479643799629613
 31
0.0
  0
LINE
  5
2D5
330
1F
100
AcDbEntity
  8
SK2
  6
CONTINUOUS
370
25
 62
7
100
AcDbLine
 10
18.82251054124905
 20
7.906125787602459
 30
0.0
 11
19.83422833446336
 21
6.894407994388153
 31
0.0
  0
LINE
  5
2D6
330
1F
100
AcDbEntity
  8
SK2
  6
CONTINUOUS
370
25
 62
7
100
AcDbLine
 10
18.55121406146155
 20
8.601686336101885
 30
0.0
 11
19.84372820841674
 21
7.309172189146697
 31
0.0
  0
LINE
  5
2D7
330
1F
100
AcDbEntity
  8
SK2
  6
CONTINUOUS
370
25
 62
7
100
AcDbLine
 10
18.27991758167405
 20
9.297246884601318
 30
0.0
 11
19.85322808237013
 21
7.723936383905237
 31
0.0
  0
LINE
  5
2D8
330
1F
100
AcDbEntity
  8
SK2
  6
CONTINUOUS
370
25
 62
7
100
AcDbLine
 10
18.00862110188655
 20
9.99280743310074
 30
0.0
 11
19.86272795632351
 21
8.13870057866378
 31
0.0
  0
LINE
  5
2D9
330
1F
100
AcDbEntity
  8
SK2
  6
CONTINUOUS
370
25
 62
7
100
AcDbLine
 10
18.22606020554161
 20
10.19963239815761
 30
0.0
 11
19.8722278302769
 21
8.55346477342232
 31
0.0
  0
LINE
  5
2DA
330
1F
100
AcDbEntity
  8
SK2
  6
CONTINUOUS
370
25
 62
7
100
AcDbLine
 10
18.58674058865578
 20
10.26321608375536
 30
0.0
 11
19.88172770423029
 21
8.96822896818086
 31
0.0
  0
LINE
  5
2DB
330
1F
100
AcDbEntity
  8
SK2
  6
CONTINUOUS
370
25
 62
7
100
AcDbLine
 10
18.94742097176996
 20
10.32679976935312
 30
0.0
 11
19.89122757818367
 21
9.382993162939403
 31
0.0
  0
LINE
  5
2DC
330
1F
100
AcDbEntity
  8
SK2
  6
CONTINUOUS
370
25
 62
7
100
AcDbLine
 10
19.30810135488413
 20
10.39038345495087
 30
0.0
 11
19.90072745213706
 21
9.797757357697943
 31
0.0
  0
LINE
  5
2DD
330
1F
100
AcDbEntity
  8
SK2
  6
CONTINUOUS
370
25
 62
7
100
AcDbLine
 10
19.66878173799831
 20
10.45396714054863
 30
0.0
 11
19.91022732609045
 21
10.21252155245649
 31
0.0
  0
TEXT
  5
2DE
330
1F
100
AcDbEntity
  8
SK2
  6
CONTINUOUS
370
25
 62
7
100
AcDbText
 10
13.96188460886711
 20
19.3241110328651
 30
0.0
 40
3.499999999999999
  1
90°
 50
315.0000000000001
 72
     1
 11
16.64299782086611
 21
16.64299782086611
 31
0.0
100
AcDbText
  0
LINE
  5
2DF
330
1F
100
AcDbEntity
  8
SK2
  6
CONTINUOUS
370
25
 62
7
100
AcDbLine
 10
0.0
 20
0.4
 30
0.0
 11
-0.0000000000000012
 21
-19.5
 31
0.0
  0
LINE
  5
2E0
330
1F
100
AcDbEntity
  8
SK2
  6
CONTINUOUS
370
25
 62
7
100
AcDbLine
 10
5.399999999999999
 20
0.0390524300000004
 30
0.0
 11
5.4
 21
0.3999999999999986
 31
0.0
  0
LINE
  5
2E1
330
1F
100
AcDbEntity
  8
SK2
  6
CONTINUOUS
370
25
 62
7
100
AcDbLine
 10
5.399999999999999
 20
-19.5
 30
0.0
 11
5.399999999999999
 21
-0.058578644999999
 31
0.0
  0
LINE
  5
2E2
330
1F
100
AcDbEntity
  8
SK2
  6
CONTINUOUS
370
25
 62
7
100
AcDbLine
 10
-19.425
 20
-18.5
 30
0.0
 11
12.4
 21
-18.5
 31
0.0
  0
LINE
  5
2E3
330
1F
100
AcDbEntity
  8
SK2
  6
CONTINUOUS
370
25
 62
7
100
AcDbLine
 10
0.0
 20
-18.5
 30
0.0
 11
-5.0
 21
-19.5
 31
0.0
  0
LINE
  5
2E4
330
1F
100
AcDbEntity
  8
SK2
  6
CONTINUOUS
370
25
 62
7
100
AcDbLine
 10
-5.0
 20
-19.5
 30
0.0
 11
-5.0
 21
-17.5
 31
0.0
  0
LINE
  5
2E5
330
1F
100
AcDbEntity
  8
SK2
  6
CONTINUOUS
370
25
 62
7
100
AcDbLine
 10
-5.0
 20
-17.5
 30
0.0
 11
0.0
 21
-18.5
 31
0.0
  0
LINE
  5
2E6
330
1F
100
AcDbEntity
  8
SK2
  6
CONTINUOUS
370
25
 62
7
100
AcDbLine
 10
-0.2304713904145528
 20
-18.54609427808291
 30
0.0
 11
-0.1536475936097019
 21
-18.46927048127806
 31
0.0
  0
LINE
  5
2E7
330
1F
100
AcDbEntity
  8
SK2
  6
CONTINUOUS
370
25
 62
7
100
AcDbLine
 10
-0.7608014763044666
 20
-18.65216029526089
 30
0.0
 11
-0.5072009842029778
 21
-18.3985598031594
 31
0.0
  0
LINE
  5
2E8
330
1F
100
AcDbEntity
  8
SK2
  6
CONTINUOUS
370
25
 62
7
100
AcDbLine
 10
-1.291131562194376
 20
-18.75822631243888
 30
0.0
 11
-0.8607543747962508
 21
-18.32784912504075
 31
0.0
  0
LINE
  5
2E9
330
1F
100
AcDbEntity
  8
SK2
  6
CONTINUOUS
370
25
 62
7
100
AcDbLine
 10
-1.821461648084285
 20
-18.86429232961686
 30
0.0
 11
-1.214307765389524
 21
-18.2571384469221
 31
0.0
  0
LINE
  5
2EA
330
1F
100
AcDbEntity
  8
SK2
  6
CONTINUOUS
370
25
 62
7
100
AcDbLine
 10
-2.351791733974194
 20
-18.97035834679484
 30
0.0
 11
-1.567861155982797
 21
-18.18642776880344
 31
0.0
  0
LINE
  5
2EB
330
1F
100
AcDbEntity
  8
SK2
  6
CONTINUOUS
370
25
 62
7
100
AcDbLine
 10
-2.882121819864103
 20
-19.07642436397282
 30
0.0
 11
-1.921414546576069
 21
-18.11571709068479
 31
0.0
  0
LINE
  5
2EC
330
1F
100
AcDbEntity
  8
SK2
  6
CONTINUOUS
370
25
 62
7
100
AcDbLine
 10
-3.412451905754013
 20
-19.1824903811508
 30
0.0
 11
-2.274967937169342
 21
-18.04500641256613
 31
0.0
  0
LINE
  5
2ED
330
1F
100
AcDbEntity
  8
SK2
  6
CONTINUOUS
370
25
 62
7
100
AcDbLine
 10
-3.942781991643922
 20
-19.28855639832878
 30
0.0
 11
-2.628521327762615
 21
-17.97429573444748
 31
0.0
  0
LINE
  5
2EE
330
1F
100
AcDbEntity
  8
SK2
  6
CONTINUOUS
370
25
 62
7
100
AcDbLine
 10
-4.473112077533831
 20
-19.39462241550677
 30
0.0
 11
-2.982074718355888
 21
-17.90358505632882
 31
0.0
  0
LINE
  5
2EF
330
1F
100
AcDbEntity
  8
SK2
  6
CONTINUOUS
370
25
 62
7
100
AcDbLine
 10
-5.0
 20
-19.49724626926101
 30
0.0
 11
-3.335628108949164
 21
-17.83287437821017
 31
0.0
  0
LINE
  5
2F0
330
1F
100
AcDbEntity
  8
SK2
  6
CONTINUOUS
370
25
 62
7
100
AcDbLine
 10
-5.0
 20
-19.07298220054908
 30
0.0
 11
-3.689181499542436
 21
-17.76216370009151
 31
0.0
  0
LINE
  5
2F1
330
1F
100
AcDbEntity
  8
SK2
  6
CONTINUOUS
370
25
 62
7
100
AcDbLine
 10
-5.0
 20
-18.64871813183715
 30
0.0
 11
-4.042734890135709
 21
-17.69145302197286
 31
0.0
  0
LINE
  5
2F2
330
1F
100
AcDbEntity
  8
SK2
  6
CONTINUOUS
370
25
 62
7
100
AcDbLine
 10
-5.0
 20
-18.22445406312522
 30
0.0
 11
-4.396288280728982
 21
-17.6207423438542
 31
0.0
  0
LINE
  5
2F3
330
1F
100
AcDbEntity
  8
SK2
  6
CONTINUOUS
370
25
 62
7
100
AcDbLine
 10
-5.0
 20
-17.80018999441329
 30
0.0
 11
-4.749841671322256
 21
-17.55003166573555
 31
0.0
  0
LINE
  5
2F4
330
1F
100
AcDbEntity
  8
SK2
  6
CONTINUOUS
370
25
 62
7
100
AcDbLine
 10
-5.0
 20
-19.49724626926099
 30
0.0
 11
-4.997705224384163
 21
-19.49954104487683
 31
0.0
  0
LINE
  5
2F5
330
1F
100
AcDbEntity
  8
SK2
  6
CONTINUOUS
370
25
 62
7
100
AcDbLine
 10
-5.0
 20
-19.07298220054906
 30
0.0
 11
-4.644151833790887
 21
-19.42883036675818
 31
0.0
  0
LINE
  5
2F6
330
1F
100
AcDbEntity
  8
SK2
  6
CONTINUOUS
370
25
 62
7
100
AcDbLine
 10
-5.0
 20
-18.64871813183714
 30
0.0
 11
-4.290598443197617
 21
-19.35811968863952
 31
0.0
  0
LINE
  5
2F7
330
1F
100
AcDbEntity
  8
SK2
  6
CONTINUOUS
370
25
 62
7
100
AcDbLine
 10
-5.0
 20
-18.22445406312521
 30
0.0
 11
-3.937045052604343
 21
-19.28740901052087
 31
0.0
  0
LINE
  5
2F8
330
1F
100
AcDbEntity
  8
SK2
  6
CONTINUOUS
370
25
 62
7
100
AcDbLine
 10
-5.0
 20
-17.80018999441329
 30
0.0
 11
-3.58349166201107
 21
-19.21669833240221
 31
0.0
  0
LINE
  5
2F9
330
1F
100
AcDbEntity
  8
SK2
  6
CONTINUOUS
370
25
 62
7
100
AcDbLine
 10
-4.844907407126697
 20
-17.53101851857466
 30
0.0
 11
-3.229938271417796
 21
-19.14598765428356
 31
0.0
  0
LINE
  5
2FA
330
1F
100
AcDbEntity
  8
SK2
  6
CONTINUOUS
370
25
 62
7
100
AcDbLine
 10
-4.314577321236786
 20
-17.63708453575264
 30
0.0
 11
-2.876384880824522
 21
-19.0752769761649
 31
0.0
  0
LINE
  5
2FB
330
1F
100
AcDbEntity
  8
SK2
  6
CONTINUOUS
370
25
 62
7
100
AcDbLine
 10
-3.784247235346875
 20
-17.74315055293063
 30
0.0
 11
-2.522831490231249
 21
-19.00456629804625
 31
0.0
  0
LINE
  5
2FC
330
1F
100
AcDbEntity
  8
SK2
  6
CONTINUOUS
370
25
 62
7
100
AcDbLine
 10
-3.253917149456965
 20
-17.84921657010861
 30
0.0
 11
-2.169278099637975
 21
-18.93385561992759
 31
0.0
  0
LINE
  5
2FD
330
1F
100
AcDbEntity
  8
SK2
  6
CONTINUOUS
370
25
 62
7
100
AcDbLine
 10
-2.723587063567054
 20
-17.95528258728659
 30
0.0
 11
-1.815724709044701
 21
-18.86314494180894
 31
0.0
  0
LINE
  5
2FE
330
1F
100
AcDbEntity
  8
SK2
  6
CONTINUOUS
370
25
 62
7
100
AcDbLine
 10
-2.193256977677148
 20
-18.06134860446457
 30
0.0
 11
-1.462171318451431
 21
-18.79243426369029
 31
0.0
  0
LINE
  5
2FF
330
1F
100
AcDbEntity
  8
SK2
  6
CONTINUOUS
370
25
 62
7
100
AcDbLine
 10
-1.662926891787237
 20
-18.16741462164255
 30
0.0
 11
-1.108617927858157
 21
-18.72172358557163
 31
0.0
  0
LINE
  5
300
330
1F
100
AcDbEntity
  8
SK2
  6
CONTINUOUS
370
25
 62
7
100
AcDbLine
 10
-1.132596805897326
 20
-18.27348063882053
 30
0.0
 11
-0.7550645372648834
 21
-18.65101290745298
 31
0.0
  0
LINE
  5
301
330
1F
100
AcDbEntity
  8
SK2
  6
CONTINUOUS
370
25
 62
7
100
AcDbLine
 10
-0.6022667200074155
 20
-18.37954665599852
 30
0.0
 11
-0.4015111466716099
 21
-18.58030222933432
 31
0.0
  0
LINE
  5
302
330
1F
100
AcDbEntity
  8
SK2
  6
CONTINUOUS
370
25
 62
7
100
AcDbLine
 10
-0.0719366341175045
 20
-18.4856126731765
 30
0.0
 11
-0.0479577560783363
 21
-18.50959155121567
 31
0.0
  0
LINE
  5
303
330
1F
100
AcDbEntity
  8
SK2
  6
CONTINUOUS
370
25
 62
7
100
AcDbLine
 10
5.399999999999999
 20
-18.5
 30
0.0
 11
10.4
 21
-17.5
 31
0.0
  0
LINE
  5
304
330
1F
100
AcDbEntity
  8
SK2
  6
CONTINUOUS
370
25
 62
7
100
AcDbLine
 10
10.4
 20
-17.5
 30
0.0
 11
10.4
 21
-19.5
 31
0.0
  0
LINE
  5
305
330
1F
100
AcDbEntity
  8
SK2
  6
CONTINUOUS
370
25
 62
7
100
AcDbLine
 10
10.4
 20
-19.5
 30
0.0
 11
5.399999999999999
 21
-18.5
 31
0.0
  0
LINE
  5
306
330
1F
100
AcDbEntity
  8
SK2
  6
CONTINUOUS
370
25
 62
7
100
AcDbLine
 10
10.30151114667159
 20
-19.48030222933432
 30
0.0
 11
10.4
 21
-19.38181337600591
 31
0.0
  0
LINE
  5
307
330
1F
100
AcDbEntity
  8
SK2
  6
CONTINUOUS
370
25
 62
7
100
AcDbLine
 10
9.947957756078315
 20
-19.40959155121566
 30
0.0
 11
10.4
 21
-18.95754930729398
 31
0.0
  0
LINE
  5
308
330
1F
100
AcDbEntity
  8
SK2
  6
CONTINUOUS
370
25
 62
7
100
AcDbLine
 10
9.594404365485042
 20
-19.33888087309701
 30
0.0
 11
10.4
 21
-18.53328523858205
 31
0.0
  0
LINE
  5
309
330
1F
100
AcDbEntity
  8
SK2
  6
CONTINUOUS
370
25
 62
7
100
AcDbLine
 10
9.240850974891769
 20
-19.26817019497835
 30
0.0
 11
10.4
 21
-18.10902116987013
 31
0.0
  0
LINE
  5
30A
330
1F
100
AcDbEntity
  8
SK2
  6
CONTINUOUS
370
25
 62
7
100
AcDbLine
 10
8.887297584298496
 20
-19.1974595168597
 30
0.0
 11
10.4
 21
-17.6847571011582
 31
0.0
  0
LINE
  5
30B
330
1F
100
AcDbEntity
  8
SK2
  6
CONTINUOUS
370
25
 62
7
100
AcDbLine
 10
8.533744193705223
 20
-19.12674883874104
 30
0.0
 11
10.10061629055784
 21
-17.55987674188843
 31
0.0
  0
LINE
  5
30C
330
1F
100
AcDbEntity
  8
SK2
  6
CONTINUOUS
370
25
 62
7
100
AcDbLine
 10
8.18019080311195
 20
-19.05603816062239
 30
0.0
 11
9.570286204667928
 21
-17.66594275906641
 31
0.0
  0
LINE
  5
30D
330
1F
100
AcDbEntity
  8
SK2
  6
CONTINUOUS
370
25
 62
7
100
AcDbLine
 10
7.826637412518677
 20
-18.98532748250373
 30
0.0
 11
9.039956118778019
 21
-17.77200877624439
 31
0.0
  0
LINE
  5
30E
330
1F
100
AcDbEntity
  8
SK2
  6
CONTINUOUS
370
25
 62
7
100
AcDbLine
 10
7.473084021925404
 20
-18.91461680438508
 30
0.0
 11
8.509626032888109
 21
-17.87807479342238
 31
0.0
  0
LINE
  5
30F
330
1F
100
AcDbEntity
  8
SK2
  6
CONTINUOUS
370
25
 62
7
100
AcDbLine
 10
7.119530631332129
 20
-18.84390612626643
 30
0.0
 11
7.979295946998198
 21
-17.98414081060036
 31
0.0
  0
LINE
  5
310
330
1F
100
AcDbEntity
  8
SK2
  6
CONTINUOUS
370
25
 62
7
100
AcDbLine
 10
6.765977240738856
 20
-18.77319544814777
 30
0.0
 11
7.448965861108288
 21
-18.09020682777834
 31
0.0
  0
LINE
  5
311
330
1F
100
AcDbEntity
  8
SK2
  6
CONTINUOUS
370
25
 62
7
100
AcDbLine
 10
6.412423850145583
 20
-18.70248477002912
 30
0.0
 11
6.918635775218378
 21
-18.19627284495632
 31
0.0
  0
LINE
  5
312
330
1F
100
AcDbEntity
  8
SK2
  6
CONTINUOUS
370
25
 62
7
100
AcDbLine
 10
6.05887045955231
 20
-18.63177409191047
 30
0.0
 11
6.38830568932847
 21
-18.3023388621343
 31
0.0
  0
LINE
  5
313
330
1F
100
AcDbEntity
  8
SK2
  6
CONTINUOUS
370
25
 62
7
100
AcDbLine
 10
5.705317068959036
 20
-18.56106341379181
 30
0.0
 11
5.857975603438559
 21
-18.40840487931229
 31
0.0
  0
LINE
  5
314
330
1F
100
AcDbEntity
  8
SK2
  6
CONTINUOUS
370
25
 62
7
100
AcDbLine
 10
5.45745351589713
 20
-18.48850929682057
 30
0.0
 11
5.486180273845699
 21
-18.51723605476914
 31
0.0
  0
LINE
  5
315
330
1F
100
AcDbEntity
  8
SK2
  6
CONTINUOUS
370
25
 62
7
100
AcDbLine
 10
5.811006906490403
 20
-18.41779861870192
 30
0.0
 11
6.01651035973561
 21
-18.62330207194712
 31
0.0
  0
LINE
  5
316
330
1F
100
AcDbEntity
  8
SK2
  6
CONTINUOUS
370
25
 62
7
100
AcDbLine
 10
6.164560297083676
 20
-18.34708794058326
 30
0.0
 11
6.546840445625519
 21
-18.72936808912511
 31
0.0
  0
LINE
  5
317
330
1F
100
AcDbEntity
  8
SK2
  6
CONTINUOUS
370
25
 62
7
100
AcDbLine
 10
6.518113687676949
 20
-18.27637726246461
 30
0.0
 11
7.07717053151543
 21
-18.83543410630309
 31
0.0
  0
LINE
  5
318
330
1F
100
AcDbEntity
  8
SK2
  6
CONTINUOUS
370
25
 62
7
100
AcDbLine
 10
6.871667078270223
 20
-18.20566658434596
 30
0.0
 11
7.60750061740534
 21
-18.94150012348107
 31
0.0
  0
LINE
  5
319
330
1F
100
AcDbEntity
  8
SK2
  6
CONTINUOUS
370
25
 62
7
100
AcDbLine
 10
7.225220468863496
 20
-18.1349559062273
 30
0.0
 11
8.13783070329525
 21
-19.04756614065905
 31
0.0
  0
LINE
  5
31A
330
1F
100
AcDbEntity
  8
SK2
  6
CONTINUOUS
370
25
 62
7
100
AcDbLine
 10
7.578773859456769
 20
-18.06424522810864
 30
0.0
 11
8.66816078918516
 21
-19.15363215783703
 31
0.0
  0
LINE
  5
31B
330
1F
100
AcDbEntity
  8
SK2
  6
CONTINUOUS
370
25
 62
7
100
AcDbLine
 10
7.932327250050042
 20
-17.99353454998999
 30
0.0
 11
9.19849087507507
 21
-19.25969817501502
 31
0.0
  0
LINE
  5
31C
330
1F
100
AcDbEntity
  8
SK2
  6
CONTINUOUS
370
25
 62
7
100
AcDbLine
 10
8.285880640643315
 20
-17.92282387187133
 30
0.0
 11
9.72882096096498
 21
-19.365764192193
 31
0.0
  0
LINE
  5
31D
330
1F
100
AcDbEntity
  8
SK2
  6
CONTINUOUS
370
25
 62
7
100
AcDbLine
 10
8.639434031236588
 20
-17.85211319375268
 30
0.0
 11
10.25915104685489
 21
-19.47183020937098
 31
0.0
  0
LINE
  5
31E
330
1F
100
AcDbEntity
  8
SK2
  6
CONTINUOUS
370
25
 62
7
100
AcDbLine
 10
8.992987421829861
 20
-17.78140251563402
 30
0.0
 11
10.4
 21
-19.18841509380416
 31
0.0
  0
LINE
  5
31F
330
1F
100
AcDbEntity
  8
SK2
  6
CONTINUOUS
370
25
 62
7
100
AcDbLine
 10
9.346540812423134
 20
-17.71069183751537
 30
0.0
 11
10.4
 21
-18.76415102509223
 31
0.0
  0
LINE
  5
320
330
1F
100
AcDbEntity
  8
SK2
  6
CONTINUOUS
370
25
 62
7
100
AcDbLine
 10
9.700094203016407
 20
-17.63998115939672
 30
0.0
 11
10.4
 21
-18.3398869563803
 31
0.0
  0
LINE
  5
321
330
1F
100
AcDbEntity
  8
SK2
  6
CONTINUOUS
370
25
 62
7
100
AcDbLine
 10
10.05364759360968
 20
-17.56927048127806
 30
0.0
 11
10.4
 21
-17.91562288766838
 31
0.0
  0
TEXT
  5
322
330
1F
100
AcDbEntity
  8
SK2
  6
CONTINUOUS
370
25
 62
7
100
AcDbText
 10
-13.4375
 20
-17.0
 30
0.0
 40
3.5
  1
5.4
 72
     1
 11
-9.9375
 21
-17.0
 31
0.0
100
AcDbText
  0
LINE
  5
323
330
1F
100
AcDbEntity
  8
SK2
  6
CONTINUOUS
370
25
 62
7
100
AcDbLine
 10
-17.8125
 20
-16.65
 30
0.0
 11
-15.0125
 21
-16.65
 31
0.0
  0
LINE
  5
324
330
1F
100
AcDbEntity
  8
SK2
  6
CONTINUOUS
370
25
 62
7
100
AcDbLine
 10
-15.0125
 20
-16.65
 30
0.0
 11
-15.0125
 21
-13.85
 31
0.0
  0
LINE
  5
325
330
1F
100
AcDbEntity
  8
SK2
  6
CONTINUOUS
370
25
 62
7
100
AcDbLine
 10
-15.0125
 20
-13.85
 30
0.0
 11
-17.8125
 21
-13.85
 31
0.0
  0
LINE
  5
326
330
1F
100
AcDbEntity
  8
SK2
  6
CONTINUOUS
370
25
 62
7
100
AcDbLine
 10
-17.8125
 20
-13.85
 30
0.0
 11
-17.8125
 21
-16.65
 31
0.0
  0
LINE
  5
327
330
1F
100
AcDbEntity
  8
SK2
  6
CONTINUOUS
370
25
 62
7
100
AcDbLine
 10
-14.63711122101216
 20
16.2187331867986
 30
0.0
 11
-15.34421786077738
 21
16.92583982656382
 31
0.0
  0
LINE
  5
328
330
1F
100
AcDbEntity
  8
SK2
  6
CONTINUOUS
370
25
 62
7
100
AcDbLine
 10
0.7908109828932187
 20
0.7908109828932187
 30
0.0
 11
-14.63711093816945
 21
16.21873290395589
 31
0.0
  0
LINE
  5
329
330
1F
100
AcDbEntity
  8
SK2
  6
CONTINUOUS
370
25
 62
7
100
AcDbLine
 10
-11.52584053526321
 20
20.74421715207793
 30
0.0
 11
4.609188308407356
 21
4.609188308407358
 31
0.0
  0
LINE
  5
32A
330
1F
100
AcDbEntity
  8
SK2
  6
CONTINUOUS
370
25
 62
7
100
AcDbLine
 10
-19.58685784078985
 20
11.2689862841782
 30
0.0
 11
2.91681547047202
 21
33.77265959544006
 31
0.0
  0
LINE
  5
32B
330
1F
100
AcDbEntity
  8
SK2
  6
CONTINUOUS
370
25
 62
7
100
AcDbLine
 10
-14.63711037248402
 20
16.21873375248403
 30
0.0
 11
-17.46553749723021
 21
11.97609306536474
 31
0.0
  0
LINE
  5
32C
330
1F
100
AcDbEntity
  8
SK2
  6
CONTINUOUS
370
25
 62
7
100
AcDbLine
 10
-17.46553749723021
 20
11.97609306536474
 30
0.0
 11
-18.8797510596033
 21
13.39030662773784
 31
0.0
  0
LINE
  5
32D
330
1F
100
AcDbEntity
  8
SK2
  6
CONTINUOUS
370
25
 62
7
100
AcDbLine
 10
-18.8797510596033
 20
13.39030662773784
 30
0.0
 11
-14.63711037248402
 21
16.21873375248403
 31
0.0
  0
LINE
  5
32E
330
1F
100
AcDbEntity
  8
SK2
  6
CONTINUOUS
370
25
 62
7
100
AcDbLine
 10
-17.59396462085023
 20
12.10452018898476
 30
0.0
 11
-16.95182900275016
 21
12.74665580708482
 31
0.0
  0
LINE
  5
32F
330
1F
100
AcDbEntity
  8
SK2
  6
CONTINUOUS
370
25
 62
7
100
AcDbLine
 10
-17.80609665520619
 20
12.31665222334072
 30
0.0
 11
-16.10330086532631
 21
14.0194480132206
 31
0.0
  0
LINE
  5
330
330
1F
100
AcDbEntity
  8
SK2
  6
CONTINUOUS
370
25
 62
7
100
AcDbLine
 10
-18.01822868956215
 20
12.52878425769669
 30
0.0
 11
-15.25477272790245
 21
15.29224021935639
 31
0.0
  0
LINE
  5
331
330
1F
100
AcDbEntity
  8
SK2
  6
CONTINUOUS
370
25
 62
7
100
AcDbLine
 10
-18.23036072391811
 20
12.74091629205265
 30
0.0
 11
-14.98340904549217
 21
15.9878679704786
 31
0.0
  0
LINE
  5
332
330
1F
100
AcDbEntity
  8
SK2
  6
CONTINUOUS
370
25
 62
7
100
AcDbLine
 10
-18.44249275827408
 20
12.95304832640862
 30
0.0
 11
-16.25620125162795
 21
15.13933983305474
 31
0.0
  0
LINE
  5
333
330
1F
100
AcDbEntity
  8
SK2
  6
CONTINUOUS
370
25
 62
7
100
AcDbLine
 10
-18.65462479263004
 20
13.16518036076458
 30
0.0
 11
-17.52899345776374
 21
14.29081169563088
 31
0.0
  0
LINE
  5
334
330
1F
100
AcDbEntity
  8
SK2
  6
CONTINUOUS
370
25
 62
7
100
AcDbLine
 10
-18.86675682698601
 20
13.37731239512054
 30
0.0
 11
-18.80178566389953
 21
13.44228355820702
 31
0.0
  0
LINE
  5
335
330
1F
100
AcDbEntity
  8
SK2
  6
CONTINUOUS
370
25
 62
7
100
AcDbLine
 10
-18.77930780902712
 20
13.45726879478863
 30
0.0
 11
-17.39857533017942
 21
12.07653631594094
 31
0.0
  0
LINE
  5
336
330
1F
100
AcDbEntity
  8
SK2
  6
CONTINUOUS
370
25
 62
7
100
AcDbLine
 10
-18.52474936779996
 20
13.6269744222734
 30
0.0
 11
-17.22886970269465
 21
12.3310947571681
 31
0.0
  0
LINE
  5
337
330
1F
100
AcDbEntity
  8
SK2
  6
CONTINUOUS
370
25
 62
7
100
AcDbLine
 10
-18.2701909265728
 20
13.79668004975817
 30
0.0
 11
-17.05916407520987
 21
12.58565319839525
 31
0.0
  0
LINE
  5
338
330
1F
100
AcDbEntity
  8
SK2
  6
CONTINUOUS
370
25
 62
7
100
AcDbLine
 10
-18.01563248534565
 20
13.96638567724294
 30
0.0
 11
-16.8894584477251
 21
12.8402116396224
 31
0.0
  0
LINE
  5
339
330
1F
100
AcDbEntity
  8
SK2
  6
CONTINUOUS
370
25
 62
7
100
AcDbLine
 10
-17.76107404411849
 20
14.13609130472771
 30
0.0
 11
-16.71975282024033
 21
13.09477008084956
 31
0.0
  0
LINE
  5
33A
330
1F
100
AcDbEntity
  8
SK2
  6
CONTINUOUS
370
25
 62
7
100
AcDbLine
 10
-17.50651560289133
 20
14.30579693221249
 30
0.0
 11
-16.55004719275556
 21
13.34932852207672
 31
0.0
  0
LINE
  5
33B
330
1F
100
AcDbEntity
  8
SK2
  6
CONTINUOUS
370
25
 62
7
100
AcDbLine
 10
-17.25195716166418
 20
14.47550255969726
 30
0.0
 11
-16.38034156527079
 21
13.60388696330388
 31
0.0
  0
LINE
  5
33C
330
1F
100
AcDbEntity
  8
SK2
  6
CONTINUOUS
370
25
 62
7
100
AcDbLine
 10
-16.99739872043702
 20
14.64520818718203
 30
0.0
 11
-16.21063593778602
 21
13.85844540453103
 31
0.0
  0
LINE
  5
33D
330
1F
100
AcDbEntity
  8
SK2
  6
CONTINUOUS
370
25
 62
7
100
AcDbLine
 10
-16.74284027920986
 20
14.8149138146668
 30
0.0
 11
-16.04093031030125
 21
14.11300384575819
 31
0.0
  0
LINE
  5
33E
330
1F
100
AcDbEntity
  8
SK2
  6
CONTINUOUS
370
25
 62
7
100
AcDbLine
 10
-16.4882818379827
 20
14.98461944215157
 30
0.0
 11
-15.87122468281648
 21
14.36756228698535
 31
0.0
  0
LINE
  5
33F
330
1F
100
AcDbEntity
  8
SK2
  6
CONTINUOUS
370
25
 62
7
100
AcDbLine
 10
-16.23372339675555
 20
15.15432506963634
 30
0.0
 11
-15.70151905533171
 21
14.6221207282125
 31
0.0
  0
LINE
  5
340
330
1F
100
AcDbEntity
  8
SK2
  6
CONTINUOUS
370
25
 62
7
100
AcDbLine
 10
-15.97916495552839
 20
15.32403069712111
 30
0.0
 11
-15.53181342784694
 21
14.87667916943966
 31
0.0
  0
LINE
  5
341
330
1F
100
AcDbEntity
  8
SK2
  6
CONTINUOUS
370
25
 62
7
100
AcDbLine
 10
-15.72460651430124
 20
15.49373632460588
 30
0.0
 11
-15.36210780036217
 21
15.13123761066682
 31
0.0
  0
LINE
  5
342
330
1F
100
AcDbEntity
  8
SK2
  6
CONTINUOUS
370
25
 62
7
100
AcDbLine
 10
-15.47004807307408
 20
15.66344195209066
 30
0.0
 11
-15.19240217287739
 21
15.38579605189397
 31
0.0
  0
LINE
  5
343
330
1F
100
AcDbEntity
  8
SK2
  6
CONTINUOUS
370
25
 62
7
100
AcDbLine
 10
-15.21548963184692
 20
15.83314757957543
 30
0.0
 11
-15.02269654539263
 21
15.64035449312113
 31
0.0
  0
LINE
  5
344
330
1F
100
AcDbEntity
  8
SK2
  6
CONTINUOUS
370
25
 62
7
100
AcDbLine
 10
-14.96093119061977
 20
16.0028532070602
 30
0.0
 11
-14.85299091790785
 21
15.89491293434828
 31
0.0
  0
LINE
  5
345
330
1F
100
AcDbEntity
  8
SK2
  6
CONTINUOUS
370
25
 62
7
100
AcDbLine
 10
-14.70637274939261
 20
16.17255883454497
 30
0.0
 11
-14.68328529042308
 21
16.14947137557544
 31
0.0
  0
LINE
  5
346
330
1F
100
AcDbEntity
  8
SK2
  6
CONTINUOUS
370
25
 62
7
100
AcDbLine
 10
-10.81873375407666
 20
20.03711037089138
 30
0.0
 11
-7.990306629330474
 21
24.27975105801067
 31
0.0
  0
LINE
  5
347
330
1F
100
AcDbEntity
  8
SK2
  6
CONTINUOUS
370
25
 62
7
100
AcDbLine
 10
-7.990306629330474
 20
24.27975105801067
 30
0.0
 11
-6.576093066957378
 21
22.86553749563758
 31
0.0
  0
LINE
  5
348
330
1F
100
AcDbEntity
  8
SK2
  6
CONTINUOUS
370
25
 62
7
100
AcDbLine
 10
-6.576093066957378
 20
22.86553749563758
 30
0.0
 11
-10.81873375407666
 21
20.03711037089138
 31
0.0
  0
LINE
  5
349
330
1F
100
AcDbEntity
  8
SK2
  6
CONTINUOUS
370
25
 62
7
100
AcDbLine
 10
-7.346655808677438
 20
22.35182900115754
 30
0.0
 11
-6.704520190577389
 21
22.99396461925759
 31
0.0
  0
LINE
  5
34A
330
1F
100
AcDbEntity
  8
SK2
  6
CONTINUOUS
370
25
 62
7
100
AcDbLine
 10
-8.619448014813221
 20
21.50330086373368
 30
0.0
 11
-6.916652224933354
 21
23.20609665361355
 31
0.0
  0
LINE
  5
34B
330
1F
100
AcDbEntity
  8
SK2
  6
CONTINUOUS
370
25
 62
7
100
AcDbLine
 10
-9.89224022094901
 20
20.65477272630982
 30
0.0
 11
-7.128784259289319
 21
23.41822868796951
 31
0.0
  0
LINE
  5
34C
330
1F
100
AcDbEntity
  8
SK2
  6
CONTINUOUS
370
25
 62
7
100
AcDbLine
 10
-10.58786797207125
 20
20.3834090438995
 30
0.0
 11
-7.340916293645283
 21
23.63036072232548
 31
0.0
  0
LINE
  5
34D
330
1F
100
AcDbEntity
  8
SK2
  6
CONTINUOUS
370
25
 62
7
100
AcDbLine
 10
-9.739339834647394
 20
21.65620125003529
 30
0.0
 11
-7.553048328001247
 21
23.84249275668144
 31
0.0
  0
LINE
  5
34E
330
1F
100
AcDbEntity
  8
SK2
  6
CONTINUOUS
370
25
 62
7
100
AcDbLine
 10
-8.890811697223539
 20
22.92899345617108
 30
0.0
 11
-7.765180362357212
 21
24.0546247910374
 31
0.0
  0
LINE
  5
34F
330
1F
100
AcDbEntity
  8
SK2
  6
CONTINUOUS
370
25
 62
7
100
AcDbLine
 10
-8.042283559799682
 20
24.20178566230686
 30
0.0
 11
-7.977312396713176
 21
24.26675682539337
 31
0.0
  0
LINE
  5
350
330
1F
100
AcDbEntity
  8
SK2
  6
CONTINUOUS
370
25
 62
7
100
AcDbLine
 10
-10.7725605961376
 20
20.10637010779999
 30
0.0
 11
-10.74947401716807
 21
20.08328352883045
 31
0.0
  0
LINE
  5
351
330
1F
100
AcDbEntity
  8
SK2
  6
CONTINUOUS
370
25
 62
7
100
AcDbLine
 10
-10.60285496865283
 20
20.36092854902714
 30
0.0
 11
-10.49491557594091
 21
20.25298915631522
 31
0.0
  0
LINE
  5
352
330
1F
100
AcDbEntity
  8
SK2
  6
CONTINUOUS
370
25
 62
7
100
AcDbLine
 10
-10.43314934116806
 20
20.6154869902543
 30
0.0
 11
-10.24035713471375
 21
20.42269478379999
 31
0.0
  0
LINE
  5
353
330
1F
100
AcDbEntity
  8
SK2
  6
CONTINUOUS
370
25
 62
7
100
AcDbLine
 10
-10.26344371368329
 20
20.87004543148146
 30
0.0
 11
-9.985798693486595
 21
20.59240041128476
 31
0.0
  0
LINE
  5
354
330
1F
100
AcDbEntity
  8
SK2
  6
CONTINUOUS
370
25
 62
7
100
AcDbLine
 10
-10.09373808619852
 20
21.12460387270861
 30
0.0
 11
-9.73124025225944
 21
20.76210603876954
 31
0.0
  0
LINE
  5
355
330
1F
100
AcDbEntity
  8
SK2
  6
CONTINUOUS
370
25
 62
7
100
AcDbLine
 10
-9.924032458713745
 20
21.37916231393577
 30
0.0
 11
-9.476681811032282
 21
20.9318116662543
 31
0.0
  0
LINE
  5
356
330
1F
100
AcDbEntity
  8
SK2
  6
CONTINUOUS
370
25
 62
7
100
AcDbLine
 10
-9.754326831228974
 20
21.63372075516293
 30
0.0
 11
-9.222123369805125
 21
21.10151729373908
 31
0.0
  0
LINE
  5
357
330
1F
100
AcDbEntity
  8
SK2
  6
CONTINUOUS
370
25
 62
7
100
AcDbLine
 10
-9.584621203744202
 20
21.88827919639008
 30
0.0
 11
-8.96756492857797
 21
21.27122292122385
 31
0.0
  0
LINE
  5
358
330
1F
100
AcDbEntity
  8
SK2
  6
CONTINUOUS
370
25
 62
7
100
AcDbLine
 10
-9.41491557625943
 20
22.14283763761724
 30
0.0
 11
-8.713006487350812
 21
21.44092854870862
 31
0.0
  0
LINE
  5
359
330
1F
100
AcDbEntity
  8
SK2
  6
CONTINUOUS
370
25
 62
7
100
AcDbLine
 10
-9.245209948774658
 20
22.39739607884439
 30
0.0
 11
-8.458448046123655
 21
21.61063417619339
 31
0.0
  0
LINE
  5
35A
330
1F
100
AcDbEntity
  8
SK2
  6
CONTINUOUS
370
25
 62
7
100
AcDbLine
 10
-9.07550432128989
 20
22.65195452007155
 30
0.0
 11
-8.2038896048965
 21
21.78033980367816
 31
0.0
  0
LINE
  5
35B
330
1F
100
AcDbEntity
  8
SK2
  6
CONTINUOUS
370
25
 62
7
100
AcDbLine
 10
-8.905798693805117
 20
22.90651296129871
 30
0.0
 11
-7.949331163669341
 21
21.95004543116293
 31
0.0
  0
LINE
  5
35C
330
1F
100
AcDbEntity
  8
SK2
  6
CONTINUOUS
370
25
 62
7
100
AcDbLine
 10
-8.736093066320345
 20
23.16107140252586
 30
0.0
 11
-7.694772722442184
 21
22.1197510586477
 31
0.0
  0
LINE
  5
35D
330
1F
100
AcDbEntity
  8
SK2
  6
CONTINUOUS
370
25
 62
7
100
AcDbLine
 10
-8.566387438835575
 20
23.41562984375302
 30
0.0
 11
-7.440214281215027
 21
22.28945668613247
 31
0.0
  0
LINE
  5
35E
330
1F
100
AcDbEntity
  8
SK2
  6
CONTINUOUS
370
25
 62
7
100
AcDbLine
 10
-8.396681811350804
 20
23.67018828498018
 30
0.0
 11
-7.185655839987872
 21
22.45916231361725
 31
0.0
  0
LINE
  5
35F
330
1F
100
AcDbEntity
  8
SK2
  6
CONTINUOUS
370
25
 62
7
100
AcDbLine
 10
-8.226976183866032
 20
23.92474672620733
 30
0.0
 11
-6.931097398760715
 21
22.62886794110202
 31
0.0
  0
LINE
  5
360
330
1F
100
AcDbEntity
  8
SK2
  6
CONTINUOUS
370
25
 62
7
100
AcDbLine
 10
-8.05727055638126
 20
24.17930516743449
 30
0.0
 11
-6.676538957533557
 21
22.79857356858679
 31
0.0
  0
TEXT
  5
361
330
1F
100
AcDbEntity
  8
SK2
  6
CONTINUOUS
370
25
 62
7
100
AcDbText
 10
-4.110058167569296
 20
28.86710630095839
 30
0.0
 40
3.500000000000001
  1
5.4
 50
44.99999999999999
 72
     1
 11
-1.635184433416378
 21
31.34198003511131
 31
0.0
100
AcDbText
  0
CIRCLE
  5
362
330
1F
100
AcDbEntity
  8
SK2
  6
CONTINUOUS
370
25
 62
7
100
AcDbCircle
 10
-7.451137708675732
 20
28.00090049400487
 30
0.0
 40
1.400000000000001
  0
LINE
  5
363
330
1F
100
AcDbEntity
  8
SK2
  6
CONTINUOUS
370
25
 62
7
100
AcDbLine
 10
-7.451137708675732
 20
26.02100150668254
 30
0.0
 11
-7.451137708675732
 21
29.98079948132721
 31
0.0
  0
LINE
  5
364
330
1F
100
AcDbEntity
  8
SK2
  6
CONTINUOUS
370
25
 62
7
100
AcDbLine
 10
5.28284271
 20
0.11715729
 30
0.0
 11
12.53068721716212
 21
-7.130687217162108
 31
0.0
  0
LINE
  5
365
330
1F
100
AcDbEntity
  8
SK2
  6
CONTINUOUS
370
25
 62
7
100
AcDbLine
 10
12.53068721716212
 20
-7.130687217162108
 30
0.0
 11
25.95568721716212
 21
-7.130687217162108
 31
0.0
  0
LINE
  5
366
330
1F
100
AcDbEntity
  8
SK2
  6
CONTINUOUS
370
25
 62
7
100
AcDbLine
 10
5.28284271
 20
0.11715729
 30
0.0
 11
4.99999999752538
 21
0.4000000024746191
 31
0.0
  0
LINE
  5
367
330
1F
100
AcDbEntity
  8
SK2
  6
CONTINUOUS
370
25
 62
7
100
AcDbLine
 10
5.28284271
 20
0.11715729
 30
0.0
 11
9.525483397119288
 21
-2.711269834746187
 31
0.0
  0
LINE
  5
368
330
1F
100
AcDbEntity
  8
SK2
  6
CONTINUOUS
370
25
 62
7
100
AcDbLine
 10
9.525483397119288
 20
-2.711269834746187
 30
0.0
 11
8.111269834746192
 21
-4.125483397119283
 31
0.0
  0
LINE
  5
369
330
1F
100
AcDbEntity
  8
SK2
  6
CONTINUOUS
370
25
 62
7
100
AcDbLine
 10
8.111269834746192
 20
-4.125483397119283
 30
0.0
 11
5.28284271
 21
0.11715729
 31
0.0
  0
LINE
  5
36A
330
1F
100
AcDbEntity
  8
SK2
  6
CONTINUOUS
370
25
 62
7
100
AcDbLine
 10
8.027941147939089
 20
-4.000490366908629
 30
0.0
 11
9.400490366908633
 21
-2.627941147939085
 31
0.0
  0
LINE
  5
36B
330
1F
100
AcDbEntity
  8
SK2
  6
CONTINUOUS
370
25
 62
7
100
AcDbLine
 10
7.858235520454318
 20
-3.745931925681471
 30
0.0
 11
9.145931925681476
 21
-2.458235520454313
 31
0.0
  0
LINE
  5
36C
330
1F
100
AcDbEntity
  8
SK2
  6
CONTINUOUS
370
25
 62
7
100
AcDbLine
 10
7.688529892969546
 20
-3.491373484454314
 30
0.0
 11
8.891373484454318
 21
-2.288529892969542
 31
0.0
  0
LINE
  5
36D
330
1F
100
AcDbEntity
  8
SK2
  6
CONTINUOUS
370
25
 62
7
100
AcDbLine
 10
7.518824265484775
 20
-3.236815043227156
 30
0.0
 11
8.63681504322716
 21
-2.11882426548477
 31
0.0
  0
LINE
  5
36E
330
1F
100
AcDbEntity
  8
SK2
  6
CONTINUOUS
370
25
 62
7
100
AcDbLine
 10
7.349118638000004
 20
-2.982256602
 30
0.0
 11
8.382256602000005
 21
-1.949118637999998
 31
0.0
  0
LINE
  5
36F
330
1F
100
AcDbEntity
  8
SK2
  6
CONTINUOUS
370
25
 62
7
100
AcDbLine
 10
7.179413010515232
 20
-2.727698160772844
 30
0.0
 11
8.127698160772846
 21
-1.779413010515229
 31
0.0
  0
LINE
  5
370
330
1F
100
AcDbEntity
  8
SK2
  6
CONTINUOUS
370
25
 62
7
100
AcDbLine
 10
7.00970738303046
 20
-2.473139719545686
 30
0.0
 11
7.873139719545691
 21
-1.609707383030456
 31
0.0
  0
LINE
  5
371
330
1F
100
AcDbEntity
  8
SK2
  6
CONTINUOUS
370
25
 62
7
100
AcDbLine
 10
6.840001755545689
 20
-2.218581278318529
 30
0.0
 11
7.618581278318533
 21
-1.440001755545685
 31
0.0
  0
LINE
  5
372
330
1F
100
AcDbEntity
  8
SK2
  6
CONTINUOUS
370
25
 62
7
100
AcDbLine
 10
6.670296128060918
 20
-1.964022837091375
 30
0.0
 11
7.364022837091377
 21
-1.270296128060916
 31
0.0
  0
LINE
  5
373
330
1F
100
AcDbEntity
  8
SK2
  6
CONTINUOUS
370
25
 62
7
100
AcDbLine
 10
6.500590500576145
 20
-1.709464395864218
 30
0.0
 11
7.109464395864219
 21
-1.100590500576144
 31
0.0
  0
LINE
  5
374
330
1F
100
AcDbEntity
  8
SK2
  6
CONTINUOUS
370
25
 62
7
100
AcDbLine
 10
6.330884873091374
 20
-1.454905954637061
 30
0.0
 11
6.854905954637062
 21
-0.9308848730913732
 31
0.0
  0
LINE
  5
375
330
1F
100
AcDbEntity
  8
SK2
  6
CONTINUOUS
370
25
 62
7
100
AcDbLine
 10
6.161179245606603
 20
-1.200347513409905
 30
0.0
 11
6.600347513409905
 21
-0.7611792456066029
 31
0.0
  0
LINE
  5
376
330
1F
100
AcDbEntity
  8
SK2
  6
CONTINUOUS
370
25
 62
7
100
AcDbLine
 10
5.991473618121832
 20
-0.9457890721827473
 30
0.0
 11
6.345789072182748
 21
-0.5914736181218316
 31
0.0
  0
LINE
  5
377
330
1F
100
AcDbEntity
  8
SK2
  6
CONTINUOUS
370
25
 62
7
100
AcDbLine
 10
5.821767990637062
 20
-0.69123063095559
 30
0.0
 11
6.091230630955592
 21
-0.4217679906370604
 31
0.0
  0
LINE
  5
378
330
1F
100
AcDbEntity
  8
SK2
  6
CONTINUOUS
370
25
 62
7
100
AcDbLine
 10
5.65206236315229
 20
-0.4366721897284336
 30
0.0
 11
5.836672189728436
 21
-0.2520623631522883
 31
0.0
  0
LINE
  5
379
330
1F
100
AcDbEntity
  8
SK2
  6
CONTINUOUS
370
25
 62
7
100
AcDbLine
 10
5.482356735667519
 20
-0.1821137485012763
 30
0.0
 11
5.582113748501278
 21
-0.0823567356675179
 31
0.0
  0
LINE
  5
37A
330
1F
100
AcDbEntity
  8
SK2
  6
CONTINUOUS
370
25
 62
7
100
AcDbLine
 10
5.312651108182748
 20
0.0724446927258802
 30
0.0
 11
5.327555307274121
 21
0.0873488918172534
 31
0.0
  0
LINE
  5
37B
330
1F
100
AcDbEntity
  8
SK2
  6
CONTINUOUS
370
25
 62
7
100
AcDbLine
 10
7.597561335761429
 20
-3.354920648642138
 30
0.0
 11
8.239696959492385
 21
-3.997056272373094
 31
0.0
  0
LINE
  5
37C
330
1F
100
AcDbEntity
  8
SK2
  6
CONTINUOUS
370
25
 62
7
100
AcDbLine
 10
6.749033198337572
 20
-2.082128442506354
 30
0.0
 11
8.451828993848348
 21
-3.78492423801713
 31
0.0
  0
LINE
  5
37D
330
1F
100
AcDbEntity
  8
SK2
  6
CONTINUOUS
370
25
 62
7
100
AcDbLine
 10
5.900505060913714
 20
-0.8093362363705694
 30
0.0
 11
8.66396102820431
 21
-3.572792203661164
 31
0.0
  0
LINE
  5
37E
330
1F
100
AcDbEntity
  8
SK2
  6
CONTINUOUS
370
25
 62
7
100
AcDbLine
 10
5.629141389765221
 20
-0.1137084965101467
 30
0.0
 11
8.876093062560276
 21
-3.3606601693052
 31
0.0
  0
LINE
  5
37F
330
1F
100
AcDbEntity
  8
SK2
  6
CONTINUOUS
370
25
 62
7
100
AcDbLine
 10
6.901933595901002
 20
-0.9622366339339994
 30
0.0
 11
9.08822509691624
 21
-3.148528134949235
 31
0.0
  0
LINE
  5
380
330
1F
100
AcDbEntity
  8
SK2
  6
CONTINUOUS
370
25
 62
7
100
AcDbLine
 10
8.174725802036784
 20
-1.810764771357853
 30
0.0
 11
9.300357131272202
 21
-2.936396100593271
 31
0.0
  0
LINE
  5
381
330
1F
100
AcDbEntity
  8
SK2
  6
CONTINUOUS
370
25
 62
7
100
AcDbLine
 10
9.447518008172565
 20
-2.659292908781705
 30
0.0
 11
9.512489165628166
 21
-2.724264066237305
 31
0.0
  0
TEXT
  5
382
330
1F
100
AcDbEntity
  8
SK2
  6
CONTINUOUS
370
25
 62
7
100
AcDbText
 10
14.28485388382878
 20
-5.630687217162107
 30
0.0
 40
3.5
  1
R0.4
 72
     1
 11
19.24318721716212
 21
-5.630687217162107
 31
0.0
100
AcDbText
  0
ARC
  5
383
330
1F
100
AcDbEntity
  8
SK6
  6
CONTINUOUS
370
25
 62
5
100
AcDbCircle
 10
-0.0386289916234942
 20
-43.34523475338786
 30
0.0
 40
2.760489128492207
100
AcDbArc
 50
338.9379403434233
 51
90.44457437511382
  0
LINE
  5
384
330
1F
100
AcDbEntity
  8
SK6
  6
CONTINUOUS
370
25
 62
5
100
AcDbLine
 10
-0.0600482030401742
 20
-40.58482872421281
 30
0.0
 11
-0.0600482030401742
 21
-41.68788735613464
 31
0.0
  0
ARC
  5
385
330
1F
100
AcDbEntity
  8
SK6
  6
CONTINUOUS
370
25
 62
5
100
AcDbCircle
 10
-0.0495019706308414
 20
-43.36522824566821
 30
0.0
 40
1.677374043771784
100
AcDbArc
 50
243.4214706017865
 51
90.3602408122611
  0
ARC
  5
386
330
1F
100
AcDbEntity
  8
SK6
  6
CONTINUOUS
370
25
 62
5
100
AcDbCircle
 10
2.472748896849577
 20
-42.9338209921556
 30
0.0
 40
3.800217030022755
100
AcDbArc
 50
210.548373128854
 51
236.9780169366801
  0
LINE
  5
387
330
1F
100
AcDbEntity
  8
SK6
  6
CONTINUOUS
370
25
 62
5
100
AcDbLine
 10
0.4017796851248643
 20
-46.12015681867535
 30
0.0
 11
4.54371996742671
 21
-46.12015681867535
 31
0.0
  0
ARC
  5
388
330
1F
100
AcDbEntity
  8
SK6
  6
CONTINUOUS
370
25
 62
5
100
AcDbCircle
 10
2.472750838772569
 20
-42.93382109373459
 30
0.0
 40
3.800216899582476
100
AcDbArc
 50
303.0219828477958
 51
326.3732153033476
  0
LINE
  5
389
330
1F
100
AcDbEntity
  8
SK6
  6
CONTINUOUS
370
25
 62
5
100
AcDbLine
 10
5.637048751357221
 20
-45.0383084907709
 30
0.0
 11
2.279750705754615
 21
-45.0383084907709
 31
0.0
  0
LINE
  5
38A
330
1F
100
AcDbEntity
  8
SK6
  6
CONTINUOUS
370
25
 62
5
100
AcDbLine
 10
2.279750705754615
 20
-45.0383084907709
 30
0.0
 11
6.19961009771987
 21
-43.67690729641694
 31
0.0
  0
ARC
  5
38B
330
1F
100
AcDbEntity
  8
SK6
  6
CONTINUOUS
370
25
 62
5
100
AcDbCircle
 10
2.472751561572103
 20
-42.9338216048594
 30
0.0
 40
3.800217216614731
100
AcDbArc
 50
348.7238644184695
 51
53.46910512608832
  0
LINE
  5
38C
330
1F
100
AcDbEntity
  8
SK6
  6
CONTINUOUS
370
25
 62
5
100
AcDbLine
 10
4.734854245385451
 20
-39.88021024429968
 30
0.0
 11
2.537439478827362
 21
-44.33729873507058
 31
0.0
  0
ARC
  5
38D
330
1F
100
AcDbEntity
  8
SK6
  6
CONTINUOUS
370
25
 62
5
100
AcDbCircle
 10
25.40138200837651
 20
-24.54524575338786
 30
0.0
 40
2.760489128492207
100
AcDbArc
 50
338.9379403434233
 51
90.44457437511385
  0
LINE
  5
38E
330
1F
100
AcDbEntity
  8
SK6
  6
CONTINUOUS
370
25
 62
5
100
AcDbLine
 10
25.37996279695983
 20
-21.78483972421281
 30
0.0
 11
25.37996279695983
 21
-22.88789835613463
 31
0.0
  0
ARC
  5
38F
330
1F
100
AcDbEntity
  8
SK6
  6
CONTINUOUS
370
25
 62
5
100
AcDbCircle
 10
25.39050902936916
 20
-24.56523924566821
 30
0.0
 40
1.677374043771784
100
AcDbArc
 50
243.4214706017865
 51
90.36024081226107
  0
ARC
  5
390
330
1F
100
AcDbEntity
  8
SK6
  6
CONTINUOUS
370
25
 62
5
100
AcDbCircle
 10
27.91275989684958
 20
-24.13383199215561
 30
0.0
 40
3.800217030022754
100
AcDbArc
 50
210.5483731288539
 51
236.97801693668
  0
LINE
  5
391
330
1F
100
AcDbEntity
  8
SK6
  6
CONTINUOUS
370
25
 62
5
100
AcDbLine
 10
25.84179068512487
 20
-27.32016781867535
 30
0.0
 11
29.98373096742671
 21
-27.32016781867535
 31
0.0
  0
ARC
  5
392
330
1F
100
AcDbEntity
  8
SK6
  6
CONTINUOUS
370
25
 62
5
100
AcDbCircle
 10
27.91276183877257
 20
-24.1338320937346
 30
0.0
 40
3.80021689958247
100
AcDbArc
 50
303.0219828477959
 51
326.3732153033475
  0
LINE
  5
393
330
1F
100
AcDbEntity
  8
SK6
  6
CONTINUOUS
370
25
 62
5
100
AcDbLine
 10
31.07705975135722
 20
-26.2383194907709
 30
0.0
 11
27.71976170575461
 21
-26.2383194907709
 31
0.0
  0
LINE
  5
394
330
1F
100
AcDbEntity
  8
SK6
  6
CONTINUOUS
370
25
 62
5
100
AcDbLine
 10
27.71976170575461
 20
-26.2383194907709
 30
0.0
 11
31.63962109771987
 21
-24.87691829641694
 31
0.0
  0
ARC
  5
395
330
1F
100
AcDbEntity
  8
SK6
  6
CONTINUOUS
370
25
 62
5
100
AcDbCircle
 10
27.91276256157211
 20
-24.1338326048594
 30
0.0
 40
3.80021721661473
100
AcDbArc
 50
348.7238644184695
 51
53.46910512608837
  0
LINE
  5
396
330
1F
100
AcDbEntity
  8
SK6
  6
CONTINUOUS
370
25
 62
5
100
AcDbLine
 10
30.17486524538545
 20
-21.08022124429967
 30
0.0
 11
27.97745047882736
 21
-25.53730973507058
 31
0.0
  0
ENDSEC
  0
SECTION
  2
OBJECTS
  0
DICTIONARY
  5
C
330
0
100
AcDbDictionary
281
     1
  3
ACAD_GROUP
350
D
  3
ACAD_LAYOUT
350
1A
  3
ACAD_MATERIAL
350
3B
  3
ACAD_MLEADERSTYLE
350
399
  3
ACAD_MLINESTYLE
350
17
  3
ACAD_PLOTSETTINGS
350
19
  3
ACAD_PLOTSTYLENAME
350
E
  3
ACAD_SCALELIST
350
A0
  3
ACAD_VISUALSTYLE
350
2A
  3
AcDbVariableDictionary
350
397
  0
DICTIONARY
  5
D
102
{ACAD_REACTORS
330
C
102
}
330
C
100
AcDbDictionary
281
     1
  0
DICTIONARY
  5
1A
102
{ACAD_REACTORS
330
C
102
}
330
C
100
AcDbDictionary
281
     1
  3
Layout1
350
1E
  3
Layout2
350
26
  3
Model
350
22
  0
DICTIONARY
  5
3B
102
{ACAD_REACTORS
330
C
102
}
330
C
100
AcDbDictionary
281
     1
  3
ByBlock
350
3D
  3
ByLayer
350
3C
  3
Global
350
3E
  0
DICTIONARY
  5
399
102
{ACAD_REACTORS
330
C
102
}
330
C
100
AcDbDictionary
281
     1
  0
DICTIONARY
  5
17
102
{ACAD_REACTORS
330
C
102
}
330
C
100
AcDbDictionary
281
     1
  3
Standard
350
18
  0
DICTIONARY
  5
19
102
{ACAD_REACTORS
330
C
102
}
330
C
100
AcDbDictionary
281
     1
  0
ACDBDICTIONARYWDFLT
  5
E
102
{ACAD_REACTORS
330
C
102
}
330
C
100
AcDbDictionary
281
     1
  3
Normal
350
F
100
AcDbDictionaryWithDefault
340
F
  0
DICTIONARY
  5
A0
102
{ACAD_REACTORS
330
C
102
}
330
C
100
AcDbDictionary
281
     1
  3
A0
350
A1
  3
A1
350
A2
  3
A2
350
A3
  3
A3
350
A4
  3
A4
350
A5
  3
A5
350
A6
  3
A6
350
A7
  3
A7
350
A8
  3
A8
350
A9
  3
A9
350
AA
  3
B0
350
AB
  3
B1
350
AC
  3
B2
350
AD
  3
B3
350
AE
  3
B4
350
AF
  3
B5
350
B0
  3
B6
350
B1
  3
B7
350
B2
  3
B8
350
B3
  3
B9
350
B4
  3
C0
350
B5
  3
C1
350
B6
  3
C2
350
B7
  3
C3
350
B8
  3
C4
350
B9
  3
C5
350
BA
  3
C6
350
BB
  3
C7
350
BC
  3
C8
350
BD
  3
C9
350
BE
  3
D0
350
BF
  3
D1
350
C0
  3
D2
350
C1
  0
DICTIONARY
  5
2A
102
{ACAD_REACTORS
330
C
102
}
330
C
100
AcDbDictionary
281
     1
  3
2dWireframe
350
2F
  3
3D Hidden
350
31
  3
3dWireframe
350
30
  3
Basic
350
32
  3
Brighten
350
36
  3
ColorChange
350
3A
  3
Conceptual
350
34
  3
Dim
350
35
  3
Facepattern
350
39
  3
Flat
350
2B
  3
FlatWithEdges
350
2C
  3
Gouraud
350
2D
  3
GouraudWithEdges
350
2E
  3
Linepattern
350
38
  3
Realistic
350
33
  3
Thicken
350
37
  0
DICTIONARY
  5
397
102
{ACAD_REACTORS
330
C
102
}
330
C
100
AcDbDictionary
281
     1
  3
CANNOSCALE
350
39C
  3
DIMASSOC
350
39D
  3
HIDETEXT
350
39E
  3
PSOLHEIGHT
350
39B
  3
PSOLWIDTH
350
39A
  0
LAYOUT
  5
1E
102
{ACAD_REACTORS
330
1A
102
}
330
1A
100
AcDbPlotSettings
  1

  2
none_device
  4

  6

 40
0.0
 41
0.0
 42
0.0
 43
0.0
 44
0.0
 45
0.0
 46
0.0
 47
0.0
 48
0.0
 49
0.0
140
0.0
141
0.0
142
1.0
143
1.0
 70
   688
 72
     0
 73
     0
 74
     5
  7

 75
    16
147
1.0
148
0.0
149
0.0
100
AcDbLayout
  1
Layout1
 70
     1
 71
     1
 10
0.0
 20
0.0
 11
420.0
 21
297.0
 12
0.0
 22
0.0
 32
0.0
 14
1.000000000000000E+20
 24
1.000000000000000E+20
 34
1.000000000000000E+20
 15
-1.000000000000000E+20
 25
-1.000000000000000E+20
 35
-1.000000000000000E+20
146
0.0
 13
0.0
 23
0.0
 33
0.0
 16
1.0
 26
0.0
 36
0.0
 17
0.0
 27
1.0
 37
0.0
 76
     0
330
1B
  0
LAYOUT
  5
26
102
{ACAD_REACTORS
330
1A
102
}
330
1A
100
AcDbPlotSettings
  1

  2
none_device
  4

  6

 40
0.0
 41
0.0
 42
0.0
 43
0.0
 44
0.0
 45
0.0
 46
0.0
 47
0.0
 48
0.0
 49
0.0
140
0.0
141
0.0
142
1.0
143
1.0
 70
   688
 72
     0
 73
     0
 74
     5
  7

 75
    16
147
1.0
148
0.0
149
0.0
100
AcDbLayout
  1
Layout2
 70
     1
 71
     2
 10
0.0
 20
0.0
 11
0.0
 21
0.0
 12
0.0
 22
0.0
 32
0.0
 14
0.0
 24
0.0
 34
0.0
 15
0.0
 25
0.0
 35
0.0
146
0.0
 13
0.0
 23
0.0
 33
0.0
 16
1.0
 26
0.0
 36
0.0
 17
0.0
 27
1.0
 37
0.0
 76
     0
330
23
  0
LAYOUT
  5
22
102
{ACAD_REACTORS
330
1A
102
}
330
1A
100
AcDbPlotSettings
  1

  2
none_device
  4

  6

 40
0.0
 41
0.0
 42
0.0
 43
0.0
 44
0.0
 45
0.0
 46
0.0
 47
0.0
 48
0.0
 49
0.0
140
0.0
141
0.0
142
1.0
143
1.0
 70
  1712
 72
     0
 73
     0
 74
     0
  7

 75
     0
147
1.0
148
0.0
149
0.0
100
AcDbLayout
  1
Model
 70
     1
 71
     0
 10
0.0
 20
0.0
 11
420.0
 21
297.0
 12
0.0
 22
0.0
 32
0.0
 14
0.0
 24
0.0
 34
0.0
 15
25.0
 25
35.0
 35
0.0
146
0.0
 13
0.0
 23
0.0
 33
0.0
 16
1.0
 26
0.0
 36
0.0
 17
0.0
 27
1.0
 37
0.0
 76
     0
330
1F
331
29
  0
MATERIAL
  5
3D
102
{ACAD_REACTORS
330
3B
102
}
102
{ACAD_XDICTIONARY
360
3C1
102
}
330
3B
100
AcDbMaterial
  1
ByBlock
  0
MATERIAL
  5
3C
102
{ACAD_REACTORS
330
3B
102
}
102
{ACAD_XDICTIONARY
360
3BF
102
}
330
3B
100
AcDbMaterial
  1
ByLayer
  0
MATERIAL
  5
3E
102
{ACAD_REACTORS
330
3B
102
}
102
{ACAD_XDICTIONARY
360
3C3
102
}
330
3B
100
AcDbMaterial
  1
Global
  0
MLINESTYLE
  5
18
102
{ACAD_REACTORS
330
17
102
}
330
17
100
AcDbMlineStyle
  2
Standard
 70
     0
  3

 62
   256
 51
90.0
 52
90.0
 71
     2
 49
0.5
 62
   256
  6
BYLAYER
 49
-0.5
 62
   256
  6
BYLAYER
  0
ACDBPLACEHOLDER
  5
F
102
{ACAD_REACTORS
330
E
102
}
330
E
  0
SCALE
  5
A1
102
{ACAD_REACTORS
330
A0
102
}
330
A0
100
AcDbScale
 70
     0
300
1:1
140
1.0
141
1.0
290
     1
  0
SCALE
  5
A2
102
{ACAD_REACTORS
330
A0
102
}
330
A0
100
AcDbScale
 70
     0
300
1:2
140
1.0
141
2.0
290
     0
  0
SCALE
  5
A3
102
{ACAD_REACTORS
330
A0
102
}
330
A0
100
AcDbScale
 70
     0
300
1:4
140
1.0
141
4.0
290
     0
  0
SCALE
  5
A4
102
{ACAD_REACTORS
330
A0
102
}
330
A0
100
AcDbScale
 70
     0
300
1:5
140
1.0
141
5.0
290
     0
  0
SCALE
  5
A5
102
{ACAD_REACTORS
330
A0
102
}
330
A0
100
AcDbScale
 70
     0
300
1:8
140
1.0
141
8.0
290
     0
  0
SCALE
  5
A6
102
{ACAD_REACTORS
330
A0
102
}
330
A0
100
AcDbScale
 70
     0
300
1:10
140
1.0
141
10.0
290
     0
  0
SCALE
  5
A7
102
{ACAD_REACTORS
330
A0
102
}
330
A0
100
AcDbScale
 70
     0
300
1:16
140
1.0
141
16.0
290
     0
  0
SCALE
  5
A8
102
{ACAD_REACTORS
330
A0
102
}
330
A0
100
AcDbScale
 70
     0
300
1:20
140
1.0
141
20.0
290
     0
  0
SCALE
  5
A9
102
{ACAD_REACTORS
330
A0
102
}
330
A0
100
AcDbScale
 70
     0
300
1:30
140
1.0
141
30.0
290
     0
  0
SCALE
  5
AA
102
{ACAD_REACTORS
330
A0
102
}
330
A0
100
AcDbScale
 70
     0
300
1:40
140
1.0
141
40.0
290
     0
  0
SCALE
  5
AB
102
{ACAD_REACTORS
330
A0
102
}
330
A0
100
AcDbScale
 70
     0
300
1:50
140
1.0
141
50.0
290
     0
  0
SCALE
  5
AC
102
{ACAD_REACTORS
330
A0
102
}
330
A0
100
AcDbScale
 70
     0
300
1:100
140
1.0
141
100.0
290
     0
  0
SCALE
  5
AD
102
{ACAD_REACTORS
330
A0
102
}
330
A0
100
AcDbScale
 70
     0
300
2:1
140
2.0
141
1.0
290
     0
  0
SCALE
  5
AE
102
{ACAD_REACTORS
330
A0
102
}
330
A0
100
AcDbScale
 70
     0
300
4:1
140
4.0
141
1.0
290
     0
  0
SCALE
  5
AF
102
{ACAD_REACTORS
330
A0
102
}
330
A0
100
AcDbScale
 70
     0
300
8:1
140
8.0
141
1.0
290
     0
  0
SCALE
  5
B0
102
{ACAD_REACTORS
330
A0
102
}
330
A0
100
AcDbScale
 70
     0
300
10:1
140
10.0
141
1.0
290
     0
  0
SCALE
  5
B1
102
{ACAD_REACTORS
330
A0
102
}
330
A0
100
AcDbScale
 70
     0
300
100:1
140
100.0
141
1.0
290
     0
  0
SCALE
  5
B2
102
{ACAD_REACTORS
330
A0
102
}
330
A0
100
AcDbScale
 70
     0
300
1/128" = 1'-0"
140
0.0078125
141
12.0
290
     0
  0
SCALE
  5
B3
102
{ACAD_REACTORS
330
A0
102
}
330
A0
100
AcDbScale
 70
     0
300
1/64" = 1'-0"
140
0.015625
141
12.0
290
     0
  0
SCALE
  5
B4
102
{ACAD_REACTORS
330
A0
102
}
330
A0
100
AcDbScale
 70
     0
300
1/32" = 1'-0"
140
0.03125
141
12.0
290
     0
  0
SCALE
  5
B5
102
{ACAD_REACTORS
330
A0
102
}
330
A0
100
AcDbScale
 70
     0
300
1/16" = 1'-0"
140
0.0625
141
12.0
290
     0
  0
SCALE
  5
B6
102
{ACAD_REACTORS
330
A0
102
}
330
A0
100
AcDbScale
 70
     0
300
3/32" = 1'-0"
140
0.09375
141
12.0
290
     0
  0
SCALE
  5
B7
102
{ACAD_REACTORS
330
A0
102
}
330
A0
100
AcDbScale
 70
     0
300
1/8" = 1'-0"
140
0.125
141
12.0
290
     0
  0
SCALE
  5
B8
102
{ACAD_REACTORS
330
A0
102
}
330
A0
100
AcDbScale
 70
     0
300
3/16" = 1'-0"
140
0.1875
141
12.0
290
     0
  0
SCALE
  5
B9
102
{ACAD_REACTORS
330
A0
102
}
330
A0
100
AcDbScale
 70
     0
300
1/4" = 1'-0"
140
0.25
141
12.0
290
     0
  0
SCALE
  5
BA
102
{ACAD_REACTORS
330
A0
102
}
330
A0
100
AcDbScale
 70
     0
300
3/8" = 1'-0"
140
0.375
141
12.0
290
     0
  0
SCALE
  5
BB
102
{ACAD_REACTORS
330
A0
102
}
330
A0
100
AcDbScale
 70
     0
300
1/2" = 1'-0"
140
0.5
141
12.0
290
     0
  0
SCALE
  5
BC
102
{ACAD_REACTORS
330
A0
102
}
330
A0
100
AcDbScale
 70
     0
300
3/4" = 1'-0"
140
0.75
141
12.0
290
     0
  0
SCALE
  5
BD
102
{ACAD_REACTORS
330
A0
102
}
330
A0
100
AcDbScale
 70
     0
300
1" = 1'-0"
140
1.0
141
12.0
290
     0
  0
SCALE
  5
BE
102
{ACAD_REACTORS
330
A0
102
}
330
A0
100
AcDbScale
 70
     0
300
1-1/2" = 1'-0"
140
1.5
141
12.0
290
     0
  0
SCALE
  5
BF
102
{ACAD_REACTORS
330
A0
102
}
330
A0
100
AcDbScale
 70
     0
300
3" = 1'-0"
140
3.0
141
12.0
290
     0
  0
SCALE
  5
C0
102
{ACAD_REACTORS
330
A0
102
}
330
A0
100
AcDbScale
 70
     0
300
6" = 1'-0"
140
6.0
141
12.0
290
     0
  0
SCALE
  5
C1
102
{ACAD_REACTORS
330
A0
102
}
330
A0
100
AcDbScale
 70
     0
300
1'-0" = 1'-0"
140
12.0
141
12.0
290
     0
  0
VISUALSTYLE
  5
2F
102
{ACAD_REACTORS
330
2A
102
}
102
{ACAD_XDICTIONARY
360
3A7
102
}
330
2A
100
AcDbVisualStyle
  2
2dWireframe
 70
     4
 71
     0
 72
     2
 73
     0
 90
        0
 40
-0.6
 41
-30.0
 62
     5
 63
     7
 74
     1
 91
        4
 64
     7
 65
   257
 75
     1
175
     1
 42
1.0
 92
        0
 66
   257
 43
1.0
 76
     1
 77
     6
 78
     2
 67
     7
 79
     5
170
     0
171
     0
290
     0
174
     0
 93
        1
 44
0.0
173
     0
291
     0
 45
0.0
1001
ACAD
1000
AcDbSavedByObjectVersion
1070
     0
  0
VISUALSTYLE
  5
31
102
{ACAD_REACTORS
330
2A
102
}
102
{ACAD_XDICTIONARY
360
3AB
102
}
330
2A
100
AcDbVisualStyle
  2
3D Hidden
 70
     6
 71
     1
 72
     2
 73
     2
 90
        0
 40
-0.6
 41
-30.0
 62
     5
 63
     7
 74
     2
 91
        2
 64
     7
 65
   257
 75
     2
175
     1
 42
40.0
 92
        0
 66
   257
 43
1.0
 76
     1
 77
     6
 78
     2
 67
     7
 79
     3
170
     0
171
     0
290
     0
174
     0
 93
        1
 44
0.0
173
     0
291
     0
 45
0.0
1001
ACAD
1000
AcDbSavedByObjectVersion
1070
     0
  0
VISUALSTYLE
  5
30
102
{ACAD_REACTORS
330
2A
102
}
102
{ACAD_XDICTIONARY
360
3A9
102
}
330
2A
100
AcDbVisualStyle
  2
3dWireframe
 70
     5
 71
     0
 72
     2
 73
     0
 90
        0
 40
-0.6
 41
-30.0
 62
     5
 63
     7
 74
     1
 91
        4
 64
     7
 65
   257
 75
     1
175
     1
 42
1.0
 92
        0
 66
   257
 43
1.0
 76
     1
 77
     6
 78
     2
 67
     7
 79
     5
170
     0
171
     0
290
     0
174
     0
 93
        1
 44
0.0
173
     0
291
     0
 45
0.0
1001
ACAD
1000
AcDbSavedByObjectVersion
1070
     0
  0
VISUALSTYLE
  5
32
102
{ACAD_REACTORS
330
2A
102
}
102
{ACAD_XDICTIONARY
360
3AD
102
}
330
2A
100
AcDbVisualStyle
  2
Basic
 70
     7
 71
     1
 72
     0
 73
     1
 90
        0
 40
-0.6
 41
-30.0
 62
     5
 63
     7
 74
     0
 91
        4
 64
     7
 65
   257
 75
     1
175
     1
 42
1.0
 92
        8
 66
     7
 43
1.0
 76
     1
 77
     6
 78
     2
 67
     7
 79
     5
170
     0
171
     0
290
     0
174
     0
 93
        1
 44
0.0
173
     0
291
     1
 45
0.0
1001
ACAD
1000
AcDbSavedByObjectVersion
1070
     0
  0
VISUALSTYLE
  5
36
102
{ACAD_REACTORS
330
2A
102
}
102
{ACAD_XDICTIONARY
360
3B5
102
}
330
2A
100
AcDbVisualStyle
  2
Brighten
 70
    12
 71
     2
 72
     2
 73
     0
 90
        0
 40
-0.6
 41
-30.0
 62
     5
 63
     7
 74
     1
 91
        4
 64
     7
 65
   257
 75
     1
175
     1
 42
1.0
 92
        8
 66
     7
 43
1.0
 76
     1
 77
     6
 78
     2
 67
     7
 79
     5
170
     0
171
     0
290
     0
174
     0
 93
        1
 44
50.0
173
     0
291
     1
 45
0.0
1001
ACAD
1000
AcDbSavedByObjectVersion
1070
     0
  0
VISUALSTYLE
  5
3A
102
{ACAD_REACTORS
330
2A
102
}
102
{ACAD_XDICTIONARY
360
3BD
102
}
330
2A
100
AcDbVisualStyle
  2
ColorChange
 70
    16
 71
     2
 72
     2
 73
     3
 90
        0
 40
-0.6
 41
-30.0
 62
     5
 63
     8
 74
     1
 91
        4
 64
     7
 65
   257
 75
     1
175
     1
 42
1.0
 92
        8
 66
     8
 43
1.0
 76
     1
 77
     6
 78
     2
 67
     7
 79
     5
170
     0
171
     0
290
     0
174
     0
 93
        1
 44
0.0
173
     0
291
     1
 45
0.0
1001
ACAD
1000
AcDbSavedByObjectVersion
1070
     0
  0
VISUALSTYLE
  5
34
102
{ACAD_REACTORS
330
2A
102
}
102
{ACAD_XDICTIONARY
360
3B1
102
}
330
2A
100
AcDbVisualStyle
  2
Conceptual
 70
     9
 71
     3
 72
     2
 73
     0
 90
        0
 40
-0.6
 41
-30.0
 62
     5
 63
     7
 74
     2
 91
        2
 64
     7
 65
   257
 75
     1
175
     1
 42
40.0
 92
        8
 66
     7
 43
1.0
 76
     1
 77
     6
 78
     2
 67
     7
 79
     3
170
     0
171
     0
290
     0
174
     0
 93
        1
 44
0.0
173
     0
291
     0
 45
0.0
1001
ACAD
1000
AcDbSavedByObjectVersion
1070
     0
  0
VISUALSTYLE
  5
35
102
{ACAD_REACTORS
330
2A
102
}
102
{ACAD_XDICTIONARY
360
3B3
102
}
330
2A
100
AcDbVisualStyle
  2
Dim
 70
    11
 71
     2
 72
     2
 73
     0
 90
        0
 40
-0.6
 41
-30.0
 62
     5
 63
     7
 74
     1
 91
        4
 64
     7
 65
   257
 75
     1
175
     1
 42
1.0
 92
        8
 66
     7
 43
1.0
 76
     1
 77
     6
 78
     2
 67
     7
 79
     5
170
     0
171
     0
290
     0
174
     0
 93
        1
 44
-50.0
173
     0
291
     1
 45
0.0
1001
ACAD
1000
AcDbSavedByObjectVersion
1070
     0
  0
VISUALSTYLE
  5
39
102
{ACAD_REACTORS
330
2A
102
}
102
{ACAD_XDICTIONARY
360
3BB
102
}
330
2A
100
AcDbVisualStyle
  2
Facepattern
 70
    15
 71
     2
 72
     2
 73
     0
 90
        0
 40
-0.6
 41
-30.0
 62
     5
 63
     7
 74
     1
 91
        4
 64
     7
 65
   257
 75
     1
175
     1
 42
1.0
 92
        8
 66
     7
 43
1.0
 76
     1
 77
     6
 78
     2
 67
     7
 79
     5
170
     0
171
     0
290
     0
174
     0
 93
        1
 44
0.0
173
     0
291
     1
 45
0.0
1001
ACAD
1000
AcDbSavedByObjectVersion
1070
     0
  0
VISUALSTYLE
  5
2B
102
{ACAD_REACTORS
330
2A
102
}
102
{ACAD_XDICTIONARY
360
39F
102
}
330
2A
100
AcDbVisualStyle
  2
Flat
 70
     0
 71
     2
 72
     1
 73
     1
 90
        2
 40
-0.6
 41
30.0
 62
     5
 63
     7
 74
     0
 91
        4
 64
     7
 65
   257
 75
     1
175
     1
 42
1.0
 92
        8
 66
     7
 43
1.0
 76
     1
 77
     6
 78
     2
 67
     7
 79
     5
170
     0
171
     0
290
     0
174
     0
 93
       13
 44
0.0
173
     0
291
     1
 45
0.0
1001
ACAD
1000
AcDbSavedByObjectVersion
1070
     0
  0
VISUALSTYLE
  5
2C
102
{ACAD_REACTORS
330
2A
102
}
102
{ACAD_XDICTIONARY
360
3A1
102
}
330
2A
100
AcDbVisualStyle
  2
FlatWithEdges
 70
     1
 71
     2
 72
     1
 73
     1
 90
        2
 40
-0.6
 41
30.0
 62
     5
 63
     7
 74
     1
 91
        4
 64
     7
 65
   257
 75
     1
175
     1
 42
1.0
 92
        0
 66
   257
 43
1.0
 76
     1
 77
     6
 78
     2
 67
     7
 79
     5
170
     0
171
     0
290
     0
174
     0
 93
       13
 44
0.0
173
     0
291
     1
 45
0.0
1001
ACAD
1000
AcDbSavedByObjectVersion
1070
     0
  0
VISUALSTYLE
  5
2D
102
{ACAD_REACTORS
330
2A
102
}
102
{ACAD_XDICTIONARY
360
3A3
102
}
330
2A
100
AcDbVisualStyle
  2
Gouraud
 70
     2
 71
     2
 72
     2
 73
     1
 90
        2
 40
-0.6
 41
30.0
 62
     5
 63
     7
 74
     0
 91
        4
 64
     7
 65
   257
 75
     1
175
     1
 42
1.0
 92
        0
 66
     7
 43
1.0
 76
     1
 77
     6
 78
     2
 67
     7
 79
     5
170
     0
171
     0
290
     0
174
     0
 93
       13
 44
0.0
173
     0
291
     1
 45
0.0
1001
ACAD
1000
AcDbSavedByObjectVersion
1070
     0
  0
VISUALSTYLE
  5
2E
102
{ACAD_REACTORS
330
2A
102
}
102
{ACAD_XDICTIONARY
360
3A5
102
}
330
2A
100
AcDbVisualStyle
  2
GouraudWithEdges
 70
     3
 71
     2
 72
     2
 73
     1
 90
        2
 40
-0.6
 41
30.0
 62
     5
 63
     7
 74
     1
 91
        4
 64
     7
 65
   257
 75
     1
175
     1
 42
1.0
 92
        0
 66
   257
 43
1.0
 76
     1
 77
     6
 78
     2
 67
     7
 79
     5
170
     0
171
     0
290
     0
174
     0
 93
       13
 44
0.0
173
     0
291
     1
 45
0.0
1001
ACAD
1000
AcDbSavedByObjectVersion
1070
     0
  0
VISUALSTYLE
  5
38
102
{ACAD_REACTORS
330
2A
102
}
102
{ACAD_XDICTIONARY
360
3B9
102
}
330
2A
100
AcDbVisualStyle
  2
Linepattern
 70
    14
 71
     2
 72
     2
 73
     0
 90
        0
 40
-0.6
 41
-30.0
 62
     5
 63
     7
 74
     1
 91
        4
 64
     7
 65
   257
 75
     7
175
     7
 42
1.0
 92
        8
 66
     7
 43
1.0
 76
     1
 77
     6
 78
     2
 67
     7
 79
     5
170
     0
171
     0
290
     0
174
     0
 93
        1
 44
0.0
173
     0
291
     1
 45
0.0
1001
ACAD
1000
AcDbSavedByObjectVersion
1070
     0
  0
VISUALSTYLE
  5
33
102
{ACAD_REACTORS
330
2A
102
}
102
{ACAD_XDICTIONARY
360
3AF
102
}
330
2A
100
AcDbVisualStyle
  2
Realistic
 70
     8
 71
     2
 72
     2
 73
     0
 90
        0
 40
-0.6
 41
-30.0
 62
     5
 63
     7
 74
     1
 91
        0
 64
     7
 65
   257
 75
     1
175
     1
 42
1.0
 92
        8
 66
     8
 43
1.0
 76
     1
 77
     6
 78
     2
 67
     7
 79
     5
170
     0
171
     0
290
     0
174
     0
 93
       13
 44
0.0
173
     0
291
     0
 45
0.0
1001
ACAD
1000
AcDbSavedByObjectVersion
1070
     0
  0
VISUALSTYLE
  5
37
102
{ACAD_REACTORS
330
2A
102
}
102
{ACAD_XDICTIONARY
360
3B7
102
}
330
2A
100
AcDbVisualStyle
  2
Thicken
 70
    13
 71
     2
 72
     2
 73
     0
 90
        0
 40
-0.6
 41
-30.0
 62
     5
 63
     7
 74
     1
 91
        4
 64
     7
 65
   257
 75
     1
175
     1
 42
1.0
 92
       12
 66
     7
 43
1.0
 76
     1
 77
     6
 78
     2
 67
     7
 79
     5
170
     0
171
     0
290
     0
174
     0
 93
        1
 44
0.0
173
     0
291
     1
 45
0.0
1001
ACAD
1000
AcDbSavedByObjectVersion
1070
     0
  0
DICTIONARYVAR
  5
39C
102
{ACAD_REACTORS
330
397
102
}
330
397
100
DictionaryVariables
280
     0
  1
1:1
  0
DICTIONARYVAR
  5
39D
102
{ACAD_REACTORS
330
397
102
}
330
397
100
DictionaryVariables
280
     0
  1
2
  0
DICTIONARYVAR
  5
39E
102
{ACAD_REACTORS
330
397
102
}
330
397
100
DictionaryVariables
280
     0
  1
1
  0
DICTIONARYVAR
  5
39B
102
{ACAD_REACTORS
330
397
102
}
330
397
100
DictionaryVariables
280
     0
  1
80.000000
  0
DICTIONARYVAR
  5
39A
102
{ACAD_REACTORS
330
397
102
}
330
397
100
DictionaryVariables
280
     0
  1
5.000000
  0
DICTIONARY
  5
3C1
330
3D
100
AcDbDictionary
280
     1
281
     1
  3
ACAD_XREC_ROUNDTRIP
360
3C2
  0
DICTIONARY
  5
3BF
330
3C
100
AcDbDictionary
280
     1
281
     1
  3
ACAD_XREC_ROUNDTRIP
360
3C0
  0
DICTIONARY
  5
3C3
330
3E
100
AcDbDictionary
280
     1
281
     1
  3
ACAD_XREC_ROUNDTRIP
360
3C4
  0
DICTIONARY
  5
3A7
330
2F
100
AcDbDictionary
280
     1
281
     1
  3
ACAD_XREC_ROUNDTRIP
360
3A8
  0
DICTIONARY
  5
3AB
330
31
100
AcDbDictionary
280
     1
281
     1
  3
ACAD_XREC_ROUNDTRIP
360
3AC
  0
DICTIONARY
  5
3A9
330
30
100
AcDbDictionary
280
     1
281
     1
  3
ACAD_XREC_ROUNDTRIP
360
3AA
  0
DICTIONARY
  5
3AD
330
32
100
AcDbDictionary
280
     1
281
     1
  3
ACAD_XREC_ROUNDTRIP
360
3AE
  0
DICTIONARY
  5
3B5
330
36
100
AcDbDictionary
280
     1
281
     1
  3
ACAD_XREC_ROUNDTRIP
360
3B6
  0
DICTIONARY
  5
3BD
330
3A
100
AcDbDictionary
280
     1
281
     1
  3
ACAD_XREC_ROUNDTRIP
360
3BE
  0
DICTIONARY
  5
3B1
330
34
100
AcDbDictionary
280
     1
281
     1
  3
ACAD_XREC_ROUNDTRIP
360
3B2
  0
DICTIONARY
  5
3B3
330
35
100
AcDbDictionary
280
     1
281
     1
  3
ACAD_XREC_ROUNDTRIP
360
3B4
  0
DICTIONARY
  5
3BB
330
39
100
AcDbDictionary
280
     1
281
     1
  3
ACAD_XREC_ROUNDTRIP
360
3BC
  0
DICTIONARY
  5
39F
330
2B
100
AcDbDictionary
280
     1
281
     1
  3
ACAD_XREC_ROUNDTRIP
360
3A0
  0
DICTIONARY
  5
3A1
330
2C
100
AcDbDictionary
280
     1
281
     1
  3
ACAD_XREC_ROUNDTRIP
360
3A2
  0
DICTIONARY
  5
3A3
330
2D
100
AcDbDictionary
280
     1
281
     1
  3
ACAD_XREC_ROUNDTRIP
360
3A4
  0
DICTIONARY
  5
3A5
330
2E
100
AcDbDictionary
280
     1
281
     1
  3
ACAD_XREC_ROUNDTRIP
360
3A6
  0
DICTIONARY
  5
3B9
330
38
100
AcDbDictionary
280
     1
281
     1
  3
ACAD_XREC_ROUNDTRIP
360
3BA
  0
DICTIONARY
  5
3AF
330
33
100
AcDbDictionary
280
     1
281
     1
  3
ACAD_XREC_ROUNDTRIP
360
3B0
  0
DICTIONARY
  5
3B7
330
37
100
AcDbDictionary
280
     1
281
     1
  3
ACAD_XREC_ROUNDTRIP
360
3B8
  0
XRECORD
  5
3C2
102
{ACAD_REACTORS
330
3C1
102
}
330
3C1
100
AcDbXrecord
280
     1
102
MATERIAL
148
0.0
149
0.0
149
0.0
 93
        0
 94
      127
282
     0
 72
     1
 77
     1
171
     1
175
     1
179
     1
273
     0
  0
XRECORD
  5
3C0
102
{ACAD_REACTORS
330
3BF
102
}
330
3BF
100
AcDbXrecord
280
     1
102
MATERIAL
148
0.0
149
0.0
149
0.0
 93
        0
 94
      127
282
     0
 72
     1
 77
     1
171
     1
175
     1
179
     1
273
     0
  0
XRECORD
  5
3C4
102
{ACAD_REACTORS
330
3C3
102
}
330
3C3
100
AcDbXrecord
280
     1
102
MATERIAL
148
0.0
149
0.0
149
0.0
 93
        0
 94
      127
282
     0
 72
     1
 77
     1
171
     1
175
     1
179
     1
273
     0
  0
XRECORD
  5
3A8
102
{ACAD_REACTORS
330
3A7
102
}
330
3A7
100
AcDbXrecord
280
     1
102
RTVSPropertyOp0
 70
     1
102
RTVSPropertyOp1
 70
     1
102
RTVSPropertyOp2
 70
     1
102
RTVSPropertyOp3
 70
     1
102
RTVSPropertyOp4
 70
     1
102
RTVSPropertyOp5
 70
     1
102
RTVSPropertyOp6
 70
     1
102
RTVSPropertyOp7
 70
     1
102
RTVSPropertyOp8
 70
     1
102
RTVSPropertyOp9
 70
     1
102
RTVSPropertyOp10
 70
     1
102
RTVSPropertyOp11
 70
     1
102
RTVSPropertyOp12
 70
     1
102
RTVSPropertyOp13
 70
     1
102
RTVSPropertyOp14
 70
     1
102
RTVSPropertyOp15
 70
     1
102
RTVSPropertyOp16
 70
     1
102
RTVSPropertyOp17
 70
     1
102
RTVSPropertyOp18
 70
     1
102
RTVSPropertyOp19
 70
     1
102
RTVSPropertyOp20
 70
     1
102
RTVSPropertyOp21
 70
     1
102
RTVSPropertyOp22
 70
     1
102
RTVSPropertyOp23
 70
     1
102
RTVSPropertyOp24
 70
     1
102
RTVSPropertyOp25
 70
     1
102
RTVSPropertyOp26
 70
     1
102
RTVSPropertyOp27
 70
     1
  0
XRECORD
  5
3AC
102
{ACAD_REACTORS
330
3AB
102
}
330
3AB
100
AcDbXrecord
280
     1
102
RTVSPropertyOp0
 70
     1
102
RTVSPropertyOp1
 70
     1
102
RTVSPropertyOp2
 70
     1
102
RTVSPropertyOp3
 70
     1
102
RTVSPropertyOp4
 70
     1
102
RTVSPropertyOp5
 70
     1
102
RTVSPropertyOp6
 70
     1
102
RTVSPropertyOp7
 70
     1
102
RTVSPropertyOp8
 70
     1
102
RTVSPropertyOp9
 70
     1
102
RTVSPropertyOp10
 70
     1
102
RTVSPropertyOp11
 70
     1
102
RTVSPropertyOp12
 70
     1
102
RTVSPropertyOp13
 70
     1
102
RTVSPropertyOp14
 70
     1
102
RTVSPropertyOp15
 70
     1
102
RTVSPropertyOp16
 70
     1
102
RTVSPropertyOp17
 70
     1
102
RTVSPropertyOp18
 70
     1
102
RTVSPropertyOp19
 70
     1
102
RTVSPropertyOp20
 70
     1
102
RTVSPropertyOp21
 70
     1
102
RTVSPropertyOp22
 70
     1
102
RTVSPropertyOp23
 70
     1
102
RTVSPropertyOp24
 70
     1
102
RTVSPropertyOp25
 70
     1
102
RTVSPropertyOp26
 70
     1
102
RTVSPropertyOp27
 70
     1
  0
XRECORD
  5
3AA
102
{ACAD_REACTORS
330
3A9
102
}
330
3A9
100
AcDbXrecord
280
     1
102
RTVSPropertyOp0
 70
     1
102
RTVSPropertyOp1
 70
     1
102
RTVSPropertyOp2
 70
     1
102
RTVSPropertyOp3
 70
     1
102
RTVSPropertyOp4
 70
     1
102
RTVSPropertyOp5
 70
     1
102
RTVSPropertyOp6
 70
     1
102
RTVSPropertyOp7
 70
     1
102
RTVSPropertyOp8
 70
     1
102
RTVSPropertyOp9
 70
     1
102
RTVSPropertyOp10
 70
     1
102
RTVSPropertyOp11
 70
     1
102
RTVSPropertyOp12
 70
     1
102
RTVSPropertyOp13
 70
     1
102
RTVSPropertyOp14
 70
     1
102
RTVSPropertyOp15
 70
     1
102
RTVSPropertyOp16
 70
     1
102
RTVSPropertyOp17
 70
     1
102
RTVSPropertyOp18
 70
     1
102
RTVSPropertyOp19
 70
     1
102
RTVSPropertyOp20
 70
     1
102
RTVSPropertyOp21
 70
     1
102
RTVSPropertyOp22
 70
     1
102
RTVSPropertyOp23
 70
     1
102
RTVSPropertyOp24
 70
     1
102
RTVSPropertyOp25
 70
     1
102
RTVSPropertyOp26
 70
     1
102
RTVSPropertyOp27
 70
     1
  0
XRECORD
  5
3AE
102
{ACAD_REACTORS
330
3AD
102
}
330
3AD
100
AcDbXrecord
280
     1
102
RTVSPropertyOp0
 70
     1
102
RTVSPropertyOp1
 70
     1
102
RTVSPropertyOp2
 70
     1
102
RTVSPropertyOp3
 70
     1
102
RTVSPropertyOp4
 70
     1
102
RTVSPropertyOp5
 70
     1
102
RTVSPropertyOp6
 70
     1
102
RTVSPropertyOp7
 70
     1
102
RTVSPropertyOp8
 70
     1
102
RTVSPropertyOp9
 70
     1
102
RTVSPropertyOp10
 70
     1
102
RTVSPropertyOp11
 70
     1
102
RTVSPropertyOp12
 70
     1
102
RTVSPropertyOp13
 70
     1
102
RTVSPropertyOp14
 70
     1
102
RTVSPropertyOp15
 70
     1
102
RTVSPropertyOp16
 70
     1
102
RTVSPropertyOp17
 70
     1
102
RTVSPropertyOp18
 70
     1
102
RTVSPropertyOp19
 70
     1
102
RTVSPropertyOp20
 70
     1
102
RTVSPropertyOp21
 70
     1
102
RTVSPropertyOp22
 70
     1
102
RTVSPropertyOp23
 70
     1
102
RTVSPropertyOp24
 70
     1
102
RTVSPropertyOp25
 70
     1
102
RTVSPropertyOp26
 70
     1
102
RTVSPropertyOp27
 70
     1
  0
XRECORD
  5
3B6
102
{ACAD_REACTORS
330
3B5
102
}
330
3B5
100
AcDbXrecord
280
     1
102
RTVSPropertyOp0
 70
     1
102
RTVSPropertyOp1
 70
     1
102
RTVSPropertyOp2
 70
     1
102
RTVSPropertyOp3
 70
     1
102
RTVSPropertyOp4
 70
     1
102
RTVSPropertyOp5
 70
     1
102
RTVSPropertyOp6
 70
     1
102
RTVSPropertyOp7
 70
     1
102
RTVSPropertyOp8
 70
     1
102
RTVSPropertyOp9
 70
     1
102
RTVSPropertyOp10
 70
     1
102
RTVSPropertyOp11
 70
     1
102
RTVSPropertyOp12
 70
     1
102
RTVSPropertyOp13
 70
     1
102
RTVSPropertyOp14
 70
     1
102
RTVSPropertyOp15
 70
     1
102
RTVSPropertyOp16
 70
     1
102
RTVSPropertyOp17
 70
     1
102
RTVSPropertyOp18
 70
     1
102
RTVSPropertyOp19
 70
     1
102
RTVSPropertyOp20
 70
     1
102
RTVSPropertyOp21
 70
     1
102
RTVSPropertyOp22
 70
     1
102
RTVSPropertyOp23
 70
     1
102
RTVSPropertyOp24
 70
     1
102
RTVSPropertyOp25
 70
     1
102
RTVSPropertyOp26
 70
     1
102
RTVSPropertyOp27
 70
     1
  0
XRECORD
  5
3BE
102
{ACAD_REACTORS
330
3BD
102
}
330
3BD
100
AcDbXrecord
280
     1
102
RTVSPropertyOp0
 70
     1
102
RTVSPropertyOp1
 70
     1
102
RTVSPropertyOp2
 70
     1
102
RTVSPropertyOp3
 70
     1
102
RTVSPropertyOp4
 70
     1
102
RTVSPropertyOp5
 70
     1
102
RTVSPropertyOp6
 70
     1
102
RTVSPropertyOp7
 70
     1
102
RTVSPropertyOp8
 70
     1
102
RTVSPropertyOp9
 70
     1
102
RTVSPropertyOp10
 70
     1
102
RTVSPropertyOp11
 70
     1
102
RTVSPropertyOp12
 70
     1
102
RTVSPropertyOp13
 70
     1
102
RTVSPropertyOp14
 70
     1
102
RTVSPropertyOp15
 70
     1
102
RTVSPropertyOp16
 70
     1
102
RTVSPropertyOp17
 70
     1
102
RTVSPropertyOp18
 70
     1
102
RTVSPropertyOp19
 70
     1
102
RTVSPropertyOp20
 70
     1
102
RTVSPropertyOp21
 70
     1
102
RTVSPropertyOp22
 70
     1
102
RTVSPropertyOp23
 70
     1
102
RTVSPropertyOp24
 70
     1
102
RTVSPropertyOp25
 70
     1
102
RTVSPropertyOp26
 70
     1
102
RTVSPropertyOp27
 70
     1
  0
XRECORD
  5
3B2
102
{ACAD_REACTORS
330
3B1
102
}
330
3B1
100
AcDbXrecord
280
     1
102
RTVSPropertyOp0
 70
     1
102
RTVSPropertyOp1
 70
     1
102
RTVSPropertyOp2
 70
     1
102
RTVSPropertyOp3
 70
     1
102
RTVSPropertyOp4
 70
     1
102
RTVSPropertyOp5
 70
     1
102
RTVSPropertyOp6
 70
     1
102
RTVSPropertyOp7
 70
     1
102
RTVSPropertyOp8
 70
     1
102
RTVSPropertyOp9
 70
     1
102
RTVSPropertyOp10
 70
     1
102
RTVSPropertyOp11
 70
     1
102
RTVSPropertyOp12
 70
     1
102
RTVSPropertyOp13
 70
     1
102
RTVSPropertyOp14
 70
     1
102
RTVSPropertyOp15
 70
     1
102
RTVSPropertyOp16
 70
     1
102
RTVSPropertyOp17
 70
     1
102
RTVSPropertyOp18
 70
     1
102
RTVSPropertyOp19
 70
     1
102
RTVSPropertyOp20
 70
     1
102
RTVSPropertyOp21
 70
     1
102
RTVSPropertyOp22
 70
     1
102
RTVSPropertyOp23
 70
     1
102
RTVSPropertyOp24
 70
     1
102
RTVSPropertyOp25
 70
     1
102
RTVSPropertyOp26
 70
     1
102
RTVSPropertyOp27
 70
     1
  0
XRECORD
  5
3B4
102
{ACAD_REACTORS
330
3B3
102
}
330
3B3
100
AcDbXrecord
280
     1
102
RTVSPropertyOp0
 70
     1
102
RTVSPropertyOp1
 70
     1
102
RTVSPropertyOp2
 70
     1
102
RTVSPropertyOp3
 70
     1
102
RTVSPropertyOp4
 70
     1
102
RTVSPropertyOp5
 70
     1
102
RTVSPropertyOp6
 70
     1
102
RTVSPropertyOp7
 70
     1
102
RTVSPropertyOp8
 70
     1
102
RTVSPropertyOp9
 70
     1
102
RTVSPropertyOp10
 70
     1
102
RTVSPropertyOp11
 70
     1
102
RTVSPropertyOp12
 70
     1
102
RTVSPropertyOp13
 70
     1
102
RTVSPropertyOp14
 70
     1
102
RTVSPropertyOp15
 70
     1
102
RTVSPropertyOp16
 70
     1
102
RTVSPropertyOp17
 70
     1
102
RTVSPropertyOp18
 70
     1
102
RTVSPropertyOp19
 70
     1
102
RTVSPropertyOp20
 70
     1
102
RTVSPropertyOp21
 70
     1
102
RTVSPropertyOp22
 70
     1
102
RTVSPropertyOp23
 70
     1
102
RTVSPropertyOp24
 70
     1
102
RTVSPropertyOp25
 70
     1
102
RTVSPropertyOp26
 70
     1
102
RTVSPropertyOp27
 70
     1
  0
XRECORD
  5
3BC
102
{ACAD_REACTORS
330
3BB
102
}
330
3BB
100
AcDbXrecord
280
     1
102
RTVSPropertyOp0
 70
     1
102
RTVSPropertyOp1
 70
     1
102
RTVSPropertyOp2
 70
     1
102
RTVSPropertyOp3
 70
     1
102
RTVSPropertyOp4
 70
     1
102
RTVSPropertyOp5
 70
     1
102
RTVSPropertyOp6
 70
     1
102
RTVSPropertyOp7
 70
     1
102
RTVSPropertyOp8
 70
     1
102
RTVSPropertyOp9
 70
     1
102
RTVSPropertyOp10
 70
     1
102
RTVSPropertyOp11
 70
     1
102
RTVSPropertyOp12
 70
     1
102
RTVSPropertyOp13
 70
     1
102
RTVSPropertyOp14
 70
     1
102
RTVSPropertyOp15
 70
     1
102
RTVSPropertyOp16
 70
     1
102
RTVSPropertyOp17
 70
     1
102
RTVSPropertyOp18
 70
     1
102
RTVSPropertyOp19
 70
     1
102
RTVSPropertyOp20
 70
     1
102
RTVSPropertyOp21
 70
     1
102
RTVSPropertyOp22
 70
     1
102
RTVSPropertyOp23
 70
     1
102
RTVSPropertyOp24
 70
     1
102
RTVSPropertyOp25
 70
     1
102
RTVSPropertyOp26
 70
     1
102
RTVSPropertyOp27
 70
     1
  0
XRECORD
  5
3A0
102
{ACAD_REACTORS
330
39F
102
}
330
39F
100
AcDbXrecord
280
     1
102
RTVSPropertyOp0
 70
     1
102
RTVSPropertyOp1
 70
     1
102
RTVSPropertyOp2
 70
     1
102
RTVSPropertyOp3
 70
     1
102
RTVSPropertyOp4
 70
     1
102
RTVSPropertyOp5
 70
     1
102
RTVSPropertyOp6
 70
     1
102
RTVSPropertyOp7
 70
     1
102
RTVSPropertyOp8
 70
     1
102
RTVSPropertyOp9
 70
     1
102
RTVSPropertyOp10
 70
     1
102
RTVSPropertyOp11
 70
     1
102
RTVSPropertyOp12
 70
     1
102
RTVSPropertyOp13
 70
     1
102
RTVSPropertyOp14
 70
     1
102
RTVSPropertyOp15
 70
     1
102
RTVSPropertyOp16
 70
     1
102
RTVSPropertyOp17
 70
     1
102
RTVSPropertyOp18
 70
     1
102
RTVSPropertyOp19
 70
     1
102
RTVSPropertyOp20
 70
     1
102
RTVSPropertyOp21
 70
     1
102
RTVSPropertyOp22
 70
     1
102
RTVSPropertyOp23
 70
     1
102
RTVSPropertyOp24
 70
     1
102
RTVSPropertyOp25
 70
     1
102
RTVSPropertyOp26
 70
     1
102
RTVSPropertyOp27
 70
     1
  0
XRECORD
  5
3A2
102
{ACAD_REACTORS
330
3A1
102
}
330
3A1
100
AcDbXrecord
280
     1
102
RTVSPropertyOp0
 70
     1
102
RTVSPropertyOp1
 70
     1
102
RTVSPropertyOp2
 70
     1
102
RTVSPropertyOp3
 70
     1
102
RTVSPropertyOp4
 70
     1
102
RTVSPropertyOp5
 70
     1
102
RTVSPropertyOp6
 70
     1
102
RTVSPropertyOp7
 70
     1
102
RTVSPropertyOp8
 70
     1
102
RTVSPropertyOp9
 70
     1
102
RTVSPropertyOp10
 70
     1
102
RTVSPropertyOp11
 70
     1
102
RTVSPropertyOp12
 70
     1
102
RTVSPropertyOp13
 70
     1
102
RTVSPropertyOp14
 70
     1
102
RTVSPropertyOp15
 70
     1
102
RTVSPropertyOp16
 70
     1
102
RTVSPropertyOp17
 70
     1
102
RTVSPropertyOp18
 70
     1
102
RTVSPropertyOp19
 70
     1
102
RTVSPropertyOp20
 70
     1
102
RTVSPropertyOp21
 70
     1
102
RTVSPropertyOp22
 70
     1
102
RTVSPropertyOp23
 70
     1
102
RTVSPropertyOp24
 70
     1
102
RTVSPropertyOp25
 70
     1
102
RTVSPropertyOp26
 70
     1
102
RTVSPropertyOp27
 70
     1
  0
XRECORD
  5
3A4
102
{ACAD_REACTORS
330
3A3
102
}
330
3A3
100
AcDbXrecord
280
     1
102
RTVSPropertyOp0
 70
     1
102
RTVSPropertyOp1
 70
     1
102
RTVSPropertyOp2
 70
     1
102
RTVSPropertyOp3
 70
     1
102
RTVSPropertyOp4
 70
     1
102
RTVSPropertyOp5
 70
     1
102
RTVSPropertyOp6
 70
     1
102
RTVSPropertyOp7
 70
     1
102
RTVSPropertyOp8
 70
     1
102
RTVSPropertyOp9
 70
     1
102
RTVSPropertyOp10
 70
     1
102
RTVSPropertyOp11
 70
     1
102
RTVSPropertyOp12
 70
     1
102
RTVSPropertyOp13
 70
     1
102
RTVSPropertyOp14
 70
     1
102
RTVSPropertyOp15
 70
     1
102
RTVSPropertyOp16
 70
     1
102
RTVSPropertyOp17
 70
     1
102
RTVSPropertyOp18
 70
     1
102
RTVSPropertyOp19
 70
     1
102
RTVSPropertyOp20
 70
     1
102
RTVSPropertyOp21
 70
     1
102
RTVSPropertyOp22
 70
     1
102
RTVSPropertyOp23
 70
     1
102
RTVSPropertyOp24
 70
     1
102
RTVSPropertyOp25
 70
     1
102
RTVSPropertyOp26
 70
     1
102
RTVSPropertyOp27
 70
     1
  0
XRECORD
  5
3A6
102
{ACAD_REACTORS
330
3A5
102
}
330
3A5
100
AcDbXrecord
280
     1
102
RTVSPropertyOp0
 70
     1
102
RTVSPropertyOp1
 70
     1
102
RTVSPropertyOp2
 70
     1
102
RTVSPropertyOp3
 70
     1
102
RTVSPropertyOp4
 70
     1
102
RTVSPropertyOp5
 70
     1
102
RTVSPropertyOp6
 70
     1
102
RTVSPropertyOp7
 70
     1
102
RTVSPropertyOp8
 70
     1
102
RTVSPropertyOp9
 70
     1
102
RTVSPropertyOp10
 70
     1
102
RTVSPropertyOp11
 70
     1
102
RTVSPropertyOp12
 70
     1
102
RTVSPropertyOp13
 70
     1
102
RTVSPropertyOp14
 70
     1
102
RTVSPropertyOp15
 70
     1
102
RTVSPropertyOp16
 70
     1
102
RTVSPropertyOp17
 70
     1
102
RTVSPropertyOp18
 70
     1
102
RTVSPropertyOp19
 70
     1
102
RTVSPropertyOp20
 70
     1
102
RTVSPropertyOp21
 70
     1
102
RTVSPropertyOp22
 70
     1
102
RTVSPropertyOp23
 70
     1
102
RTVSPropertyOp24
 70
     1
102
RTVSPropertyOp25
 70
     1
102
RTVSPropertyOp26
 70
     1
102
RTVSPropertyOp27
 70
     1
  0
XRECORD
  5
3BA
102
{ACAD_REACTORS
330
3B9
102
}
330
3B9
100
AcDbXrecord
280
     1
102
RTVSPropertyOp0
 70
     1
102
RTVSPropertyOp1
 70
     1
102
RTVSPropertyOp2
 70
     1
102
RTVSPropertyOp3
 70
     1
102
RTVSPropertyOp4
 70
     1
102
RTVSPropertyOp5
 70
     1
102
RTVSPropertyOp6
 70
     1
102
RTVSPropertyOp7
 70
     1
102
RTVSPropertyOp8
 70
     1
102
RTVSPropertyOp9
 70
     1
102
RTVSPropertyOp10
 70
     1
102
RTVSPropertyOp11
 70
     1
102
RTVSPropertyOp12
 70
     1
102
RTVSPropertyOp13
 70
     1
102
RTVSPropertyOp14
 70
     1
102
RTVSPropertyOp15
 70
     1
102
RTVSPropertyOp16
 70
     1
102
RTVSPropertyOp17
 70
     1
102
RTVSPropertyOp18
 70
     1
102
RTVSPropertyOp19
 70
     1
102
RTVSPropertyOp20
 70
     1
102
RTVSPropertyOp21
 70
     1
102
RTVSPropertyOp22
 70
     1
102
RTVSPropertyOp23
 70
     1
102
RTVSPropertyOp24
 70
     1
102
RTVSPropertyOp25
 70
     1
102
RTVSPropertyOp26
 70
     1
102
RTVSPropertyOp27
 70
     1
  0
XRECORD
  5
3B0
102
{ACAD_REACTORS
330
3AF
102
}
330
3AF
100
AcDbXrecord
280
     1
102
RTVSPropertyOp0
 70
     1
102
RTVSPropertyOp1
 70
     1
102
RTVSPropertyOp2
 70
     1
102
RTVSPropertyOp3
 70
     1
102
RTVSPropertyOp4
 70
     1
102
RTVSPropertyOp5
 70
     1
102
RTVSPropertyOp6
 70
     1
102
RTVSPropertyOp7
 70
     1
102
RTVSPropertyOp8
 70
     1
102
RTVSPropertyOp9
 70
     1
102
RTVSPropertyOp10
 70
     1
102
RTVSPropertyOp11
 70
     1
102
RTVSPropertyOp12
 70
     1
102
RTVSPropertyOp13
 70
     1
102
RTVSPropertyOp14
 70
     1
102
RTVSPropertyOp15
 70
     1
102
RTVSPropertyOp16
 70
     1
102
RTVSPropertyOp17
 70
     1
102
RTVSPropertyOp18
 70
     1
102
RTVSPropertyOp19
 70
     1
102
RTVSPropertyOp20
 70
     1
102
RTVSPropertyOp21
 70
     1
102
RTVSPropertyOp22
 70
     1
102
RTVSPropertyOp23
 70
     1
102
RTVSPropertyOp24
 70
     1
102
RTVSPropertyOp25
 70
     1
102
RTVSPropertyOp26
 70
     1
102
RTVSPropertyOp27
 70
     1
  0
XRECORD
  5
3B8
102
{ACAD_REACTORS
330
3B7
102
}
330
3B7
100
AcDbXrecord
280
     1
102
RTVSPropertyOp0
 70
     1
102
RTVSPropertyOp1
 70
     1
102
RTVSPropertyOp2
 70
     1
102
RTVSPropertyOp3
 70
     1
102
RTVSPropertyOp4
 70
     1
102
RTVSPropertyOp5
 70
     1
102
RTVSPropertyOp6
 70
     1
102
RTVSPropertyOp7
 70
     1
102
RTVSPropertyOp8
 70
     1
102
RTVSPropertyOp9
 70
     1
102
RTVSPropertyOp10
 70
     1
102
RTVSPropertyOp11
 70
     1
102
RTVSPropertyOp12
 70
     1
102
RTVSPropertyOp13
 70
     1
102
RTVSPropertyOp14
 70
     1
102
RTVSPropertyOp15
 70
     1
102
RTVSPropertyOp16
 70
     1
102
RTVSPropertyOp17
 70
     1
102
RTVSPropertyOp18
 70
     1
102
RTVSPropertyOp19
 70
     1
102
RTVSPropertyOp20
 70
     1
102
RTVSPropertyOp21
 70
     1
102
RTVSPropertyOp22
 70
     1
102
RTVSPropertyOp23
 70
     1
102
RTVSPropertyOp24
 70
     1
102
RTVSPropertyOp25
 70
     1
102
RTVSPropertyOp26
 70
     1
102
RTVSPropertyOp27
 70
     1
  0
ENDSEC
  0
EOF
