  0
SECTION
  2
HEADER
  9
$ACADVER
  1
AC1024
  9
$ACADMAINTVER
 70
     6
  9
$DWGCODEPAGE
  3
ANSI_932
  9
$INSBASE
 10
0.0
 20
0.0
 30
0.0
  9
$EXTMIN
 10
1.000000000000000E+20
 20
1.000000000000000E+20
 30
1.000000000000000E+20
  9
$EXTMAX
 10
-1.000000000000000E+20
 20
-1.000000000000000E+20
 30
-1.000000000000000E+20
  9
$LIMMIN
 10
0.0
 20
0.0
  9
$LIMMAX
 10
12.0
 20
9.0
  9
$ORTHOMODE
 70
     0
  9
$REGENMODE
 70
     1
  9
$FILLMODE
 70
     1
  9
$QTEXTMODE
 70
     0
  9
$MIRRTEXT
 70
     1
  9
$LTSCALE
 40
1.0
  9
$ATTMODE
 70
     1
  9
$TEXTSIZE
 40
0.2
  9
$TRACEWID
 40
0.05
  9
$TEXTSTYLE
  7
Standard
  9
$CLAYER
  8
0
  9
$CELTYPE
  6
ByLayer
  9
$CECOLOR
 62
   256
  9
$CELTSCALE
 40
1.0
  9
$DISPSILH
 70
     0
  9
$DIMSCALE
 40
1.0
  9
$DIMASZ
 40
0.18
  9
$DIMEXO
 40
0.0625
  9
$DIMDLI
 40
0.38
  9
$DIMRND
 40
0.0
  9
$DIMDLE
 40
0.0
  9
$DIMEXE
 40
0.18
  9
$DIMTP
 40
0.0
  9
$DIMTM
 40
0.0
  9
$DIMTXT
 40
0.18
  9
$DIMCEN
 40
0.09
  9
$DIMTSZ
 40
0.0
  9
$DIMTOL
 70
     0
  9
$DIMLIM
 70
     0
  9
$DIMTIH
 70
     1
  9
$DIMTOH
 70
     1
  9
$DIMSE1
 70
     0
  9
$DIMSE2
 70
     0
  9
$DIMTAD
 70
     0
  9
$DIMZIN
 70
     0
  9
$DIMBLK
  1

  9
$DIMASO
 70
     1
  9
$DIMSHO
 70
     1
  9
$DIMPOST
  1

  9
$DIMAPOST
  1

  9
$DIMALT
 70
     0
  9
$DIMALTD
 70
     2
  9
$DIMALTF
 40
25.4
  9
$DIMLFAC
 40
1.0
  9
$DIMTOFL
 70
     0
  9
$DIMTVP
 40
0.0
  9
$DIMTIX
 70
     0
  9
$DIMSOXD
 70
     0
  9
$DIMSAH
 70
     0
  9
$DIMBLK1
  1

  9
$DIMBLK2
  1

  9
$DIMSTYLE
  2
Standard
  9
$DIMCLRD
 70
     0
  9
$DIMCLRE
 70
     0
  9
$DIMCLRT
 70
     0
  9
$DIMTFAC
 40
1.0
  9
$DIMGAP
 40
0.09
  9
$DIMJUST
 70
     0
  9
$DIMSD1
 70
     0
  9
$DIMSD2
 70
     0
  9
$DIMTOLJ
 70
     1
  9
$DIMTZIN
 70
     0
  9
$DIMALTZ
 70
     0
  9
$DIMALTTZ
 70
     0
  9
$DIMUPT
 70
     0
  9
$DIMDEC
 70
     4
  9
$DIMTDEC
 70
     4
  9
$DIMALTU
 70
     2
  9
$DIMALTTD
 70
     2
  9
$DIMTXSTY
  7
Standard
  9
$DIMAUNIT
 70
     0
  9
$DIMADEC
 70
     0
  9
$DIMALTRND
 40
0.0
  9
$DIMAZIN
 70
     0
  9
$DIMDSEP
 70
    46
  9
$DIMATFIT
 70
     3
  9
$DIMFRAC
 70
     0
  9
$DIMLDRBLK
  1

  9
$DIMLUNIT
 70
     2
  9
$DIMLWD
 70
    -2
  9
$DIMLWE
 70
    -2
  9
$DIMTMOVE
 70
     0
  9
$DIMFXL
 40
1.0
  9
$DIMFXLON
 70
     0
  9
$DIMJOGANG
 40
0.7853981633974483
  9
$DIMTFILL
 70
     0
  9
$DIMTFILLCLR
 70
     0
  9
$DIMARCSYM
 70
     0
  9
$DIMLTYPE
  6

  9
$DIMLTEX1
  6

  9
$DIMLTEX2
  6

  9
$DIMTXTDIRECTION
 70
     0
  9
$LUNITS
 70
     2
  9
$LUPREC
 70
     4
  9
$SKETCHINC
 40
0.1
  9
$FILLETRAD
 40
0.5
  9
$AUNITS
 70
     0
  9
$AUPREC
 70
     0
  9
$MENU
  1
.
  9
$ELEVATION
 40
0.0
  9
$PELEVATION
 40
0.0
  9
$THICKNESS
 40
0.0
  9
$LIMCHECK
 70
     0
  9
$CHAMFERA
 40
0.5
  9
$CHAMFERB
 40
0.5
  9
$CHAMFERC
 40
1.0
  9
$CHAMFERD
 40
0.0
  9
$SKPOLY
 70
     0
  9
$TDCREATE
 40
2459102.476254896
  9
$TDUCREATE
 40
2459102.101254896
  9
$TDUPDATE
 40
2459102.476256065
  9
$TDUUPDATE
 40
2459102.101256065
  9
$TDINDWG
 40
0.0000000116
  9
$TDUSRTIMER
 40
0.0000000116
  9
$USRTIMER
 70
     1
  9
$ANGBASE
 50
0.0
  9
$ANGDIR
 70
     0
  9
$PDMODE
 70
     0
  9
$PDSIZE
 40
0.0
  9
$PLINEWID
 40
0.0
  9
$SPLFRAME
 70
     0
  9
$SPLINETYPE
 70
     6
  9
$SPLINESEGS
 70
     8
  9
$HANDSEED
  5
6CF
  9
$SURFTAB1
 70
     6
  9
$SURFTAB2
 70
     6
  9
$SURFTYPE
 70
     6
  9
$SURFU
 70
     6
  9
$SURFV
 70
     6
  9
$UCSBASE
  2

  9
$UCSNAME
  2

  9
$UCSORG
 10
0.0
 20
0.0
 30
0.0
  9
$UCSXDIR
 10
1.0
 20
0.0
 30
0.0
  9
$UCSYDIR
 10
0.0
 20
1.0
 30
0.0
  9
$UCSORTHOREF
  2

  9
$UCSORTHOVIEW
 70
     0
  9
$UCSORGTOP
 10
0.0
 20
0.0
 30
0.0
  9
$UCSORGBOTTOM
 10
0.0
 20
0.0
 30
0.0
  9
$UCSORGLEFT
 10
0.0
 20
0.0
 30
0.0
  9
$UCSORGRIGHT
 10
0.0
 20
0.0
 30
0.0
  9
$UCSORGFRONT
 10
0.0
 20
0.0
 30
0.0
  9
$UCSORGBACK
 10
0.0
 20
0.0
 30
0.0
  9
$PUCSBASE
  2

  9
$PUCSNAME
  2

  9
$PUCSORG
 10
0.0
 20
0.0
 30
0.0
  9
$PUCSXDIR
 10
1.0
 20
0.0
 30
0.0
  9
$PUCSYDIR
 10
0.0
 20
1.0
 30
0.0
  9
$PUCSORTHOREF
  2

  9
$PUCSORTHOVIEW
 70
     0
  9
$PUCSORGTOP
 10
0.0
 20
0.0
 30
0.0
  9
$PUCSORGBOTTOM
 10
0.0
 20
0.0
 30
0.0
  9
$PUCSORGLEFT
 10
0.0
 20
0.0
 30
0.0
  9
$PUCSORGRIGHT
 10
0.0
 20
0.0
 30
0.0
  9
$PUCSORGFRONT
 10
0.0
 20
0.0
 30
0.0
  9
$PUCSORGBACK
 10
0.0
 20
0.0
 30
0.0
  9
$USERI1
 70
     0
  9
$USERI2
 70
     0
  9
$USERI3
 70
     0
  9
$USERI4
 70
     0
  9
$USERI5
 70
     0
  9
$USERR1
 40
0.0
  9
$USERR2
 40
0.0
  9
$USERR3
 40
0.0
  9
$USERR4
 40
0.0
  9
$USERR5
 40
0.0
  9
$WORLDVIEW
 70
     1
  9
$SHADEDGE
 70
     3
  9
$SHADEDIF
 70
    70
  9
$TILEMODE
 70
     1
  9
$MAXACTVP
 70
    64
  9
$PINSBASE
 10
0.0
 20
0.0
 30
0.0
  9
$PLIMCHECK
 70
     0
  9
$PEXTMIN
 10
1.000000000000000E+20
 20
1.000000000000000E+20
 30
1.000000000000000E+20
  9
$PEXTMAX
 10
-1.000000000000000E+20
 20
-1.000000000000000E+20
 30
-1.000000000000000E+20
  9
$PLIMMIN
 10
0.0
 20
0.0
  9
$PLIMMAX
 10
12.0
 20
9.0
  9
$UNITMODE
 70
     0
  9
$VISRETAIN
 70
     1
  9
$PLINEGEN
 70
     0
  9
$PSLTSCALE
 70
     1
  9
$TREEDEPTH
 70
  3020
  9
$CMLSTYLE
  2
Standard
  9
$CMLJUST
 70
     0
  9
$CMLSCALE
 40
1.0
  9
$PROXYGRAPHICS
 70
     1
  9
$MEASUREMENT
 70
     0
  9
$CELWEIGHT
370
    -1
  9
$ENDCAPS
280
     0
  9
$JOINSTYLE
280
     0
  9
$LWDISPLAY
290
     1
  9
$INSUNITS
 70
     4
  9
$HYPERLINKBASE
  1

  9
$STYLESHEET
  1

  9
$XEDIT
290
     1
  9
$CEPSNTYPE
380
     0
  9
$PSTYLEMODE
290
     1
  9
$FINGERPRINTGUID
  2
{289836B6-A4CE-42BD-9731-A2AC25252C7F}
  9
$VERSIONGUID
  2
{FAEB1C32-E019-11D5-929B-00C0DF256EC4}
  9
$EXTNAMES
290
     1
  9
$PSVPSCALE
 40
0.0
  9
$OLESTARTUP
290
     0
  9
$SORTENTS
280
   127
  9
$INDEXCTL
280
     0
  9
$HIDETEXT
280
     1
  9
$XCLIPFRAME
280
     2
  9
$HALOGAP
280
     0
  9
$OBSCOLOR
 70
   257
  9
$OBSLTYPE
280
     0
  9
$INTERSECTIONDISPLAY
280
     0
  9
$INTERSECTIONCOLOR
 70
   257
  9
$DIMASSOC
280
     2
  9
$PROJECTNAME
  1

  9
$CAMERADISPLAY
290
     0
  9
$LENSLENGTH
 40
50.0
  9
$CAMERAHEIGHT
 40
0.0
  9
$STEPSPERSEC
 40
2.0
  9
$STEPSIZE
 40
6.0
  9
$3DDWFPREC
 40
2.0
  9
$PSOLWIDTH
 40
0.25
  9
$PSOLHEIGHT
 40
4.0
  9
$LOFTANG1
 40
1.570796326794897
  9
$LOFTANG2
 40
1.570796326794897
  9
$LOFTMAG1
 40
0.0
  9
$LOFTMAG2
 40
0.0
  9
$LOFTPARAM
 70
     7
  9
$LOFTNORMALS
280
     1
  9
$LATITUDE
 40
37.795
  9
$LONGITUDE
 40
-122.394
  9
$NORTHDIRECTION
 40
0.0
  9
$TIMEZONE
 70
 -8000
  9
$LIGHTGLYPHDISPLAY
280
     1
  9
$TILEMODELIGHTSYNCH
280
     1
  9
$CMATERIAL
347
3C
  9
$SOLIDHIST
280
     1
  9
$SHOWHIST
280
     1
  9
$DWFFRAME
280
     2
  9
$DGNFRAME
280
     2
  9
$REALWORLDSCALE
290
     1
  9
$INTERFERECOLOR
 62
   256
  9
$CSHADOW
280
     0
  9
$SHADOWPLANELOCATION
 40
0.0
  0
ENDSEC
  0
SECTION
  2
CLASSES
  0
CLASS
  1
ACDBDICTIONARYWDFLT
  2
AcDbDictionaryWithDefault
  3
ObjectDBX Classes
 90
        0
 91
        4
280
     0
281
     0
  0
CLASS
  1
VISUALSTYLE
  2
AcDbVisualStyle
  3
ObjectDBX Classes
 90
     4095
 91
        4
280
     0
281
     0
  0
CLASS
  1
MATERIAL
  2
AcDbMaterial
  3
ObjectDBX Classes
 90
     1153
 91
        4
280
     0
281
     0
  0
CLASS
  1
SUN
  2
AcDbSun
  3
SCENEOE
 90
     1024
 91
        4
280
     0
281
     0
  0
ENDSEC
  0
SECTION
  2
TABLES
  0
TABLE
  2
VPORT
  5
8
330
0
100
AcDbSymbolTable
 70
     1
  0
VPORT
  5
29
330
8
100
AcDbSymbolTableRecord
100
AcDbViewportTableRecord
  2
*Active
 70
     0
 10
0.0
 20
0.0
 11
1.0
 21
1.0
 12
0.0
 22
0.0
 13
0.0
 23
0.0
 14
0.5
 24
0.5
 15
0.5
 25
0.5
 16
0.0
 26
0.0
 36
1.0
 17
104.9999970067687
 27
148.5000119155985
 37
0.0
 40
297.0000238311971
 41
0.7070706301791173
 42
50.0
 43
0.0
 44
0.0
 50
0.0
 51
0.0
 71
     0
 72
   100
 73
     1
 74
     3
 75
     0
 76
     0
 77
     0
 78
     0
281
     0
 65
     1
110
0.0
120
0.0
130
0.0
111
1.0
121
0.0
131
0.0
112
0.0
122
1.0
132
0.0
 79
     0
146
0.0
 60
     3
 61
     5
292
     1
282
     1
141
0.0
142
0.0
 63
   250
361
3F
  0
ENDTAB
  0
TABLE
  2
LTYPE
  5
5
330
0
100
AcDbSymbolTable
 70
    13
  0
LTYPE
  5
14
330
5
100
AcDbSymbolTableRecord
100
AcDbLinetypeTableRecord
  2
ByBlock
 70
     0
  3

 72
    65
 73
     0
 40
0.0
  0
LTYPE
  5
15
330
5
100
AcDbSymbolTableRecord
100
AcDbLinetypeTableRecord
  2
ByLayer
 70
     0
  3

 72
    65
 73
     0
 40
0.0
  0
LTYPE
  5
16
330
5
100
AcDbSymbolTableRecord
100
AcDbLinetypeTableRecord
  2
Continuous
 70
     0
  3
Solid line
 72
    65
 73
     0
 40
0.0
  0
LTYPE
  5
3BB
330
5
100
AcDbSymbolTableRecord
100
AcDbLinetypeTableRecord
  2
AI-Linetype-1
 70
     0
  3
Adobe Illustrator Linetype No. 1
 72
    65
 73
     4
 40
17.9999994868737
 49
11.9999996579158
 74
     0
 49
-1.499999957239475
 74
     0
 49
2.99999991447895
 74
     0
 49
-1.499999957239475
 74
     0
  0
LTYPE
  5
3C5
330
5
100
AcDbSymbolTableRecord
100
AcDbLinetypeTableRecord
  2
AI-Linetype-2
 70
     0
  3
Adobe Illustrator Linetype No. 2
 72
    65
 73
     2
 40
7.499999786197375
 49
5.9999998289579
 74
     0
 49
-1.499999957239475
 74
     0
  0
LTYPE
  5
3CE
330
5
100
AcDbSymbolTableRecord
100
AcDbLinetypeTableRecord
  2
AI-Linetype-3
 70
     0
  3
Adobe Illustrator Linetype No. 3
 72
    65
 73
     2
 40
3.749999893098687
 49
2.99999991447895
 74
     0
 49
-0.7499999786197374
 74
     0
  0
LTYPE
  5
3D7
330
5
100
AcDbSymbolTableRecord
100
AcDbLinetypeTableRecord
  2
AI-Linetype-4
 70
     0
  3
Adobe Illustrator Linetype No. 4
 72
    65
 73
     2
 40
7.499999786197375
 49
5.9999998289579
 74
     0
 49
-1.499999957239475
 74
     0
  0
LTYPE
  5
3E0
330
5
100
AcDbSymbolTableRecord
100
AcDbLinetypeTableRecord
  2
AI-Linetype-5
 70
     0
  3
Adobe Illustrator Linetype No. 5
 72
    65
 73
     2
 40
3.749999893098687
 49
2.99999991447895
 74
     0
 49
-0.7499999786197374
 74
     0
  0
LTYPE
  5
3E9
330
5
100
AcDbSymbolTableRecord
100
AcDbLinetypeTableRecord
  2
AI-Linetype-6
 70
     0
  3
Adobe Illustrator Linetype No. 6
 72
    65
 73
     2
 40
7.499999786197375
 49
5.9999998289579
 74
     0
 49
-1.499999957239475
 74
     0
  0
LTYPE
  5
3F2
330
5
100
AcDbSymbolTableRecord
100
AcDbLinetypeTableRecord
  2
AI-Linetype-7
 70
     0
  3
Adobe Illustrator Linetype No. 7
 72
    65
 73
     2
 40
7.499999786197375
 49
5.9999998289579
 74
     0
 49
-1.499999957239475
 74
     0
  0
LTYPE
  5
3FB
330
5
100
AcDbSymbolTableRecord
100
AcDbLinetypeTableRecord
  2
AI-Linetype-8
 70
     0
  3
Adobe Illustrator Linetype No. 8
 72
    65
 73
     2
 40
7.499999786197375
 49
5.9999998289579
 74
     0
 49
-1.499999957239475
 74
     0
  0
LTYPE
  5
404
330
5
100
AcDbSymbolTableRecord
100
AcDbLinetypeTableRecord
  2
AI-Linetype-9
 70
     0
  3
Adobe Illustrator Linetype No. 9
 72
    65
 73
     2
 40
7.499999786197375
 49
5.9999998289579
 74
     0
 49
-1.499999957239475
 74
     0
  0
LTYPE
  5
40D
330
5
100
AcDbSymbolTableRecord
100
AcDbLinetypeTableRecord
  2
AI-Linetype-10
 70
     0
  3
Adobe Illustrator Linetype No. 10
 72
    65
 73
     2
 40
7.499999786197375
 49
5.9999998289579
 74
     0
 49
-1.499999957239475
 74
     0
  0
LTYPE
  5
416
330
5
100
AcDbSymbolTableRecord
100
AcDbLinetypeTableRecord
  2
AI-Linetype-11
 70
     0
  3
Adobe Illustrator Linetype No. 11
 72
    65
 73
     2
 40
7.499999786197375
 49
5.9999998289579
 74
     0
 49
-1.499999957239475
 74
     0
  0
LTYPE
  5
41F
330
5
100
AcDbSymbolTableRecord
100
AcDbLinetypeTableRecord
  2
AI-Linetype-12
 70
     0
  3
Adobe Illustrator Linetype No. 12
 72
    65
 73
     2
 40
7.499999786197375
 49
5.9999998289579
 74
     0
 49
-1.499999957239475
 74
     0
  0
ENDTAB
  0
TABLE
  2
LAYER
  5
2
330
0
100
AcDbSymbolTable
 70
     8
  0
LAYER
  5
10
330
2
100
AcDbSymbolTableRecord
100
AcDbLayerTableRecord
  2
0
 70
     0
 62
     7
  6
Continuous
370
    -3
390
F
347
3E
  0
LAYER
  5
40
330
2
100
AcDbSymbolTableRecord
100
AcDbLayerTableRecord
  2
AM_2
 70
     0
 62
     7
  6
Continuous
370
    -3
390
F
347
3E
  0
LAYER
  5
49
330
2
100
AcDbSymbolTableRecord
100
AcDbLayerTableRecord
  2
AM_0
 70
     0
 62
     7
  6
Continuous
370
    -3
390
F
347
3E
  0
LAYER
  5
211
330
2
100
AcDbSymbolTableRecord
100
AcDbLayerTableRecord
  2
AM_6
 70
     0
 62
     7
  6
Continuous
370
    -3
390
F
347
3E
  0
LAYER
  5
3B3
330
2
100
AcDbSymbolTableRecord
100
AcDbLayerTableRecord
  2
AM_7
 70
     0
 62
     7
  6
Continuous
370
    -3
390
F
347
3E
  0
LAYER
  5
3BD
330
2
100
AcDbSymbolTableRecord
100
AcDbLayerTableRecord
  2
AM_3
 70
     0
 62
     7
  6
Continuous
370
    -3
390
F
347
3E
  0
LAYER
  5
5A1
330
2
100
AcDbSymbolTableRecord
100
AcDbLayerTableRecord
  2
AM_1
 70
     0
 62
     7
  6
Continuous
370
    -3
390
F
347
3E
  0
LAYER
  5
60C
330
2
100
AcDbSymbolTableRecord
100
AcDbLayerTableRecord
  2
Defpoints
 70
     0
 62
     7
  6
Continuous
290
     0
370
    -3
390
F
347
3E
  0
ENDTAB
  0
TABLE
  2
STYLE
  5
3
330
0
100
AcDbSymbolTable
 70
     1
  0
STYLE
  5
11
330
3
100
AcDbSymbolTableRecord
100
AcDbTextStyleTableRecord
  2
Standard
 70
     0
 40
0.0
 41
1.0
 50
0.0
 71
     0
 42
0.2
  3
txt
  4

  0
ENDTAB
  0
TABLE
  2
VIEW
  5
6
330
0
100
AcDbSymbolTable
 70
     0
  0
ENDTAB
  0
TABLE
  2
UCS
  5
7
330
0
100
AcDbSymbolTable
 70
     0
  0
ENDTAB
  0
TABLE
  2
APPID
  5
9
330
0
100
AcDbSymbolTable
 70
     1
  0
APPID
  5
12
330
9
100
AcDbSymbolTableRecord
100
AcDbRegAppTableRecord
  2
ACAD
 70
     0
  0
ENDTAB
  0
TABLE
  2
DIMSTYLE
  5
A
330
0
100
AcDbSymbolTable
 70
     1
100
AcDbDimStyleTable
  0
DIMSTYLE
105
27
330
A
100
AcDbSymbolTableRecord
100
AcDbDimStyleTableRecord
  2
Standard
 70
     0
178
     0
340
11
  0
ENDTAB
  0
TABLE
  2
BLOCK_RECORD
  5
1
330
0
100
AcDbSymbolTable
 70
   222
  0
BLOCK_RECORD
  5
1F
330
1
100
AcDbSymbolTableRecord
100
AcDbBlockTableRecord
  2
*Model_Space
340
22
 70
     0
280
     1
281
     0
  0
BLOCK_RECORD
  5
1B
330
1
100
AcDbSymbolTableRecord
100
AcDbBlockTableRecord
  2
*Paper_Space
340
1E
 70
     0
280
     1
281
     0
  0
BLOCK_RECORD
  5
23
330
1
100
AcDbSymbolTableRecord
100
AcDbBlockTableRecord
  2
*Paper_Space0
340
26
 70
     0
280
     1
281
     0
  0
BLOCK_RECORD
  5
41
330
1
100
AcDbSymbolTableRecord
100
AcDbBlockTableRecord
  2
block 2
340
0
102
{BLKREFS
331
42
102
}
 70
     0
280
     1
281
     0
  0
BLOCK_RECORD
  5
4A
330
1
100
AcDbSymbolTableRecord
100
AcDbBlockTableRecord
  2
block 3
340
0
102
{BLKREFS
331
4B
102
}
 70
     0
280
     1
281
     0
  0
BLOCK_RECORD
  5
52
330
1
100
AcDbSymbolTableRecord
100
AcDbBlockTableRecord
  2
block 4
340
0
102
{BLKREFS
331
53
102
}
 70
     0
280
     1
281
     0
  0
BLOCK_RECORD
  5
5A
330
1
100
AcDbSymbolTableRecord
100
AcDbBlockTableRecord
  2
block 5
340
0
102
{BLKREFS
331
5B
102
}
 70
     0
280
     1
281
     0
  0
BLOCK_RECORD
  5
5F
330
1
100
AcDbSymbolTableRecord
100
AcDbBlockTableRecord
  2
block 6
340
0
102
{BLKREFS
331
60
102
}
 70
     0
280
     1
281
     0
  0
BLOCK_RECORD
  5
64
330
1
100
AcDbSymbolTableRecord
100
AcDbBlockTableRecord
  2
block 7
340
0
102
{BLKREFS
331
65
102
}
 70
     0
280
     1
281
     0
  0
BLOCK_RECORD
  5
6C
330
1
100
AcDbSymbolTableRecord
100
AcDbBlockTableRecord
  2
block 8
340
0
102
{BLKREFS
331
6D
102
}
 70
     0
280
     1
281
     0
  0
BLOCK_RECORD
  5
74
330
1
100
AcDbSymbolTableRecord
100
AcDbBlockTableRecord
  2
block 9
340
0
102
{BLKREFS
331
75
102
}
 70
     0
280
     1
281
     0
  0
BLOCK_RECORD
  5
79
330
1
100
AcDbSymbolTableRecord
100
AcDbBlockTableRecord
  2
block 10
340
0
102
{BLKREFS
331
7A
102
}
 70
     0
280
     1
281
     0
  0
BLOCK_RECORD
  5
81
330
1
100
AcDbSymbolTableRecord
100
AcDbBlockTableRecord
  2
block 11
340
0
102
{BLKREFS
331
82
102
}
 70
     0
280
     1
281
     0
  0
BLOCK_RECORD
  5
89
330
1
100
AcDbSymbolTableRecord
100
AcDbBlockTableRecord
  2
block 12
340
0
102
{BLKREFS
331
8A
102
}
 70
     0
280
     1
281
     0
  0
BLOCK_RECORD
  5
91
330
1
100
AcDbSymbolTableRecord
100
AcDbBlockTableRecord
  2
block 13
340
0
102
{BLKREFS
331
92
102
}
 70
     0
280
     1
281
     0
  0
BLOCK_RECORD
  5
96
330
1
100
AcDbSymbolTableRecord
100
AcDbBlockTableRecord
  2
block 14
340
0
102
{BLKREFS
331
97
102
}
 70
     0
280
     1
281
     0
  0
BLOCK_RECORD
  5
9B
330
1
100
AcDbSymbolTableRecord
100
AcDbBlockTableRecord
  2
block 15
340
0
102
{BLKREFS
331
9C
102
}
 70
     0
280
     1
281
     0
  0
BLOCK_RECORD
  5
A3
330
1
100
AcDbSymbolTableRecord
100
AcDbBlockTableRecord
  2
block 16
340
0
102
{BLKREFS
331
A4
102
}
 70
     0
280
     1
281
     0
  0
BLOCK_RECORD
  5
A8
330
1
100
AcDbSymbolTableRecord
100
AcDbBlockTableRecord
  2
block 17
340
0
102
{BLKREFS
331
A9
102
}
 70
     0
280
     1
281
     0
  0
BLOCK_RECORD
  5
AD
330
1
100
AcDbSymbolTableRecord
100
AcDbBlockTableRecord
  2
block 18
340
0
102
{BLKREFS
331
AE
102
}
 70
     0
280
     1
281
     0
  0
BLOCK_RECORD
  5
B5
330
1
100
AcDbSymbolTableRecord
100
AcDbBlockTableRecord
  2
block 19
340
0
102
{BLKREFS
331
B6
102
}
 70
     0
280
     1
281
     0
  0
BLOCK_RECORD
  5
BD
330
1
100
AcDbSymbolTableRecord
100
AcDbBlockTableRecord
  2
block 20
340
0
102
{BLKREFS
331
BE
102
}
 70
     0
280
     1
281
     0
  0
BLOCK_RECORD
  5
C5
330
1
100
AcDbSymbolTableRecord
100
AcDbBlockTableRecord
  2
block 21
340
0
102
{BLKREFS
331
C6
102
}
 70
     0
280
     1
281
     0
  0
BLOCK_RECORD
  5
CD
330
1
100
AcDbSymbolTableRecord
100
AcDbBlockTableRecord
  2
block 22
340
0
102
{BLKREFS
331
CE
102
}
 70
     0
280
     1
281
     0
  0
BLOCK_RECORD
  5
D2
330
1
100
AcDbSymbolTableRecord
100
AcDbBlockTableRecord
  2
block 23
340
0
102
{BLKREFS
331
D3
102
}
 70
     0
280
     1
281
     0
  0
BLOCK_RECORD
  5
DA
330
1
100
AcDbSymbolTableRecord
100
AcDbBlockTableRecord
  2
block 24
340
0
102
{BLKREFS
331
DB
102
}
 70
     0
280
     1
281
     0
  0
BLOCK_RECORD
  5
E2
330
1
100
AcDbSymbolTableRecord
100
AcDbBlockTableRecord
  2
block 25
340
0
102
{BLKREFS
331
E3
102
}
 70
     0
280
     1
281
     0
  0
BLOCK_RECORD
  5
EA
330
1
100
AcDbSymbolTableRecord
100
AcDbBlockTableRecord
  2
block 26
340
0
102
{BLKREFS
331
EB
102
}
 70
     0
280
     1
281
     0
  0
BLOCK_RECORD
  5
F2
330
1
100
AcDbSymbolTableRecord
100
AcDbBlockTableRecord
  2
block 27
340
0
102
{BLKREFS
331
F3
102
}
 70
     0
280
     1
281
     0
  0
BLOCK_RECORD
  5
FA
330
1
100
AcDbSymbolTableRecord
100
AcDbBlockTableRecord
  2
block 28
340
0
102
{BLKREFS
331
FB
102
}
 70
     0
280
     1
281
     0
  0
BLOCK_RECORD
  5
102
330
1
100
AcDbSymbolTableRecord
100
AcDbBlockTableRecord
  2
block 29
340
0
102
{BLKREFS
331
103
102
}
 70
     0
280
     1
281
     0
  0
BLOCK_RECORD
  5
10A
330
1
100
AcDbSymbolTableRecord
100
AcDbBlockTableRecord
  2
block 30
340
0
102
{BLKREFS
331
10B
102
}
 70
     0
280
     1
281
     0
  0
BLOCK_RECORD
  5
112
330
1
100
AcDbSymbolTableRecord
100
AcDbBlockTableRecord
  2
block 31
340
0
102
{BLKREFS
331
113
102
}
 70
     0
280
     1
281
     0
  0
BLOCK_RECORD
  5
11A
330
1
100
AcDbSymbolTableRecord
100
AcDbBlockTableRecord
  2
block 32
340
0
102
{BLKREFS
331
11B
102
}
 70
     0
280
     1
281
     0
  0
BLOCK_RECORD
  5
122
330
1
100
AcDbSymbolTableRecord
100
AcDbBlockTableRecord
  2
block 33
340
0
102
{BLKREFS
331
123
102
}
 70
     0
280
     1
281
     0
  0
BLOCK_RECORD
  5
12A
330
1
100
AcDbSymbolTableRecord
100
AcDbBlockTableRecord
  2
block 34
340
0
102
{BLKREFS
331
12B
102
}
 70
     0
280
     1
281
     0
  0
BLOCK_RECORD
  5
132
330
1
100
AcDbSymbolTableRecord
100
AcDbBlockTableRecord
  2
block 35
340
0
102
{BLKREFS
331
133
102
}
 70
     0
280
     1
281
     0
  0
BLOCK_RECORD
  5
13A
330
1
100
AcDbSymbolTableRecord
100
AcDbBlockTableRecord
  2
block 36
340
0
102
{BLKREFS
331
13B
102
}
 70
     0
280
     1
281
     0
  0
BLOCK_RECORD
  5
142
330
1
100
AcDbSymbolTableRecord
100
AcDbBlockTableRecord
  2
block 37
340
0
102
{BLKREFS
331
143
102
}
 70
     0
280
     1
281
     0
  0
BLOCK_RECORD
  5
147
330
1
100
AcDbSymbolTableRecord
100
AcDbBlockTableRecord
  2
block 38
340
0
102
{BLKREFS
331
148
102
}
 70
     0
280
     1
281
     0
  0
BLOCK_RECORD
  5
14F
330
1
100
AcDbSymbolTableRecord
100
AcDbBlockTableRecord
  2
block 39
340
0
102
{BLKREFS
331
150
102
}
 70
     0
280
     1
281
     0
  0
BLOCK_RECORD
  5
157
330
1
100
AcDbSymbolTableRecord
100
AcDbBlockTableRecord
  2
block 40
340
0
102
{BLKREFS
331
158
102
}
 70
     0
280
     1
281
     0
  0
BLOCK_RECORD
  5
15C
330
1
100
AcDbSymbolTableRecord
100
AcDbBlockTableRecord
  2
block 41
340
0
102
{BLKREFS
331
15D
102
}
 70
     0
280
     1
281
     0
  0
BLOCK_RECORD
  5
164
330
1
100
AcDbSymbolTableRecord
100
AcDbBlockTableRecord
  2
block 42
340
0
102
{BLKREFS
331
165
102
}
 70
     0
280
     1
281
     0
  0
BLOCK_RECORD
  5
169
330
1
100
AcDbSymbolTableRecord
100
AcDbBlockTableRecord
  2
block 43
340
0
102
{BLKREFS
331
16A
102
}
 70
     0
280
     1
281
     0
  0
BLOCK_RECORD
  5
16E
330
1
100
AcDbSymbolTableRecord
100
AcDbBlockTableRecord
  2
block 44
340
0
102
{BLKREFS
331
16F
102
}
 70
     0
280
     1
281
     0
  0
BLOCK_RECORD
  5
173
330
1
100
AcDbSymbolTableRecord
100
AcDbBlockTableRecord
  2
block 45
340
0
102
{BLKREFS
331
174
102
}
 70
     0
280
     1
281
     0
  0
BLOCK_RECORD
  5
178
330
1
100
AcDbSymbolTableRecord
100
AcDbBlockTableRecord
  2
block 46
340
0
102
{BLKREFS
331
179
102
}
 70
     0
280
     1
281
     0
  0
BLOCK_RECORD
  5
180
330
1
100
AcDbSymbolTableRecord
100
AcDbBlockTableRecord
  2
block 47
340
0
102
{BLKREFS
331
181
102
}
 70
     0
280
     1
281
     0
  0
BLOCK_RECORD
  5
188
330
1
100
AcDbSymbolTableRecord
100
AcDbBlockTableRecord
  2
block 48
340
0
102
{BLKREFS
331
189
102
}
 70
     0
280
     1
281
     0
  0
BLOCK_RECORD
  5
190
330
1
100
AcDbSymbolTableRecord
100
AcDbBlockTableRecord
  2
block 49
340
0
102
{BLKREFS
331
191
102
}
 70
     0
280
     1
281
     0
  0
BLOCK_RECORD
  5
198
330
1
100
AcDbSymbolTableRecord
100
AcDbBlockTableRecord
  2
block 50
340
0
102
{BLKREFS
331
199
102
}
 70
     0
280
     1
281
     0
  0
BLOCK_RECORD
  5
1A0
330
1
100
AcDbSymbolTableRecord
100
AcDbBlockTableRecord
  2
block 51
340
0
102
{BLKREFS
331
1A1
102
}
 70
     0
280
     1
281
     0
  0
BLOCK_RECORD
  5
1A5
330
1
100
AcDbSymbolTableRecord
100
AcDbBlockTableRecord
  2
block 52
340
0
102
{BLKREFS
331
1A6
102
}
 70
     0
280
     1
281
     0
  0
BLOCK_RECORD
  5
1AD
330
1
100
AcDbSymbolTableRecord
100
AcDbBlockTableRecord
  2
block 53
340
0
102
{BLKREFS
331
1AE
102
}
 70
     0
280
     1
281
     0
  0
BLOCK_RECORD
  5
1B2
330
1
100
AcDbSymbolTableRecord
100
AcDbBlockTableRecord
  2
block 54
340
0
102
{BLKREFS
331
1B3
102
}
 70
     0
280
     1
281
     0
  0
BLOCK_RECORD
  5
1BA
330
1
100
AcDbSymbolTableRecord
100
AcDbBlockTableRecord
  2
block 55
340
0
102
{BLKREFS
331
1BB
102
}
 70
     0
280
     1
281
     0
  0
BLOCK_RECORD
  5
1BF
330
1
100
AcDbSymbolTableRecord
100
AcDbBlockTableRecord
  2
block 56
340
0
102
{BLKREFS
331
1C0
102
}
 70
     0
280
     1
281
     0
  0
BLOCK_RECORD
  5
1C7
330
1
100
AcDbSymbolTableRecord
100
AcDbBlockTableRecord
  2
block 57
340
0
102
{BLKREFS
331
1C8
102
}
 70
     0
280
     1
281
     0
  0
BLOCK_RECORD
  5
1CF
330
1
100
AcDbSymbolTableRecord
100
AcDbBlockTableRecord
  2
block 58
340
0
102
{BLKREFS
331
1D0
102
}
 70
     0
280
     1
281
     0
  0
BLOCK_RECORD
  5
1D4
330
1
100
AcDbSymbolTableRecord
100
AcDbBlockTableRecord
  2
block 59
340
0
102
{BLKREFS
331
1D5
102
}
 70
     0
280
     1
281
     0
  0
BLOCK_RECORD
  5
1DC
330
1
100
AcDbSymbolTableRecord
100
AcDbBlockTableRecord
  2
block 60
340
0
102
{BLKREFS
331
1DD
102
}
 70
     0
280
     1
281
     0
  0
BLOCK_RECORD
  5
1E1
330
1
100
AcDbSymbolTableRecord
100
AcDbBlockTableRecord
  2
block 61
340
0
102
{BLKREFS
331
1E2
102
}
 70
     0
280
     1
281
     0
  0
BLOCK_RECORD
  5
1E9
330
1
100
AcDbSymbolTableRecord
100
AcDbBlockTableRecord
  2
block 62
340
0
102
{BLKREFS
331
1EA
102
}
 70
     0
280
     1
281
     0
  0
BLOCK_RECORD
  5
1F1
330
1
100
AcDbSymbolTableRecord
100
AcDbBlockTableRecord
  2
block 63
340
0
102
{BLKREFS
331
1F2
102
}
 70
     0
280
     1
281
     0
  0
BLOCK_RECORD
  5
1F9
330
1
100
AcDbSymbolTableRecord
100
AcDbBlockTableRecord
  2
block 64
340
0
102
{BLKREFS
331
1FA
102
}
 70
     0
280
     1
281
     0
  0
BLOCK_RECORD
  5
201
330
1
100
AcDbSymbolTableRecord
100
AcDbBlockTableRecord
  2
block 65
340
0
102
{BLKREFS
331
202
102
}
 70
     0
280
     1
281
     0
  0
BLOCK_RECORD
  5
209
330
1
100
AcDbSymbolTableRecord
100
AcDbBlockTableRecord
  2
block 66
340
0
102
{BLKREFS
331
20A
102
}
 70
     0
280
     1
281
     0
  0
BLOCK_RECORD
  5
212
330
1
100
AcDbSymbolTableRecord
100
AcDbBlockTableRecord
  2
block 67
340
0
102
{BLKREFS
331
213
102
}
 70
     0
280
     1
281
     0
  0
BLOCK_RECORD
  5
217
330
1
100
AcDbSymbolTableRecord
100
AcDbBlockTableRecord
  2
block 68
340
0
102
{BLKREFS
331
218
102
}
 70
     0
280
     1
281
     0
  0
BLOCK_RECORD
  5
21C
330
1
100
AcDbSymbolTableRecord
100
AcDbBlockTableRecord
  2
block 69
340
0
102
{BLKREFS
331
21D
102
}
 70
     0
280
     1
281
     0
  0
BLOCK_RECORD
  5
224
330
1
100
AcDbSymbolTableRecord
100
AcDbBlockTableRecord
  2
block 70
340
0
102
{BLKREFS
331
225
102
}
 70
     0
280
     1
281
     0
  0
BLOCK_RECORD
  5
22C
330
1
100
AcDbSymbolTableRecord
100
AcDbBlockTableRecord
  2
block 71
340
0
102
{BLKREFS
331
22D
102
}
 70
     0
280
     1
281
     0
  0
BLOCK_RECORD
  5
234
330
1
100
AcDbSymbolTableRecord
100
AcDbBlockTableRecord
  2
block 72
340
0
102
{BLKREFS
331
235
102
}
 70
     0
280
     1
281
     0
  0
BLOCK_RECORD
  5
239
330
1
100
AcDbSymbolTableRecord
100
AcDbBlockTableRecord
  2
block 73
340
0
102
{BLKREFS
331
23A
102
}
 70
     0
280
     1
281
     0
  0
BLOCK_RECORD
  5
241
330
1
100
AcDbSymbolTableRecord
100
AcDbBlockTableRecord
  2
block 74
340
0
102
{BLKREFS
331
242
102
}
 70
     0
280
     1
281
     0
  0
BLOCK_RECORD
  5
249
330
1
100
AcDbSymbolTableRecord
100
AcDbBlockTableRecord
  2
block 75
340
0
102
{BLKREFS
331
24A
102
}
 70
     0
280
     1
281
     0
  0
BLOCK_RECORD
  5
251
330
1
100
AcDbSymbolTableRecord
100
AcDbBlockTableRecord
  2
block 76
340
0
102
{BLKREFS
331
252
102
}
 70
     0
280
     1
281
     0
  0
BLOCK_RECORD
  5
256
330
1
100
AcDbSymbolTableRecord
100
AcDbBlockTableRecord
  2
block 77
340
0
102
{BLKREFS
331
257
102
}
 70
     0
280
     1
281
     0
  0
BLOCK_RECORD
  5
25E
330
1
100
AcDbSymbolTableRecord
100
AcDbBlockTableRecord
  2
block 78
340
0
102
{BLKREFS
331
25F
102
}
 70
     0
280
     1
281
     0
  0
BLOCK_RECORD
  5
266
330
1
100
AcDbSymbolTableRecord
100
AcDbBlockTableRecord
  2
block 79
340
0
102
{BLKREFS
331
267
102
}
 70
     0
280
     1
281
     0
  0
BLOCK_RECORD
  5
26E
330
1
100
AcDbSymbolTableRecord
100
AcDbBlockTableRecord
  2
block 80
340
0
102
{BLKREFS
331
26F
102
}
 70
     0
280
     1
281
     0
  0
BLOCK_RECORD
  5
273
330
1
100
AcDbSymbolTableRecord
100
AcDbBlockTableRecord
  2
block 81
340
0
102
{BLKREFS
331
274
102
}
 70
     0
280
     1
281
     0
  0
BLOCK_RECORD
  5
27B
330
1
100
AcDbSymbolTableRecord
100
AcDbBlockTableRecord
  2
block 82
340
0
102
{BLKREFS
331
27C
102
}
 70
     0
280
     1
281
     0
  0
BLOCK_RECORD
  5
283
330
1
100
AcDbSymbolTableRecord
100
AcDbBlockTableRecord
  2
block 83
340
0
102
{BLKREFS
331
284
102
}
 70
     0
280
     1
281
     0
  0
BLOCK_RECORD
  5
28B
330
1
100
AcDbSymbolTableRecord
100
AcDbBlockTableRecord
  2
block 84
340
0
102
{BLKREFS
331
28C
102
}
 70
     0
280
     1
281
     0
  0
BLOCK_RECORD
  5
290
330
1
100
AcDbSymbolTableRecord
100
AcDbBlockTableRecord
  2
block 85
340
0
102
{BLKREFS
331
291
102
}
 70
     0
280
     1
281
     0
  0
BLOCK_RECORD
  5
298
330
1
100
AcDbSymbolTableRecord
100
AcDbBlockTableRecord
  2
block 86
340
0
102
{BLKREFS
331
299
102
}
 70
     0
280
     1
281
     0
  0
BLOCK_RECORD
  5
2A0
330
1
100
AcDbSymbolTableRecord
100
AcDbBlockTableRecord
  2
block 87
340
0
102
{BLKREFS
331
2A1
102
}
 70
     0
280
     1
281
     0
  0
BLOCK_RECORD
  5
2A8
330
1
100
AcDbSymbolTableRecord
100
AcDbBlockTableRecord
  2
block 88
340
0
102
{BLKREFS
331
2A9
102
}
 70
     0
280
     1
281
     0
  0
BLOCK_RECORD
  5
2AD
330
1
100
AcDbSymbolTableRecord
100
AcDbBlockTableRecord
  2
block 89
340
0
102
{BLKREFS
331
2AE
102
}
 70
     0
280
     1
281
     0
  0
BLOCK_RECORD
  5
2B5
330
1
100
AcDbSymbolTableRecord
100
AcDbBlockTableRecord
  2
block 90
340
0
102
{BLKREFS
331
2B6
102
}
 70
     0
280
     1
281
     0
  0
BLOCK_RECORD
  5
2BD
330
1
100
AcDbSymbolTableRecord
100
AcDbBlockTableRecord
  2
block 91
340
0
102
{BLKREFS
331
2BE
102
}
 70
     0
280
     1
281
     0
  0
BLOCK_RECORD
  5
2C5
330
1
100
AcDbSymbolTableRecord
100
AcDbBlockTableRecord
  2
block 92
340
0
102
{BLKREFS
331
2C6
102
}
 70
     0
280
     1
281
     0
  0
BLOCK_RECORD
  5
2CA
330
1
100
AcDbSymbolTableRecord
100
AcDbBlockTableRecord
  2
block 93
340
0
102
{BLKREFS
331
2CB
102
}
 70
     0
280
     1
281
     0
  0
BLOCK_RECORD
  5
2D2
330
1
100
AcDbSymbolTableRecord
100
AcDbBlockTableRecord
  2
block 94
340
0
102
{BLKREFS
331
2D3
102
}
 70
     0
280
     1
281
     0
  0
BLOCK_RECORD
  5
2DA
330
1
100
AcDbSymbolTableRecord
100
AcDbBlockTableRecord
  2
block 95
340
0
102
{BLKREFS
331
2DB
102
}
 70
     0
280
     1
281
     0
  0
BLOCK_RECORD
  5
2E4
330
1
100
AcDbSymbolTableRecord
100
AcDbBlockTableRecord
  2
block 96
340
0
102
{BLKREFS
331
2E5
102
}
 70
     0
280
     1
281
     0
  0
BLOCK_RECORD
  5
2EE
330
1
100
AcDbSymbolTableRecord
100
AcDbBlockTableRecord
  2
block 97
340
0
102
{BLKREFS
331
2EF
102
}
 70
     0
280
     1
281
     0
  0
BLOCK_RECORD
  5
2FA
330
1
100
AcDbSymbolTableRecord
100
AcDbBlockTableRecord
  2
block 98
340
0
102
{BLKREFS
331
2FB
102
}
 70
     0
280
     1
281
     0
  0
BLOCK_RECORD
  5
2FF
330
1
100
AcDbSymbolTableRecord
100
AcDbBlockTableRecord
  2
block 99
340
0
102
{BLKREFS
331
300
102
}
 70
     0
280
     1
281
     0
  0
BLOCK_RECORD
  5
307
330
1
100
AcDbSymbolTableRecord
100
AcDbBlockTableRecord
  2
block 100
340
0
102
{BLKREFS
331
308
102
}
 70
     0
280
     1
281
     0
  0
BLOCK_RECORD
  5
30F
330
1
100
AcDbSymbolTableRecord
100
AcDbBlockTableRecord
  2
block 101
340
0
102
{BLKREFS
331
310
102
}
 70
     0
280
     1
281
     0
  0
BLOCK_RECORD
  5
319
330
1
100
AcDbSymbolTableRecord
100
AcDbBlockTableRecord
  2
block 102
340
0
102
{BLKREFS
331
31A
102
}
 70
     0
280
     1
281
     0
  0
BLOCK_RECORD
  5
323
330
1
100
AcDbSymbolTableRecord
100
AcDbBlockTableRecord
  2
block 103
340
0
102
{BLKREFS
331
324
102
}
 70
     0
280
     1
281
     0
  0
BLOCK_RECORD
  5
32F
330
1
100
AcDbSymbolTableRecord
100
AcDbBlockTableRecord
  2
block 104
340
0
102
{BLKREFS
331
330
102
}
 70
     0
280
     1
281
     0
  0
BLOCK_RECORD
  5
334
330
1
100
AcDbSymbolTableRecord
100
AcDbBlockTableRecord
  2
block 105
340
0
102
{BLKREFS
331
335
102
}
 70
     0
280
     1
281
     0
  0
BLOCK_RECORD
  5
33C
330
1
100
AcDbSymbolTableRecord
100
AcDbBlockTableRecord
  2
block 106
340
0
102
{BLKREFS
331
33D
102
}
 70
     0
280
     1
281
     0
  0
BLOCK_RECORD
  5
344
330
1
100
AcDbSymbolTableRecord
100
AcDbBlockTableRecord
  2
block 107
340
0
102
{BLKREFS
331
345
102
}
 70
     0
280
     1
281
     0
  0
BLOCK_RECORD
  5
34C
330
1
100
AcDbSymbolTableRecord
100
AcDbBlockTableRecord
  2
block 108
340
0
102
{BLKREFS
331
34D
102
}
 70
     0
280
     1
281
     0
  0
BLOCK_RECORD
  5
351
330
1
100
AcDbSymbolTableRecord
100
AcDbBlockTableRecord
  2
block 109
340
0
102
{BLKREFS
331
352
102
}
 70
     0
280
     1
281
     0
  0
BLOCK_RECORD
  5
359
330
1
100
AcDbSymbolTableRecord
100
AcDbBlockTableRecord
  2
block 110
340
0
102
{BLKREFS
331
35A
102
}
 70
     0
280
     1
281
     0
  0
BLOCK_RECORD
  5
361
330
1
100
AcDbSymbolTableRecord
100
AcDbBlockTableRecord
  2
block 111
340
0
102
{BLKREFS
331
362
102
}
 70
     0
280
     1
281
     0
  0
BLOCK_RECORD
  5
369
330
1
100
AcDbSymbolTableRecord
100
AcDbBlockTableRecord
  2
block 112
340
0
102
{BLKREFS
331
36A
102
}
 70
     0
280
     1
281
     0
  0
BLOCK_RECORD
  5
371
330
1
100
AcDbSymbolTableRecord
100
AcDbBlockTableRecord
  2
block 113
340
0
102
{BLKREFS
331
372
102
}
 70
     0
280
     1
281
     0
  0
BLOCK_RECORD
  5
379
330
1
100
AcDbSymbolTableRecord
100
AcDbBlockTableRecord
  2
block 114
340
0
102
{BLKREFS
331
37A
102
}
 70
     0
280
     1
281
     0
  0
BLOCK_RECORD
  5
37E
330
1
100
AcDbSymbolTableRecord
100
AcDbBlockTableRecord
  2
block 115
340
0
102
{BLKREFS
331
37F
102
}
 70
     0
280
     1
281
     0
  0
BLOCK_RECORD
  5
386
330
1
100
AcDbSymbolTableRecord
100
AcDbBlockTableRecord
  2
block 116
340
0
102
{BLKREFS
331
387
102
}
 70
     0
280
     1
281
     0
  0
BLOCK_RECORD
  5
38E
330
1
100
AcDbSymbolTableRecord
100
AcDbBlockTableRecord
  2
block 117
340
0
102
{BLKREFS
331
38F
102
}
 70
     0
280
     1
281
     0
  0
BLOCK_RECORD
  5
398
330
1
100
AcDbSymbolTableRecord
100
AcDbBlockTableRecord
  2
block 118
340
0
102
{BLKREFS
331
399
102
}
 70
     0
280
     1
281
     0
  0
BLOCK_RECORD
  5
3A2
330
1
100
AcDbSymbolTableRecord
100
AcDbBlockTableRecord
  2
block 119
340
0
102
{BLKREFS
331
3A3
102
}
 70
     0
280
     1
281
     0
  0
BLOCK_RECORD
  5
3AE
330
1
100
AcDbSymbolTableRecord
100
AcDbBlockTableRecord
  2
block 120
340
0
102
{BLKREFS
331
3AF
102
}
 70
     0
280
     1
281
     0
  0
BLOCK_RECORD
  5
3B4
330
1
100
AcDbSymbolTableRecord
100
AcDbBlockTableRecord
  2
block 121
340
0
102
{BLKREFS
331
3B5
102
}
 70
     0
280
     1
281
     0
  0
BLOCK_RECORD
  5
3BE
330
1
100
AcDbSymbolTableRecord
100
AcDbBlockTableRecord
  2
block 122
340
0
102
{BLKREFS
331
3BF
102
}
 70
     0
280
     1
281
     0
  0
BLOCK_RECORD
  5
3C7
330
1
100
AcDbSymbolTableRecord
100
AcDbBlockTableRecord
  2
block 123
340
0
102
{BLKREFS
331
3C8
102
}
 70
     0
280
     1
281
     0
  0
BLOCK_RECORD
  5
3D0
330
1
100
AcDbSymbolTableRecord
100
AcDbBlockTableRecord
  2
block 124
340
0
102
{BLKREFS
331
3D1
102
}
 70
     0
280
     1
281
     0
  0
BLOCK_RECORD
  5
3D9
330
1
100
AcDbSymbolTableRecord
100
AcDbBlockTableRecord
  2
block 125
340
0
102
{BLKREFS
331
3DA
102
}
 70
     0
280
     1
281
     0
  0
BLOCK_RECORD
  5
3E2
330
1
100
AcDbSymbolTableRecord
100
AcDbBlockTableRecord
  2
block 126
340
0
102
{BLKREFS
331
3E3
102
}
 70
     0
280
     1
281
     0
  0
BLOCK_RECORD
  5
3EB
330
1
100
AcDbSymbolTableRecord
100
AcDbBlockTableRecord
  2
block 127
340
0
102
{BLKREFS
331
3EC
102
}
 70
     0
280
     1
281
     0
  0
BLOCK_RECORD
  5
3F4
330
1
100
AcDbSymbolTableRecord
100
AcDbBlockTableRecord
  2
block 128
340
0
102
{BLKREFS
331
3F5
102
}
 70
     0
280
     1
281
     0
  0
BLOCK_RECORD
  5
3FD
330
1
100
AcDbSymbolTableRecord
100
AcDbBlockTableRecord
  2
block 129
340
0
102
{BLKREFS
331
3FE
102
}
 70
     0
280
     1
281
     0
  0
BLOCK_RECORD
  5
406
330
1
100
AcDbSymbolTableRecord
100
AcDbBlockTableRecord
  2
block 130
340
0
102
{BLKREFS
331
407
102
}
 70
     0
280
     1
281
     0
  0
BLOCK_RECORD
  5
40F
330
1
100
AcDbSymbolTableRecord
100
AcDbBlockTableRecord
  2
block 131
340
0
102
{BLKREFS
331
410
102
}
 70
     0
280
     1
281
     0
  0
BLOCK_RECORD
  5
418
330
1
100
AcDbSymbolTableRecord
100
AcDbBlockTableRecord
  2
block 132
340
0
102
{BLKREFS
331
419
102
}
 70
     0
280
     1
281
     0
  0
BLOCK_RECORD
  5
421
330
1
100
AcDbSymbolTableRecord
100
AcDbBlockTableRecord
  2
block 133
340
0
102
{BLKREFS
331
422
102
}
 70
     0
280
     1
281
     0
  0
BLOCK_RECORD
  5
429
330
1
100
AcDbSymbolTableRecord
100
AcDbBlockTableRecord
  2
block 134
340
0
102
{BLKREFS
331
42A
102
}
 70
     0
280
     1
281
     0
  0
BLOCK_RECORD
  5
431
330
1
100
AcDbSymbolTableRecord
100
AcDbBlockTableRecord
  2
block 135
340
0
102
{BLKREFS
331
432
102
}
 70
     0
280
     1
281
     0
  0
BLOCK_RECORD
  5
439
330
1
100
AcDbSymbolTableRecord
100
AcDbBlockTableRecord
  2
block 136
340
0
102
{BLKREFS
331
43A
102
}
 70
     0
280
     1
281
     0
  0
BLOCK_RECORD
  5
441
330
1
100
AcDbSymbolTableRecord
100
AcDbBlockTableRecord
  2
block 137
340
0
102
{BLKREFS
331
442
102
}
 70
     0
280
     1
281
     0
  0
BLOCK_RECORD
  5
449
330
1
100
AcDbSymbolTableRecord
100
AcDbBlockTableRecord
  2
block 138
340
0
102
{BLKREFS
331
44A
102
}
 70
     0
280
     1
281
     0
  0
BLOCK_RECORD
  5
451
330
1
100
AcDbSymbolTableRecord
100
AcDbBlockTableRecord
  2
block 139
340
0
102
{BLKREFS
331
452
102
}
 70
     0
280
     1
281
     0
  0
BLOCK_RECORD
  5
459
330
1
100
AcDbSymbolTableRecord
100
AcDbBlockTableRecord
  2
block 140
340
0
102
{BLKREFS
331
45A
102
}
 70
     0
280
     1
281
     0
  0
BLOCK_RECORD
  5
461
330
1
100
AcDbSymbolTableRecord
100
AcDbBlockTableRecord
  2
block 141
340
0
102
{BLKREFS
331
462
102
}
 70
     0
280
     1
281
     0
  0
BLOCK_RECORD
  5
469
330
1
100
AcDbSymbolTableRecord
100
AcDbBlockTableRecord
  2
block 142
340
0
102
{BLKREFS
331
46A
102
}
 70
     0
280
     1
281
     0
  0
BLOCK_RECORD
  5
471
330
1
100
AcDbSymbolTableRecord
100
AcDbBlockTableRecord
  2
block 143
340
0
102
{BLKREFS
331
472
102
}
 70
     0
280
     1
281
     0
  0
BLOCK_RECORD
  5
479
330
1
100
AcDbSymbolTableRecord
100
AcDbBlockTableRecord
  2
block 144
340
0
102
{BLKREFS
331
47A
102
}
 70
     0
280
     1
281
     0
  0
BLOCK_RECORD
  5
481
330
1
100
AcDbSymbolTableRecord
100
AcDbBlockTableRecord
  2
block 145
340
0
102
{BLKREFS
331
482
102
}
 70
     0
280
     1
281
     0
  0
BLOCK_RECORD
  5
489
330
1
100
AcDbSymbolTableRecord
100
AcDbBlockTableRecord
  2
block 146
340
0
102
{BLKREFS
331
48A
102
}
 70
     0
280
     1
281
     0
  0
BLOCK_RECORD
  5
491
330
1
100
AcDbSymbolTableRecord
100
AcDbBlockTableRecord
  2
block 147
340
0
102
{BLKREFS
331
492
102
}
 70
     0
280
     1
281
     0
  0
BLOCK_RECORD
  5
499
330
1
100
AcDbSymbolTableRecord
100
AcDbBlockTableRecord
  2
block 148
340
0
102
{BLKREFS
331
49A
102
}
 70
     0
280
     1
281
     0
  0
BLOCK_RECORD
  5
4A1
330
1
100
AcDbSymbolTableRecord
100
AcDbBlockTableRecord
  2
block 149
340
0
102
{BLKREFS
331
4A2
102
}
 70
     0
280
     1
281
     0
  0
BLOCK_RECORD
  5
4A9
330
1
100
AcDbSymbolTableRecord
100
AcDbBlockTableRecord
  2
block 150
340
0
102
{BLKREFS
331
4AA
102
}
 70
     0
280
     1
281
     0
  0
BLOCK_RECORD
  5
4B1
330
1
100
AcDbSymbolTableRecord
100
AcDbBlockTableRecord
  2
block 151
340
0
102
{BLKREFS
331
4B2
102
}
 70
     0
280
     1
281
     0
  0
BLOCK_RECORD
  5
4B9
330
1
100
AcDbSymbolTableRecord
100
AcDbBlockTableRecord
  2
block 152
340
0
102
{BLKREFS
331
4BA
102
}
 70
     0
280
     1
281
     0
  0
BLOCK_RECORD
  5
4C1
330
1
100
AcDbSymbolTableRecord
100
AcDbBlockTableRecord
  2
block 153
340
0
102
{BLKREFS
331
4C2
102
}
 70
     0
280
     1
281
     0
  0
BLOCK_RECORD
  5
4C9
330
1
100
AcDbSymbolTableRecord
100
AcDbBlockTableRecord
  2
block 154
340
0
102
{BLKREFS
331
4CA
102
}
 70
     0
280
     1
281
     0
  0
BLOCK_RECORD
  5
4D1
330
1
100
AcDbSymbolTableRecord
100
AcDbBlockTableRecord
  2
block 155
340
0
102
{BLKREFS
331
4D2
102
}
 70
     0
280
     1
281
     0
  0
BLOCK_RECORD
  5
4D9
330
1
100
AcDbSymbolTableRecord
100
AcDbBlockTableRecord
  2
block 156
340
0
102
{BLKREFS
331
4DA
102
}
 70
     0
280
     1
281
     0
  0
BLOCK_RECORD
  5
4E1
330
1
100
AcDbSymbolTableRecord
100
AcDbBlockTableRecord
  2
block 157
340
0
102
{BLKREFS
331
4E2
102
}
 70
     0
280
     1
281
     0
  0
BLOCK_RECORD
  5
4E9
330
1
100
AcDbSymbolTableRecord
100
AcDbBlockTableRecord
  2
block 158
340
0
102
{BLKREFS
331
4EA
102
}
 70
     0
280
     1
281
     0
  0
BLOCK_RECORD
  5
4F1
330
1
100
AcDbSymbolTableRecord
100
AcDbBlockTableRecord
  2
block 159
340
0
102
{BLKREFS
331
4F2
102
}
 70
     0
280
     1
281
     0
  0
BLOCK_RECORD
  5
4F9
330
1
100
AcDbSymbolTableRecord
100
AcDbBlockTableRecord
  2
block 160
340
0
102
{BLKREFS
331
4FA
102
}
 70
     0
280
     1
281
     0
  0
BLOCK_RECORD
  5
501
330
1
100
AcDbSymbolTableRecord
100
AcDbBlockTableRecord
  2
block 161
340
0
102
{BLKREFS
331
502
102
}
 70
     0
280
     1
281
     0
  0
BLOCK_RECORD
  5
509
330
1
100
AcDbSymbolTableRecord
100
AcDbBlockTableRecord
  2
block 162
340
0
102
{BLKREFS
331
50A
102
}
 70
     0
280
     1
281
     0
  0
BLOCK_RECORD
  5
511
330
1
100
AcDbSymbolTableRecord
100
AcDbBlockTableRecord
  2
block 163
340
0
102
{BLKREFS
331
512
102
}
 70
     0
280
     1
281
     0
  0
BLOCK_RECORD
  5
519
330
1
100
AcDbSymbolTableRecord
100
AcDbBlockTableRecord
  2
block 164
340
0
102
{BLKREFS
331
51A
102
}
 70
     0
280
     1
281
     0
  0
BLOCK_RECORD
  5
521
330
1
100
AcDbSymbolTableRecord
100
AcDbBlockTableRecord
  2
block 165
340
0
102
{BLKREFS
331
522
102
}
 70
     0
280
     1
281
     0
  0
BLOCK_RECORD
  5
529
330
1
100
AcDbSymbolTableRecord
100
AcDbBlockTableRecord
  2
block 166
340
0
102
{BLKREFS
331
52A
102
}
 70
     0
280
     1
281
     0
  0
BLOCK_RECORD
  5
531
330
1
100
AcDbSymbolTableRecord
100
AcDbBlockTableRecord
  2
block 167
340
0
102
{BLKREFS
331
532
102
}
 70
     0
280
     1
281
     0
  0
BLOCK_RECORD
  5
539
330
1
100
AcDbSymbolTableRecord
100
AcDbBlockTableRecord
  2
block 168
340
0
102
{BLKREFS
331
53A
102
}
 70
     0
280
     1
281
     0
  0
BLOCK_RECORD
  5
541
330
1
100
AcDbSymbolTableRecord
100
AcDbBlockTableRecord
  2
block 169
340
0
102
{BLKREFS
331
542
102
}
 70
     0
280
     1
281
     0
  0
BLOCK_RECORD
  5
549
330
1
100
AcDbSymbolTableRecord
100
AcDbBlockTableRecord
  2
block 170
340
0
102
{BLKREFS
331
54A
102
}
 70
     0
280
     1
281
     0
  0
BLOCK_RECORD
  5
551
330
1
100
AcDbSymbolTableRecord
100
AcDbBlockTableRecord
  2
block 171
340
0
102
{BLKREFS
331
552
102
}
 70
     0
280
     1
281
     0
  0
BLOCK_RECORD
  5
559
330
1
100
AcDbSymbolTableRecord
100
AcDbBlockTableRecord
  2
block 172
340
0
102
{BLKREFS
331
55A
102
}
 70
     0
280
     1
281
     0
  0
BLOCK_RECORD
  5
561
330
1
100
AcDbSymbolTableRecord
100
AcDbBlockTableRecord
  2
block 173
340
0
102
{BLKREFS
331
562
102
}
 70
     0
280
     1
281
     0
  0
BLOCK_RECORD
  5
569
330
1
100
AcDbSymbolTableRecord
100
AcDbBlockTableRecord
  2
block 174
340
0
102
{BLKREFS
331
56A
102
}
 70
     0
280
     1
281
     0
  0
BLOCK_RECORD
  5
571
330
1
100
AcDbSymbolTableRecord
100
AcDbBlockTableRecord
  2
block 175
340
0
102
{BLKREFS
331
572
102
}
 70
     0
280
     1
281
     0
  0
BLOCK_RECORD
  5
579
330
1
100
AcDbSymbolTableRecord
100
AcDbBlockTableRecord
  2
block 176
340
0
102
{BLKREFS
331
57A
102
}
 70
     0
280
     1
281
     0
  0
BLOCK_RECORD
  5
581
330
1
100
AcDbSymbolTableRecord
100
AcDbBlockTableRecord
  2
block 177
340
0
102
{BLKREFS
331
582
102
}
 70
     0
280
     1
281
     0
  0
BLOCK_RECORD
  5
589
330
1
100
AcDbSymbolTableRecord
100
AcDbBlockTableRecord
  2
block 178
340
0
102
{BLKREFS
331
58A
102
}
 70
     0
280
     1
281
     0
  0
BLOCK_RECORD
  5
591
330
1
100
AcDbSymbolTableRecord
100
AcDbBlockTableRecord
  2
block 179
340
0
102
{BLKREFS
331
592
102
}
 70
     0
280
     1
281
     0
  0
BLOCK_RECORD
  5
599
330
1
100
AcDbSymbolTableRecord
100
AcDbBlockTableRecord
  2
block 180
340
0
102
{BLKREFS
331
59A
102
}
 70
     0
280
     1
281
     0
  0
BLOCK_RECORD
  5
5A2
330
1
100
AcDbSymbolTableRecord
100
AcDbBlockTableRecord
  2
block 181
340
0
102
{BLKREFS
331
5A3
102
}
 70
     0
280
     1
281
     0
  0
BLOCK_RECORD
  5
5A7
330
1
100
AcDbSymbolTableRecord
100
AcDbBlockTableRecord
  2
block 182
340
0
102
{BLKREFS
331
5A8
102
}
 70
     0
280
     1
281
     0
  0
BLOCK_RECORD
  5
5AF
330
1
100
AcDbSymbolTableRecord
100
AcDbBlockTableRecord
  2
block 183
340
0
102
{BLKREFS
331
5B0
102
}
 70
     0
280
     1
281
     0
  0
BLOCK_RECORD
  5
5B7
330
1
100
AcDbSymbolTableRecord
100
AcDbBlockTableRecord
  2
block 184
340
0
102
{BLKREFS
331
5B8
102
}
 70
     0
280
     1
281
     0
  0
BLOCK_RECORD
  5
5BC
330
1
100
AcDbSymbolTableRecord
100
AcDbBlockTableRecord
  2
block 185
340
0
102
{BLKREFS
331
5BD
102
}
 70
     0
280
     1
281
     0
  0
BLOCK_RECORD
  5
5C1
330
1
100
AcDbSymbolTableRecord
100
AcDbBlockTableRecord
  2
block 186
340
0
102
{BLKREFS
331
5C2
102
}
 70
     0
280
     1
281
     0
  0
BLOCK_RECORD
  5
5C7
330
1
100
AcDbSymbolTableRecord
100
AcDbBlockTableRecord
  2
block 187
340
0
102
{BLKREFS
331
5C8
102
}
 70
     0
280
     1
281
     0
  0
BLOCK_RECORD
  5
5CC
330
1
100
AcDbSymbolTableRecord
100
AcDbBlockTableRecord
  2
block 188
340
0
102
{BLKREFS
331
5CD
102
}
 70
     0
280
     1
281
     0
  0
BLOCK_RECORD
  5
5D1
330
1
100
AcDbSymbolTableRecord
100
AcDbBlockTableRecord
  2
block 189
340
0
102
{BLKREFS
331
5D2
102
}
 70
     0
280
     1
281
     0
  0
BLOCK_RECORD
  5
5D7
330
1
100
AcDbSymbolTableRecord
100
AcDbBlockTableRecord
  2
block 190
340
0
102
{BLKREFS
331
5D8
102
}
 70
     0
280
     1
281
     0
  0
BLOCK_RECORD
  5
5DC
330
1
100
AcDbSymbolTableRecord
100
AcDbBlockTableRecord
  2
block 191
340
0
102
{BLKREFS
331
5DD
102
}
 70
     0
280
     1
281
     0
  0
BLOCK_RECORD
  5
5E4
330
1
100
AcDbSymbolTableRecord
100
AcDbBlockTableRecord
  2
block 192
340
0
102
{BLKREFS
331
5E5
102
}
 70
     0
280
     1
281
     0
  0
BLOCK_RECORD
  5
5EC
330
1
100
AcDbSymbolTableRecord
100
AcDbBlockTableRecord
  2
block 193
340
0
102
{BLKREFS
331
5ED
102
}
 70
     0
280
     1
281
     0
  0
BLOCK_RECORD
  5
5F1
330
1
100
AcDbSymbolTableRecord
100
AcDbBlockTableRecord
  2
block 194
340
0
102
{BLKREFS
331
5F2
102
}
 70
     0
280
     1
281
     0
  0
BLOCK_RECORD
  5
5F6
330
1
100
AcDbSymbolTableRecord
100
AcDbBlockTableRecord
  2
block 195
340
0
102
{BLKREFS
331
5F7
102
}
 70
     0
280
     1
281
     0
  0
BLOCK_RECORD
  5
5FC
330
1
100
AcDbSymbolTableRecord
100
AcDbBlockTableRecord
  2
block 196
340
0
102
{BLKREFS
331
5FD
102
}
 70
     0
280
     1
281
     0
  0
BLOCK_RECORD
  5
601
330
1
100
AcDbSymbolTableRecord
100
AcDbBlockTableRecord
  2
block 197
340
0
102
{BLKREFS
331
602
102
}
 70
     0
280
     1
281
     0
  0
BLOCK_RECORD
  5
606
330
1
100
AcDbSymbolTableRecord
100
AcDbBlockTableRecord
  2
block 198
340
0
102
{BLKREFS
331
607
102
}
 70
     0
280
     1
281
     0
  0
BLOCK_RECORD
  5
60D
330
1
100
AcDbSymbolTableRecord
100
AcDbBlockTableRecord
  2
block 199
340
0
102
{BLKREFS
331
60E
102
}
 70
     0
280
     1
281
     0
  0
BLOCK_RECORD
  5
614
330
1
100
AcDbSymbolTableRecord
100
AcDbBlockTableRecord
  2
block 200
340
0
102
{BLKREFS
331
615
102
}
 70
     0
280
     1
281
     0
  0
BLOCK_RECORD
  5
61B
330
1
100
AcDbSymbolTableRecord
100
AcDbBlockTableRecord
  2
block 201
340
0
102
{BLKREFS
331
61C
102
}
 70
     0
280
     1
281
     0
  0
BLOCK_RECORD
  5
622
330
1
100
AcDbSymbolTableRecord
100
AcDbBlockTableRecord
  2
block 202
340
0
102
{BLKREFS
331
623
102
}
 70
     0
280
     1
281
     0
  0
BLOCK_RECORD
  5
629
330
1
100
AcDbSymbolTableRecord
100
AcDbBlockTableRecord
  2
block 203
340
0
102
{BLKREFS
331
62A
102
}
 70
     0
280
     1
281
     0
  0
BLOCK_RECORD
  5
630
330
1
100
AcDbSymbolTableRecord
100
AcDbBlockTableRecord
  2
block 204
340
0
102
{BLKREFS
331
631
102
}
 70
     0
280
     1
281
     0
  0
BLOCK_RECORD
  5
637
330
1
100
AcDbSymbolTableRecord
100
AcDbBlockTableRecord
  2
block 205
340
0
102
{BLKREFS
331
638
102
}
 70
     0
280
     1
281
     0
  0
BLOCK_RECORD
  5
63E
330
1
100
AcDbSymbolTableRecord
100
AcDbBlockTableRecord
  2
block 206
340
0
102
{BLKREFS
331
63F
102
}
 70
     0
280
     1
281
     0
  0
BLOCK_RECORD
  5
645
330
1
100
AcDbSymbolTableRecord
100
AcDbBlockTableRecord
  2
block 207
340
0
102
{BLKREFS
331
646
102
}
 70
     0
280
     1
281
     0
  0
BLOCK_RECORD
  5
64C
330
1
100
AcDbSymbolTableRecord
100
AcDbBlockTableRecord
  2
block 208
340
0
102
{BLKREFS
331
64D
102
}
 70
     0
280
     1
281
     0
  0
BLOCK_RECORD
  5
653
330
1
100
AcDbSymbolTableRecord
100
AcDbBlockTableRecord
  2
block 209
340
0
102
{BLKREFS
331
654
102
}
 70
     0
280
     1
281
     0
  0
BLOCK_RECORD
  5
65A
330
1
100
AcDbSymbolTableRecord
100
AcDbBlockTableRecord
  2
block 210
340
0
102
{BLKREFS
331
65B
102
}
 70
     0
280
     1
281
     0
  0
BLOCK_RECORD
  5
661
330
1
100
AcDbSymbolTableRecord
100
AcDbBlockTableRecord
  2
block 211
340
0
102
{BLKREFS
331
662
102
}
 70
     0
280
     1
281
     0
  0
BLOCK_RECORD
  5
668
330
1
100
AcDbSymbolTableRecord
100
AcDbBlockTableRecord
  2
block 212
340
0
102
{BLKREFS
331
669
102
}
 70
     0
280
     1
281
     0
  0
BLOCK_RECORD
  5
66F
330
1
100
AcDbSymbolTableRecord
100
AcDbBlockTableRecord
  2
block 213
340
0
102
{BLKREFS
331
670
102
}
 70
     0
280
     1
281
     0
  0
BLOCK_RECORD
  5
676
330
1
100
AcDbSymbolTableRecord
100
AcDbBlockTableRecord
  2
block 214
340
0
102
{BLKREFS
331
677
102
}
 70
     0
280
     1
281
     0
  0
BLOCK_RECORD
  5
67D
330
1
100
AcDbSymbolTableRecord
100
AcDbBlockTableRecord
  2
block 215
340
0
102
{BLKREFS
331
67E
102
}
 70
     0
280
     1
281
     0
  0
BLOCK_RECORD
  5
684
330
1
100
AcDbSymbolTableRecord
100
AcDbBlockTableRecord
  2
block 216
340
0
102
{BLKREFS
331
685
102
}
 70
     0
280
     1
281
     0
  0
BLOCK_RECORD
  5
68B
330
1
100
AcDbSymbolTableRecord
100
AcDbBlockTableRecord
  2
block 217
340
0
102
{BLKREFS
331
68C
102
}
 70
     0
280
     1
281
     0
  0
BLOCK_RECORD
  5
692
330
1
100
AcDbSymbolTableRecord
100
AcDbBlockTableRecord
  2
block 218
340
0
102
{BLKREFS
331
693
102
}
 70
     0
280
     1
281
     0
  0
BLOCK_RECORD
  5
699
330
1
100
AcDbSymbolTableRecord
100
AcDbBlockTableRecord
  2
block 219
340
0
102
{BLKREFS
331
69A
102
}
 70
     0
280
     1
281
     0
  0
BLOCK_RECORD
  5
6A0
330
1
100
AcDbSymbolTableRecord
100
AcDbBlockTableRecord
  2
block 220
340
0
102
{BLKREFS
331
6A1
102
}
 70
     0
280
     1
281
     0
  0
BLOCK_RECORD
  5
6A7
330
1
100
AcDbSymbolTableRecord
100
AcDbBlockTableRecord
  2
block 221
340
0
102
{BLKREFS
331
6A8
102
}
 70
     0
280
     1
281
     0
  0
BLOCK_RECORD
  5
6AE
330
1
100
AcDbSymbolTableRecord
100
AcDbBlockTableRecord
  2
block 222
340
0
102
{BLKREFS
331
6AF
102
}
 70
     0
280
     1
281
     0
  0
ENDTAB
  0
ENDSEC
  0
SECTION
  2
BLOCKS
  0
BLOCK
  5
20
330
1F
100
AcDbEntity
  8
0
100
AcDbBlockBegin
  2
*Model_Space
 70
     0
 10
0.0
 20
0.0
 30
0.0
  3
*Model_Space
  1

  0
ENDBLK
  5
21
330
1F
100
AcDbEntity
  8
0
100
AcDbBlockEnd
  0
BLOCK
  5
1C
330
1B
100
AcDbEntity
 67
     1
  8
0
100
AcDbBlockBegin
  2
*Paper_Space
 70
     0
 10
0.0
 20
0.0
 30
0.0
  3
*Paper_Space
  1

  0
ENDBLK
  5
1D
330
1B
100
AcDbEntity
 67
     1
  8
0
100
AcDbBlockEnd
  0
BLOCK
  5
24
330
23
100
AcDbEntity
  8
0
100
AcDbBlockBegin
  2
*Paper_Space0
 70
     0
 10
0.0
 20
0.0
 30
0.0
  3
*Paper_Space0
  1

  0
ENDBLK
  5
25
330
23
100
AcDbEntity
  8
0
100
AcDbBlockEnd
  0
BLOCK
  5
43
330
41
100
AcDbEntity
  8
0
100
AcDbBlockBegin
  2
block 2
 70
     0
 10
0.0
 20
0.0
 30
0.0
  3
block 2
  1

  0
POLYLINE
  5
45
330
41
100
AcDbEntity
  8
AM_2
 62
   181
420
 10452991
370
    18
100
AcDb2dPolyline
 66
     1
 10
0.0
 20
0.0
 30
0.0
  0
VERTEX
  5
46
330
45
100
AcDbEntity
  8
AM_2
 62
   181
420
 10452991
370
    18
100
AcDbVertex
100
AcDb2dVertex
 10
155.2956263141792
 20
185.9624960235133
 30
0.0
  0
VERTEX
  5
47
330
45
100
AcDbEntity
  8
AM_2
 62
   181
420
 10452991
370
    18
100
AcDbVertex
100
AcDb2dVertex
 10
155.295626314185
 20
153.9624960235125
 30
0.0
  0
SEQEND
  5
48
330
45
100
AcDbEntity
  8
AM_2
 62
   181
420
 10452991
370
    18
  0
ENDBLK
  5
44
330
41
100
AcDbEntity
  8
0
100
AcDbBlockEnd
  0
BLOCK
  5
4C
330
4A
100
AcDbEntity
  8
0
100
AcDbBlockBegin
  2
block 3
 70
     0
 10
0.0
 20
0.0
 30
0.0
  3
block 3
  1

  0
POLYLINE
  5
4E
330
4A
100
AcDbEntity
  8
AM_0
 62
     3
420
    65280
370
    40
100
AcDb2dPolyline
 66
     1
 10
0.0
 20
0.0
 30
0.0
  0
VERTEX
  5
4F
330
4E
100
AcDbEntity
  8
AM_0
 62
     3
420
    65280
370
    40
100
AcDbVertex
100
AcDb2dVertex
 10
138.405027390997
 20
188.962496023516
 30
0.0
  0
VERTEX
  5
50
330
4E
100
AcDbEntity
  8
AM_0
 62
     3
420
    65280
370
    40
100
AcDbVertex
100
AcDb2dVertex
 10
141.7862252374802
 20
188.962496023516
 30
0.0
  0
SEQEND
  5
51
330
4E
100
AcDbEntity
  8
AM_0
 62
     3
420
    65280
370
    40
  0
ENDBLK
  5
4D
330
4A
100
AcDbEntity
  8
0
100
AcDbBlockEnd
  0
BLOCK
  5
54
330
52
100
AcDbEntity
  8
0
100
AcDbBlockBegin
  2
block 4
 70
     0
 10
0.0
 20
0.0
 30
0.0
  3
block 4
  1

  0
POLYLINE
  5
56
330
52
100
AcDbEntity
  8
AM_0
 62
     3
420
    65280
370
    40
100
AcDb2dPolyline
 66
     1
 10
0.0
 20
0.0
 30
0.0
  0
VERTEX
  5
57
330
56
100
AcDbEntity
  8
AM_0
 62
     3
420
    65280
370
    40
100
AcDbVertex
100
AcDb2dVertex
 10
127.5142671014807
 20
154.5624960235164
 30
0.0
  0
VERTEX
  5
58
330
56
100
AcDbEntity
  8
AM_0
 62
     3
420
    65280
370
    40
100
AcDbVertex
100
AcDb2dVertex
 10
127.6956263142392
 20
154.5624960235164
 30
0.0
  0
SEQEND
  5
59
330
56
100
AcDbEntity
  8
AM_0
 62
     3
420
    65280
370
    40
  0
ENDBLK
  5
55
330
52
100
AcDbEntity
  8
0
100
AcDbBlockEnd
  0
BLOCK
  5
5C
330
5A
100
AcDbEntity
  8
0
100
AcDbBlockBegin
  2
block 5
 70
     0
 10
0.0
 20
0.0
 30
0.0
  3
block 5
  1

  0
SPLINE
  5
5E
330
5A
100
AcDbEntity
  8
AM_0
 62
     3
420
    65280
370
    40
100
AcDbSpline
210
0.0
220
0.0
230
1.0
 70
     8
 71
     3
 72
     8
 73
     4
 74
     0
 42
0.0000000001
 43
0.0000000001
 12
1.0
 22
0.0
 32
0.0
 13
1.0
 23
0.0
 33
0.0
 40
0.0
 40
0.0
 40
0.0
 40
0.0
 40
1.0
 40
1.0
 40
1.0
 40
1.0
 10
128.4956263142392
 20
153.7624960235154
 30
0.0
 10
128.4956263142392
 20
154.2043238233802
 30
0.0
 10
128.1374541141039
 20
154.5624960235148
 30
0.0
 10
127.6956263142392
 20
154.5624960235148
 30
0.0
  0
ENDBLK
  5
5D
330
5A
100
AcDbEntity
  8
0
100
AcDbBlockEnd
  0
BLOCK
  5
61
330
5F
100
AcDbEntity
  8
0
100
AcDbBlockBegin
  2
block 6
 70
     0
 10
0.0
 20
0.0
 30
0.0
  3
block 6
  1

  0
SPLINE
  5
63
330
5F
100
AcDbEntity
  8
AM_0
 62
     3
420
    65280
370
    40
100
AcDbSpline
210
0.0
220
0.0
230
1.0
 70
     8
 71
     3
 72
     8
 73
     4
 74
     0
 42
0.0000000001
 43
0.0000000001
 12
1.0
 22
0.0
 32
0.0
 13
1.0
 23
0.0
 33
0.0
 40
0.0
 40
0.0
 40
0.0
 40
0.0
 40
1.0
 40
1.0
 40
1.0
 40
1.0
 10
128.4956263142392
 20
147.9624960235158
 30
0.0
 10
128.4956263142392
 20
147.4102112736855
 30
0.0
 10
128.9433415644089
 20
146.9624960235165
 30
0.0
 10
129.4956263142392
 20
146.9624960235165
 30
0.0
  0
ENDBLK
  5
62
330
5F
100
AcDbEntity
  8
0
100
AcDbBlockEnd
  0
BLOCK
  5
66
330
64
100
AcDbEntity
  8
0
100
AcDbBlockBegin
  2
block 7
 70
     0
 10
0.0
 20
0.0
 30
0.0
  3
block 7
  1

  0
POLYLINE
  5
68
330
64
100
AcDbEntity
  8
AM_0
 62
     3
420
    65280
370
    40
100
AcDb2dPolyline
 66
     1
 10
0.0
 20
0.0
 30
0.0
  0
VERTEX
  5
69
330
68
100
AcDbEntity
  8
AM_0
 62
     3
420
    65280
370
    40
100
AcDbVertex
100
AcDb2dVertex
 10
129.4956263142392
 20
192.9624960235161
 30
0.0
  0
VERTEX
  5
6A
330
68
100
AcDbEntity
  8
AM_0
 62
     3
420
    65280
370
    40
100
AcDbVertex
100
AcDb2dVertex
 10
136.0956263142407
 20
192.9624960235161
 30
0.0
  0
SEQEND
  5
6B
330
68
100
AcDbEntity
  8
AM_0
 62
     3
420
    65280
370
    40
  0
ENDBLK
  5
67
330
64
100
AcDbEntity
  8
0
100
AcDbBlockEnd
  0
BLOCK
  5
6E
330
6C
100
AcDbEntity
  8
0
100
AcDbBlockBegin
  2
block 8
 70
     0
 10
0.0
 20
0.0
 30
0.0
  3
block 8
  1

  0
POLYLINE
  5
70
330
6C
100
AcDbEntity
  8
AM_0
 62
     3
420
    65280
370
    40
100
AcDb2dPolyline
 66
     1
 10
0.0
 20
0.0
 30
0.0
  0
VERTEX
  5
71
330
70
100
AcDbEntity
  8
AM_0
 62
     3
420
    65280
370
    40
100
AcDbVertex
100
AcDb2dVertex
 10
144.0956263142404
 20
192.9624960235161
 30
0.0
  0
VERTEX
  5
72
330
70
100
AcDbEntity
  8
AM_0
 62
     3
420
    65280
370
    40
100
AcDbVertex
100
AcDb2dVertex
 10
147.4956263142379
 20
192.9624960235161
 30
0.0
  0
SEQEND
  5
73
330
70
100
AcDbEntity
  8
AM_0
 62
     3
420
    65280
370
    40
  0
ENDBLK
  5
6F
330
6C
100
AcDbEntity
  8
0
100
AcDbBlockEnd
  0
BLOCK
  5
76
330
74
100
AcDbEntity
  8
0
100
AcDbBlockBegin
  2
block 9
 70
     0
 10
0.0
 20
0.0
 30
0.0
  3
block 9
  1

  0
SPLINE
  5
78
330
74
100
AcDbEntity
  8
AM_0
 62
     3
420
    65280
370
    40
100
AcDbSpline
210
0.0
220
0.0
230
1.0
 70
     8
 71
     3
 72
     8
 73
     4
 74
     0
 42
0.0000000001
 43
0.0000000001
 12
1.0
 22
0.0
 32
0.0
 13
1.0
 23
0.0
 33
0.0
 40
0.0
 40
0.0
 40
0.0
 40
0.0
 40
1.0
 40
1.0
 40
1.0
 40
1.0
 10
129.4956263142392
 20
192.9624960235161
 30
0.0
 10
128.9433415644089
 20
192.9624960235161
 30
0.0
 10
128.4956263142392
 20
192.5147807733467
 30
0.0
 10
128.4956263142392
 20
191.9624960235161
 30
0.0
  0
ENDBLK
  5
77
330
74
100
AcDbEntity
  8
0
100
AcDbBlockEnd
  0
BLOCK
  5
7B
330
79
100
AcDbEntity
  8
0
100
AcDbBlockBegin
  2
block 10
 70
     0
 10
0.0
 20
0.0
 30
0.0
  3
block 10
  1

  0
POLYLINE
  5
7D
330
79
100
AcDbEntity
  8
AM_0
 62
     3
420
    65280
370
    40
100
AcDb2dPolyline
 66
     1
 10
0.0
 20
0.0
 30
0.0
  0
VERTEX
  5
7E
330
7D
100
AcDbEntity
  8
AM_0
 62
     3
420
    65280
370
    40
100
AcDbVertex
100
AcDb2dVertex
 10
126.4956263142391
 20
185.8374960235161
 30
0.0
  0
VERTEX
  5
7F
330
7D
100
AcDbEntity
  8
AM_0
 62
     3
420
    65280
370
    40
100
AcDbVertex
100
AcDb2dVertex
 10
126.4956263142391
 20
154.0874960235161
 30
0.0
  0
SEQEND
  5
80
330
7D
100
AcDbEntity
  8
AM_0
 62
     3
420
    65280
370
    40
  0
ENDBLK
  5
7C
330
79
100
AcDbEntity
  8
0
100
AcDbBlockEnd
  0
BLOCK
  5
83
330
81
100
AcDbEntity
  8
0
100
AcDbBlockBegin
  2
block 11
 70
     0
 10
0.0
 20
0.0
 30
0.0
  3
block 11
  1

  0
POLYLINE
  5
85
330
81
100
AcDbEntity
  8
AM_0
 62
     3
420
    65280
370
    40
100
AcDb2dPolyline
 66
     1
 10
0.0
 20
0.0
 30
0.0
  0
VERTEX
  5
86
330
85
100
AcDbEntity
  8
AM_0
 62
     3
420
    65280
370
    40
100
AcDbVertex
100
AcDb2dVertex
 10
128.4956263142392
 20
191.9624960235161
 30
0.0
  0
VERTEX
  5
87
330
85
100
AcDbEntity
  8
AM_0
 62
     3
420
    65280
370
    40
100
AcDbVertex
100
AcDb2dVertex
 10
128.4956263142392
 20
147.9624960235158
 30
0.0
  0
SEQEND
  5
88
330
85
100
AcDbEntity
  8
AM_0
 62
     3
420
    65280
370
    40
  0
ENDBLK
  5
84
330
81
100
AcDbEntity
  8
0
100
AcDbBlockEnd
  0
BLOCK
  5
8B
330
89
100
AcDbEntity
  8
0
100
AcDbBlockBegin
  2
block 12
 70
     0
 10
0.0
 20
0.0
 30
0.0
  3
block 12
  1

  0
POLYLINE
  5
8D
330
89
100
AcDbEntity
  8
AM_0
 62
     3
420
    65280
370
    40
100
AcDb2dPolyline
 66
     1
 10
0.0
 20
0.0
 30
0.0
  0
VERTEX
  5
8E
330
8D
100
AcDbEntity
  8
AM_0
 62
     3
420
    65280
370
    40
100
AcDbVertex
100
AcDb2dVertex
 10
148.495626314238
 20
191.9624960235161
 30
0.0
  0
VERTEX
  5
8F
330
8D
100
AcDbEntity
  8
AM_0
 62
     3
420
    65280
370
    40
100
AcDbVertex
100
AcDb2dVertex
 10
148.495626314238
 20
147.9624960235158
 30
0.0
  0
SEQEND
  5
90
330
8D
100
AcDbEntity
  8
AM_0
 62
     3
420
    65280
370
    40
  0
ENDBLK
  5
8C
330
89
100
AcDbEntity
  8
0
100
AcDbBlockEnd
  0
BLOCK
  5
93
330
91
100
AcDbEntity
  8
0
100
AcDbBlockBegin
  2
block 13
 70
     0
 10
0.0
 20
0.0
 30
0.0
  3
block 13
  1

  0
SPLINE
  5
95
330
91
100
AcDbEntity
  8
AM_0
 62
     3
420
    65280
370
    40
100
AcDbSpline
210
0.0
220
0.0
230
1.0
 70
     8
 71
     3
 72
     8
 73
     4
 74
     0
 42
0.0000000001
 43
0.0000000001
 12
1.0
 22
0.0
 32
0.0
 13
1.0
 23
0.0
 33
0.0
 40
0.0
 40
0.0
 40
0.0
 40
0.0
 40
1.0
 40
1.0
 40
1.0
 40
1.0
 10
147.4956263142386
 20
146.9624960235165
 30
0.0
 10
148.0479110640708
 20
146.9624960235165
 30
0.0
 10
148.495626314238
 20
147.4102112736855
 30
0.0
 10
148.495626314238
 20
147.9624960235158
 30
0.0
  0
ENDBLK
  5
94
330
91
100
AcDbEntity
  8
0
100
AcDbBlockEnd
  0
BLOCK
  5
98
330
96
100
AcDbEntity
  8
0
100
AcDbBlockBegin
  2
block 14
 70
     0
 10
0.0
 20
0.0
 30
0.0
  3
block 14
  1

  0
SPLINE
  5
9A
330
96
100
AcDbEntity
  8
AM_0
 62
     3
420
    65280
370
    40
100
AcDbSpline
210
0.0
220
0.0
230
1.0
 70
     8
 71
     3
 72
     8
 73
     4
 74
     0
 42
0.0000000001
 43
0.0000000001
 12
1.0
 22
0.0
 32
0.0
 13
1.0
 23
0.0
 33
0.0
 40
0.0
 40
0.0
 40
0.0
 40
0.0
 40
1.0
 40
1.0
 40
1.0
 40
1.0
 10
148.495626314238
 20
191.9624960235161
 30
0.0
 10
148.495626314238
 20
192.5147807733467
 30
0.0
 10
148.0479110640708
 20
192.9624960235161
 30
0.0
 10
147.4956263142386
 20
192.9624960235161
 30
0.0
  0
ENDBLK
  5
99
330
96
100
AcDbEntity
  8
0
100
AcDbBlockEnd
  0
BLOCK
  5
9D
330
9B
100
AcDbEntity
  8
0
100
AcDbBlockBegin
  2
block 15
 70
     0
 10
0.0
 20
0.0
 30
0.0
  3
block 15
  1

  0
POLYLINE
  5
9F
330
9B
100
AcDbEntity
  8
AM_0
 62
     3
420
    65280
370
    40
100
AcDb2dPolyline
 66
     1
 10
0.0
 20
0.0
 30
0.0
  0
VERTEX
  5
A0
330
9F
100
AcDbEntity
  8
AM_0
 62
     3
420
    65280
370
    40
100
AcDbVertex
100
AcDb2dVertex
 10
77.99562631423903
 20
177.8997693484444
 30
0.0
  0
VERTEX
  5
A1
330
9F
100
AcDbEntity
  8
AM_0
 62
     3
420
    65280
370
    40
100
AcDbVertex
100
AcDb2dVertex
 10
77.99562631423903
 20
162.0252226985879
 30
0.0
  0
SEQEND
  5
A2
330
9F
100
AcDbEntity
  8
AM_0
 62
     3
420
    65280
370
    40
  0
ENDBLK
  5
9E
330
9B
100
AcDbEntity
  8
0
100
AcDbBlockEnd
  0
BLOCK
  5
A5
330
A3
100
AcDbEntity
  8
0
100
AcDbBlockBegin
  2
block 16
 70
     0
 10
0.0
 20
0.0
 30
0.0
  3
block 16
  1

  0
SPLINE
  5
A7
330
A3
100
AcDbEntity
  8
AM_0
 62
     3
420
    65280
370
    40
100
AcDbSpline
210
0.0
220
0.0
230
1.0
 70
     8
 71
     3
 72
     8
 73
     4
 74
     0
 42
0.0000000001
 43
0.0000000001
 12
1.0
 22
0.0
 32
0.0
 13
1.0
 23
0.0
 33
0.0
 40
0.0
 40
0.0
 40
0.0
 40
0.0
 40
1.0
 40
1.0
 40
1.0
 40
1.0
 10
78.8513180869721
 20
178.8893021349359
 30
0.0
 10
78.35997253708115
 20
178.8176468990024
 30
0.0
 10
77.99562631423903
 20
178.3963123196299
 30
0.0
 10
77.99562631423903
 20
177.8997693484444
 30
0.0
  0
ENDBLK
  5
A6
330
A3
100
AcDbEntity
  8
0
100
AcDbBlockEnd
  0
BLOCK
  5
AA
330
A8
100
AcDbEntity
  8
0
100
AcDbBlockBegin
  2
block 17
 70
     0
 10
0.0
 20
0.0
 30
0.0
  3
block 17
  1

  0
SPLINE
  5
AC
330
A8
100
AcDbEntity
  8
AM_0
 62
     3
420
    65280
370
    40
100
AcDbSpline
210
0.0
220
0.0
230
1.0
 70
     8
 71
     3
 72
     8
 73
     4
 74
     0
 42
0.0000000001
 43
0.0000000001
 12
1.0
 22
0.0
 32
0.0
 13
1.0
 23
0.0
 33
0.0
 40
0.0
 40
0.0
 40
0.0
 40
0.0
 40
1.0
 40
1.0
 40
1.0
 40
1.0
 10
77.99562631423903
 20
162.0252226985879
 30
0.0
 10
77.99562631423903
 20
161.5286797274023
 30
0.0
 10
78.35997253708115
 20
161.1073451480298
 30
0.0
 10
78.8513180869721
 20
161.0356899120954
 30
0.0
  0
ENDBLK
  5
AB
330
A8
100
AcDbEntity
  8
0
100
AcDbBlockEnd
  0
BLOCK
  5
AF
330
AD
100
AcDbEntity
  8
0
100
AcDbBlockBegin
  2
block 18
 70
     0
 10
0.0
 20
0.0
 30
0.0
  3
block 18
  1

  0
POLYLINE
  5
B1
330
AD
100
AcDbEntity
  8
AM_0
 62
     3
420
    65280
370
    40
100
AcDb2dPolyline
 66
     1
 10
0.0
 20
0.0
 30
0.0
  0
VERTEX
  5
B2
330
B1
100
AcDbEntity
  8
AM_0
 62
     3
420
    65280
370
    40
100
AcDbVertex
100
AcDb2dVertex
 10
126.4956263142391
 20
154.0874960235161
 30
0.0
  0
VERTEX
  5
B3
330
B1
100
AcDbEntity
  8
AM_0
 62
     3
420
    65280
370
    40
100
AcDbVertex
100
AcDb2dVertex
 10
78.8513180869721
 20
161.0356899120954
 30
0.0
  0
SEQEND
  5
B4
330
B1
100
AcDbEntity
  8
AM_0
 62
     3
420
    65280
370
    40
  0
ENDBLK
  5
B0
330
AD
100
AcDbEntity
  8
0
100
AcDbBlockEnd
  0
BLOCK
  5
B7
330
B5
100
AcDbEntity
  8
0
100
AcDbBlockBegin
  2
block 19
 70
     0
 10
0.0
 20
0.0
 30
0.0
  3
block 19
  1

  0
POLYLINE
  5
B9
330
B5
100
AcDbEntity
  8
AM_0
 62
     3
420
    65280
370
    40
100
AcDb2dPolyline
 66
     1
 10
0.0
 20
0.0
 30
0.0
  0
VERTEX
  5
BA
330
B9
100
AcDbEntity
  8
AM_0
 62
     3
420
    65280
370
    40
100
AcDbVertex
100
AcDb2dVertex
 10
126.4956263142391
 20
154.0874960235161
 30
0.0
  0
VERTEX
  5
BB
330
B9
100
AcDbEntity
  8
AM_0
 62
     3
420
    65280
370
    40
100
AcDbVertex
100
AcDb2dVertex
 10
127.5142671014807
 20
154.5624960235164
 30
0.0
  0
SEQEND
  5
BC
330
B9
100
AcDbEntity
  8
AM_0
 62
     3
420
    65280
370
    40
  0
ENDBLK
  5
B8
330
B5
100
AcDbEntity
  8
0
100
AcDbBlockEnd
  0
BLOCK
  5
BF
330
BD
100
AcDbEntity
  8
0
100
AcDbBlockBegin
  2
block 20
 70
     0
 10
0.0
 20
0.0
 30
0.0
  3
block 20
  1

  0
POLYLINE
  5
C1
330
BD
100
AcDbEntity
  8
AM_0
 62
     3
420
    65280
370
    40
100
AcDb2dPolyline
 66
     1
 10
0.0
 20
0.0
 30
0.0
  0
VERTEX
  5
C2
330
C1
100
AcDbEntity
  8
AM_0
 62
     3
420
    65280
370
    40
100
AcDbVertex
100
AcDb2dVertex
 10
127.5142671014807
 20
154.5624960235164
 30
0.0
  0
VERTEX
  5
C3
330
C1
100
AcDbEntity
  8
AM_0
 62
     3
420
    65280
370
    40
100
AcDbVertex
100
AcDb2dVertex
 10
127.5142671014807
 20
185.3624960235159
 30
0.0
  0
SEQEND
  5
C4
330
C1
100
AcDbEntity
  8
AM_0
 62
     3
420
    65280
370
    40
  0
ENDBLK
  5
C0
330
BD
100
AcDbEntity
  8
0
100
AcDbBlockEnd
  0
BLOCK
  5
C7
330
C5
100
AcDbEntity
  8
0
100
AcDbBlockBegin
  2
block 21
 70
     0
 10
0.0
 20
0.0
 30
0.0
  3
block 21
  1

  0
POLYLINE
  5
C9
330
C5
100
AcDbEntity
  8
AM_0
 62
     3
420
    65280
370
    40
100
AcDb2dPolyline
 66
     1
 10
0.0
 20
0.0
 30
0.0
  0
VERTEX
  5
CA
330
C9
100
AcDbEntity
  8
AM_0
 62
     3
420
    65280
370
    40
100
AcDbVertex
100
AcDb2dVertex
 10
127.5142671014807
 20
185.3624960235159
 30
0.0
  0
VERTEX
  5
CB
330
C9
100
AcDbEntity
  8
AM_0
 62
     3
420
    65280
370
    40
100
AcDbVertex
100
AcDb2dVertex
 10
127.6956263142392
 20
185.3624960235159
 30
0.0
  0
SEQEND
  5
CC
330
C9
100
AcDbEntity
  8
AM_0
 62
     3
420
    65280
370
    40
  0
ENDBLK
  5
C8
330
C5
100
AcDbEntity
  8
0
100
AcDbBlockEnd
  0
BLOCK
  5
CF
330
CD
100
AcDbEntity
  8
0
100
AcDbBlockBegin
  2
block 22
 70
     0
 10
0.0
 20
0.0
 30
0.0
  3
block 22
  1

  0
SPLINE
  5
D1
330
CD
100
AcDbEntity
  8
AM_0
 62
     3
420
    65280
370
    40
100
AcDbSpline
210
0.0
220
0.0
230
1.0
 70
     8
 71
     3
 72
     8
 73
     4
 74
     0
 42
0.0000000001
 43
0.0000000001
 12
1.0
 22
0.0
 32
0.0
 13
1.0
 23
0.0
 33
0.0
 40
0.0
 40
0.0
 40
0.0
 40
0.0
 40
1.0
 40
1.0
 40
1.0
 40
1.0
 10
127.6956263142392
 20
185.3624960235159
 30
0.0
 10
128.1374541141039
 20
185.3624960235159
 30
0.0
 10
128.4956263142392
 20
185.7206682236511
 30
0.0
 10
128.4956263142392
 20
186.1624960235159
 30
0.0
  0
ENDBLK
  5
D0
330
CD
100
AcDbEntity
  8
0
100
AcDbBlockEnd
  0
BLOCK
  5
D4
330
D2
100
AcDbEntity
  8
0
100
AcDbBlockBegin
  2
block 23
 70
     0
 10
0.0
 20
0.0
 30
0.0
  3
block 23
  1

  0
POLYLINE
  5
D6
330
D2
100
AcDbEntity
  8
AM_0
 62
     3
420
    65280
370
    40
100
AcDb2dPolyline
 66
     1
 10
0.0
 20
0.0
 30
0.0
  0
VERTEX
  5
D7
330
D6
100
AcDbEntity
  8
AM_0
 62
     3
420
    65280
370
    40
100
AcDbVertex
100
AcDb2dVertex
 10
126.4956263142391
 20
185.8374960235161
 30
0.0
  0
VERTEX
  5
D8
330
D6
100
AcDbEntity
  8
AM_0
 62
     3
420
    65280
370
    40
100
AcDbVertex
100
AcDb2dVertex
 10
78.8513180869721
 20
178.8893021349359
 30
0.0
  0
SEQEND
  5
D9
330
D6
100
AcDbEntity
  8
AM_0
 62
     3
420
    65280
370
    40
  0
ENDBLK
  5
D5
330
D2
100
AcDbEntity
  8
0
100
AcDbBlockEnd
  0
BLOCK
  5
DC
330
DA
100
AcDbEntity
  8
0
100
AcDbBlockBegin
  2
block 24
 70
     0
 10
0.0
 20
0.0
 30
0.0
  3
block 24
  1

  0
POLYLINE
  5
DE
330
DA
100
AcDbEntity
  8
AM_0
 62
     3
420
    65280
370
    40
100
AcDb2dPolyline
 66
     1
 10
0.0
 20
0.0
 30
0.0
  0
VERTEX
  5
DF
330
DE
100
AcDbEntity
  8
AM_0
 62
     3
420
    65280
370
    40
100
AcDbVertex
100
AcDb2dVertex
 10
126.4956263142391
 20
185.8374960235161
 30
0.0
  0
VERTEX
  5
E0
330
DE
100
AcDbEntity
  8
AM_0
 62
     3
420
    65280
370
    40
100
AcDbVertex
100
AcDb2dVertex
 10
127.5142671014807
 20
185.3624960235159
 30
0.0
  0
SEQEND
  5
E1
330
DE
100
AcDbEntity
  8
AM_0
 62
     3
420
    65280
370
    40
  0
ENDBLK
  5
DD
330
DA
100
AcDbEntity
  8
0
100
AcDbBlockEnd
  0
BLOCK
  5
E4
330
E2
100
AcDbEntity
  8
0
100
AcDbBlockBegin
  2
block 25
 70
     0
 10
0.0
 20
0.0
 30
0.0
  3
block 25
  1

  0
POLYLINE
  5
E6
330
E2
100
AcDbEntity
  8
AM_0
 62
     3
420
    65280
370
    40
100
AcDb2dPolyline
 66
     1
 10
0.0
 20
0.0
 30
0.0
  0
VERTEX
  5
E7
330
E6
100
AcDbEntity
  8
AM_0
 62
     3
420
    65280
370
    40
100
AcDbVertex
100
AcDb2dVertex
 10
136.0956263142407
 20
192.9624960235161
 30
0.0
  0
VERTEX
  5
E8
330
E6
100
AcDbEntity
  8
AM_0
 62
     3
420
    65280
370
    40
100
AcDbVertex
100
AcDb2dVertex
 10
138.405027390997
 20
188.962496023516
 30
0.0
  0
SEQEND
  5
E9
330
E6
100
AcDbEntity
  8
AM_0
 62
     3
420
    65280
370
    40
  0
ENDBLK
  5
E5
330
E2
100
AcDbEntity
  8
0
100
AcDbBlockEnd
  0
BLOCK
  5
EC
330
EA
100
AcDbEntity
  8
0
100
AcDbBlockBegin
  2
block 26
 70
     0
 10
0.0
 20
0.0
 30
0.0
  3
block 26
  1

  0
POLYLINE
  5
EE
330
EA
100
AcDbEntity
  8
AM_0
 62
     3
420
    65280
370
    40
100
AcDb2dPolyline
 66
     1
 10
0.0
 20
0.0
 30
0.0
  0
VERTEX
  5
EF
330
EE
100
AcDbEntity
  8
AM_0
 62
     3
420
    65280
370
    40
100
AcDbVertex
100
AcDb2dVertex
 10
144.0956263142404
 20
192.9624960235161
 30
0.0
  0
VERTEX
  5
F0
330
EE
100
AcDbEntity
  8
AM_0
 62
     3
420
    65280
370
    40
100
AcDbVertex
100
AcDb2dVertex
 10
141.7862252374802
 20
188.962496023516
 30
0.0
  0
SEQEND
  5
F1
330
EE
100
AcDbEntity
  8
AM_0
 62
     3
420
    65280
370
    40
  0
ENDBLK
  5
ED
330
EA
100
AcDbEntity
  8
0
100
AcDbBlockEnd
  0
BLOCK
  5
F4
330
F2
100
AcDbEntity
  8
0
100
AcDbBlockBegin
  2
block 27
 70
     0
 10
0.0
 20
0.0
 30
0.0
  3
block 27
  1

  0
POLYLINE
  5
F6
330
F2
100
AcDbEntity
  8
AM_0
 62
     3
420
    65280
370
    40
100
AcDb2dPolyline
 66
     1
 10
0.0
 20
0.0
 30
0.0
  0
VERTEX
  5
F7
330
F6
100
AcDbEntity
  8
AM_0
 62
     3
420
    65280
370
    40
100
AcDbVertex
100
AcDb2dVertex
 10
138.405027390997
 20
150.9624960235159
 30
0.0
  0
VERTEX
  5
F8
330
F6
100
AcDbEntity
  8
AM_0
 62
     3
420
    65280
370
    40
100
AcDbVertex
100
AcDb2dVertex
 10
141.7862252374802
 20
150.9624960235159
 30
0.0
  0
SEQEND
  5
F9
330
F6
100
AcDbEntity
  8
AM_0
 62
     3
420
    65280
370
    40
  0
ENDBLK
  5
F5
330
F2
100
AcDbEntity
  8
0
100
AcDbBlockEnd
  0
BLOCK
  5
FC
330
FA
100
AcDbEntity
  8
0
100
AcDbBlockBegin
  2
block 28
 70
     0
 10
0.0
 20
0.0
 30
0.0
  3
block 28
  1

  0
POLYLINE
  5
FE
330
FA
100
AcDbEntity
  8
AM_0
 62
     3
420
    65280
370
    40
100
AcDb2dPolyline
 66
     1
 10
0.0
 20
0.0
 30
0.0
  0
VERTEX
  5
FF
330
FE
100
AcDbEntity
  8
AM_0
 62
     3
420
    65280
370
    40
100
AcDbVertex
100
AcDb2dVertex
 10
129.4956263142392
 20
146.9624960235165
 30
0.0
  0
VERTEX
  5
100
330
FE
100
AcDbEntity
  8
AM_0
 62
     3
420
    65280
370
    40
100
AcDbVertex
100
AcDb2dVertex
 10
136.0956263142407
 20
146.9624960235165
 30
0.0
  0
SEQEND
  5
101
330
FE
100
AcDbEntity
  8
AM_0
 62
     3
420
    65280
370
    40
  0
ENDBLK
  5
FD
330
FA
100
AcDbEntity
  8
0
100
AcDbBlockEnd
  0
BLOCK
  5
104
330
102
100
AcDbEntity
  8
0
100
AcDbBlockBegin
  2
block 29
 70
     0
 10
0.0
 20
0.0
 30
0.0
  3
block 29
  1

  0
POLYLINE
  5
106
330
102
100
AcDbEntity
  8
AM_0
 62
     3
420
    65280
370
    40
100
AcDb2dPolyline
 66
     1
 10
0.0
 20
0.0
 30
0.0
  0
VERTEX
  5
107
330
106
100
AcDbEntity
  8
AM_0
 62
     3
420
    65280
370
    40
100
AcDbVertex
100
AcDb2dVertex
 10
144.0956263142404
 20
146.9624960235165
 30
0.0
  0
VERTEX
  5
108
330
106
100
AcDbEntity
  8
AM_0
 62
     3
420
    65280
370
    40
100
AcDbVertex
100
AcDb2dVertex
 10
147.4956263142379
 20
146.9624960235165
 30
0.0
  0
SEQEND
  5
109
330
106
100
AcDbEntity
  8
AM_0
 62
     3
420
    65280
370
    40
  0
ENDBLK
  5
105
330
102
100
AcDbEntity
  8
0
100
AcDbBlockEnd
  0
BLOCK
  5
10C
330
10A
100
AcDbEntity
  8
0
100
AcDbBlockBegin
  2
block 30
 70
     0
 10
0.0
 20
0.0
 30
0.0
  3
block 30
  1

  0
POLYLINE
  5
10E
330
10A
100
AcDbEntity
  8
AM_0
 62
     3
420
    65280
370
    40
100
AcDb2dPolyline
 66
     1
 10
0.0
 20
0.0
 30
0.0
  0
VERTEX
  5
10F
330
10E
100
AcDbEntity
  8
AM_0
 62
     3
420
    65280
370
    40
100
AcDbVertex
100
AcDb2dVertex
 10
136.0956263142407
 20
146.9624960235165
 30
0.0
  0
VERTEX
  5
110
330
10E
100
AcDbEntity
  8
AM_0
 62
     3
420
    65280
370
    40
100
AcDbVertex
100
AcDb2dVertex
 10
136.0956263142388
 20
192.9624960235161
 30
0.0
  0
SEQEND
  5
111
330
10E
100
AcDbEntity
  8
AM_0
 62
     3
420
    65280
370
    40
  0
ENDBLK
  5
10D
330
10A
100
AcDbEntity
  8
0
100
AcDbBlockEnd
  0
BLOCK
  5
114
330
112
100
AcDbEntity
  8
0
100
AcDbBlockBegin
  2
block 31
 70
     0
 10
0.0
 20
0.0
 30
0.0
  3
block 31
  1

  0
POLYLINE
  5
116
330
112
100
AcDbEntity
  8
AM_0
 62
     3
420
    65280
370
    40
100
AcDb2dPolyline
 66
     1
 10
0.0
 20
0.0
 30
0.0
  0
VERTEX
  5
117
330
116
100
AcDbEntity
  8
AM_0
 62
     3
420
    65280
370
    40
100
AcDbVertex
100
AcDb2dVertex
 10
144.0956263142404
 20
146.9624960235165
 30
0.0
  0
VERTEX
  5
118
330
116
100
AcDbEntity
  8
AM_0
 62
     3
420
    65280
370
    40
100
AcDbVertex
100
AcDb2dVertex
 10
144.0956263142404
 20
192.9624960235161
 30
0.0
  0
SEQEND
  5
119
330
116
100
AcDbEntity
  8
AM_0
 62
     3
420
    65280
370
    40
  0
ENDBLK
  5
115
330
112
100
AcDbEntity
  8
0
100
AcDbBlockEnd
  0
BLOCK
  5
11C
330
11A
100
AcDbEntity
  8
0
100
AcDbBlockBegin
  2
block 32
 70
     0
 10
0.0
 20
0.0
 30
0.0
  3
block 32
  1

  0
POLYLINE
  5
11E
330
11A
100
AcDbEntity
  8
AM_0
 62
     3
420
    65280
370
    40
100
AcDb2dPolyline
 66
     1
 10
0.0
 20
0.0
 30
0.0
  0
VERTEX
  5
11F
330
11E
100
AcDbEntity
  8
AM_0
 62
     3
420
    65280
370
    40
100
AcDbVertex
100
AcDb2dVertex
 10
136.0956263142407
 20
146.9624960235165
 30
0.0
  0
VERTEX
  5
120
330
11E
100
AcDbEntity
  8
AM_0
 62
     3
420
    65280
370
    40
100
AcDbVertex
100
AcDb2dVertex
 10
138.405027390997
 20
150.9624960235163
 30
0.0
  0
SEQEND
  5
121
330
11E
100
AcDbEntity
  8
AM_0
 62
     3
420
    65280
370
    40
  0
ENDBLK
  5
11D
330
11A
100
AcDbEntity
  8
0
100
AcDbBlockEnd
  0
BLOCK
  5
124
330
122
100
AcDbEntity
  8
0
100
AcDbBlockBegin
  2
block 33
 70
     0
 10
0.0
 20
0.0
 30
0.0
  3
block 33
  1

  0
POLYLINE
  5
126
330
122
100
AcDbEntity
  8
AM_0
 62
     3
420
    65280
370
    40
100
AcDb2dPolyline
 66
     1
 10
0.0
 20
0.0
 30
0.0
  0
VERTEX
  5
127
330
126
100
AcDbEntity
  8
AM_0
 62
     3
420
    65280
370
    40
100
AcDbVertex
100
AcDb2dVertex
 10
144.0956263142404
 20
146.9624960235165
 30
0.0
  0
VERTEX
  5
128
330
126
100
AcDbEntity
  8
AM_0
 62
     3
420
    65280
370
    40
100
AcDbVertex
100
AcDb2dVertex
 10
141.7862252374802
 20
150.9624960235163
 30
0.0
  0
SEQEND
  5
129
330
126
100
AcDbEntity
  8
AM_0
 62
     3
420
    65280
370
    40
  0
ENDBLK
  5
125
330
122
100
AcDbEntity
  8
0
100
AcDbBlockEnd
  0
BLOCK
  5
12C
330
12A
100
AcDbEntity
  8
0
100
AcDbBlockBegin
  2
block 34
 70
     0
 10
0.0
 20
0.0
 30
0.0
  3
block 34
  1

  0
POLYLINE
  5
12E
330
12A
100
AcDbEntity
  8
AM_0
 62
     3
420
    65280
370
    40
100
AcDb2dPolyline
 66
     1
 10
0.0
 20
0.0
 30
0.0
  0
VERTEX
  5
12F
330
12E
100
AcDbEntity
  8
AM_0
 62
     3
420
    65280
370
    40
100
AcDbVertex
100
AcDb2dVertex
 10
141.7862252374802
 20
150.9624960235159
 30
0.0
  0
VERTEX
  5
130
330
12E
100
AcDbEntity
  8
AM_0
 62
     3
420
    65280
370
    40
100
AcDbVertex
100
AcDb2dVertex
 10
141.7862252374802
 20
188.962496023516
 30
0.0
  0
SEQEND
  5
131
330
12E
100
AcDbEntity
  8
AM_0
 62
     3
420
    65280
370
    40
  0
ENDBLK
  5
12D
330
12A
100
AcDbEntity
  8
0
100
AcDbBlockEnd
  0
BLOCK
  5
134
330
132
100
AcDbEntity
  8
0
100
AcDbBlockBegin
  2
block 35
 70
     0
 10
0.0
 20
0.0
 30
0.0
  3
block 35
  1

  0
POLYLINE
  5
136
330
132
100
AcDbEntity
  8
AM_0
 62
     3
420
    65280
370
    40
100
AcDb2dPolyline
 66
     1
 10
0.0
 20
0.0
 30
0.0
  0
VERTEX
  5
137
330
136
100
AcDbEntity
  8
AM_0
 62
     3
420
    65280
370
    40
100
AcDbVertex
100
AcDb2dVertex
 10
138.405027390997
 20
150.9624960235159
 30
0.0
  0
VERTEX
  5
138
330
136
100
AcDbEntity
  8
AM_0
 62
     3
420
    65280
370
    40
100
AcDbVertex
100
AcDb2dVertex
 10
138.405027390997
 20
188.962496023516
 30
0.0
  0
SEQEND
  5
139
330
136
100
AcDbEntity
  8
AM_0
 62
     3
420
    65280
370
    40
  0
ENDBLK
  5
135
330
132
100
AcDbEntity
  8
0
100
AcDbBlockEnd
  0
BLOCK
  5
13C
330
13A
100
AcDbEntity
  8
0
100
AcDbBlockBegin
  2
block 36
 70
     0
 10
0.0
 20
0.0
 30
0.0
  3
block 36
  1

  0
POLYLINE
  5
13E
330
13A
100
AcDbEntity
  8
AM_0
 62
     3
420
    65280
370
    40
100
AcDb2dPolyline
 66
     1
 10
0.0
 20
0.0
 30
0.0
  0
VERTEX
  5
13F
330
13E
100
AcDbEntity
  8
AM_0
 62
     3
420
    65280
370
    40
100
AcDbVertex
100
AcDb2dVertex
 10
200.6456263142397
 20
185.9738403299899
 30
0.0
  0
VERTEX
  5
140
330
13E
100
AcDbEntity
  8
AM_0
 62
     3
420
    65280
370
    40
100
AcDbVertex
100
AcDb2dVertex
 10
211.3456263142404
 20
185.9738403299908
 30
0.0
  0
SEQEND
  5
141
330
13E
100
AcDbEntity
  8
AM_0
 62
     3
420
    65280
370
    40
  0
ENDBLK
  5
13D
330
13A
100
AcDbEntity
  8
0
100
AcDbBlockEnd
  0
BLOCK
  5
144
330
142
100
AcDbEntity
  8
0
100
AcDbBlockBegin
  2
block 37
 70
     0
 10
0.0
 20
0.0
 30
0.0
  3
block 37
  1

  0
SPLINE
  5
146
330
142
100
AcDbEntity
  8
AM_0
 62
     3
420
    65280
370
    40
100
AcDbSpline
210
0.0
220
0.0
230
1.0
 70
     8
 71
     3
 72
     8
 73
     4
 74
     0
 42
0.0000000001
 43
0.0000000001
 12
1.0
 22
0.0
 32
0.0
 13
1.0
 23
0.0
 33
0.0
 40
0.0
 40
0.0
 40
0.0
 40
0.0
 40
1.0
 40
1.0
 40
1.0
 40
1.0
 10
200.6456263142397
 20
185.9738403299908
 30
0.0
 10
200.0933415644074
 20
185.9738403299908
 30
0.0
 10
199.6456263142396
 20
185.5261250798214
 30
0.0
 10
199.6456263142396
 20
184.9738403299908
 30
0.0
  0
ENDBLK
  5
145
330
142
100
AcDbEntity
  8
0
100
AcDbBlockEnd
  0
BLOCK
  5
149
330
147
100
AcDbEntity
  8
0
100
AcDbBlockBegin
  2
block 38
 70
     0
 10
0.0
 20
0.0
 30
0.0
  3
block 38
  1

  0
POLYLINE
  5
14B
330
147
100
AcDbEntity
  8
AM_0
 62
     3
420
    65280
370
    40
100
AcDb2dPolyline
 66
     1
 10
0.0
 20
0.0
 30
0.0
  0
VERTEX
  5
14C
330
14B
100
AcDbEntity
  8
AM_0
 62
     3
420
    65280
370
    40
100
AcDbVertex
100
AcDb2dVertex
 10
211.3456263142404
 20
153.973840329991
 30
0.0
  0
VERTEX
  5
14D
330
14B
100
AcDbEntity
  8
AM_0
 62
     3
420
    65280
370
    40
100
AcDbVertex
100
AcDb2dVertex
 10
200.6456263142397
 20
153.973840329991
 30
0.0
  0
SEQEND
  5
14E
330
14B
100
AcDbEntity
  8
AM_0
 62
     3
420
    65280
370
    40
  0
ENDBLK
  5
14A
330
147
100
AcDbEntity
  8
0
100
AcDbBlockEnd
  0
BLOCK
  5
151
330
14F
100
AcDbEntity
  8
0
100
AcDbBlockBegin
  2
block 39
 70
     0
 10
0.0
 20
0.0
 30
0.0
  3
block 39
  1

  0
POLYLINE
  5
153
330
14F
100
AcDbEntity
  8
AM_0
 62
     3
420
    65280
370
    40
100
AcDb2dPolyline
 66
     1
 10
0.0
 20
0.0
 30
0.0
  0
VERTEX
  5
154
330
153
100
AcDbEntity
  8
AM_0
 62
     3
420
    65280
370
    40
100
AcDbVertex
100
AcDb2dVertex
 10
199.6456263142396
 20
154.9738403299907
 30
0.0
  0
VERTEX
  5
155
330
153
100
AcDbEntity
  8
AM_0
 62
     3
420
    65280
370
    40
100
AcDbVertex
100
AcDb2dVertex
 10
199.6456263142396
 20
184.9738403299908
 30
0.0
  0
SEQEND
  5
156
330
153
100
AcDbEntity
  8
AM_0
 62
     3
420
    65280
370
    40
  0
ENDBLK
  5
152
330
14F
100
AcDbEntity
  8
0
100
AcDbBlockEnd
  0
BLOCK
  5
159
330
157
100
AcDbEntity
  8
0
100
AcDbBlockBegin
  2
block 40
 70
     0
 10
0.0
 20
0.0
 30
0.0
  3
block 40
  1

  0
SPLINE
  5
15B
330
157
100
AcDbEntity
  8
AM_0
 62
     3
420
    65280
370
    40
100
AcDbSpline
210
0.0
220
0.0
230
1.0
 70
     8
 71
     3
 72
     8
 73
     4
 74
     0
 42
0.0000000001
 43
0.0000000001
 12
1.0
 22
0.0
 32
0.0
 13
1.0
 23
0.0
 33
0.0
 40
0.0
 40
0.0
 40
0.0
 40
0.0
 40
1.0
 40
1.0
 40
1.0
 40
1.0
 10
199.6456263142396
 20
154.9738403299907
 30
0.0
 10
199.6456263142396
 20
154.4215555801604
 30
0.0
 10
200.0933415644074
 20
153.973840329991
 30
0.0
 10
200.6456263142397
 20
153.973840329991
 30
0.0
  0
ENDBLK
  5
15A
330
157
100
AcDbEntity
  8
0
100
AcDbBlockEnd
  0
BLOCK
  5
15E
330
15C
100
AcDbEntity
  8
0
100
AcDbBlockBegin
  2
block 41
 70
     0
 10
0.0
 20
0.0
 30
0.0
  3
block 41
  1

  0
POLYLINE
  5
160
330
15C
100
AcDbEntity
  8
AM_0
 62
     3
420
    65280
370
    40
100
AcDb2dPolyline
 66
     1
 10
0.0
 20
0.0
 30
0.0
  0
VERTEX
  5
161
330
160
100
AcDbEntity
  8
AM_0
 62
     3
420
    65280
370
    40
100
AcDbVertex
100
AcDb2dVertex
 10
216.8456263142402
 20
183.3357429773726
 30
0.0
  0
VERTEX
  5
162
330
160
100
AcDbEntity
  8
AM_0
 62
     3
420
    65280
370
    40
100
AcDbVertex
100
AcDb2dVertex
 10
216.8456263142402
 20
156.5892490696606
 30
0.0
  0
SEQEND
  5
163
330
160
100
AcDbEntity
  8
AM_0
 62
     3
420
    65280
370
    40
  0
ENDBLK
  5
15F
330
15C
100
AcDbEntity
  8
0
100
AcDbBlockEnd
  0
BLOCK
  5
166
330
164
100
AcDbEntity
  8
0
100
AcDbBlockBegin
  2
block 42
 70
     0
 10
0.0
 20
0.0
 30
0.0
  3
block 42
  1

  0
SPLINE
  5
168
330
164
100
AcDbEntity
  8
AM_0
 62
     3
420
    65280
370
    40
100
AcDbSpline
210
0.0
220
0.0
230
1.0
 70
     8
 71
     3
 72
     8
 73
     4
 74
     0
 42
0.0000000001
 43
0.0000000001
 12
1.0
 22
0.0
 32
0.0
 13
1.0
 23
0.0
 33
0.0
 40
0.0
 40
0.0
 40
0.0
 40
0.0
 40
1.0
 40
1.0
 40
1.0
 40
1.0
 10
216.4884834570953
 20
184.1017290698546
 30
0.0
 10
215.0476094506822
 20
185.3109888150012
 30
0.0
 10
213.2266970289099
 20
185.9738403299908
 30
0.0
 10
211.3456263142404
 20
185.9738403299908
 30
0.0
  0
ENDBLK
  5
167
330
164
100
AcDbEntity
  8
0
100
AcDbBlockEnd
  0
BLOCK
  5
16B
330
169
100
AcDbEntity
  8
0
100
AcDbBlockBegin
  2
block 43
 70
     0
 10
0.0
 20
0.0
 30
0.0
  3
block 43
  1

  0
SPLINE
  5
16D
330
169
100
AcDbEntity
  8
AM_0
 62
     3
420
    65280
370
    40
100
AcDbSpline
210
0.0
220
0.0
230
1.0
 70
     8
 71
     3
 72
     8
 73
     4
 74
     0
 42
0.0000000001
 43
0.0000000001
 12
1.0
 22
0.0
 32
0.0
 13
1.0
 23
0.0
 33
0.0
 40
0.0
 40
0.0
 40
0.0
 40
0.0
 40
1.0
 40
1.0
 40
1.0
 40
1.0
 10
216.8456263142402
 20
183.3357429773726
 30
0.0
 10
216.8456263142402
 20
183.6313041164215
 30
0.0
 10
216.7148791790866
 20
183.9117254804662
 30
0.0
 10
216.4884834570953
 20
184.1017290698546
 30
0.0
  0
ENDBLK
  5
16C
330
169
100
AcDbEntity
  8
0
100
AcDbBlockEnd
  0
BLOCK
  5
170
330
16E
100
AcDbEntity
  8
0
100
AcDbBlockBegin
  2
block 44
 70
     0
 10
0.0
 20
0.0
 30
0.0
  3
block 44
  1

  0
SPLINE
  5
172
330
16E
100
AcDbEntity
  8
AM_0
 62
     3
420
    65280
370
    40
100
AcDbSpline
210
0.0
220
0.0
230
1.0
 70
     8
 71
     3
 72
     8
 73
     4
 74
     0
 42
0.0000000001
 43
0.0000000001
 12
1.0
 22
0.0
 32
0.0
 13
1.0
 23
0.0
 33
0.0
 40
0.0
 40
0.0
 40
0.0
 40
0.0
 40
1.0
 40
1.0
 40
1.0
 40
1.0
 10
211.3456263142404
 20
153.973840329991
 30
0.0
 10
213.2266970289099
 20
153.973840329991
 30
0.0
 10
215.0476094506822
 20
154.6366918449803
 30
0.0
 10
216.4884834570953
 20
155.8459515901249
 30
0.0
  0
ENDBLK
  5
171
330
16E
100
AcDbEntity
  8
0
100
AcDbBlockEnd
  0
BLOCK
  5
175
330
173
100
AcDbEntity
  8
0
100
AcDbBlockBegin
  2
block 45
 70
     0
 10
0.0
 20
0.0
 30
0.0
  3
block 45
  1

  0
SPLINE
  5
177
330
173
100
AcDbEntity
  8
AM_0
 62
     3
420
    65280
370
    40
100
AcDbSpline
210
0.0
220
0.0
230
1.0
 70
     8
 71
     3
 72
     8
 73
     4
 74
     0
 42
0.0000000001
 43
0.0000000001
 12
1.0
 22
0.0
 32
0.0
 13
1.0
 23
0.0
 33
0.0
 40
0.0
 40
0.0
 40
0.0
 40
0.0
 40
1.0
 40
1.0
 40
1.0
 40
1.0
 10
216.4884834570953
 20
155.8459515901249
 30
0.0
 10
216.7148791790866
 20
156.0359551795157
 30
0.0
 10
216.8456263142402
 20
156.3163765435604
 30
0.0
 10
216.8456263142402
 20
156.6119376826083
 30
0.0
  0
ENDBLK
  5
176
330
173
100
AcDbEntity
  8
0
100
AcDbBlockEnd
  0
BLOCK
  5
17A
330
178
100
AcDbEntity
  8
0
100
AcDbBlockBegin
  2
block 46
 70
     0
 10
0.0
 20
0.0
 30
0.0
  3
block 46
  1

  0
POLYLINE
  5
17C
330
178
100
AcDbEntity
  8
AM_0
 62
     3
420
    65280
370
    40
100
AcDb2dPolyline
 66
     1
 10
0.0
 20
0.0
 30
0.0
  0
VERTEX
  5
17D
330
17C
100
AcDbEntity
  8
AM_0
 62
     3
420
    65280
370
    40
100
AcDbVertex
100
AcDb2dVertex
 10
154.9956263141802
 20
184.9624960235143
 30
0.0
  0
VERTEX
  5
17E
330
17C
100
AcDbEntity
  8
AM_0
 62
     3
420
    65280
370
    40
100
AcDbVertex
100
AcDb2dVertex
 10
154.4956263141727
 20
184.9624960235143
 30
0.0
  0
SEQEND
  5
17F
330
17C
100
AcDbEntity
  8
AM_0
 62
     3
420
    65280
370
    40
  0
ENDBLK
  5
17B
330
178
100
AcDbEntity
  8
0
100
AcDbBlockEnd
  0
BLOCK
  5
182
330
180
100
AcDbEntity
  8
0
100
AcDbBlockBegin
  2
block 47
 70
     0
 10
0.0
 20
0.0
 30
0.0
  3
block 47
  1

  0
POLYLINE
  5
184
330
180
100
AcDbEntity
  8
AM_0
 62
     3
420
    65280
370
    40
100
AcDb2dPolyline
 66
     1
 10
0.0
 20
0.0
 30
0.0
  0
VERTEX
  5
185
330
184
100
AcDbEntity
  8
AM_0
 62
     3
420
    65280
370
    40
100
AcDbVertex
100
AcDb2dVertex
 10
154.9956263141802
 20
154.9624960235106
 30
0.0
  0
VERTEX
  5
186
330
184
100
AcDbEntity
  8
AM_0
 62
     3
420
    65280
370
    40
100
AcDbVertex
100
AcDb2dVertex
 10
154.4956263141766
 20
154.9624960235126
 30
0.0
  0
SEQEND
  5
187
330
184
100
AcDbEntity
  8
AM_0
 62
     3
420
    65280
370
    40
  0
ENDBLK
  5
183
330
180
100
AcDbEntity
  8
0
100
AcDbBlockEnd
  0
BLOCK
  5
18A
330
188
100
AcDbEntity
  8
0
100
AcDbBlockBegin
  2
block 48
 70
     0
 10
0.0
 20
0.0
 30
0.0
  3
block 48
  1

  0
POLYLINE
  5
18C
330
188
100
AcDbEntity
  8
AM_0
 62
     3
420
    65280
370
    40
100
AcDb2dPolyline
 66
     1
 10
0.0
 20
0.0
 30
0.0
  0
VERTEX
  5
18D
330
18C
100
AcDbEntity
  8
AM_0
 62
     3
420
    65280
370
    40
100
AcDbVertex
100
AcDb2dVertex
 10
154.4956263141638
 20
184.9624960235236
 30
0.0
  0
VERTEX
  5
18E
330
18C
100
AcDbEntity
  8
AM_0
 62
     3
420
    65280
370
    40
100
AcDbVertex
100
AcDb2dVertex
 10
153.4956263141637
 20
185.9624960235233
 30
0.0
  0
SEQEND
  5
18F
330
18C
100
AcDbEntity
  8
AM_0
 62
     3
420
    65280
370
    40
  0
ENDBLK
  5
18B
330
188
100
AcDbEntity
  8
0
100
AcDbBlockEnd
  0
BLOCK
  5
192
330
190
100
AcDbEntity
  8
0
100
AcDbBlockBegin
  2
block 49
 70
     0
 10
0.0
 20
0.0
 30
0.0
  3
block 49
  1

  0
POLYLINE
  5
194
330
190
100
AcDbEntity
  8
AM_0
 62
     3
420
    65280
370
    40
100
AcDb2dPolyline
 66
     1
 10
0.0
 20
0.0
 30
0.0
  0
VERTEX
  5
195
330
194
100
AcDbEntity
  8
AM_0
 62
     3
420
    65280
370
    40
100
AcDbVertex
100
AcDb2dVertex
 10
154.4956263141798
 20
154.9624960235141
 30
0.0
  0
VERTEX
  5
196
330
194
100
AcDbEntity
  8
AM_0
 62
     3
420
    65280
370
    40
100
AcDbVertex
100
AcDb2dVertex
 10
153.4956263141798
 20
153.9624960235125
 30
0.0
  0
SEQEND
  5
197
330
194
100
AcDbEntity
  8
AM_0
 62
     3
420
    65280
370
    40
  0
ENDBLK
  5
193
330
190
100
AcDbEntity
  8
0
100
AcDbBlockEnd
  0
BLOCK
  5
19A
330
198
100
AcDbEntity
  8
0
100
AcDbBlockBegin
  2
block 50
 70
     0
 10
0.0
 20
0.0
 30
0.0
  3
block 50
  1

  0
POLYLINE
  5
19C
330
198
100
AcDbEntity
  8
AM_0
 62
     3
420
    65280
370
    40
100
AcDb2dPolyline
 66
     1
 10
0.0
 20
0.0
 30
0.0
  0
VERTEX
  5
19D
330
19C
100
AcDbEntity
  8
AM_0
 62
     3
420
    65280
370
    40
100
AcDbVertex
100
AcDb2dVertex
 10
154.4956263141727
 20
184.9624960235143
 30
0.0
  0
VERTEX
  5
19E
330
19C
100
AcDbEntity
  8
AM_0
 62
     3
420
    65280
370
    40
100
AcDbVertex
100
AcDb2dVertex
 10
154.4956263141798
 20
154.9624960235141
 30
0.0
  0
SEQEND
  5
19F
330
19C
100
AcDbEntity
  8
AM_0
 62
     3
420
    65280
370
    40
  0
ENDBLK
  5
19B
330
198
100
AcDbEntity
  8
0
100
AcDbBlockEnd
  0
BLOCK
  5
1A2
330
1A0
100
AcDbEntity
  8
0
100
AcDbBlockBegin
  2
block 51
 70
     0
 10
0.0
 20
0.0
 30
0.0
  3
block 51
  1

  0
SPLINE
  5
1A4
330
1A0
100
AcDbEntity
  8
AM_0
 62
     3
420
    65280
370
    40
100
AcDbSpline
210
0.0
220
0.0
230
1.0
 70
     8
 71
     3
 72
     8
 73
     4
 74
     0
 42
0.0000000001
 43
0.0000000001
 12
1.0
 22
0.0
 32
0.0
 13
1.0
 23
0.0
 33
0.0
 40
0.0
 40
0.0
 40
0.0
 40
0.0
 40
1.0
 40
1.0
 40
1.0
 40
1.0
 10
148.495626314238
 20
188.9624960235234
 30
0.0
 10
148.495626314238
 20
187.3056417740308
 30
0.0
 10
149.8387720647465
 20
185.9624960235233
 30
0.0
 10
151.4956263142381
 20
185.9624960235233
 30
0.0
  0
ENDBLK
  5
1A3
330
1A0
100
AcDbEntity
  8
0
100
AcDbBlockEnd
  0
BLOCK
  5
1A7
330
1A5
100
AcDbEntity
  8
0
100
AcDbBlockBegin
  2
block 52
 70
     0
 10
0.0
 20
0.0
 30
0.0
  3
block 52
  1

  0
POLYLINE
  5
1A9
330
1A5
100
AcDbEntity
  8
AM_0
 62
     3
420
    65280
370
    40
100
AcDb2dPolyline
 66
     1
 10
0.0
 20
0.0
 30
0.0
  0
VERTEX
  5
1AA
330
1A9
100
AcDbEntity
  8
AM_0
 62
     3
420
    65280
370
    40
100
AcDbVertex
100
AcDb2dVertex
 10
153.495626314242
 20
185.9624960235223
 30
0.0
  0
VERTEX
  5
1AB
330
1A9
100
AcDbEntity
  8
AM_0
 62
     3
420
    65280
370
    40
100
AcDbVertex
100
AcDb2dVertex
 10
151.4956263142381
 20
185.9624960235233
 30
0.0
  0
SEQEND
  5
1AC
330
1A9
100
AcDbEntity
  8
AM_0
 62
     3
420
    65280
370
    40
  0
ENDBLK
  5
1A8
330
1A5
100
AcDbEntity
  8
0
100
AcDbBlockEnd
  0
BLOCK
  5
1AF
330
1AD
100
AcDbEntity
  8
0
100
AcDbBlockBegin
  2
block 53
 70
     0
 10
0.0
 20
0.0
 30
0.0
  3
block 53
  1

  0
SPLINE
  5
1B1
330
1AD
100
AcDbEntity
  8
AM_0
 62
     3
420
    65280
370
    40
100
AcDbSpline
210
0.0
220
0.0
230
1.0
 70
     8
 71
     3
 72
     8
 73
     4
 74
     0
 42
0.0000000001
 43
0.0000000001
 12
1.0
 22
0.0
 32
0.0
 13
1.0
 23
0.0
 33
0.0
 40
0.0
 40
0.0
 40
0.0
 40
0.0
 40
1.0
 40
1.0
 40
1.0
 40
1.0
 10
151.4956263142381
 20
153.9624960235359
 30
0.0
 10
149.8387720647465
 20
153.9624960235359
 30
0.0
 10
148.495626314238
 20
152.6193502730277
 30
0.0
 10
148.495626314238
 20
150.9624960235361
 30
0.0
  0
ENDBLK
  5
1B0
330
1AD
100
AcDbEntity
  8
0
100
AcDbBlockEnd
  0
BLOCK
  5
1B4
330
1B2
100
AcDbEntity
  8
0
100
AcDbBlockBegin
  2
block 54
 70
     0
 10
0.0
 20
0.0
 30
0.0
  3
block 54
  1

  0
POLYLINE
  5
1B6
330
1B2
100
AcDbEntity
  8
AM_0
 62
     3
420
    65280
370
    40
100
AcDb2dPolyline
 66
     1
 10
0.0
 20
0.0
 30
0.0
  0
VERTEX
  5
1B7
330
1B6
100
AcDbEntity
  8
AM_0
 62
     3
420
    65280
370
    40
100
AcDbVertex
100
AcDb2dVertex
 10
153.4956263142452
 20
153.9624960235379
 30
0.0
  0
VERTEX
  5
1B8
330
1B6
100
AcDbEntity
  8
AM_0
 62
     3
420
    65280
370
    40
100
AcDbVertex
100
AcDb2dVertex
 10
151.4956263142381
 20
153.9624960235363
 30
0.0
  0
SEQEND
  5
1B9
330
1B6
100
AcDbEntity
  8
AM_0
 62
     3
420
    65280
370
    40
  0
ENDBLK
  5
1B5
330
1B2
100
AcDbEntity
  8
0
100
AcDbBlockEnd
  0
BLOCK
  5
1BC
330
1BA
100
AcDbEntity
  8
0
100
AcDbBlockBegin
  2
block 55
 70
     0
 10
0.0
 20
0.0
 30
0.0
  3
block 55
  1

  0
SPLINE
  5
1BE
330
1BA
100
AcDbEntity
  8
AM_0
 62
     3
420
    65280
370
    40
100
AcDbSpline
210
0.0
220
0.0
230
1.0
 70
     8
 71
     3
 72
     8
 73
     4
 74
     0
 42
0.0000000001
 43
0.0000000001
 12
1.0
 22
0.0
 32
0.0
 13
1.0
 23
0.0
 33
0.0
 40
0.0
 40
0.0
 40
0.0
 40
0.0
 40
1.0
 40
1.0
 40
1.0
 40
1.0
 10
148.4956263142457
 20
188.9624960235253
 30
0.0
 10
148.4956263142457
 20
187.3056417740328
 30
0.0
 10
149.8387720647523
 20
185.9624960235252
 30
0.0
 10
151.4956263142458
 20
185.9624960235242
 30
0.0
  0
ENDBLK
  5
1BD
330
1BA
100
AcDbEntity
  8
0
100
AcDbBlockEnd
  0
BLOCK
  5
1C1
330
1BF
100
AcDbEntity
  8
0
100
AcDbBlockBegin
  2
block 56
 70
     0
 10
0.0
 20
0.0
 30
0.0
  3
block 56
  1

  0
POLYLINE
  5
1C3
330
1BF
100
AcDbEntity
  8
AM_0
 62
     3
420
    65280
370
    40
100
AcDb2dPolyline
 66
     1
 10
0.0
 20
0.0
 30
0.0
  0
VERTEX
  5
1C4
330
1C3
100
AcDbEntity
  8
AM_0
 62
     3
420
    65280
370
    40
100
AcDbVertex
100
AcDb2dVertex
 10
153.4956263141637
 20
185.9624960235233
 30
0.0
  0
VERTEX
  5
1C5
330
1C3
100
AcDbEntity
  8
AM_0
 62
     3
420
    65280
370
    40
100
AcDbVertex
100
AcDb2dVertex
 10
153.4956263142452
 20
153.9624960235379
 30
0.0
  0
SEQEND
  5
1C6
330
1C3
100
AcDbEntity
  8
AM_0
 62
     3
420
    65280
370
    40
  0
ENDBLK
  5
1C2
330
1BF
100
AcDbEntity
  8
0
100
AcDbBlockEnd
  0
BLOCK
  5
1C9
330
1C7
100
AcDbEntity
  8
0
100
AcDbBlockBegin
  2
block 57
 70
     0
 10
0.0
 20
0.0
 30
0.0
  3
block 57
  1

  0
POLYLINE
  5
1CB
330
1C7
100
AcDbEntity
  8
AM_0
 62
     3
420
    65280
370
    40
100
AcDb2dPolyline
 66
     1
 10
0.0
 20
0.0
 30
0.0
  0
VERTEX
  5
1CC
330
1CB
100
AcDbEntity
  8
AM_0
 62
     3
420
    65280
370
    40
100
AcDbVertex
100
AcDb2dVertex
 10
196.6456263141888
 20
154.9624960235161
 30
0.0
  0
VERTEX
  5
1CD
330
1CB
100
AcDbEntity
  8
AM_0
 62
     3
420
    65280
370
    40
100
AcDbVertex
100
AcDb2dVertex
 10
196.645626314185
 20
184.9624960235133
 30
0.0
  0
SEQEND
  5
1CE
330
1CB
100
AcDbEntity
  8
AM_0
 62
     3
420
    65280
370
    40
  0
ENDBLK
  5
1CA
330
1C7
100
AcDbEntity
  8
0
100
AcDbBlockEnd
  0
BLOCK
  5
1D1
330
1CF
100
AcDbEntity
  8
0
100
AcDbBlockBegin
  2
block 58
 70
     0
 10
0.0
 20
0.0
 30
0.0
  3
block 58
  1

  0
SPLINE
  5
1D3
330
1CF
100
AcDbEntity
  8
AM_0
 62
     3
420
    65280
370
    40
100
AcDbSpline
210
0.0
220
0.0
230
1.0
 70
     8
 71
     3
 72
     8
 73
     4
 74
     0
 42
0.0000000001
 43
0.0000000001
 12
1.0
 22
0.0
 32
0.0
 13
1.0
 23
0.0
 33
0.0
 40
0.0
 40
0.0
 40
0.0
 40
0.0
 40
1.0
 40
1.0
 40
1.0
 40
1.0
 10
195.6456263141888
 20
153.9624960235161
 30
0.0
 10
196.1979110640172
 20
153.9624960235161
 30
0.0
 10
196.6456263141888
 20
154.4102112736874
 30
0.0
 10
196.6456263141888
 20
154.9624960235161
 30
0.0
  0
ENDBLK
  5
1D2
330
1CF
100
AcDbEntity
  8
0
100
AcDbBlockEnd
  0
BLOCK
  5
1D6
330
1D4
100
AcDbEntity
  8
0
100
AcDbBlockBegin
  2
block 59
 70
     0
 10
0.0
 20
0.0
 30
0.0
  3
block 59
  1

  0
POLYLINE
  5
1D8
330
1D4
100
AcDbEntity
  8
AM_0
 62
     3
420
    65280
370
    40
100
AcDb2dPolyline
 66
     1
 10
0.0
 20
0.0
 30
0.0
  0
VERTEX
  5
1D9
330
1D8
100
AcDbEntity
  8
AM_0
 62
     3
420
    65280
370
    40
100
AcDbVertex
100
AcDb2dVertex
 10
155.2956263141792
 20
185.9624960235133
 30
0.0
  0
VERTEX
  5
1DA
330
1D8
100
AcDbEntity
  8
AM_0
 62
     3
420
    65280
370
    40
100
AcDbVertex
100
AcDb2dVertex
 10
195.6456263141849
 20
185.9624960235133
 30
0.0
  0
SEQEND
  5
1DB
330
1D8
100
AcDbEntity
  8
AM_0
 62
     3
420
    65280
370
    40
  0
ENDBLK
  5
1D7
330
1D4
100
AcDbEntity
  8
0
100
AcDbBlockEnd
  0
BLOCK
  5
1DE
330
1DC
100
AcDbEntity
  8
0
100
AcDbBlockBegin
  2
block 60
 70
     0
 10
0.0
 20
0.0
 30
0.0
  3
block 60
  1

  0
SPLINE
  5
1E0
330
1DC
100
AcDbEntity
  8
AM_0
 62
     3
420
    65280
370
    40
100
AcDbSpline
210
0.0
220
0.0
230
1.0
 70
     8
 71
     3
 72
     8
 73
     4
 74
     0
 42
0.0000000001
 43
0.0000000001
 12
1.0
 22
0.0
 32
0.0
 13
1.0
 23
0.0
 33
0.0
 40
0.0
 40
0.0
 40
0.0
 40
0.0
 40
1.0
 40
1.0
 40
1.0
 40
1.0
 10
196.645626314185
 20
184.9624960235133
 30
0.0
 10
196.645626314185
 20
185.5147807733449
 30
0.0
 10
196.197911064014
 20
185.9624960235133
 30
0.0
 10
195.6456263141849
 20
185.9624960235133
 30
0.0
  0
ENDBLK
  5
1DF
330
1DC
100
AcDbEntity
  8
0
100
AcDbBlockEnd
  0
BLOCK
  5
1E3
330
1E1
100
AcDbEntity
  8
0
100
AcDbBlockBegin
  2
block 61
 70
     0
 10
0.0
 20
0.0
 30
0.0
  3
block 61
  1

  0
POLYLINE
  5
1E5
330
1E1
100
AcDbEntity
  8
AM_0
 62
     3
420
    65280
370
    40
100
AcDb2dPolyline
 66
     1
 10
0.0
 20
0.0
 30
0.0
  0
VERTEX
  5
1E6
330
1E5
100
AcDbEntity
  8
AM_0
 62
     3
420
    65280
370
    40
100
AcDbVertex
100
AcDb2dVertex
 10
155.295626314185
 20
153.9624960235125
 30
0.0
  0
VERTEX
  5
1E7
330
1E5
100
AcDbEntity
  8
AM_0
 62
     3
420
    65280
370
    40
100
AcDbVertex
100
AcDb2dVertex
 10
195.6456263141888
 20
153.9624960235161
 30
0.0
  0
SEQEND
  5
1E8
330
1E5
100
AcDbEntity
  8
AM_0
 62
     3
420
    65280
370
    40
  0
ENDBLK
  5
1E4
330
1E1
100
AcDbEntity
  8
0
100
AcDbBlockEnd
  0
BLOCK
  5
1EB
330
1E9
100
AcDbEntity
  8
0
100
AcDbBlockBegin
  2
block 62
 70
     0
 10
0.0
 20
0.0
 30
0.0
  3
block 62
  1

  0
POLYLINE
  5
1ED
330
1E9
100
AcDbEntity
  8
AM_0
 62
     3
420
    65280
370
    40
100
AcDb2dPolyline
 66
     1
 10
0.0
 20
0.0
 30
0.0
  0
VERTEX
  5
1EE
330
1ED
100
AcDbEntity
  8
AM_0
 62
     3
420
    65280
370
    40
100
AcDbVertex
100
AcDb2dVertex
 10
154.9956263141802
 20
185.6624960235143
 30
0.0
  0
VERTEX
  5
1EF
330
1ED
100
AcDbEntity
  8
AM_0
 62
     3
420
    65280
370
    40
100
AcDbVertex
100
AcDb2dVertex
 10
155.2956263141792
 20
185.9624960235143
 30
0.0
  0
SEQEND
  5
1F0
330
1ED
100
AcDbEntity
  8
AM_0
 62
     3
420
    65280
370
    40
  0
ENDBLK
  5
1EC
330
1E9
100
AcDbEntity
  8
0
100
AcDbBlockEnd
  0
BLOCK
  5
1F3
330
1F1
100
AcDbEntity
  8
0
100
AcDbBlockBegin
  2
block 63
 70
     0
 10
0.0
 20
0.0
 30
0.0
  3
block 63
  1

  0
POLYLINE
  5
1F5
330
1F1
100
AcDbEntity
  8
AM_0
 62
     3
420
    65280
370
    40
100
AcDb2dPolyline
 66
     1
 10
0.0
 20
0.0
 30
0.0
  0
VERTEX
  5
1F6
330
1F5
100
AcDbEntity
  8
AM_0
 62
     3
420
    65280
370
    40
100
AcDbVertex
100
AcDb2dVertex
 10
154.9956263141802
 20
185.6624960235143
 30
0.0
  0
VERTEX
  5
1F7
330
1F5
100
AcDbEntity
  8
AM_0
 62
     3
420
    65280
370
    40
100
AcDbVertex
100
AcDb2dVertex
 10
154.9956263141802
 20
154.2624960235119
 30
0.0
  0
SEQEND
  5
1F8
330
1F5
100
AcDbEntity
  8
AM_0
 62
     3
420
    65280
370
    40
  0
ENDBLK
  5
1F4
330
1F1
100
AcDbEntity
  8
0
100
AcDbBlockEnd
  0
BLOCK
  5
1FB
330
1F9
100
AcDbEntity
  8
0
100
AcDbBlockBegin
  2
block 64
 70
     0
 10
0.0
 20
0.0
 30
0.0
  3
block 64
  1

  0
POLYLINE
  5
1FD
330
1F9
100
AcDbEntity
  8
AM_0
 62
     3
420
    65280
370
    40
100
AcDb2dPolyline
 66
     1
 10
0.0
 20
0.0
 30
0.0
  0
VERTEX
  5
1FE
330
1FD
100
AcDbEntity
  8
AM_0
 62
     3
420
    65280
370
    40
100
AcDbVertex
100
AcDb2dVertex
 10
154.9956263141802
 20
154.2624960235119
 30
0.0
  0
VERTEX
  5
1FF
330
1FD
100
AcDbEntity
  8
AM_0
 62
     3
420
    65280
370
    40
100
AcDbVertex
100
AcDb2dVertex
 10
155.2956263141792
 20
153.9624960235125
 30
0.0
  0
SEQEND
  5
200
330
1FD
100
AcDbEntity
  8
AM_0
 62
     3
420
    65280
370
    40
  0
ENDBLK
  5
1FC
330
1F9
100
AcDbEntity
  8
0
100
AcDbBlockEnd
  0
BLOCK
  5
203
330
201
100
AcDbEntity
  8
0
100
AcDbBlockBegin
  2
block 65
 70
     0
 10
0.0
 20
0.0
 30
0.0
  3
block 65
  1

  0
POLYLINE
  5
205
330
201
100
AcDbEntity
  8
AM_0
 62
     3
420
    65280
370
    40
100
AcDb2dPolyline
 66
     1
 10
0.0
 20
0.0
 30
0.0
  0
VERTEX
  5
206
330
205
100
AcDbEntity
  8
AM_0
 62
     3
420
    65280
370
    40
100
AcDbVertex
100
AcDb2dVertex
 10
199.6456263142396
 20
180.9624960235144
 30
0.0
  0
VERTEX
  5
207
330
205
100
AcDbEntity
  8
AM_0
 62
     3
420
    65280
370
    40
100
AcDbVertex
100
AcDb2dVertex
 10
196.6456263142613
 20
180.9624960235135
 30
0.0
  0
SEQEND
  5
208
330
205
100
AcDbEntity
  8
AM_0
 62
     3
420
    65280
370
    40
  0
ENDBLK
  5
204
330
201
100
AcDbEntity
  8
0
100
AcDbBlockEnd
  0
BLOCK
  5
20B
330
209
100
AcDbEntity
  8
0
100
AcDbBlockBegin
  2
block 66
 70
     0
 10
0.0
 20
0.0
 30
0.0
  3
block 66
  1

  0
POLYLINE
  5
20D
330
209
100
AcDbEntity
  8
AM_0
 62
     3
420
    65280
370
    40
100
AcDb2dPolyline
 66
     1
 10
0.0
 20
0.0
 30
0.0
  0
VERTEX
  5
20E
330
20D
100
AcDbEntity
  8
AM_0
 62
     3
420
    65280
370
    40
100
AcDbVertex
100
AcDb2dVertex
 10
199.6456263142396
 20
158.9624960235197
 30
0.0
  0
VERTEX
  5
20F
330
20D
100
AcDbEntity
  8
AM_0
 62
     3
420
    65280
370
    40
100
AcDbVertex
100
AcDb2dVertex
 10
196.6456263142613
 20
158.9624960235217
 30
0.0
  0
SEQEND
  5
210
330
20D
100
AcDbEntity
  8
AM_0
 62
     3
420
    65280
370
    40
  0
ENDBLK
  5
20C
330
209
100
AcDbEntity
  8
0
100
AcDbBlockEnd
  0
BLOCK
  5
214
330
212
100
AcDbEntity
  8
0
100
AcDbBlockBegin
  2
block 67
 70
     0
 10
0.0
 20
0.0
 30
0.0
  3
block 67
  1

  0
MTEXT
  5
216
330
212
100
AcDbEntity
  8
AM_6
 62
     7
420
 16777215
100
AcDbMText
 10
-29.87579806958455
 20
99.295812454831
 30
0.0
 40
3.999999674242106
 41
0.0
 46
0.0
 71
     7
 72
     1
  1
\fromans.shx|b0|i0|c0|p34;\W0.8;SYNCHRO MASTER
 73
     1
 44
1.0
  0
ENDBLK
  5
215
330
212
100
AcDbEntity
  8
0
100
AcDbBlockEnd
  0
BLOCK
  5
219
330
217
100
AcDbEntity
  8
0
100
AcDbBlockBegin
  2
block 68
 70
     0
 10
0.0
 20
0.0
 30
0.0
  3
block 68
  1

  0
MTEXT
  5
21B
330
217
100
AcDbEntity
  8
AM_6
 62
     7
420
 16777215
100
AcDbMText
 10
-30.33292725122618
 20
92.62918664947726
 30
0.0
 40
3.999999674242106
 41
0.0
 46
0.0
 71
     7
 72
     1
  1
\fromans.shx|b0|i0|c0|p34;\W0.8;BT30-SMH16-90
 73
     1
 44
1.0
  0
ENDBLK
  5
21A
330
217
100
AcDbEntity
  8
0
100
AcDbBlockEnd
  0
BLOCK
  5
21E
330
21C
100
AcDbEntity
  8
0
100
AcDbBlockBegin
  2
block 69
 70
     0
 10
0.0
 20
0.0
 30
0.0
  3
block 69
  1

  0
POLYLINE
  5
220
330
21C
100
AcDbEntity
  8
AM_6
 62
     7
420
 16777215
370
    18
100
AcDb2dPolyline
 66
     1
 10
0.0
 20
0.0
 30
0.0
  0
VERTEX
  5
221
330
220
100
AcDbEntity
  8
AM_6
 62
     7
420
 16777215
370
    18
100
AcDbVertex
100
AcDb2dVertex
 10
216.8456263142402
 20
155.6119376826082
 30
0.0
  0
VERTEX
  5
222
330
220
100
AcDbEntity
  8
AM_6
 62
     7
420
 16777215
370
    18
100
AcDbVertex
100
AcDb2dVertex
 10
216.8456263142402
 20
122.9624950135147
 30
0.0
  0
SEQEND
  5
223
330
220
100
AcDbEntity
  8
AM_6
 62
     7
420
 16777215
370
    18
  0
ENDBLK
  5
21F
330
21C
100
AcDbEntity
  8
0
100
AcDbBlockEnd
  0
BLOCK
  5
226
330
224
100
AcDbEntity
  8
0
100
AcDbBlockBegin
  2
block 70
 70
     0
 10
0.0
 20
0.0
 30
0.0
  3
block 70
  1

  0
POLYLINE
  5
228
330
224
100
AcDbEntity
  8
AM_6
 62
     7
420
 16777215
370
    18
100
AcDb2dPolyline
 66
     1
 10
0.0
 20
0.0
 30
0.0
  0
VERTEX
  5
229
330
228
100
AcDbEntity
  8
AM_6
 62
     7
420
 16777215
370
    18
100
AcDbVertex
100
AcDb2dVertex
 10
126.4956263142391
 20
153.0874960235161
 30
0.0
  0
VERTEX
  5
22A
330
228
100
AcDbEntity
  8
AM_6
 62
     7
420
 16777215
370
    18
100
AcDbVertex
100
AcDb2dVertex
 10
126.4956263142391
 20
122.9624950135147
 30
0.0
  0
SEQEND
  5
22B
330
228
100
AcDbEntity
  8
AM_6
 62
     7
420
 16777215
370
    18
  0
ENDBLK
  5
227
330
224
100
AcDbEntity
  8
0
100
AcDbBlockEnd
  0
BLOCK
  5
22E
330
22C
100
AcDbEntity
  8
0
100
AcDbBlockBegin
  2
block 71
 70
     0
 10
0.0
 20
0.0
 30
0.0
  3
block 71
  1

  0
POLYLINE
  5
230
330
22C
100
AcDbEntity
  8
AM_6
 62
     7
420
 16777215
370
    18
100
AcDb2dPolyline
 66
     1
 10
0.0
 20
0.0
 30
0.0
  0
VERTEX
  5
231
330
230
100
AcDbEntity
  8
AM_6
 62
     7
420
 16777215
370
    18
100
AcDbVertex
100
AcDb2dVertex
 10
213.8456263142408
 20
124.9624950135147
 30
0.0
  0
VERTEX
  5
232
330
230
100
AcDbEntity
  8
AM_6
 62
     7
420
 16777215
370
    18
100
AcDbVertex
100
AcDb2dVertex
 10
129.4956263142392
 20
124.9624950135147
 30
0.0
  0
SEQEND
  5
233
330
230
100
AcDbEntity
  8
AM_6
 62
     7
420
 16777215
370
    18
  0
ENDBLK
  5
22F
330
22C
100
AcDbEntity
  8
0
100
AcDbBlockEnd
  0
BLOCK
  5
236
330
234
100
AcDbEntity
  8
0
100
AcDbBlockBegin
  2
block 72
 70
     0
 10
0.0
 20
0.0
 30
0.0
  3
block 72
  1

  0
MTEXT
  5
238
330
234
100
AcDbEntity
  8
AM_6
 62
     7
420
 16777215
100
AcDbMText
 10
163.8992226932646
 20
125.7624786062547
 30
0.0
 40
3.999999674242106
 41
0.0
 46
0.0
 71
     7
 72
     1
  1
\fromans.shx|b0|i0|c0|p34;\W0.8;90.35
 73
     1
 44
1.0
  0
ENDBLK
  5
237
330
234
100
AcDbEntity
  8
0
100
AcDbBlockEnd
  0
BLOCK
  5
23B
330
239
100
AcDbEntity
  8
0
100
AcDbBlockBegin
  2
block 73
 70
     0
 10
0.0
 20
0.0
 30
0.0
  3
block 73
  1

  0
POLYLINE
  5
23D
330
239
100
AcDbEntity
  8
AM_6
 62
     7
420
 16777215
370
    18
100
AcDb2dPolyline
 66
     1
 10
0.0
 20
0.0
 30
0.0
  0
VERTEX
  5
23E
330
23D
100
AcDbEntity
  8
AM_6
 62
     7
420
 16777215
370
    18
100
AcDbVertex
100
AcDb2dVertex
 10
148.495626314238
 20
146.9624960235165
 30
0.0
  0
VERTEX
  5
23F
330
23D
100
AcDbEntity
  8
AM_6
 62
     7
420
 16777215
370
    18
100
AcDbVertex
100
AcDb2dVertex
 10
148.495626314238
 20
132.962495013515
 30
0.0
  0
SEQEND
  5
240
330
23D
100
AcDbEntity
  8
AM_6
 62
     7
420
 16777215
370
    18
  0
ENDBLK
  5
23C
330
239
100
AcDbEntity
  8
0
100
AcDbBlockEnd
  0
BLOCK
  5
243
330
241
100
AcDbEntity
  8
0
100
AcDbBlockBegin
  2
block 74
 70
     0
 10
0.0
 20
0.0
 30
0.0
  3
block 74
  1

  0
POLYLINE
  5
245
330
241
100
AcDbEntity
  8
AM_6
 62
     7
420
 16777215
370
    18
100
AcDb2dPolyline
 66
     1
 10
0.0
 20
0.0
 30
0.0
  0
VERTEX
  5
246
330
245
100
AcDbEntity
  8
AM_6
 62
     7
420
 16777215
370
    18
100
AcDbVertex
100
AcDb2dVertex
 10
216.8456263142402
 20
155.6119376826082
 30
0.0
  0
VERTEX
  5
247
330
245
100
AcDbEntity
  8
AM_6
 62
     7
420
 16777215
370
    18
100
AcDbVertex
100
AcDb2dVertex
 10
216.8456263142402
 20
132.962495013515
 30
0.0
  0
SEQEND
  5
248
330
245
100
AcDbEntity
  8
AM_6
 62
     7
420
 16777215
370
    18
  0
ENDBLK
  5
244
330
241
100
AcDbEntity
  8
0
100
AcDbBlockEnd
  0
BLOCK
  5
24B
330
249
100
AcDbEntity
  8
0
100
AcDbBlockBegin
  2
block 75
 70
     0
 10
0.0
 20
0.0
 30
0.0
  3
block 75
  1

  0
POLYLINE
  5
24D
330
249
100
AcDbEntity
  8
AM_6
 62
     7
420
 16777215
370
    18
100
AcDb2dPolyline
 66
     1
 10
0.0
 20
0.0
 30
0.0
  0
VERTEX
  5
24E
330
24D
100
AcDbEntity
  8
AM_6
 62
     7
420
 16777215
370
    18
100
AcDbVertex
100
AcDb2dVertex
 10
151.4956263142381
 20
134.9624950135151
 30
0.0
  0
VERTEX
  5
24F
330
24D
100
AcDbEntity
  8
AM_6
 62
     7
420
 16777215
370
    18
100
AcDbVertex
100
AcDb2dVertex
 10
213.8456263142408
 20
134.9624950135151
 30
0.0
  0
SEQEND
  5
250
330
24D
100
AcDbEntity
  8
AM_6
 62
     7
420
 16777215
370
    18
  0
ENDBLK
  5
24C
330
249
100
AcDbEntity
  8
0
100
AcDbBlockEnd
  0
BLOCK
  5
253
330
251
100
AcDbEntity
  8
0
100
AcDbBlockBegin
  2
block 76
 70
     0
 10
0.0
 20
0.0
 30
0.0
  3
block 76
  1

  0
MTEXT
  5
255
330
251
100
AcDbEntity
  8
AM_6
 62
     7
420
 16777215
100
AcDbMText
 10
174.518201996301
 20
135.7624819098257
 30
0.0
 40
3.999999674242106
 41
0.0
 46
0.0
 71
     7
 72
     1
  1
\fromans.shx|b0|i0|c0|p34;\W0.8;68.35
 73
     1
 44
1.0
  0
ENDBLK
  5
254
330
251
100
AcDbEntity
  8
0
100
AcDbBlockEnd
  0
BLOCK
  5
258
330
256
100
AcDbEntity
  8
0
100
AcDbBlockBegin
  2
block 77
 70
     0
 10
0.0
 20
0.0
 30
0.0
  3
block 77
  1

  0
POLYLINE
  5
25A
330
256
100
AcDbEntity
  8
AM_6
 62
     7
420
 16777215
370
    18
100
AcDb2dPolyline
 66
     1
 10
0.0
 20
0.0
 30
0.0
  0
VERTEX
  5
25B
330
25A
100
AcDbEntity
  8
AM_6
 62
     7
420
 16777215
370
    18
100
AcDbVertex
100
AcDb2dVertex
 10
212.3456263142404
 20
185.9738403299908
 30
0.0
  0
VERTEX
  5
25C
330
25A
100
AcDbEntity
  8
AM_6
 62
     7
420
 16777215
370
    18
100
AcDbVertex
100
AcDb2dVertex
 10
238.4956263142386
 20
185.9738403299908
 30
0.0
  0
SEQEND
  5
25D
330
25A
100
AcDbEntity
  8
AM_6
 62
     7
420
 16777215
370
    18
  0
ENDBLK
  5
259
330
256
100
AcDbEntity
  8
0
100
AcDbBlockEnd
  0
BLOCK
  5
260
330
25E
100
AcDbEntity
  8
0
100
AcDbBlockBegin
  2
block 78
 70
     0
 10
0.0
 20
0.0
 30
0.0
  3
block 78
  1

  0
POLYLINE
  5
262
330
25E
100
AcDbEntity
  8
AM_6
 62
     7
420
 16777215
370
    18
100
AcDb2dPolyline
 66
     1
 10
0.0
 20
0.0
 30
0.0
  0
VERTEX
  5
263
330
262
100
AcDbEntity
  8
AM_6
 62
     7
420
 16777215
370
    18
100
AcDbVertex
100
AcDb2dVertex
 10
212.3456263142404
 20
153.973840329991
 30
0.0
  0
VERTEX
  5
264
330
262
100
AcDbEntity
  8
AM_6
 62
     7
420
 16777215
370
    18
100
AcDbVertex
100
AcDb2dVertex
 10
238.4956263142386
 20
153.973840329991
 30
0.0
  0
SEQEND
  5
265
330
262
100
AcDbEntity
  8
AM_6
 62
     7
420
 16777215
370
    18
  0
ENDBLK
  5
261
330
25E
100
AcDbEntity
  8
0
100
AcDbBlockEnd
  0
BLOCK
  5
268
330
266
100
AcDbEntity
  8
0
100
AcDbBlockBegin
  2
block 79
 70
     0
 10
0.0
 20
0.0
 30
0.0
  3
block 79
  1

  0
POLYLINE
  5
26A
330
266
100
AcDbEntity
  8
AM_6
 62
     7
420
 16777215
370
    18
100
AcDb2dPolyline
 66
     1
 10
0.0
 20
0.0
 30
0.0
  0
VERTEX
  5
26B
330
26A
100
AcDbEntity
  8
AM_6
 62
     7
420
 16777215
370
    18
100
AcDbVertex
100
AcDb2dVertex
 10
236.4956263142385
 20
182.9738403299907
 30
0.0
  0
VERTEX
  5
26C
330
26A
100
AcDbEntity
  8
AM_6
 62
     7
420
 16777215
370
    18
100
AcDbVertex
100
AcDb2dVertex
 10
236.4956263142385
 20
156.9738403299908
 30
0.0
  0
SEQEND
  5
26D
330
26A
100
AcDbEntity
  8
AM_6
 62
     7
420
 16777215
370
    18
  0
ENDBLK
  5
269
330
266
100
AcDbEntity
  8
0
100
AcDbBlockEnd
  0
BLOCK
  5
270
330
26E
100
AcDbEntity
  8
0
100
AcDbBlockBegin
  2
block 80
 70
     0
 10
0.0
 20
0.0
 30
0.0
  3
block 80
  1

  0
MTEXT
  5
272
330
26E
100
AcDbEntity
  8
AM_6
 62
     7
420
 16777215
100
AcDbMText
 10
235.6956666357172
 20
164.5639431012198
 30
0.0
 40
3.999999674242106
 41
0.0
 46
0.0
 71
     7
 72
     1
  1
\fromans.shx|b0|i0|c0|p34;\W0.8;Ă32
 11
6.123233995736766E-17
 21
1.0
 31
0.0
 73
     1
 44
1.0
  0
ENDBLK
  5
271
330
26E
100
AcDbEntity
  8
0
100
AcDbBlockEnd
  0
BLOCK
  5
275
330
273
100
AcDbEntity
  8
0
100
AcDbBlockBegin
  2
block 81
 70
     0
 10
0.0
 20
0.0
 30
0.0
  3
block 81
  1

  0
POLYLINE
  5
277
330
273
100
AcDbEntity
  8
AM_6
 62
     7
420
 16777215
370
    18
100
AcDb2dPolyline
 66
     1
 10
0.0
 20
0.0
 30
0.0
  0
VERTEX
  5
278
330
277
100
AcDbEntity
  8
AM_6
 62
     7
420
 16777215
370
    18
100
AcDbVertex
100
AcDb2dVertex
 10
77.99562631423903
 20
161.0252226985878
 30
0.0
  0
VERTEX
  5
279
330
277
100
AcDbEntity
  8
AM_6
 62
     7
420
 16777215
370
    18
100
AcDbVertex
100
AcDb2dVertex
 10
77.99562631423903
 20
122.9624950135147
 30
0.0
  0
SEQEND
  5
27A
330
277
100
AcDbEntity
  8
AM_6
 62
     7
420
 16777215
370
    18
  0
ENDBLK
  5
276
330
273
100
AcDbEntity
  8
0
100
AcDbBlockEnd
  0
BLOCK
  5
27D
330
27B
100
AcDbEntity
  8
0
100
AcDbBlockBegin
  2
block 82
 70
     0
 10
0.0
 20
0.0
 30
0.0
  3
block 82
  1

  0
POLYLINE
  5
27F
330
27B
100
AcDbEntity
  8
AM_6
 62
     7
420
 16777215
370
    18
100
AcDb2dPolyline
 66
     1
 10
0.0
 20
0.0
 30
0.0
  0
VERTEX
  5
280
330
27F
100
AcDbEntity
  8
AM_6
 62
     7
420
 16777215
370
    18
100
AcDbVertex
100
AcDb2dVertex
 10
126.4956263142391
 20
153.0874960235161
 30
0.0
  0
VERTEX
  5
281
330
27F
100
AcDbEntity
  8
AM_6
 62
     7
420
 16777215
370
    18
100
AcDbVertex
100
AcDb2dVertex
 10
126.4956263142391
 20
122.9624950135147
 30
0.0
  0
SEQEND
  5
282
330
27F
100
AcDbEntity
  8
AM_6
 62
     7
420
 16777215
370
    18
  0
ENDBLK
  5
27E
330
27B
100
AcDbEntity
  8
0
100
AcDbBlockEnd
  0
BLOCK
  5
285
330
283
100
AcDbEntity
  8
0
100
AcDbBlockBegin
  2
block 83
 70
     0
 10
0.0
 20
0.0
 30
0.0
  3
block 83
  1

  0
POLYLINE
  5
287
330
283
100
AcDbEntity
  8
AM_6
 62
     7
420
 16777215
370
    18
100
AcDb2dPolyline
 66
     1
 10
0.0
 20
0.0
 30
0.0
  0
VERTEX
  5
288
330
287
100
AcDbEntity
  8
AM_6
 62
     7
420
 16777215
370
    18
100
AcDbVertex
100
AcDb2dVertex
 10
80.99562631423913
 20
124.9624950135147
 30
0.0
  0
VERTEX
  5
289
330
287
100
AcDbEntity
  8
AM_6
 62
     7
420
 16777215
370
    18
100
AcDbVertex
100
AcDb2dVertex
 10
123.495626314239
 20
124.9624950135147
 30
0.0
  0
SEQEND
  5
28A
330
287
100
AcDbEntity
  8
AM_6
 62
     7
420
 16777215
370
    18
  0
ENDBLK
  5
286
330
283
100
AcDbEntity
  8
0
100
AcDbBlockEnd
  0
BLOCK
  5
28D
330
28B
100
AcDbEntity
  8
0
100
AcDbBlockBegin
  2
block 84
 70
     0
 10
0.0
 20
0.0
 30
0.0
  3
block 84
  1

  0
MTEXT
  5
28F
330
28B
100
AcDbEntity
  8
AM_6
 62
     7
420
 16777215
100
AcDbMText
 10
95.99804863119255
 20
125.7624786062547
 30
0.0
 40
3.999999674242106
 41
0.0
 46
0.0
 71
     7
 72
     1
  1
\fromans.shx|b0|i0|c0|p34;\W0.8;48.5
 73
     1
 44
1.0
  0
ENDBLK
  5
28E
330
28B
100
AcDbEntity
  8
0
100
AcDbBlockEnd
  0
BLOCK
  5
292
330
290
100
AcDbEntity
  8
0
100
AcDbBlockBegin
  2
block 85
 70
     0
 10
0.0
 20
0.0
 30
0.0
  3
block 85
  1

  0
POLYLINE
  5
294
330
290
100
AcDbEntity
  8
AM_6
 62
     7
420
 16777215
370
    18
100
AcDb2dPolyline
 66
     1
 10
0.0
 20
0.0
 30
0.0
  0
VERTEX
  5
295
330
294
100
AcDbEntity
  8
AM_6
 62
     7
420
 16777215
370
    18
100
AcDbVertex
100
AcDb2dVertex
 10
77.99562631423903
 20
161.0252226985878
 30
0.0
  0
VERTEX
  5
296
330
294
100
AcDbEntity
  8
AM_6
 62
     7
420
 16777215
370
    18
100
AcDbVertex
100
AcDb2dVertex
 10
77.99562631423903
 20
112.962495013515
 30
0.0
  0
SEQEND
  5
297
330
294
100
AcDbEntity
  8
AM_6
 62
     7
420
 16777215
370
    18
  0
ENDBLK
  5
293
330
290
100
AcDbEntity
  8
0
100
AcDbBlockEnd
  0
BLOCK
  5
29A
330
298
100
AcDbEntity
  8
0
100
AcDbBlockBegin
  2
block 86
 70
     0
 10
0.0
 20
0.0
 30
0.0
  3
block 86
  1

  0
POLYLINE
  5
29C
330
298
100
AcDbEntity
  8
AM_6
 62
     7
420
 16777215
370
    18
100
AcDb2dPolyline
 66
     1
 10
0.0
 20
0.0
 30
0.0
  0
VERTEX
  5
29D
330
29C
100
AcDbEntity
  8
AM_6
 62
     7
420
 16777215
370
    18
100
AcDbVertex
100
AcDb2dVertex
 10
216.8456263142402
 20
155.6119376826082
 30
0.0
  0
VERTEX
  5
29E
330
29C
100
AcDbEntity
  8
AM_6
 62
     7
420
 16777215
370
    18
100
AcDbVertex
100
AcDb2dVertex
 10
216.8456263142402
 20
112.962495013515
 30
0.0
  0
SEQEND
  5
29F
330
29C
100
AcDbEntity
  8
AM_6
 62
     7
420
 16777215
370
    18
  0
ENDBLK
  5
29B
330
298
100
AcDbEntity
  8
0
100
AcDbBlockEnd
  0
BLOCK
  5
2A2
330
2A0
100
AcDbEntity
  8
0
100
AcDbBlockBegin
  2
block 87
 70
     0
 10
0.0
 20
0.0
 30
0.0
  3
block 87
  1

  0
POLYLINE
  5
2A4
330
2A0
100
AcDbEntity
  8
AM_6
 62
     7
420
 16777215
370
    18
100
AcDb2dPolyline
 66
     1
 10
0.0
 20
0.0
 30
0.0
  0
VERTEX
  5
2A5
330
2A4
100
AcDbEntity
  8
AM_6
 62
     7
420
 16777215
370
    18
100
AcDbVertex
100
AcDb2dVertex
 10
80.99562631423913
 20
114.962495013515
 30
0.0
  0
VERTEX
  5
2A6
330
2A4
100
AcDbEntity
  8
AM_6
 62
     7
420
 16777215
370
    18
100
AcDbVertex
100
AcDb2dVertex
 10
213.8456263142408
 20
114.962495013515
 30
0.0
  0
SEQEND
  5
2A7
330
2A4
100
AcDbEntity
  8
AM_6
 62
     7
420
 16777215
370
    18
  0
ENDBLK
  5
2A3
330
2A0
100
AcDbEntity
  8
0
100
AcDbBlockEnd
  0
BLOCK
  5
2AA
330
2A8
100
AcDbEntity
  8
0
100
AcDbBlockBegin
  2
block 88
 70
     0
 10
0.0
 20
0.0
 30
0.0
  3
block 88
  1

  0
MTEXT
  5
2AC
330
2A8
100
AcDbEntity
  8
AM_6
 62
     7
420
 16777215
100
AcDbMText
 10
136.9825517100035
 20
115.7624860686071
 30
0.0
 40
3.999999674242106
 41
0.0
 46
0.0
 71
     7
 72
     1
  1
\fromans.shx|b0|i0|c0|p34;\W0.8;138.85
 73
     1
 44
1.0
  0
ENDBLK
  5
2AB
330
2A8
100
AcDbEntity
  8
0
100
AcDbBlockEnd
  0
BLOCK
  5
2AF
330
2AD
100
AcDbEntity
  8
0
100
AcDbBlockBegin
  2
block 89
 70
     0
 10
0.0
 20
0.0
 30
0.0
  3
block 89
  1

  0
POLYLINE
  5
2B1
330
2AD
100
AcDbEntity
  8
AM_6
 62
     7
420
 16777215
370
    18
100
AcDb2dPolyline
 66
     1
 10
0.0
 20
0.0
 30
0.0
  0
VERTEX
  5
2B2
330
2B1
100
AcDbEntity
  8
AM_6
 62
     7
420
 16777215
370
    18
100
AcDbVertex
100
AcDb2dVertex
 10
128.4956263142392
 20
192.9624960235161
 30
0.0
  0
VERTEX
  5
2B3
330
2B1
100
AcDbEntity
  8
AM_6
 62
     7
420
 16777215
370
    18
100
AcDbVertex
100
AcDb2dVertex
 10
64.49562631423919
 20
192.9624960235161
 30
0.0
  0
SEQEND
  5
2B4
330
2B1
100
AcDbEntity
  8
AM_6
 62
     7
420
 16777215
370
    18
  0
ENDBLK
  5
2B0
330
2AD
100
AcDbEntity
  8
0
100
AcDbBlockEnd
  0
BLOCK
  5
2B7
330
2B5
100
AcDbEntity
  8
0
100
AcDbBlockBegin
  2
block 90
 70
     0
 10
0.0
 20
0.0
 30
0.0
  3
block 90
  1

  0
POLYLINE
  5
2B9
330
2B5
100
AcDbEntity
  8
AM_6
 62
     7
420
 16777215
370
    18
100
AcDb2dPolyline
 66
     1
 10
0.0
 20
0.0
 30
0.0
  0
VERTEX
  5
2BA
330
2B9
100
AcDbEntity
  8
AM_6
 62
     7
420
 16777215
370
    18
100
AcDbVertex
100
AcDb2dVertex
 10
128.4956263142392
 20
146.9624960235165
 30
0.0
  0
VERTEX
  5
2BB
330
2B9
100
AcDbEntity
  8
AM_6
 62
     7
420
 16777215
370
    18
100
AcDbVertex
100
AcDb2dVertex
 10
64.49562631423919
 20
146.9624960235165
 30
0.0
  0
SEQEND
  5
2BC
330
2B9
100
AcDbEntity
  8
AM_6
 62
     7
420
 16777215
370
    18
  0
ENDBLK
  5
2B8
330
2B5
100
AcDbEntity
  8
0
100
AcDbBlockEnd
  0
BLOCK
  5
2BF
330
2BD
100
AcDbEntity
  8
0
100
AcDbBlockBegin
  2
block 91
 70
     0
 10
0.0
 20
0.0
 30
0.0
  3
block 91
  1

  0
POLYLINE
  5
2C1
330
2BD
100
AcDbEntity
  8
AM_6
 62
     7
420
 16777215
370
    18
100
AcDb2dPolyline
 66
     1
 10
0.0
 20
0.0
 30
0.0
  0
VERTEX
  5
2C2
330
2C1
100
AcDbEntity
  8
AM_6
 62
     7
420
 16777215
370
    18
100
AcDbVertex
100
AcDb2dVertex
 10
66.49562631423926
 20
189.962496023516
 30
0.0
  0
VERTEX
  5
2C3
330
2C1
100
AcDbEntity
  8
AM_6
 62
     7
420
 16777215
370
    18
100
AcDbVertex
100
AcDb2dVertex
 10
66.49562631423926
 20
149.9624960235162
 30
0.0
  0
SEQEND
  5
2C4
330
2C1
100
AcDbEntity
  8
AM_6
 62
     7
420
 16777215
370
    18
  0
ENDBLK
  5
2C0
330
2BD
100
AcDbEntity
  8
0
100
AcDbBlockEnd
  0
BLOCK
  5
2C7
330
2C5
100
AcDbEntity
  8
0
100
AcDbBlockBegin
  2
block 92
 70
     0
 10
0.0
 20
0.0
 30
0.0
  3
block 92
  1

  0
MTEXT
  5
2C9
330
2C5
100
AcDbEntity
  8
AM_6
 62
     7
420
 16777215
100
AcDbMText
 10
65.69566699610864
 20
164.5532633052155
 30
0.0
 40
3.999999674242106
 41
0.0
 46
0.0
 71
     7
 72
     1
  1
\fromans.shx|b0|i0|c0|p34;\W0.8;Ă46
 11
6.123233995736766E-17
 21
1.0
 31
0.0
 73
     1
 44
1.0
  0
ENDBLK
  5
2C8
330
2C5
100
AcDbEntity
  8
0
100
AcDbBlockEnd
  0
BLOCK
  5
2CC
330
2CA
100
AcDbEntity
  8
0
100
AcDbBlockBegin
  2
block 93
 70
     0
 10
0.0
 20
0.0
 30
0.0
  3
block 93
  1

  0
POLYLINE
  5
2CE
330
2CA
100
AcDbEntity
  8
AM_6
 62
     3
420
    65280
370
    18
100
AcDb2dPolyline
 66
     1
 10
0.0
 20
0.0
 30
0.0
  0
VERTEX
  5
2CF
330
2CE
100
AcDbEntity
  8
AM_6
 62
     3
420
    65280
370
    18
100
AcDbVertex
100
AcDb2dVertex
 10
237.8908031066156
 20
133.8673513944908
 30
0.0
  0
VERTEX
  5
2D0
330
2CE
100
AcDbEntity
  8
AM_6
 62
     3
420
    65280
370
    18
100
AcDbVertex
100
AcDb2dVertex
 10
226.3908031066155
 20
133.8673513944908
 30
0.0
  0
SEQEND
  5
2D1
330
2CE
100
AcDbEntity
  8
AM_6
 62
     3
420
    65280
370
    18
  0
ENDBLK
  5
2CD
330
2CA
100
AcDbEntity
  8
0
100
AcDbBlockEnd
  0
BLOCK
  5
2D4
330
2D2
100
AcDbEntity
  8
0
100
AcDbBlockBegin
  2
block 94
 70
     0
 10
0.0
 20
0.0
 30
0.0
  3
block 94
  1

  0
POLYLINE
  5
2D6
330
2D2
100
AcDbEntity
  8
AM_6
 62
     3
420
    65280
370
    18
100
AcDb2dPolyline
 66
     1
 10
0.0
 20
0.0
 30
0.0
  0
VERTEX
  5
2D7
330
2D6
100
AcDbEntity
  8
AM_6
 62
     3
420
    65280
370
    18
100
AcDbVertex
100
AcDb2dVertex
 10
226.3908031066155
 20
133.8673513944908
 30
0.0
  0
VERTEX
  5
2D8
330
2D6
100
AcDbEntity
  8
AM_6
 62
     3
420
    65280
370
    18
100
AcDbVertex
100
AcDb2dVertex
 10
211.8394527514909
 20
165.4220234874929
 30
0.0
  0
SEQEND
  5
2D9
330
2D6
100
AcDbEntity
  8
AM_6
 62
     3
420
    65280
370
    18
  0
ENDBLK
  5
2D5
330
2D2
100
AcDbEntity
  8
0
100
AcDbBlockEnd
  0
BLOCK
  5
2DC
330
2DA
100
AcDbEntity
  8
0
100
AcDbBlockBegin
  2
block 95
 70
     0
 10
0.0
 20
0.0
 30
0.0
  3
block 95
  1

  0
POLYLINE
  5
2DE
330
2DA
100
AcDbEntity
  8
AM_6
370
     0
100
AcDb2dPolyline
 66
     1
 10
0.0
 20
0.0
 30
0.0
  0
VERTEX
  5
2DF
330
2DE
100
AcDbEntity
  8
AM_6
370
     0
100
AcDbVertex
100
AcDb2dVertex
 10
212.3691745452426
 20
165.6663032375365
 30
0.0
  0
VERTEX
  5
2E0
330
2DE
100
AcDbEntity
  8
AM_6
370
     0
100
AcDbVertex
100
AcDb2dVertex
 10
210.3737742453637
 20
168.600354262707
 30
0.0
  0
VERTEX
  5
2E1
330
2DE
100
AcDbEntity
  8
AM_6
370
     0
100
AcDbVertex
100
AcDb2dVertex
 10
211.3097309577392
 20
165.1777437374487
 30
0.0
  0
VERTEX
  5
2E2
330
2DE
100
AcDbEntity
  8
AM_6
370
     0
100
AcDbVertex
100
AcDb2dVertex
 10
212.3691745452426
 20
165.6663032375365
 30
0.0
  0
SEQEND
  5
2E3
330
2DE
100
AcDbEntity
  8
AM_6
370
     0
  0
ENDBLK
  5
2DD
330
2DA
100
AcDbEntity
  8
0
100
AcDbBlockEnd
  0
BLOCK
  5
2E6
330
2E4
100
AcDbEntity
  8
0
100
AcDbBlockBegin
  2
block 96
 70
     0
 10
0.0
 20
0.0
 30
0.0
  3
block 96
  1

  0
POLYLINE
  5
2E8
330
2E4
100
AcDbEntity
  8
AM_6
370
     0
100
AcDb2dPolyline
 66
     1
 10
0.0
 20
0.0
 30
0.0
  0
VERTEX
  5
2E9
330
2E8
100
AcDbEntity
  8
AM_6
370
     0
100
AcDbVertex
100
AcDb2dVertex
 10
212.3691745452426
 20
165.6663032375365
 30
0.0
  0
VERTEX
  5
2EA
330
2E8
100
AcDbEntity
  8
AM_6
370
     0
100
AcDbVertex
100
AcDb2dVertex
 10
210.3737742453637
 20
168.600354262707
 30
0.0
  0
VERTEX
  5
2EB
330
2E8
100
AcDbEntity
  8
AM_6
370
     0
100
AcDbVertex
100
AcDb2dVertex
 10
211.3097309577392
 20
165.1777437374487
 30
0.0
  0
VERTEX
  5
2EC
330
2E8
100
AcDbEntity
  8
AM_6
370
     0
100
AcDbVertex
100
AcDb2dVertex
 10
212.3691745452426
 20
165.6663032375365
 30
0.0
  0
SEQEND
  5
2ED
330
2E8
100
AcDbEntity
  8
AM_6
370
     0
  0
ENDBLK
  5
2E7
330
2E4
100
AcDbEntity
  8
0
100
AcDbBlockEnd
  0
BLOCK
  5
2F0
330
2EE
100
AcDbEntity
  8
0
100
AcDbBlockBegin
  2
block 97
 70
     0
 10
0.0
 20
0.0
 30
0.0
  3
block 97
  1

  0
POLYLINE
  5
2F2
330
2EE
100
AcDbEntity
  8
AM_6
370
     0
100
AcDb2dPolyline
 66
     1
 10
0.0
 20
0.0
 30
0.0
  0
VERTEX
  5
2F3
330
2F2
100
AcDbEntity
  8
AM_6
370
     0
100
AcDbVertex
100
AcDb2dVertex
 10
212.3691745452426
 20
165.6663032375365
 30
0.0
  0
VERTEX
  5
2F4
330
2F2
100
AcDbEntity
  8
AM_6
370
     0
100
AcDbVertex
100
AcDb2dVertex
 10
210.3737742453637
 20
168.6003542627077
 30
0.0
  0
VERTEX
  5
2F5
330
2F2
100
AcDbEntity
  8
AM_6
370
     0
100
AcDbVertex
100
AcDb2dVertex
 10
211.3097309577392
 20
165.1777437374477
 30
0.0
  0
VERTEX
  5
2F6
330
2F2
100
AcDbEntity
  8
AM_6
370
     0
100
AcDbVertex
100
AcDb2dVertex
 10
212.3691745452426
 20
165.6663032375365
 30
0.0
  0
VERTEX
  5
2F7
330
2F2
100
AcDbEntity
  8
AM_6
370
     0
100
AcDbVertex
100
AcDb2dVertex
 10
212.3691745452426
 20
165.6663032375365
 30
0.0
  0
SEQEND
  5
2F9
330
2F2
100
AcDbEntity
  8
AM_6
370
     0
  0
HATCH
  5
2F8
330
2EE
100
AcDbEntity
  8
AM_6
 62
     3
420
    65280
100
AcDbHatch
 10
0.0
 20
0.0
 30
0.0
210
0.0
220
0.0
230
1.0
  2
SOLID
 70
     1
 71
     0
 91
        1
 92
        1
 93
        3
 72
     1
 10
212.3691745452426
 20
165.6663032375365
 11
210.3737742453637
 21
168.6003542627077
 72
     1
 10
210.3737742453637
 20
168.6003542627077
 11
211.3097309577392
 21
165.1777437374477
 72
     1
 10
211.3097309577392
 20
165.1777437374477
 11
212.3691745452426
 21
165.6663032375365
 97
        0
 75
     2
 76
     1
 98
        0
  0
ENDBLK
  5
2F1
330
2EE
100
AcDbEntity
  8
0
100
AcDbBlockEnd
  0
BLOCK
  5
2FC
330
2FA
100
AcDbEntity
  8
0
100
AcDbBlockBegin
  2
block 98
 70
     0
 10
0.0
 20
0.0
 30
0.0
  3
block 98
  1

  0
MTEXT
  5
2FE
330
2FA
100
AcDbEntity
  8
AM_6
 62
     2
420
 16776960
100
AcDbMText
 10
228.6907997407331
 20
135.6173464965861
 30
0.0
 40
3.499999953157898
 41
0.0
 46
0.0
 71
     7
 72
     1
  1
\fromans.shx|b0|i0|c0|p34;\W0.8;CSW
 73
     1
 44
1.0
  0
ENDBLK
  5
2FD
330
2FA
100
AcDbEntity
  8
0
100
AcDbBlockEnd
  0
BLOCK
  5
301
330
2FF
100
AcDbEntity
  8
0
100
AcDbBlockBegin
  2
block 99
 70
     0
 10
0.0
 20
0.0
 30
0.0
  3
block 99
  1

  0
POLYLINE
  5
303
330
2FF
100
AcDbEntity
  8
AM_6
 62
     3
420
    65280
370
    18
100
AcDb2dPolyline
 66
     1
 10
0.0
 20
0.0
 30
0.0
  0
VERTEX
  5
304
330
303
100
AcDbEntity
  8
AM_6
 62
     3
420
    65280
370
    18
100
AcDbVertex
100
AcDb2dVertex
 10
85.66229298090629
 20
134.962496023516
 30
0.0
  0
VERTEX
  5
305
330
303
100
AcDbEntity
  8
AM_6
 62
     3
420
    65280
370
    18
100
AcDbVertex
100
AcDb2dVertex
 10
106.4956263142391
 20
134.962496023516
 30
0.0
  0
SEQEND
  5
306
330
303
100
AcDbEntity
  8
AM_6
 62
     3
420
    65280
370
    18
  0
ENDBLK
  5
302
330
2FF
100
AcDbEntity
  8
0
100
AcDbBlockEnd
  0
BLOCK
  5
309
330
307
100
AcDbEntity
  8
0
100
AcDbBlockBegin
  2
block 100
 70
     0
 10
0.0
 20
0.0
 30
0.0
  3
block 100
  1

  0
POLYLINE
  5
30B
330
307
100
AcDbEntity
  8
AM_6
 62
     3
420
    65280
370
    18
100
AcDb2dPolyline
 66
     1
 10
0.0
 20
0.0
 30
0.0
  0
VERTEX
  5
30C
330
30B
100
AcDbEntity
  8
AM_6
 62
     3
420
    65280
370
    18
100
AcDbVertex
100
AcDb2dVertex
 10
106.4956263142391
 20
134.962496023516
 30
0.0
  0
VERTEX
  5
30D
330
30B
100
AcDbEntity
  8
AM_6
 62
     3
420
    65280
370
    18
100
AcDbVertex
100
AcDb2dVertex
 10
123.7203869856822
 20
165.7758653549973
 30
0.0
  0
SEQEND
  5
30E
330
30B
100
AcDbEntity
  8
AM_6
 62
     3
420
    65280
370
    18
  0
ENDBLK
  5
30A
330
307
100
AcDbEntity
  8
0
100
AcDbBlockEnd
  0
BLOCK
  5
311
330
30F
100
AcDbEntity
  8
0
100
AcDbBlockBegin
  2
block 101
 70
     0
 10
0.0
 20
0.0
 30
0.0
  3
block 101
  1

  0
POLYLINE
  5
313
330
30F
100
AcDbEntity
  8
AM_6
370
     0
100
AcDb2dPolyline
 66
     1
 10
0.0
 20
0.0
 30
0.0
  0
VERTEX
  5
314
330
313
100
AcDbEntity
  8
AM_6
370
     0
100
AcDbVertex
100
AcDb2dVertex
 10
124.2295651325383
 20
165.4912333297109
 30
0.0
  0
VERTEX
  5
315
330
313
100
AcDbEntity
  8
AM_6
370
     0
100
AcDbVertex
100
AcDb2dVertex
 10
125.4281791442354
 20
168.830934248358
 30
0.0
  0
VERTEX
  5
316
330
313
100
AcDbEntity
  8
AM_6
370
     0
100
AcDbVertex
100
AcDb2dVertex
 10
123.2112088388248
 20
166.060497380284
 30
0.0
  0
VERTEX
  5
317
330
313
100
AcDbEntity
  8
AM_6
370
     0
100
AcDbVertex
100
AcDb2dVertex
 10
124.2295651325383
 20
165.4912333297109
 30
0.0
  0
SEQEND
  5
318
330
313
100
AcDbEntity
  8
AM_6
370
     0
  0
ENDBLK
  5
312
330
30F
100
AcDbEntity
  8
0
100
AcDbBlockEnd
  0
BLOCK
  5
31B
330
319
100
AcDbEntity
  8
0
100
AcDbBlockBegin
  2
block 102
 70
     0
 10
0.0
 20
0.0
 30
0.0
  3
block 102
  1

  0
POLYLINE
  5
31D
330
319
100
AcDbEntity
  8
AM_6
370
     0
100
AcDb2dPolyline
 66
     1
 10
0.0
 20
0.0
 30
0.0
  0
VERTEX
  5
31E
330
31D
100
AcDbEntity
  8
AM_6
370
     0
100
AcDbVertex
100
AcDb2dVertex
 10
124.2295651325383
 20
165.4912333297109
 30
0.0
  0
VERTEX
  5
31F
330
31D
100
AcDbEntity
  8
AM_6
370
     0
100
AcDbVertex
100
AcDb2dVertex
 10
125.4281791442354
 20
168.830934248358
 30
0.0
  0
VERTEX
  5
320
330
31D
100
AcDbEntity
  8
AM_6
370
     0
100
AcDbVertex
100
AcDb2dVertex
 10
123.2112088388248
 20
166.060497380284
 30
0.0
  0
VERTEX
  5
321
330
31D
100
AcDbEntity
  8
AM_6
370
     0
100
AcDbVertex
100
AcDb2dVertex
 10
124.2295651325383
 20
165.4912333297109
 30
0.0
  0
SEQEND
  5
322
330
31D
100
AcDbEntity
  8
AM_6
370
     0
  0
ENDBLK
  5
31C
330
319
100
AcDbEntity
  8
0
100
AcDbBlockEnd
  0
BLOCK
  5
325
330
323
100
AcDbEntity
  8
0
100
AcDbBlockBegin
  2
block 103
 70
     0
 10
0.0
 20
0.0
 30
0.0
  3
block 103
  1

  0
POLYLINE
  5
327
330
323
100
AcDbEntity
  8
AM_6
370
     0
100
AcDb2dPolyline
 66
     1
 10
0.0
 20
0.0
 30
0.0
  0
VERTEX
  5
328
330
327
100
AcDbEntity
  8
AM_6
370
     0
100
AcDbVertex
100
AcDb2dVertex
 10
124.2295651325383
 20
165.4912333297109
 30
0.0
  0
VERTEX
  5
329
330
327
100
AcDbEntity
  8
AM_6
370
     0
100
AcDbVertex
100
AcDb2dVertex
 10
125.4281791442354
 20
168.830934248359
 30
0.0
  0
VERTEX
  5
32A
330
327
100
AcDbEntity
  8
AM_6
370
     0
100
AcDbVertex
100
AcDb2dVertex
 10
123.2112088388248
 20
166.060497380284
 30
0.0
  0
VERTEX
  5
32B
330
327
100
AcDbEntity
  8
AM_6
370
     0
100
AcDbVertex
100
AcDb2dVertex
 10
124.2295651325383
 20
165.4912333297109
 30
0.0
  0
VERTEX
  5
32C
330
327
100
AcDbEntity
  8
AM_6
370
     0
100
AcDbVertex
100
AcDb2dVertex
 10
124.2295651325383
 20
165.4912333297109
 30
0.0
  0
SEQEND
  5
32E
330
327
100
AcDbEntity
  8
AM_6
370
     0
  0
HATCH
  5
32D
330
323
100
AcDbEntity
  8
AM_6
 62
     3
420
    65280
100
AcDbHatch
 10
0.0
 20
0.0
 30
0.0
210
0.0
220
0.0
230
1.0
  2
SOLID
 70
     1
 71
     0
 91
        1
 92
        1
 93
        3
 72
     1
 10
124.2295651325383
 20
165.4912333297109
 11
125.4281791442354
 21
168.830934248359
 72
     1
 10
125.4281791442354
 20
168.830934248359
 11
123.2112088388248
 21
166.060497380284
 72
     1
 10
123.2112088388248
 20
166.060497380284
 11
124.2295651325383
 21
165.4912333297109
 97
        0
 75
     2
 76
     1
 98
        0
  0
ENDBLK
  5
326
330
323
100
AcDbEntity
  8
0
100
AcDbBlockEnd
  0
BLOCK
  5
331
330
32F
100
AcDbEntity
  8
0
100
AcDbBlockBegin
  2
block 104
 70
     0
 10
0.0
 20
0.0
 30
0.0
  3
block 104
  1

  0
MTEXT
  5
333
330
32F
100
AcDbEntity
  8
AM_6
 62
     2
420
 16776960
100
AcDbMText
 10
84.06229462111496
 20
138.7125387056919
 30
0.0
 40
3.499999953157898
 41
0.0
 46
0.0
 71
     7
 72
     1
  1
\fromans.shx|b0|i0|c0|p34;\W0.8;PCS,MCS
 73
     1
 44
1.0
  0
ENDBLK
  5
332
330
32F
100
AcDbEntity
  8
0
100
AcDbBlockEnd
  0
BLOCK
  5
336
330
334
100
AcDbEntity
  8
0
100
AcDbBlockBegin
  2
block 105
 70
     0
 10
0.0
 20
0.0
 30
0.0
  3
block 105
  1

  0
POLYLINE
  5
338
330
334
100
AcDbEntity
  8
AM_6
 62
     7
420
 16777215
370
    18
100
AcDb2dPolyline
 66
     1
 10
0.0
 20
0.0
 30
0.0
  0
VERTEX
  5
339
330
338
100
AcDbEntity
  8
AM_6
 62
     7
420
 16777215
370
    18
100
AcDbVertex
100
AcDb2dVertex
 10
209.7456263141691
 20
180.9624960235087
 30
0.0
  0
VERTEX
  5
33A
330
338
100
AcDbEntity
  8
AM_6
 62
     7
420
 16777215
370
    18
100
AcDbVertex
100
AcDb2dVertex
 10
209.7456263141691
 20
201.9624960235161
 30
0.0
  0
SEQEND
  5
33B
330
338
100
AcDbEntity
  8
AM_6
 62
     7
420
 16777215
370
    18
  0
ENDBLK
  5
337
330
334
100
AcDbEntity
  8
0
100
AcDbBlockEnd
  0
BLOCK
  5
33E
330
33C
100
AcDbEntity
  8
0
100
AcDbBlockBegin
  2
block 106
 70
     0
 10
0.0
 20
0.0
 30
0.0
  3
block 106
  1

  0
POLYLINE
  5
340
330
33C
100
AcDbEntity
  8
AM_6
 62
     7
420
 16777215
370
    18
100
AcDb2dPolyline
 66
     1
 10
0.0
 20
0.0
 30
0.0
  0
VERTEX
  5
341
330
340
100
AcDbEntity
  8
AM_6
 62
     7
420
 16777215
370
    18
100
AcDbVertex
100
AcDb2dVertex
 10
126.4956263142391
 20
186.8374960235162
 30
0.0
  0
VERTEX
  5
342
330
340
100
AcDbEntity
  8
AM_6
 62
     7
420
 16777215
370
    18
100
AcDbVertex
100
AcDb2dVertex
 10
126.4956263142391
 20
201.9624960235161
 30
0.0
  0
SEQEND
  5
343
330
340
100
AcDbEntity
  8
AM_6
 62
     7
420
 16777215
370
    18
  0
ENDBLK
  5
33F
330
33C
100
AcDbEntity
  8
0
100
AcDbBlockEnd
  0
BLOCK
  5
346
330
344
100
AcDbEntity
  8
0
100
AcDbBlockBegin
  2
block 107
 70
     0
 10
0.0
 20
0.0
 30
0.0
  3
block 107
  1

  0
POLYLINE
  5
348
330
344
100
AcDbEntity
  8
AM_6
 62
     7
420
 16777215
370
    18
100
AcDb2dPolyline
 66
     1
 10
0.0
 20
0.0
 30
0.0
  0
VERTEX
  5
349
330
348
100
AcDbEntity
  8
AM_6
 62
     7
420
 16777215
370
    18
100
AcDbVertex
100
AcDb2dVertex
 10
206.745626314169
 20
199.9624960235161
 30
0.0
  0
VERTEX
  5
34A
330
348
100
AcDbEntity
  8
AM_6
 62
     7
420
 16777215
370
    18
100
AcDbVertex
100
AcDb2dVertex
 10
129.4956263142392
 20
199.9624960235161
 30
0.0
  0
SEQEND
  5
34B
330
348
100
AcDbEntity
  8
AM_6
 62
     7
420
 16777215
370
    18
  0
ENDBLK
  5
347
330
344
100
AcDbEntity
  8
0
100
AcDbBlockEnd
  0
BLOCK
  5
34E
330
34C
100
AcDbEntity
  8
0
100
AcDbBlockBegin
  2
block 108
 70
     0
 10
0.0
 20
0.0
 30
0.0
  3
block 108
  1

  0
MTEXT
  5
350
330
34C
100
AcDbEntity
  8
AM_6
 62
     7
420
 16777215
100
AcDbMText
 10
160.3492348164123
 20
200.7624872341518
 30
0.0
 40
3.999999674242106
 41
0.0
 46
0.0
 71
     7
 72
     1
  1
\fromans.shx|b0|i0|c0|p34;\W0.8;83.25
 73
     1
 44
1.0
  0
ENDBLK
  5
34F
330
34C
100
AcDbEntity
  8
0
100
AcDbBlockEnd
  0
BLOCK
  5
353
330
351
100
AcDbEntity
  8
0
100
AcDbBlockBegin
  2
block 109
 70
     0
 10
0.0
 20
0.0
 30
0.0
  3
block 109
  1

  0
POLYLINE
  5
355
330
351
100
AcDbEntity
  8
AM_6
 62
     7
420
 16777215
370
    18
100
AcDb2dPolyline
 66
     1
 10
0.0
 20
0.0
 30
0.0
  0
VERTEX
  5
356
330
355
100
AcDbEntity
  8
AM_6
 62
     7
420
 16777215
370
    18
100
AcDbVertex
100
AcDb2dVertex
 10
216.8456263142402
 20
184.3357429773723
 30
0.0
  0
VERTEX
  5
357
330
355
100
AcDbEntity
  8
AM_6
 62
     7
420
 16777215
370
    18
100
AcDbVertex
100
AcDb2dVertex
 10
216.8456263142402
 20
201.9624960235161
 30
0.0
  0
SEQEND
  5
358
330
355
100
AcDbEntity
  8
AM_6
 62
     7
420
 16777215
370
    18
  0
ENDBLK
  5
354
330
351
100
AcDbEntity
  8
0
100
AcDbBlockEnd
  0
BLOCK
  5
35B
330
359
100
AcDbEntity
  8
0
100
AcDbBlockBegin
  2
block 110
 70
     0
 10
0.0
 20
0.0
 30
0.0
  3
block 110
  1

  0
POLYLINE
  5
35D
330
359
100
AcDbEntity
  8
AM_6
 62
     7
420
 16777215
370
    18
100
AcDb2dPolyline
 66
     1
 10
0.0
 20
0.0
 30
0.0
  0
VERTEX
  5
35E
330
35D
100
AcDbEntity
  8
AM_6
 62
     7
420
 16777215
370
    18
100
AcDbVertex
100
AcDb2dVertex
 10
209.7456263141691
 20
180.9624960235087
 30
0.0
  0
VERTEX
  5
35F
330
35D
100
AcDbEntity
  8
AM_6
 62
     7
420
 16777215
370
    18
100
AcDbVertex
100
AcDb2dVertex
 10
209.7456263141691
 20
201.9624960235161
 30
0.0
  0
SEQEND
  5
360
330
35D
100
AcDbEntity
  8
AM_6
 62
     7
420
 16777215
370
    18
  0
ENDBLK
  5
35C
330
359
100
AcDbEntity
  8
0
100
AcDbBlockEnd
  0
BLOCK
  5
363
330
361
100
AcDbEntity
  8
0
100
AcDbBlockBegin
  2
block 111
 70
     0
 10
0.0
 20
0.0
 30
0.0
  3
block 111
  1

  0
POLYLINE
  5
365
330
361
100
AcDbEntity
  8
AM_6
 62
     7
420
 16777215
370
    18
100
AcDb2dPolyline
 66
     1
 10
0.0
 20
0.0
 30
0.0
  0
VERTEX
  5
366
330
365
100
AcDbEntity
  8
AM_6
 62
     7
420
 16777215
370
    18
100
AcDbVertex
100
AcDb2dVertex
 10
219.8456263142403
 20
199.9624960235161
 30
0.0
  0
VERTEX
  5
367
330
365
100
AcDbEntity
  8
AM_6
 62
     7
420
 16777215
370
    18
100
AcDbVertex
100
AcDb2dVertex
 10
222.8456263142405
 20
199.9624960235161
 30
0.0
  0
SEQEND
  5
368
330
365
100
AcDbEntity
  8
AM_6
 62
     7
420
 16777215
370
    18
  0
ENDBLK
  5
364
330
361
100
AcDbEntity
  8
0
100
AcDbBlockEnd
  0
BLOCK
  5
36B
330
369
100
AcDbEntity
  8
0
100
AcDbBlockBegin
  2
block 112
 70
     0
 10
0.0
 20
0.0
 30
0.0
  3
block 112
  1

  0
POLYLINE
  5
36D
330
369
100
AcDbEntity
  8
AM_6
 62
     7
420
 16777215
370
    18
100
AcDb2dPolyline
 66
     1
 10
0.0
 20
0.0
 30
0.0
  0
VERTEX
  5
36E
330
36D
100
AcDbEntity
  8
AM_6
 62
     7
420
 16777215
370
    18
100
AcDbVertex
100
AcDb2dVertex
 10
206.745626314169
 20
199.9624960235161
 30
0.0
  0
VERTEX
  5
36F
330
36D
100
AcDbEntity
  8
AM_6
 62
     7
420
 16777215
370
    18
100
AcDbVertex
100
AcDb2dVertex
 10
203.7456263141689
 20
199.9624960235161
 30
0.0
  0
SEQEND
  5
370
330
36D
100
AcDbEntity
  8
AM_6
 62
     7
420
 16777215
370
    18
  0
ENDBLK
  5
36C
330
369
100
AcDbEntity
  8
0
100
AcDbBlockEnd
  0
BLOCK
  5
373
330
371
100
AcDbEntity
  8
0
100
AcDbBlockBegin
  2
block 113
 70
     0
 10
0.0
 20
0.0
 30
0.0
  3
block 113
  1

  0
POLYLINE
  5
375
330
371
100
AcDbEntity
  8
AM_6
 62
     7
420
 16777215
370
    18
100
AcDb2dPolyline
 66
     1
 10
0.0
 20
0.0
 30
0.0
  0
VERTEX
  5
376
330
375
100
AcDbEntity
  8
AM_6
 62
     7
420
 16777215
370
    18
100
AcDbVertex
100
AcDb2dVertex
 10
216.8456263142402
 20
199.9624960235161
 30
0.0
  0
VERTEX
  5
377
330
375
100
AcDbEntity
  8
AM_6
 62
     7
420
 16777215
370
    18
100
AcDbVertex
100
AcDb2dVertex
 10
209.7456263141691
 20
199.9624960235161
 30
0.0
  0
SEQEND
  5
378
330
375
100
AcDbEntity
  8
AM_6
 62
     7
420
 16777215
370
    18
  0
ENDBLK
  5
374
330
371
100
AcDbEntity
  8
0
100
AcDbBlockEnd
  0
BLOCK
  5
37B
330
379
100
AcDbEntity
  8
0
100
AcDbBlockBegin
  2
block 114
 70
     0
 10
0.0
 20
0.0
 30
0.0
  3
block 114
  1

  0
MTEXT
  5
37D
330
379
100
AcDbEntity
  8
AM_6
 62
     7
420
 16777215
100
AcDbMText
 10
209.0289938510088
 20
200.7624872341518
 30
0.0
 40
3.999999674242106
 41
0.0
 46
0.0
 71
     7
 72
     1
  1
\fromans.shx|b0|i0|c0|p34;\W0.8;7.1
 73
     1
 44
1.0
  0
ENDBLK
  5
37C
330
379
100
AcDbEntity
  8
0
100
AcDbBlockEnd
  0
BLOCK
  5
380
330
37E
100
AcDbEntity
  8
0
100
AcDbBlockBegin
  2
block 115
 70
     0
 10
0.0
 20
0.0
 30
0.0
  3
block 115
  1

  0
POLYLINE
  5
382
330
37E
100
AcDbEntity
  8
AM_6
 62
     3
420
    65280
370
    18
100
AcDb2dPolyline
 66
     1
 10
0.0
 20
0.0
 30
0.0
  0
VERTEX
  5
383
330
382
100
AcDbEntity
  8
AM_6
 62
     3
420
    65280
370
    18
100
AcDbVertex
100
AcDb2dVertex
 10
239.9789596475718
 20
124.9624960235163
 30
0.0
  0
VERTEX
  5
384
330
382
100
AcDbEntity
  8
AM_6
 62
     3
420
    65280
370
    18
100
AcDbVertex
100
AcDb2dVertex
 10
226.7456263142383
 20
124.9624960235163
 30
0.0
  0
SEQEND
  5
385
330
382
100
AcDbEntity
  8
AM_6
 62
     3
420
    65280
370
    18
  0
ENDBLK
  5
381
330
37E
100
AcDbEntity
  8
0
100
AcDbBlockEnd
  0
BLOCK
  5
388
330
386
100
AcDbEntity
  8
0
100
AcDbBlockBegin
  2
block 116
 70
     0
 10
0.0
 20
0.0
 30
0.0
  3
block 116
  1

  0
POLYLINE
  5
38A
330
386
100
AcDbEntity
  8
AM_6
 62
     3
420
    65280
370
    18
100
AcDb2dPolyline
 66
     1
 10
0.0
 20
0.0
 30
0.0
  0
VERTEX
  5
38B
330
38A
100
AcDbEntity
  8
AM_6
 62
     3
420
    65280
370
    18
100
AcDbVertex
100
AcDb2dVertex
 10
226.7456263142383
 20
124.9624960235163
 30
0.0
  0
VERTEX
  5
38C
330
38A
100
AcDbEntity
  8
AM_6
 62
     3
420
    65280
370
    18
100
AcDbVertex
100
AcDb2dVertex
 10
201.5738198455264
 20
173.4807269549129
 30
0.0
  0
SEQEND
  5
38D
330
38A
100
AcDbEntity
  8
AM_6
 62
     3
420
    65280
370
    18
  0
ENDBLK
  5
389
330
386
100
AcDbEntity
  8
0
100
AcDbBlockEnd
  0
BLOCK
  5
390
330
38E
100
AcDbEntity
  8
0
100
AcDbBlockBegin
  2
block 117
 70
     0
 10
0.0
 20
0.0
 30
0.0
  3
block 117
  1

  0
POLYLINE
  5
392
330
38E
100
AcDbEntity
  8
AM_6
370
     0
100
AcDb2dPolyline
 66
     1
 10
0.0
 20
0.0
 30
0.0
  0
VERTEX
  5
393
330
392
100
AcDbEntity
  8
AM_6
370
     0
100
AcDbVertex
100
AcDb2dVertex
 10
202.0916146882232
 20
173.7493647704434
 30
0.0
  0
VERTEX
  5
394
330
392
100
AcDbEntity
  8
AM_6
370
     0
100
AcDbVertex
100
AcDb2dVertex
 10
199.9619929458936
 20
176.5874960235143
 30
0.0
  0
VERTEX
  5
395
330
392
100
AcDbEntity
  8
AM_6
370
     0
100
AcDbVertex
100
AcDb2dVertex
 10
201.0560250028309
 20
173.2120891393818
 30
0.0
  0
VERTEX
  5
396
330
392
100
AcDbEntity
  8
AM_6
370
     0
100
AcDbVertex
100
AcDb2dVertex
 10
202.0916146882232
 20
173.7493647704434
 30
0.0
  0
SEQEND
  5
397
330
392
100
AcDbEntity
  8
AM_6
370
     0
  0
ENDBLK
  5
391
330
38E
100
AcDbEntity
  8
0
100
AcDbBlockEnd
  0
BLOCK
  5
39A
330
398
100
AcDbEntity
  8
0
100
AcDbBlockBegin
  2
block 118
 70
     0
 10
0.0
 20
0.0
 30
0.0
  3
block 118
  1

  0
POLYLINE
  5
39C
330
398
100
AcDbEntity
  8
AM_6
370
     0
100
AcDb2dPolyline
 66
     1
 10
0.0
 20
0.0
 30
0.0
  0
VERTEX
  5
39D
330
39C
100
AcDbEntity
  8
AM_6
370
     0
100
AcDbVertex
100
AcDb2dVertex
 10
202.0916146882232
 20
173.7493647704434
 30
0.0
  0
VERTEX
  5
39E
330
39C
100
AcDbEntity
  8
AM_6
370
     0
100
AcDbVertex
100
AcDb2dVertex
 10
199.9619929458936
 20
176.5874960235143
 30
0.0
  0
VERTEX
  5
39F
330
39C
100
AcDbEntity
  8
AM_6
370
     0
100
AcDbVertex
100
AcDb2dVertex
 10
201.0560250028309
 20
173.2120891393818
 30
0.0
  0
VERTEX
  5
3A0
330
39C
100
AcDbEntity
  8
AM_6
370
     0
100
AcDbVertex
100
AcDb2dVertex
 10
202.0916146882232
 20
173.7493647704434
 30
0.0
  0
SEQEND
  5
3A1
330
39C
100
AcDbEntity
  8
AM_6
370
     0
  0
ENDBLK
  5
39B
330
398
100
AcDbEntity
  8
0
100
AcDbBlockEnd
  0
BLOCK
  5
3A4
330
3A2
100
AcDbEntity
  8
0
100
AcDbBlockBegin
  2
block 119
 70
     0
 10
0.0
 20
0.0
 30
0.0
  3
block 119
  1

  0
POLYLINE
  5
3A6
330
3A2
100
AcDbEntity
  8
AM_6
370
     0
100
AcDb2dPolyline
 66
     1
 10
0.0
 20
0.0
 30
0.0
  0
VERTEX
  5
3A7
330
3A6
100
AcDbEntity
  8
AM_6
370
     0
100
AcDbVertex
100
AcDb2dVertex
 10
202.0916146882232
 20
173.7493647704434
 30
0.0
  0
VERTEX
  5
3A8
330
3A6
100
AcDbEntity
  8
AM_6
370
     0
100
AcDbVertex
100
AcDb2dVertex
 10
199.9619929458936
 20
176.5874960235143
 30
0.0
  0
VERTEX
  5
3A9
330
3A6
100
AcDbEntity
  8
AM_6
370
     0
100
AcDbVertex
100
AcDb2dVertex
 10
201.0560250028309
 20
173.2120891393824
 30
0.0
  0
VERTEX
  5
3AA
330
3A6
100
AcDbEntity
  8
AM_6
370
     0
100
AcDbVertex
100
AcDb2dVertex
 10
202.0916146882232
 20
173.7493647704434
 30
0.0
  0
VERTEX
  5
3AB
330
3A6
100
AcDbEntity
  8
AM_6
370
     0
100
AcDbVertex
100
AcDb2dVertex
 10
202.0916146882232
 20
173.7493647704434
 30
0.0
  0
SEQEND
  5
3AD
330
3A6
100
AcDbEntity
  8
AM_6
370
     0
  0
HATCH
  5
3AC
330
3A2
100
AcDbEntity
  8
AM_6
 62
     3
420
    65280
100
AcDbHatch
 10
0.0
 20
0.0
 30
0.0
210
0.0
220
0.0
230
1.0
  2
SOLID
 70
     1
 71
     0
 91
        1
 92
        1
 93
        3
 72
     1
 10
202.0916146882232
 20
173.7493647704434
 11
199.9619929458936
 21
176.5874960235143
 72
     1
 10
199.9619929458936
 20
176.5874960235143
 11
201.0560250028309
 21
173.2120891393824
 72
     1
 10
201.0560250028309
 20
173.2120891393824
 11
202.0916146882232
 21
173.7493647704434
 97
        0
 75
     2
 76
     1
 98
        0
  0
ENDBLK
  5
3A5
330
3A2
100
AcDbEntity
  8
0
100
AcDbBlockEnd
  0
BLOCK
  5
3B0
330
3AE
100
AcDbEntity
  8
0
100
AcDbBlockBegin
  2
block 120
 70
     0
 10
0.0
 20
0.0
 30
0.0
  3
block 120
  1

  0
MTEXT
  5
3B2
330
3AE
100
AcDbEntity
  8
AM_6
 62
     2
420
 16776960
100
AcDbMText
 10
228.645604394336
 20
126.7124959840825
 30
0.0
 40
3.499999953157898
 41
0.0
 46
0.0
 71
     7
 72
     1
  1
\fromans.shx|b0|i0|c0|p34;\W0.8;ER16
 73
     1
 44
1.0
  0
ENDBLK
  5
3B1
330
3AE
100
AcDbEntity
  8
0
100
AcDbBlockEnd
  0
BLOCK
  5
3B6
330
3B4
100
AcDbEntity
  8
0
100
AcDbBlockBegin
  2
block 121
 70
     0
 10
0.0
 20
0.0
 30
0.0
  3
block 121
  1

  0
POLYLINE
  5
3B8
330
3B4
100
AcDbEntity
  8
AM_7
  6
AI-Linetype-1
 62
     2
420
 16776960
370
    18
100
AcDb2dPolyline
 66
     1
 10
0.0
 20
0.0
 30
0.0
  0
VERTEX
  5
3B9
330
3B8
100
AcDbEntity
  8
AM_7
  6
AI-Linetype-1
 62
     2
420
 16776960
370
    18
100
AcDbVertex
100
AcDb2dVertex
 10
71.49562631423912
 20
169.962496023516
 30
0.0
  0
VERTEX
  5
3BA
330
3B8
100
AcDbEntity
  8
AM_7
  6
AI-Linetype-1
 62
     2
420
 16776960
370
    18
100
AcDbVertex
100
AcDb2dVertex
 10
221.8456263142404
 20
169.962496023516
 30
0.0
  0
SEQEND
  5
3BC
330
3B8
100
AcDbEntity
  8
AM_7
  6
AI-Linetype-1
 62
     2
420
 16776960
370
    18
  0
ENDBLK
  5
3B7
330
3B4
100
AcDbEntity
  8
0
100
AcDbBlockEnd
  0
BLOCK
  5
3C0
330
3BE
100
AcDbEntity
  8
0
100
AcDbBlockBegin
  2
block 122
 70
     0
 10
0.0
 20
0.0
 30
0.0
  3
block 122
  1

  0
POLYLINE
  5
3C2
330
3BE
100
AcDbEntity
  8
AM_3
  6
AI-Linetype-2
 62
    11
420
 16744319
370
    18
100
AcDb2dPolyline
 66
     1
 10
0.0
 20
0.0
 30
0.0
  0
VERTEX
  5
3C3
330
3C2
100
AcDbEntity
  8
AM_3
  6
AI-Linetype-2
 62
    11
420
 16744319
370
    18
100
AcDbVertex
100
AcDb2dVertex
 10
128.4956263142392
 20
153.662496023517
 30
0.0
  0
VERTEX
  5
3C4
330
3C2
100
AcDbEntity
  8
AM_3
  6
AI-Linetype-2
 62
    11
420
 16744319
370
    18
100
AcDbVertex
100
AcDb2dVertex
 10
145.4956263142385
 20
153.662496023517
 30
0.0
  0
SEQEND
  5
3C6
330
3C2
100
AcDbEntity
  8
AM_3
  6
AI-Linetype-2
 62
    11
420
 16744319
370
    18
  0
ENDBLK
  5
3C1
330
3BE
100
AcDbEntity
  8
0
100
AcDbBlockEnd
  0
BLOCK
  5
3C9
330
3C7
100
AcDbEntity
  8
0
100
AcDbBlockBegin
  2
block 123
 70
     0
 10
0.0
 20
0.0
 30
0.0
  3
block 123
  1

  0
POLYLINE
  5
3CB
330
3C7
100
AcDbEntity
  8
AM_3
  6
AI-Linetype-3
 62
    11
420
 16744319
370
    18
100
AcDb2dPolyline
 66
     1
 10
0.0
 20
0.0
 30
0.0
  0
VERTEX
  5
3CC
330
3CB
100
AcDbEntity
  8
AM_3
  6
AI-Linetype-3
 62
    11
420
 16744319
370
    18
100
AcDbVertex
100
AcDb2dVertex
 10
145.4956263142385
 20
153.662496023517
 30
0.0
  0
VERTEX
  5
3CD
330
3CB
100
AcDbEntity
  8
AM_3
  6
AI-Linetype-3
 62
    11
420
 16744319
370
    18
100
AcDbVertex
100
AcDb2dVertex
 10
145.4956263142385
 20
146.9624960235165
 30
0.0
  0
SEQEND
  5
3CF
330
3CB
100
AcDbEntity
  8
AM_3
  6
AI-Linetype-3
 62
    11
420
 16744319
370
    18
  0
ENDBLK
  5
3CA
330
3C7
100
AcDbEntity
  8
0
100
AcDbBlockEnd
  0
BLOCK
  5
3D2
330
3D0
100
AcDbEntity
  8
0
100
AcDbBlockBegin
  2
block 124
 70
     0
 10
0.0
 20
0.0
 30
0.0
  3
block 124
  1

  0
POLYLINE
  5
3D4
330
3D0
100
AcDbEntity
  8
AM_3
  6
AI-Linetype-4
 62
    11
420
 16744319
370
    18
100
AcDb2dPolyline
 66
     1
 10
0.0
 20
0.0
 30
0.0
  0
VERTEX
  5
3D5
330
3D4
100
AcDbEntity
  8
AM_3
  6
AI-Linetype-4
 62
    11
420
 16744319
370
    18
100
AcDbVertex
100
AcDb2dVertex
 10
128.4956263142392
 20
186.2624960235162
 30
0.0
  0
VERTEX
  5
3D6
330
3D4
100
AcDbEntity
  8
AM_3
  6
AI-Linetype-4
 62
    11
420
 16744319
370
    18
100
AcDbVertex
100
AcDb2dVertex
 10
145.4956263142385
 20
186.2624960235162
 30
0.0
  0
SEQEND
  5
3D8
330
3D4
100
AcDbEntity
  8
AM_3
  6
AI-Linetype-4
 62
    11
420
 16744319
370
    18
  0
ENDBLK
  5
3D3
330
3D0
100
AcDbEntity
  8
0
100
AcDbBlockEnd
  0
BLOCK
  5
3DB
330
3D9
100
AcDbEntity
  8
0
100
AcDbBlockBegin
  2
block 125
 70
     0
 10
0.0
 20
0.0
 30
0.0
  3
block 125
  1

  0
POLYLINE
  5
3DD
330
3D9
100
AcDbEntity
  8
AM_3
  6
AI-Linetype-5
 62
    11
420
 16744319
370
    18
100
AcDb2dPolyline
 66
     1
 10
0.0
 20
0.0
 30
0.0
  0
VERTEX
  5
3DE
330
3DD
100
AcDbEntity
  8
AM_3
  6
AI-Linetype-5
 62
    11
420
 16744319
370
    18
100
AcDbVertex
100
AcDb2dVertex
 10
145.4956263142385
 20
186.2624960235162
 30
0.0
  0
VERTEX
  5
3DF
330
3DD
100
AcDbEntity
  8
AM_3
  6
AI-Linetype-5
 62
    11
420
 16744319
370
    18
100
AcDbVertex
100
AcDb2dVertex
 10
145.4956263142385
 20
192.9624960235161
 30
0.0
  0
SEQEND
  5
3E1
330
3DD
100
AcDbEntity
  8
AM_3
  6
AI-Linetype-5
 62
    11
420
 16744319
370
    18
  0
ENDBLK
  5
3DC
330
3D9
100
AcDbEntity
  8
0
100
AcDbBlockEnd
  0
BLOCK
  5
3E4
330
3E2
100
AcDbEntity
  8
0
100
AcDbBlockBegin
  2
block 126
 70
     0
 10
0.0
 20
0.0
 30
0.0
  3
block 126
  1

  0
POLYLINE
  5
3E6
330
3E2
100
AcDbEntity
  8
AM_3
  6
AI-Linetype-6
 62
    11
420
 16744319
370
    18
100
AcDb2dPolyline
 66
     1
 10
0.0
 20
0.0
 30
0.0
  0
VERTEX
  5
3E7
330
3E6
100
AcDbEntity
  8
AM_3
  6
AI-Linetype-6
 62
    11
420
 16744319
370
    18
100
AcDbVertex
100
AcDb2dVertex
 10
209.7456263141691
 20
179.9624960235134
 30
0.0
  0
VERTEX
  5
3E8
330
3E6
100
AcDbEntity
  8
AM_3
  6
AI-Linetype-6
 62
    11
420
 16744319
370
    18
100
AcDbVertex
100
AcDb2dVertex
 10
209.745626314164
 20
159.9624960235134
 30
0.0
  0
SEQEND
  5
3EA
330
3E6
100
AcDbEntity
  8
AM_3
  6
AI-Linetype-6
 62
    11
420
 16744319
370
    18
  0
ENDBLK
  5
3E5
330
3E2
100
AcDbEntity
  8
0
100
AcDbBlockEnd
  0
BLOCK
  5
3ED
330
3EB
100
AcDbEntity
  8
0
100
AcDbBlockBegin
  2
block 127
 70
     0
 10
0.0
 20
0.0
 30
0.0
  3
block 127
  1

  0
POLYLINE
  5
3EF
330
3EB
100
AcDbEntity
  8
AM_3
  6
AI-Linetype-7
 62
    11
420
 16744319
370
    18
100
AcDb2dPolyline
 66
     1
 10
0.0
 20
0.0
 30
0.0
  0
VERTEX
  5
3F0
330
3EF
100
AcDbEntity
  8
AM_3
  6
AI-Linetype-7
 62
    11
420
 16744319
370
    18
100
AcDbVertex
100
AcDb2dVertex
 10
208.745626314162
 20
158.9624960235124
 30
0.0
  0
VERTEX
  5
3F1
330
3EF
100
AcDbEntity
  8
AM_3
  6
AI-Linetype-7
 62
    11
420
 16744319
370
    18
100
AcDbVertex
100
AcDb2dVertex
 10
209.7456263141633
 20
159.9624960235134
 30
0.0
  0
SEQEND
  5
3F3
330
3EF
100
AcDbEntity
  8
AM_3
  6
AI-Linetype-7
 62
    11
420
 16744319
370
    18
  0
ENDBLK
  5
3EE
330
3EB
100
AcDbEntity
  8
0
100
AcDbBlockEnd
  0
BLOCK
  5
3F6
330
3F4
100
AcDbEntity
  8
0
100
AcDbBlockBegin
  2
block 128
 70
     0
 10
0.0
 20
0.0
 30
0.0
  3
block 128
  1

  0
POLYLINE
  5
3F8
330
3F4
100
AcDbEntity
  8
AM_3
  6
AI-Linetype-8
 62
    11
420
 16744319
370
    18
100
AcDb2dPolyline
 66
     1
 10
0.0
 20
0.0
 30
0.0
  0
VERTEX
  5
3F9
330
3F8
100
AcDbEntity
  8
AM_3
  6
AI-Linetype-8
 62
    11
420
 16744319
370
    18
100
AcDbVertex
100
AcDb2dVertex
 10
208.745626314162
 20
180.9624960235135
 30
0.0
  0
VERTEX
  5
3FA
330
3F8
100
AcDbEntity
  8
AM_3
  6
AI-Linetype-8
 62
    11
420
 16744319
370
    18
100
AcDbVertex
100
AcDb2dVertex
 10
209.7456263141633
 20
179.9624960235134
 30
0.0
  0
SEQEND
  5
3FC
330
3F8
100
AcDbEntity
  8
AM_3
  6
AI-Linetype-8
 62
    11
420
 16744319
370
    18
  0
ENDBLK
  5
3F7
330
3F4
100
AcDbEntity
  8
0
100
AcDbBlockEnd
  0
BLOCK
  5
3FF
330
3FD
100
AcDbEntity
  8
0
100
AcDbBlockBegin
  2
block 129
 70
     0
 10
0.0
 20
0.0
 30
0.0
  3
block 129
  1

  0
POLYLINE
  5
401
330
3FD
100
AcDbEntity
  8
AM_3
  6
AI-Linetype-9
 62
    11
420
 16744319
370
    18
100
AcDb2dPolyline
 66
     1
 10
0.0
 20
0.0
 30
0.0
  0
VERTEX
  5
402
330
401
100
AcDbEntity
  8
AM_3
  6
AI-Linetype-9
 62
    11
420
 16744319
370
    18
100
AcDbVertex
100
AcDb2dVertex
 10
209.7456263141633
 20
161.9624960235134
 30
0.0
  0
VERTEX
  5
403
330
401
100
AcDbEntity
  8
AM_3
  6
AI-Linetype-9
 62
    11
420
 16744319
370
    18
100
AcDbVertex
100
AcDb2dVertex
 10
190.1783595776258
 20
164.7124960235034
 30
0.0
  0
SEQEND
  5
405
330
401
100
AcDbEntity
  8
AM_3
  6
AI-Linetype-9
 62
    11
420
 16744319
370
    18
  0
ENDBLK
  5
400
330
3FD
100
AcDbEntity
  8
0
100
AcDbBlockEnd
  0
BLOCK
  5
408
330
406
100
AcDbEntity
  8
0
100
AcDbBlockBegin
  2
block 130
 70
     0
 10
0.0
 20
0.0
 30
0.0
  3
block 130
  1

  0
POLYLINE
  5
40A
330
406
100
AcDbEntity
  8
AM_3
  6
AI-Linetype-10
 62
    11
420
 16744319
370
    18
100
AcDb2dPolyline
 66
     1
 10
0.0
 20
0.0
 30
0.0
  0
VERTEX
  5
40B
330
40A
100
AcDbEntity
  8
AM_3
  6
AI-Linetype-10
 62
    11
420
 16744319
370
    18
100
AcDbVertex
100
AcDb2dVertex
 10
209.7456263141633
 20
177.9624960235134
 30
0.0
  0
VERTEX
  5
40C
330
40A
100
AcDbEntity
  8
AM_3
  6
AI-Linetype-10
 62
    11
420
 16744319
370
    18
100
AcDbVertex
100
AcDb2dVertex
 10
190.1783595776258
 20
175.212496023516
 30
0.0
  0
SEQEND
  5
40E
330
40A
100
AcDbEntity
  8
AM_3
  6
AI-Linetype-10
 62
    11
420
 16744319
370
    18
  0
ENDBLK
  5
409
330
406
100
AcDbEntity
  8
0
100
AcDbBlockEnd
  0
BLOCK
  5
411
330
40F
100
AcDbEntity
  8
0
100
AcDbBlockBegin
  2
block 131
 70
     0
 10
0.0
 20
0.0
 30
0.0
  3
block 131
  1

  0
POLYLINE
  5
413
330
40F
100
AcDbEntity
  8
AM_3
  6
AI-Linetype-11
 62
    11
420
 16744319
370
    18
100
AcDb2dPolyline
 66
     1
 10
0.0
 20
0.0
 30
0.0
  0
VERTEX
  5
414
330
413
100
AcDbEntity
  8
AM_3
  6
AI-Linetype-11
 62
    11
420
 16744319
370
    18
100
AcDbVertex
100
AcDb2dVertex
 10
208.7456263141652
 20
180.9624960235115
 30
0.0
  0
VERTEX
  5
415
330
413
100
AcDbEntity
  8
AM_3
  6
AI-Linetype-11
 62
    11
420
 16744319
370
    18
100
AcDbVertex
100
AcDb2dVertex
 10
189.2899638814895
 20
180.9624960234987
 30
0.0
  0
SEQEND
  5
417
330
413
100
AcDbEntity
  8
AM_3
  6
AI-Linetype-11
 62
    11
420
 16744319
370
    18
  0
ENDBLK
  5
412
330
40F
100
AcDbEntity
  8
0
100
AcDbBlockEnd
  0
BLOCK
  5
41A
330
418
100
AcDbEntity
  8
0
100
AcDbBlockBegin
  2
block 132
 70
     0
 10
0.0
 20
0.0
 30
0.0
  3
block 132
  1

  0
POLYLINE
  5
41C
330
418
100
AcDbEntity
  8
AM_3
  6
AI-Linetype-12
 62
    11
420
 16744319
370
    18
100
AcDb2dPolyline
 66
     1
 10
0.0
 20
0.0
 30
0.0
  0
VERTEX
  5
41D
330
41C
100
AcDbEntity
  8
AM_3
  6
AI-Linetype-12
 62
    11
420
 16744319
370
    18
100
AcDbVertex
100
AcDb2dVertex
 10
208.7456263141652
 20
158.9624960235143
 30
0.0
  0
VERTEX
  5
41E
330
41C
100
AcDbEntity
  8
AM_3
  6
AI-Linetype-12
 62
    11
420
 16744319
370
    18
100
AcDbVertex
100
AcDb2dVertex
 10
189.2899638814914
 20
158.9624960235326
 30
0.0
  0
SEQEND
  5
420
330
41C
100
AcDbEntity
  8
AM_3
  6
AI-Linetype-12
 62
    11
420
 16744319
370
    18
  0
ENDBLK
  5
41B
330
418
100
AcDbEntity
  8
0
100
AcDbBlockEnd
  0
BLOCK
  5
423
330
421
100
AcDbEntity
  8
0
100
AcDbBlockBegin
  2
block 133
 70
     0
 10
0.0
 20
0.0
 30
0.0
  3
block 133
  1

  0
POLYLINE
  5
425
330
421
100
AcDbEntity
  8
0
 62
     7
420
 16777215
370
    18
100
AcDb2dPolyline
 66
     1
 10
0.0
 20
0.0
 30
0.0
  0
VERTEX
  5
426
330
425
100
AcDbEntity
  8
0
 62
     7
420
 16777215
370
    18
100
AcDbVertex
100
AcDb2dVertex
 10
213.8456263142408
 20
125.766342583516
 30
0.0
  0
VERTEX
  5
427
330
425
100
AcDbEntity
  8
0
 62
     7
420
 16777215
370
    18
100
AcDbVertex
100
AcDb2dVertex
 10
216.8456263142402
 20
124.9624950135147
 30
0.0
  0
SEQEND
  5
428
330
425
100
AcDbEntity
  8
0
 62
     7
420
 16777215
370
    18
  0
ENDBLK
  5
424
330
421
100
AcDbEntity
  8
0
100
AcDbBlockEnd
  0
BLOCK
  5
42B
330
429
100
AcDbEntity
  8
0
100
AcDbBlockBegin
  2
block 134
 70
     0
 10
0.0
 20
0.0
 30
0.0
  3
block 134
  1

  0
POLYLINE
  5
42D
330
429
100
AcDbEntity
  8
0
 62
     7
420
 16777215
370
    18
100
AcDb2dPolyline
 66
     1
 10
0.0
 20
0.0
 30
0.0
  0
VERTEX
  5
42E
330
42D
100
AcDbEntity
  8
0
 62
     7
420
 16777215
370
    18
100
AcDbVertex
100
AcDb2dVertex
 10
216.8456263142402
 20
124.9624950135147
 30
0.0
  0
VERTEX
  5
42F
330
42D
100
AcDbEntity
  8
0
 62
     7
420
 16777215
370
    18
100
AcDbVertex
100
AcDb2dVertex
 10
213.8456263142408
 20
124.1586474435173
 30
0.0
  0
SEQEND
  5
430
330
42D
100
AcDbEntity
  8
0
 62
     7
420
 16777215
370
    18
  0
ENDBLK
  5
42C
330
429
100
AcDbEntity
  8
0
100
AcDbBlockEnd
  0
BLOCK
  5
433
330
431
100
AcDbEntity
  8
0
100
AcDbBlockBegin
  2
block 135
 70
     0
 10
0.0
 20
0.0
 30
0.0
  3
block 135
  1

  0
POLYLINE
  5
435
330
431
100
AcDbEntity
  8
0
 62
     7
420
 16777215
370
    18
100
AcDb2dPolyline
 66
     1
 10
0.0
 20
0.0
 30
0.0
  0
VERTEX
  5
436
330
435
100
AcDbEntity
  8
0
 62
     7
420
 16777215
370
    18
100
AcDbVertex
100
AcDb2dVertex
 10
216.8456263142402
 20
124.9624950135147
 30
0.0
  0
VERTEX
  5
437
330
435
100
AcDbEntity
  8
0
 62
     7
420
 16777215
370
    18
100
AcDbVertex
100
AcDb2dVertex
 10
213.8456263142408
 20
124.9624950135147
 30
0.0
  0
SEQEND
  5
438
330
435
100
AcDbEntity
  8
0
 62
     7
420
 16777215
370
    18
  0
ENDBLK
  5
434
330
431
100
AcDbEntity
  8
0
100
AcDbBlockEnd
  0
BLOCK
  5
43B
330
439
100
AcDbEntity
  8
0
100
AcDbBlockBegin
  2
block 136
 70
     0
 10
0.0
 20
0.0
 30
0.0
  3
block 136
  1

  0
POLYLINE
  5
43D
330
439
100
AcDbEntity
  8
0
 62
     7
420
 16777215
370
    18
100
AcDb2dPolyline
 66
     1
 10
0.0
 20
0.0
 30
0.0
  0
VERTEX
  5
43E
330
43D
100
AcDbEntity
  8
0
 62
     7
420
 16777215
370
    18
100
AcDbVertex
100
AcDb2dVertex
 10
129.4956263142392
 20
124.1586474435173
 30
0.0
  0
VERTEX
  5
43F
330
43D
100
AcDbEntity
  8
0
 62
     7
420
 16777215
370
    18
100
AcDbVertex
100
AcDb2dVertex
 10
126.4956263142391
 20
124.9624950135147
 30
0.0
  0
SEQEND
  5
440
330
43D
100
AcDbEntity
  8
0
 62
     7
420
 16777215
370
    18
  0
ENDBLK
  5
43C
330
439
100
AcDbEntity
  8
0
100
AcDbBlockEnd
  0
BLOCK
  5
443
330
441
100
AcDbEntity
  8
0
100
AcDbBlockBegin
  2
block 137
 70
     0
 10
0.0
 20
0.0
 30
0.0
  3
block 137
  1

  0
POLYLINE
  5
445
330
441
100
AcDbEntity
  8
0
 62
     7
420
 16777215
370
    18
100
AcDb2dPolyline
 66
     1
 10
0.0
 20
0.0
 30
0.0
  0
VERTEX
  5
446
330
445
100
AcDbEntity
  8
0
 62
     7
420
 16777215
370
    18
100
AcDbVertex
100
AcDb2dVertex
 10
126.4956263142391
 20
124.9624950135147
 30
0.0
  0
VERTEX
  5
447
330
445
100
AcDbEntity
  8
0
 62
     7
420
 16777215
370
    18
100
AcDbVertex
100
AcDb2dVertex
 10
129.4956263142392
 20
125.766342583516
 30
0.0
  0
SEQEND
  5
448
330
445
100
AcDbEntity
  8
0
 62
     7
420
 16777215
370
    18
  0
ENDBLK
  5
444
330
441
100
AcDbEntity
  8
0
100
AcDbBlockEnd
  0
BLOCK
  5
44B
330
449
100
AcDbEntity
  8
0
100
AcDbBlockBegin
  2
block 138
 70
     0
 10
0.0
 20
0.0
 30
0.0
  3
block 138
  1

  0
POLYLINE
  5
44D
330
449
100
AcDbEntity
  8
0
 62
     7
420
 16777215
370
    18
100
AcDb2dPolyline
 66
     1
 10
0.0
 20
0.0
 30
0.0
  0
VERTEX
  5
44E
330
44D
100
AcDbEntity
  8
0
 62
     7
420
 16777215
370
    18
100
AcDbVertex
100
AcDb2dVertex
 10
126.4956263142391
 20
124.9624950135147
 30
0.0
  0
VERTEX
  5
44F
330
44D
100
AcDbEntity
  8
0
 62
     7
420
 16777215
370
    18
100
AcDbVertex
100
AcDb2dVertex
 10
129.4956263142392
 20
124.9624950135147
 30
0.0
  0
SEQEND
  5
450
330
44D
100
AcDbEntity
  8
0
 62
     7
420
 16777215
370
    18
  0
ENDBLK
  5
44C
330
449
100
AcDbEntity
  8
0
100
AcDbBlockEnd
  0
BLOCK
  5
453
330
451
100
AcDbEntity
  8
0
100
AcDbBlockBegin
  2
block 139
 70
     0
 10
0.0
 20
0.0
 30
0.0
  3
block 139
  1

  0
POLYLINE
  5
455
330
451
100
AcDbEntity
  8
0
 62
     7
420
 16777215
370
    18
100
AcDb2dPolyline
 66
     1
 10
0.0
 20
0.0
 30
0.0
  0
VERTEX
  5
456
330
455
100
AcDbEntity
  8
0
 62
     7
420
 16777215
370
    18
100
AcDbVertex
100
AcDb2dVertex
 10
151.4956263142381
 20
134.158647443517
 30
0.0
  0
VERTEX
  5
457
330
455
100
AcDbEntity
  8
0
 62
     7
420
 16777215
370
    18
100
AcDbVertex
100
AcDb2dVertex
 10
148.495626314238
 20
134.9624950135151
 30
0.0
  0
SEQEND
  5
458
330
455
100
AcDbEntity
  8
0
 62
     7
420
 16777215
370
    18
  0
ENDBLK
  5
454
330
451
100
AcDbEntity
  8
0
100
AcDbBlockEnd
  0
BLOCK
  5
45B
330
459
100
AcDbEntity
  8
0
100
AcDbBlockBegin
  2
block 140
 70
     0
 10
0.0
 20
0.0
 30
0.0
  3
block 140
  1

  0
POLYLINE
  5
45D
330
459
100
AcDbEntity
  8
0
 62
     7
420
 16777215
370
    18
100
AcDb2dPolyline
 66
     1
 10
0.0
 20
0.0
 30
0.0
  0
VERTEX
  5
45E
330
45D
100
AcDbEntity
  8
0
 62
     7
420
 16777215
370
    18
100
AcDbVertex
100
AcDb2dVertex
 10
148.495626314238
 20
134.9624950135151
 30
0.0
  0
VERTEX
  5
45F
330
45D
100
AcDbEntity
  8
0
 62
     7
420
 16777215
370
    18
100
AcDbVertex
100
AcDb2dVertex
 10
151.4956263142381
 20
135.7663425835164
 30
0.0
  0
SEQEND
  5
460
330
45D
100
AcDbEntity
  8
0
 62
     7
420
 16777215
370
    18
  0
ENDBLK
  5
45C
330
459
100
AcDbEntity
  8
0
100
AcDbBlockEnd
  0
BLOCK
  5
463
330
461
100
AcDbEntity
  8
0
100
AcDbBlockBegin
  2
block 141
 70
     0
 10
0.0
 20
0.0
 30
0.0
  3
block 141
  1

  0
POLYLINE
  5
465
330
461
100
AcDbEntity
  8
0
 62
     7
420
 16777215
370
    18
100
AcDb2dPolyline
 66
     1
 10
0.0
 20
0.0
 30
0.0
  0
VERTEX
  5
466
330
465
100
AcDbEntity
  8
0
 62
     7
420
 16777215
370
    18
100
AcDbVertex
100
AcDb2dVertex
 10
148.495626314238
 20
134.9624950135151
 30
0.0
  0
VERTEX
  5
467
330
465
100
AcDbEntity
  8
0
 62
     7
420
 16777215
370
    18
100
AcDbVertex
100
AcDb2dVertex
 10
151.4956263142381
 20
134.9624950135151
 30
0.0
  0
SEQEND
  5
468
330
465
100
AcDbEntity
  8
0
 62
     7
420
 16777215
370
    18
  0
ENDBLK
  5
464
330
461
100
AcDbEntity
  8
0
100
AcDbBlockEnd
  0
BLOCK
  5
46B
330
469
100
AcDbEntity
  8
0
100
AcDbBlockBegin
  2
block 142
 70
     0
 10
0.0
 20
0.0
 30
0.0
  3
block 142
  1

  0
POLYLINE
  5
46D
330
469
100
AcDbEntity
  8
0
 62
     7
420
 16777215
370
    18
100
AcDb2dPolyline
 66
     1
 10
0.0
 20
0.0
 30
0.0
  0
VERTEX
  5
46E
330
46D
100
AcDbEntity
  8
0
 62
     7
420
 16777215
370
    18
100
AcDbVertex
100
AcDb2dVertex
 10
213.8456263142408
 20
135.7663425835164
 30
0.0
  0
VERTEX
  5
46F
330
46D
100
AcDbEntity
  8
0
 62
     7
420
 16777215
370
    18
100
AcDbVertex
100
AcDb2dVertex
 10
216.8456263142402
 20
134.9624950135151
 30
0.0
  0
SEQEND
  5
470
330
46D
100
AcDbEntity
  8
0
 62
     7
420
 16777215
370
    18
  0
ENDBLK
  5
46C
330
469
100
AcDbEntity
  8
0
100
AcDbBlockEnd
  0
BLOCK
  5
473
330
471
100
AcDbEntity
  8
0
100
AcDbBlockBegin
  2
block 143
 70
     0
 10
0.0
 20
0.0
 30
0.0
  3
block 143
  1

  0
POLYLINE
  5
475
330
471
100
AcDbEntity
  8
0
 62
     7
420
 16777215
370
    18
100
AcDb2dPolyline
 66
     1
 10
0.0
 20
0.0
 30
0.0
  0
VERTEX
  5
476
330
475
100
AcDbEntity
  8
0
 62
     7
420
 16777215
370
    18
100
AcDbVertex
100
AcDb2dVertex
 10
216.8456263142402
 20
134.9624950135151
 30
0.0
  0
VERTEX
  5
477
330
475
100
AcDbEntity
  8
0
 62
     7
420
 16777215
370
    18
100
AcDbVertex
100
AcDb2dVertex
 10
213.8456263142408
 20
134.158647443517
 30
0.0
  0
SEQEND
  5
478
330
475
100
AcDbEntity
  8
0
 62
     7
420
 16777215
370
    18
  0
ENDBLK
  5
474
330
471
100
AcDbEntity
  8
0
100
AcDbBlockEnd
  0
BLOCK
  5
47B
330
479
100
AcDbEntity
  8
0
100
AcDbBlockBegin
  2
block 144
 70
     0
 10
0.0
 20
0.0
 30
0.0
  3
block 144
  1

  0
POLYLINE
  5
47D
330
479
100
AcDbEntity
  8
0
 62
     7
420
 16777215
370
    18
100
AcDb2dPolyline
 66
     1
 10
0.0
 20
0.0
 30
0.0
  0
VERTEX
  5
47E
330
47D
100
AcDbEntity
  8
0
 62
     7
420
 16777215
370
    18
100
AcDbVertex
100
AcDb2dVertex
 10
216.8456263142402
 20
134.9624950135151
 30
0.0
  0
VERTEX
  5
47F
330
47D
100
AcDbEntity
  8
0
 62
     7
420
 16777215
370
    18
100
AcDbVertex
100
AcDb2dVertex
 10
213.8456263142408
 20
134.9624950135151
 30
0.0
  0
SEQEND
  5
480
330
47D
100
AcDbEntity
  8
0
 62
     7
420
 16777215
370
    18
  0
ENDBLK
  5
47C
330
479
100
AcDbEntity
  8
0
100
AcDbBlockEnd
  0
BLOCK
  5
483
330
481
100
AcDbEntity
  8
0
100
AcDbBlockBegin
  2
block 145
 70
     0
 10
0.0
 20
0.0
 30
0.0
  3
block 145
  1

  0
POLYLINE
  5
485
330
481
100
AcDbEntity
  8
0
 62
     7
420
 16777215
370
    18
100
AcDb2dPolyline
 66
     1
 10
0.0
 20
0.0
 30
0.0
  0
VERTEX
  5
486
330
485
100
AcDbEntity
  8
0
 62
     7
420
 16777215
370
    18
100
AcDbVertex
100
AcDb2dVertex
 10
235.6917787442405
 20
182.9738403299907
 30
0.0
  0
VERTEX
  5
487
330
485
100
AcDbEntity
  8
0
 62
     7
420
 16777215
370
    18
100
AcDbVertex
100
AcDb2dVertex
 10
236.4956263142385
 20
185.9738403299908
 30
0.0
  0
SEQEND
  5
488
330
485
100
AcDbEntity
  8
0
 62
     7
420
 16777215
370
    18
  0
ENDBLK
  5
484
330
481
100
AcDbEntity
  8
0
100
AcDbBlockEnd
  0
BLOCK
  5
48B
330
489
100
AcDbEntity
  8
0
100
AcDbBlockBegin
  2
block 146
 70
     0
 10
0.0
 20
0.0
 30
0.0
  3
block 146
  1

  0
POLYLINE
  5
48D
330
489
100
AcDbEntity
  8
0
 62
     7
420
 16777215
370
    18
100
AcDb2dPolyline
 66
     1
 10
0.0
 20
0.0
 30
0.0
  0
VERTEX
  5
48E
330
48D
100
AcDbEntity
  8
0
 62
     7
420
 16777215
370
    18
100
AcDbVertex
100
AcDb2dVertex
 10
236.4956263142385
 20
185.9738403299908
 30
0.0
  0
VERTEX
  5
48F
330
48D
100
AcDbEntity
  8
0
 62
     7
420
 16777215
370
    18
100
AcDbVertex
100
AcDb2dVertex
 10
237.2994738842398
 20
182.9738403299907
 30
0.0
  0
SEQEND
  5
490
330
48D
100
AcDbEntity
  8
0
 62
     7
420
 16777215
370
    18
  0
ENDBLK
  5
48C
330
489
100
AcDbEntity
  8
0
100
AcDbBlockEnd
  0
BLOCK
  5
493
330
491
100
AcDbEntity
  8
0
100
AcDbBlockBegin
  2
block 147
 70
     0
 10
0.0
 20
0.0
 30
0.0
  3
block 147
  1

  0
POLYLINE
  5
495
330
491
100
AcDbEntity
  8
0
 62
     7
420
 16777215
370
    18
100
AcDb2dPolyline
 66
     1
 10
0.0
 20
0.0
 30
0.0
  0
VERTEX
  5
496
330
495
100
AcDbEntity
  8
0
 62
     7
420
 16777215
370
    18
100
AcDbVertex
100
AcDb2dVertex
 10
236.4956263142385
 20
185.9738403299908
 30
0.0
  0
VERTEX
  5
497
330
495
100
AcDbEntity
  8
0
 62
     7
420
 16777215
370
    18
100
AcDbVertex
100
AcDb2dVertex
 10
236.4956263142385
 20
182.9738403299907
 30
0.0
  0
SEQEND
  5
498
330
495
100
AcDbEntity
  8
0
 62
     7
420
 16777215
370
    18
  0
ENDBLK
  5
494
330
491
100
AcDbEntity
  8
0
100
AcDbBlockEnd
  0
BLOCK
  5
49B
330
499
100
AcDbEntity
  8
0
100
AcDbBlockBegin
  2
block 148
 70
     0
 10
0.0
 20
0.0
 30
0.0
  3
block 148
  1

  0
POLYLINE
  5
49D
330
499
100
AcDbEntity
  8
0
 62
     7
420
 16777215
370
    18
100
AcDb2dPolyline
 66
     1
 10
0.0
 20
0.0
 30
0.0
  0
VERTEX
  5
49E
330
49D
100
AcDbEntity
  8
0
 62
     7
420
 16777215
370
    18
100
AcDbVertex
100
AcDb2dVertex
 10
237.2994738842398
 20
156.9738403299892
 30
0.0
  0
VERTEX
  5
49F
330
49D
100
AcDbEntity
  8
0
 62
     7
420
 16777215
370
    18
100
AcDbVertex
100
AcDb2dVertex
 10
236.4956263142385
 20
153.9738403299891
 30
0.0
  0
SEQEND
  5
4A0
330
49D
100
AcDbEntity
  8
0
 62
     7
420
 16777215
370
    18
  0
ENDBLK
  5
49C
330
499
100
AcDbEntity
  8
0
100
AcDbBlockEnd
  0
BLOCK
  5
4A3
330
4A1
100
AcDbEntity
  8
0
100
AcDbBlockBegin
  2
block 149
 70
     0
 10
0.0
 20
0.0
 30
0.0
  3
block 149
  1

  0
POLYLINE
  5
4A5
330
4A1
100
AcDbEntity
  8
0
 62
     7
420
 16777215
370
    18
100
AcDb2dPolyline
 66
     1
 10
0.0
 20
0.0
 30
0.0
  0
VERTEX
  5
4A6
330
4A5
100
AcDbEntity
  8
0
 62
     7
420
 16777215
370
    18
100
AcDbVertex
100
AcDb2dVertex
 10
236.4956263142385
 20
153.9738403299891
 30
0.0
  0
VERTEX
  5
4A7
330
4A5
100
AcDbEntity
  8
0
 62
     7
420
 16777215
370
    18
100
AcDbVertex
100
AcDb2dVertex
 10
235.6917787442405
 20
156.9738403299889
 30
0.0
  0
SEQEND
  5
4A8
330
4A5
100
AcDbEntity
  8
0
 62
     7
420
 16777215
370
    18
  0
ENDBLK
  5
4A4
330
4A1
100
AcDbEntity
  8
0
100
AcDbBlockEnd
  0
BLOCK
  5
4AB
330
4A9
100
AcDbEntity
  8
0
100
AcDbBlockBegin
  2
block 150
 70
     0
 10
0.0
 20
0.0
 30
0.0
  3
block 150
  1

  0
POLYLINE
  5
4AD
330
4A9
100
AcDbEntity
  8
0
 62
     7
420
 16777215
370
    18
100
AcDb2dPolyline
 66
     1
 10
0.0
 20
0.0
 30
0.0
  0
VERTEX
  5
4AE
330
4AD
100
AcDbEntity
  8
0
 62
     7
420
 16777215
370
    18
100
AcDbVertex
100
AcDb2dVertex
 10
236.4956263142385
 20
153.9738403299891
 30
0.0
  0
VERTEX
  5
4AF
330
4AD
100
AcDbEntity
  8
0
 62
     7
420
 16777215
370
    18
100
AcDbVertex
100
AcDb2dVertex
 10
236.4956263142385
 20
156.9738403299889
 30
0.0
  0
SEQEND
  5
4B0
330
4AD
100
AcDbEntity
  8
0
 62
     7
420
 16777215
370
    18
  0
ENDBLK
  5
4AC
330
4A9
100
AcDbEntity
  8
0
100
AcDbBlockEnd
  0
BLOCK
  5
4B3
330
4B1
100
AcDbEntity
  8
0
100
AcDbBlockBegin
  2
block 151
 70
     0
 10
0.0
 20
0.0
 30
0.0
  3
block 151
  1

  0
POLYLINE
  5
4B5
330
4B1
100
AcDbEntity
  8
0
 62
     7
420
 16777215
370
    18
100
AcDb2dPolyline
 66
     1
 10
0.0
 20
0.0
 30
0.0
  0
VERTEX
  5
4B6
330
4B5
100
AcDbEntity
  8
0
 62
     7
420
 16777215
370
    18
100
AcDbVertex
100
AcDb2dVertex
 10
80.99562631423913
 20
124.1586474435154
 30
0.0
  0
VERTEX
  5
4B7
330
4B5
100
AcDbEntity
  8
0
 62
     7
420
 16777215
370
    18
100
AcDbVertex
100
AcDb2dVertex
 10
77.99562631423903
 20
124.9624950135147
 30
0.0
  0
SEQEND
  5
4B8
330
4B5
100
AcDbEntity
  8
0
 62
     7
420
 16777215
370
    18
  0
ENDBLK
  5
4B4
330
4B1
100
AcDbEntity
  8
0
100
AcDbBlockEnd
  0
BLOCK
  5
4BB
330
4B9
100
AcDbEntity
  8
0
100
AcDbBlockBegin
  2
block 152
 70
     0
 10
0.0
 20
0.0
 30
0.0
  3
block 152
  1

  0
POLYLINE
  5
4BD
330
4B9
100
AcDbEntity
  8
0
 62
     7
420
 16777215
370
    18
100
AcDb2dPolyline
 66
     1
 10
0.0
 20
0.0
 30
0.0
  0
VERTEX
  5
4BE
330
4BD
100
AcDbEntity
  8
0
 62
     7
420
 16777215
370
    18
100
AcDbVertex
100
AcDb2dVertex
 10
77.99562631423903
 20
124.9624950135147
 30
0.0
  0
VERTEX
  5
4BF
330
4BD
100
AcDbEntity
  8
0
 62
     7
420
 16777215
370
    18
100
AcDbVertex
100
AcDb2dVertex
 10
80.99562631423913
 20
125.766342583516
 30
0.0
  0
SEQEND
  5
4C0
330
4BD
100
AcDbEntity
  8
0
 62
     7
420
 16777215
370
    18
  0
ENDBLK
  5
4BC
330
4B9
100
AcDbEntity
  8
0
100
AcDbBlockEnd
  0
BLOCK
  5
4C3
330
4C1
100
AcDbEntity
  8
0
100
AcDbBlockBegin
  2
block 153
 70
     0
 10
0.0
 20
0.0
 30
0.0
  3
block 153
  1

  0
POLYLINE
  5
4C5
330
4C1
100
AcDbEntity
  8
0
 62
     7
420
 16777215
370
    18
100
AcDb2dPolyline
 66
     1
 10
0.0
 20
0.0
 30
0.0
  0
VERTEX
  5
4C6
330
4C5
100
AcDbEntity
  8
0
 62
     7
420
 16777215
370
    18
100
AcDbVertex
100
AcDb2dVertex
 10
77.99562631423903
 20
124.9624950135147
 30
0.0
  0
VERTEX
  5
4C7
330
4C5
100
AcDbEntity
  8
0
 62
     7
420
 16777215
370
    18
100
AcDbVertex
100
AcDb2dVertex
 10
80.99562631423913
 20
124.9624950135147
 30
0.0
  0
SEQEND
  5
4C8
330
4C5
100
AcDbEntity
  8
0
 62
     7
420
 16777215
370
    18
  0
ENDBLK
  5
4C4
330
4C1
100
AcDbEntity
  8
0
100
AcDbBlockEnd
  0
BLOCK
  5
4CB
330
4C9
100
AcDbEntity
  8
0
100
AcDbBlockBegin
  2
block 154
 70
     0
 10
0.0
 20
0.0
 30
0.0
  3
block 154
  1

  0
POLYLINE
  5
4CD
330
4C9
100
AcDbEntity
  8
0
 62
     7
420
 16777215
370
    18
100
AcDb2dPolyline
 66
     1
 10
0.0
 20
0.0
 30
0.0
  0
VERTEX
  5
4CE
330
4CD
100
AcDbEntity
  8
0
 62
     7
420
 16777215
370
    18
100
AcDbVertex
100
AcDb2dVertex
 10
123.495626314239
 20
125.766342583516
 30
0.0
  0
VERTEX
  5
4CF
330
4CD
100
AcDbEntity
  8
0
 62
     7
420
 16777215
370
    18
100
AcDbVertex
100
AcDb2dVertex
 10
126.4956263142391
 20
124.9624950135147
 30
0.0
  0
SEQEND
  5
4D0
330
4CD
100
AcDbEntity
  8
0
 62
     7
420
 16777215
370
    18
  0
ENDBLK
  5
4CC
330
4C9
100
AcDbEntity
  8
0
100
AcDbBlockEnd
  0
BLOCK
  5
4D3
330
4D1
100
AcDbEntity
  8
0
100
AcDbBlockBegin
  2
block 155
 70
     0
 10
0.0
 20
0.0
 30
0.0
  3
block 155
  1

  0
POLYLINE
  5
4D5
330
4D1
100
AcDbEntity
  8
0
 62
     7
420
 16777215
370
    18
100
AcDb2dPolyline
 66
     1
 10
0.0
 20
0.0
 30
0.0
  0
VERTEX
  5
4D6
330
4D5
100
AcDbEntity
  8
0
 62
     7
420
 16777215
370
    18
100
AcDbVertex
100
AcDb2dVertex
 10
126.4956263142391
 20
124.9624950135147
 30
0.0
  0
VERTEX
  5
4D7
330
4D5
100
AcDbEntity
  8
0
 62
     7
420
 16777215
370
    18
100
AcDbVertex
100
AcDb2dVertex
 10
123.495626314239
 20
124.1586474435154
 30
0.0
  0
SEQEND
  5
4D8
330
4D5
100
AcDbEntity
  8
0
 62
     7
420
 16777215
370
    18
  0
ENDBLK
  5
4D4
330
4D1
100
AcDbEntity
  8
0
100
AcDbBlockEnd
  0
BLOCK
  5
4DB
330
4D9
100
AcDbEntity
  8
0
100
AcDbBlockBegin
  2
block 156
 70
     0
 10
0.0
 20
0.0
 30
0.0
  3
block 156
  1

  0
POLYLINE
  5
4DD
330
4D9
100
AcDbEntity
  8
0
 62
     7
420
 16777215
370
    18
100
AcDb2dPolyline
 66
     1
 10
0.0
 20
0.0
 30
0.0
  0
VERTEX
  5
4DE
330
4DD
100
AcDbEntity
  8
0
 62
     7
420
 16777215
370
    18
100
AcDbVertex
100
AcDb2dVertex
 10
126.4956263142391
 20
124.9624950135147
 30
0.0
  0
VERTEX
  5
4DF
330
4DD
100
AcDbEntity
  8
0
 62
     7
420
 16777215
370
    18
100
AcDbVertex
100
AcDb2dVertex
 10
123.495626314239
 20
124.9624950135147
 30
0.0
  0
SEQEND
  5
4E0
330
4DD
100
AcDbEntity
  8
0
 62
     7
420
 16777215
370
    18
  0
ENDBLK
  5
4DC
330
4D9
100
AcDbEntity
  8
0
100
AcDbBlockEnd
  0
BLOCK
  5
4E3
330
4E1
100
AcDbEntity
  8
0
100
AcDbBlockBegin
  2
block 157
 70
     0
 10
0.0
 20
0.0
 30
0.0
  3
block 157
  1

  0
POLYLINE
  5
4E5
330
4E1
100
AcDbEntity
  8
0
 62
     7
420
 16777215
370
    18
100
AcDb2dPolyline
 66
     1
 10
0.0
 20
0.0
 30
0.0
  0
VERTEX
  5
4E6
330
4E5
100
AcDbEntity
  8
0
 62
     7
420
 16777215
370
    18
100
AcDbVertex
100
AcDb2dVertex
 10
80.99562631423913
 20
114.158647443517
 30
0.0
  0
VERTEX
  5
4E7
330
4E5
100
AcDbEntity
  8
0
 62
     7
420
 16777215
370
    18
100
AcDbVertex
100
AcDb2dVertex
 10
77.99562631423903
 20
114.962495013515
 30
0.0
  0
SEQEND
  5
4E8
330
4E5
100
AcDbEntity
  8
0
 62
     7
420
 16777215
370
    18
  0
ENDBLK
  5
4E4
330
4E1
100
AcDbEntity
  8
0
100
AcDbBlockEnd
  0
BLOCK
  5
4EB
330
4E9
100
AcDbEntity
  8
0
100
AcDbBlockBegin
  2
block 158
 70
     0
 10
0.0
 20
0.0
 30
0.0
  3
block 158
  1

  0
POLYLINE
  5
4ED
330
4E9
100
AcDbEntity
  8
0
 62
     7
420
 16777215
370
    18
100
AcDb2dPolyline
 66
     1
 10
0.0
 20
0.0
 30
0.0
  0
VERTEX
  5
4EE
330
4ED
100
AcDbEntity
  8
0
 62
     7
420
 16777215
370
    18
100
AcDbVertex
100
AcDb2dVertex
 10
77.99562631423903
 20
114.962495013515
 30
0.0
  0
VERTEX
  5
4EF
330
4ED
100
AcDbEntity
  8
0
 62
     7
420
 16777215
370
    18
100
AcDbVertex
100
AcDb2dVertex
 10
80.99562631423913
 20
115.7663425835163
 30
0.0
  0
SEQEND
  5
4F0
330
4ED
100
AcDbEntity
  8
0
 62
     7
420
 16777215
370
    18
  0
ENDBLK
  5
4EC
330
4E9
100
AcDbEntity
  8
0
100
AcDbBlockEnd
  0
BLOCK
  5
4F3
330
4F1
100
AcDbEntity
  8
0
100
AcDbBlockBegin
  2
block 159
 70
     0
 10
0.0
 20
0.0
 30
0.0
  3
block 159
  1

  0
POLYLINE
  5
4F5
330
4F1
100
AcDbEntity
  8
0
 62
     7
420
 16777215
370
    18
100
AcDb2dPolyline
 66
     1
 10
0.0
 20
0.0
 30
0.0
  0
VERTEX
  5
4F6
330
4F5
100
AcDbEntity
  8
0
 62
     7
420
 16777215
370
    18
100
AcDbVertex
100
AcDb2dVertex
 10
77.99562631423903
 20
114.962495013515
 30
0.0
  0
VERTEX
  5
4F7
330
4F5
100
AcDbEntity
  8
0
 62
     7
420
 16777215
370
    18
100
AcDbVertex
100
AcDb2dVertex
 10
80.99562631423913
 20
114.962495013515
 30
0.0
  0
SEQEND
  5
4F8
330
4F5
100
AcDbEntity
  8
0
 62
     7
420
 16777215
370
    18
  0
ENDBLK
  5
4F4
330
4F1
100
AcDbEntity
  8
0
100
AcDbBlockEnd
  0
BLOCK
  5
4FB
330
4F9
100
AcDbEntity
  8
0
100
AcDbBlockBegin
  2
block 160
 70
     0
 10
0.0
 20
0.0
 30
0.0
  3
block 160
  1

  0
POLYLINE
  5
4FD
330
4F9
100
AcDbEntity
  8
0
 62
     7
420
 16777215
370
    18
100
AcDb2dPolyline
 66
     1
 10
0.0
 20
0.0
 30
0.0
  0
VERTEX
  5
4FE
330
4FD
100
AcDbEntity
  8
0
 62
     7
420
 16777215
370
    18
100
AcDbVertex
100
AcDb2dVertex
 10
213.8456263142408
 20
115.7663425835163
 30
0.0
  0
VERTEX
  5
4FF
330
4FD
100
AcDbEntity
  8
0
 62
     7
420
 16777215
370
    18
100
AcDbVertex
100
AcDb2dVertex
 10
216.8456263142402
 20
114.962495013515
 30
0.0
  0
SEQEND
  5
500
330
4FD
100
AcDbEntity
  8
0
 62
     7
420
 16777215
370
    18
  0
ENDBLK
  5
4FC
330
4F9
100
AcDbEntity
  8
0
100
AcDbBlockEnd
  0
BLOCK
  5
503
330
501
100
AcDbEntity
  8
0
100
AcDbBlockBegin
  2
block 161
 70
     0
 10
0.0
 20
0.0
 30
0.0
  3
block 161
  1

  0
POLYLINE
  5
505
330
501
100
AcDbEntity
  8
0
 62
     7
420
 16777215
370
    18
100
AcDb2dPolyline
 66
     1
 10
0.0
 20
0.0
 30
0.0
  0
VERTEX
  5
506
330
505
100
AcDbEntity
  8
0
 62
     7
420
 16777215
370
    18
100
AcDbVertex
100
AcDb2dVertex
 10
216.8456263142402
 20
114.962495013515
 30
0.0
  0
VERTEX
  5
507
330
505
100
AcDbEntity
  8
0
 62
     7
420
 16777215
370
    18
100
AcDbVertex
100
AcDb2dVertex
 10
213.8456263142408
 20
114.158647443517
 30
0.0
  0
SEQEND
  5
508
330
505
100
AcDbEntity
  8
0
 62
     7
420
 16777215
370
    18
  0
ENDBLK
  5
504
330
501
100
AcDbEntity
  8
0
100
AcDbBlockEnd
  0
BLOCK
  5
50B
330
509
100
AcDbEntity
  8
0
100
AcDbBlockBegin
  2
block 162
 70
     0
 10
0.0
 20
0.0
 30
0.0
  3
block 162
  1

  0
POLYLINE
  5
50D
330
509
100
AcDbEntity
  8
0
 62
     7
420
 16777215
370
    18
100
AcDb2dPolyline
 66
     1
 10
0.0
 20
0.0
 30
0.0
  0
VERTEX
  5
50E
330
50D
100
AcDbEntity
  8
0
 62
     7
420
 16777215
370
    18
100
AcDbVertex
100
AcDb2dVertex
 10
216.8456263142402
 20
114.962495013515
 30
0.0
  0
VERTEX
  5
50F
330
50D
100
AcDbEntity
  8
0
 62
     7
420
 16777215
370
    18
100
AcDbVertex
100
AcDb2dVertex
 10
213.8456263142408
 20
114.962495013515
 30
0.0
  0
SEQEND
  5
510
330
50D
100
AcDbEntity
  8
0
 62
     7
420
 16777215
370
    18
  0
ENDBLK
  5
50C
330
509
100
AcDbEntity
  8
0
100
AcDbBlockEnd
  0
BLOCK
  5
513
330
511
100
AcDbEntity
  8
0
100
AcDbBlockBegin
  2
block 163
 70
     0
 10
0.0
 20
0.0
 30
0.0
  3
block 163
  1

  0
POLYLINE
  5
515
330
511
100
AcDbEntity
  8
0
 62
     7
420
 16777215
370
    18
100
AcDb2dPolyline
 66
     1
 10
0.0
 20
0.0
 30
0.0
  0
VERTEX
  5
516
330
515
100
AcDbEntity
  8
0
 62
     7
420
 16777215
370
    18
100
AcDbVertex
100
AcDb2dVertex
 10
65.69177874423958
 20
189.962496023516
 30
0.0
  0
VERTEX
  5
517
330
515
100
AcDbEntity
  8
0
 62
     7
420
 16777215
370
    18
100
AcDbVertex
100
AcDb2dVertex
 10
66.49562631423926
 20
192.9624960235161
 30
0.0
  0
SEQEND
  5
518
330
515
100
AcDbEntity
  8
0
 62
     7
420
 16777215
370
    18
  0
ENDBLK
  5
514
330
511
100
AcDbEntity
  8
0
100
AcDbBlockEnd
  0
BLOCK
  5
51B
330
519
100
AcDbEntity
  8
0
100
AcDbBlockBegin
  2
block 164
 70
     0
 10
0.0
 20
0.0
 30
0.0
  3
block 164
  1

  0
POLYLINE
  5
51D
330
519
100
AcDbEntity
  8
0
 62
     7
420
 16777215
370
    18
100
AcDb2dPolyline
 66
     1
 10
0.0
 20
0.0
 30
0.0
  0
VERTEX
  5
51E
330
51D
100
AcDbEntity
  8
0
 62
     7
420
 16777215
370
    18
100
AcDbVertex
100
AcDb2dVertex
 10
66.49562631423926
 20
192.9624960235161
 30
0.0
  0
VERTEX
  5
51F
330
51D
100
AcDbEntity
  8
0
 62
     7
420
 16777215
370
    18
100
AcDbVertex
100
AcDb2dVertex
 10
67.29947388423864
 20
189.962496023516
 30
0.0
  0
SEQEND
  5
520
330
51D
100
AcDbEntity
  8
0
 62
     7
420
 16777215
370
    18
  0
ENDBLK
  5
51C
330
519
100
AcDbEntity
  8
0
100
AcDbBlockEnd
  0
BLOCK
  5
523
330
521
100
AcDbEntity
  8
0
100
AcDbBlockBegin
  2
block 165
 70
     0
 10
0.0
 20
0.0
 30
0.0
  3
block 165
  1

  0
POLYLINE
  5
525
330
521
100
AcDbEntity
  8
0
 62
     7
420
 16777215
370
    18
100
AcDb2dPolyline
 66
     1
 10
0.0
 20
0.0
 30
0.0
  0
VERTEX
  5
526
330
525
100
AcDbEntity
  8
0
 62
     7
420
 16777215
370
    18
100
AcDbVertex
100
AcDb2dVertex
 10
66.49562631423926
 20
192.9624960235161
 30
0.0
  0
VERTEX
  5
527
330
525
100
AcDbEntity
  8
0
 62
     7
420
 16777215
370
    18
100
AcDbVertex
100
AcDb2dVertex
 10
66.49562631423926
 20
189.962496023516
 30
0.0
  0
SEQEND
  5
528
330
525
100
AcDbEntity
  8
0
 62
     7
420
 16777215
370
    18
  0
ENDBLK
  5
524
330
521
100
AcDbEntity
  8
0
100
AcDbBlockEnd
  0
BLOCK
  5
52B
330
529
100
AcDbEntity
  8
0
100
AcDbBlockBegin
  2
block 166
 70
     0
 10
0.0
 20
0.0
 30
0.0
  3
block 166
  1

  0
POLYLINE
  5
52D
330
529
100
AcDbEntity
  8
0
 62
     7
420
 16777215
370
    18
100
AcDb2dPolyline
 66
     1
 10
0.0
 20
0.0
 30
0.0
  0
VERTEX
  5
52E
330
52D
100
AcDbEntity
  8
0
 62
     7
420
 16777215
370
    18
100
AcDbVertex
100
AcDb2dVertex
 10
67.29947388423864
 20
149.9624960235162
 30
0.0
  0
VERTEX
  5
52F
330
52D
100
AcDbEntity
  8
0
 62
     7
420
 16777215
370
    18
100
AcDbVertex
100
AcDb2dVertex
 10
66.49562631423926
 20
146.9624960235158
 30
0.0
  0
SEQEND
  5
530
330
52D
100
AcDbEntity
  8
0
 62
     7
420
 16777215
370
    18
  0
ENDBLK
  5
52C
330
529
100
AcDbEntity
  8
0
100
AcDbBlockEnd
  0
BLOCK
  5
533
330
531
100
AcDbEntity
  8
0
100
AcDbBlockBegin
  2
block 167
 70
     0
 10
0.0
 20
0.0
 30
0.0
  3
block 167
  1

  0
POLYLINE
  5
535
330
531
100
AcDbEntity
  8
0
 62
     7
420
 16777215
370
    18
100
AcDb2dPolyline
 66
     1
 10
0.0
 20
0.0
 30
0.0
  0
VERTEX
  5
536
330
535
100
AcDbEntity
  8
0
 62
     7
420
 16777215
370
    18
100
AcDbVertex
100
AcDb2dVertex
 10
66.49562631423926
 20
146.9624960235165
 30
0.0
  0
VERTEX
  5
537
330
535
100
AcDbEntity
  8
0
 62
     7
420
 16777215
370
    18
100
AcDbVertex
100
AcDb2dVertex
 10
65.69177874423958
 20
149.9624960235162
 30
0.0
  0
SEQEND
  5
538
330
535
100
AcDbEntity
  8
0
 62
     7
420
 16777215
370
    18
  0
ENDBLK
  5
534
330
531
100
AcDbEntity
  8
0
100
AcDbBlockEnd
  0
BLOCK
  5
53B
330
539
100
AcDbEntity
  8
0
100
AcDbBlockBegin
  2
block 168
 70
     0
 10
0.0
 20
0.0
 30
0.0
  3
block 168
  1

  0
POLYLINE
  5
53D
330
539
100
AcDbEntity
  8
0
 62
     7
420
 16777215
370
    18
100
AcDb2dPolyline
 66
     1
 10
0.0
 20
0.0
 30
0.0
  0
VERTEX
  5
53E
330
53D
100
AcDbEntity
  8
0
 62
     7
420
 16777215
370
    18
100
AcDbVertex
100
AcDb2dVertex
 10
66.49562631423926
 20
146.9624960235165
 30
0.0
  0
VERTEX
  5
53F
330
53D
100
AcDbEntity
  8
0
 62
     7
420
 16777215
370
    18
100
AcDbVertex
100
AcDb2dVertex
 10
66.49562631423926
 20
149.9624960235162
 30
0.0
  0
SEQEND
  5
540
330
53D
100
AcDbEntity
  8
0
 62
     7
420
 16777215
370
    18
  0
ENDBLK
  5
53C
330
539
100
AcDbEntity
  8
0
100
AcDbBlockEnd
  0
BLOCK
  5
543
330
541
100
AcDbEntity
  8
0
100
AcDbBlockBegin
  2
block 169
 70
     0
 10
0.0
 20
0.0
 30
0.0
  3
block 169
  1

  0
POLYLINE
  5
545
330
541
100
AcDbEntity
  8
0
 62
     7
420
 16777215
370
    18
100
AcDb2dPolyline
 66
     1
 10
0.0
 20
0.0
 30
0.0
  0
VERTEX
  5
546
330
545
100
AcDbEntity
  8
0
 62
     7
420
 16777215
370
    18
100
AcDbVertex
100
AcDb2dVertex
 10
206.745626314169
 20
200.7663435935158
 30
0.0
  0
VERTEX
  5
547
330
545
100
AcDbEntity
  8
0
 62
     7
420
 16777215
370
    18
100
AcDbVertex
100
AcDb2dVertex
 10
209.7456263141691
 20
199.9624960235161
 30
0.0
  0
SEQEND
  5
548
330
545
100
AcDbEntity
  8
0
 62
     7
420
 16777215
370
    18
  0
ENDBLK
  5
544
330
541
100
AcDbEntity
  8
0
100
AcDbBlockEnd
  0
BLOCK
  5
54B
330
549
100
AcDbEntity
  8
0
100
AcDbBlockBegin
  2
block 170
 70
     0
 10
0.0
 20
0.0
 30
0.0
  3
block 170
  1

  0
POLYLINE
  5
54D
330
549
100
AcDbEntity
  8
0
 62
     7
420
 16777215
370
    18
100
AcDb2dPolyline
 66
     1
 10
0.0
 20
0.0
 30
0.0
  0
VERTEX
  5
54E
330
54D
100
AcDbEntity
  8
0
 62
     7
420
 16777215
370
    18
100
AcDbVertex
100
AcDb2dVertex
 10
209.7456263141691
 20
199.9624960235161
 30
0.0
  0
VERTEX
  5
54F
330
54D
100
AcDbEntity
  8
0
 62
     7
420
 16777215
370
    18
100
AcDbVertex
100
AcDb2dVertex
 10
206.745626314169
 20
199.1586484535164
 30
0.0
  0
SEQEND
  5
550
330
54D
100
AcDbEntity
  8
0
 62
     7
420
 16777215
370
    18
  0
ENDBLK
  5
54C
330
549
100
AcDbEntity
  8
0
100
AcDbBlockEnd
  0
BLOCK
  5
553
330
551
100
AcDbEntity
  8
0
100
AcDbBlockBegin
  2
block 171
 70
     0
 10
0.0
 20
0.0
 30
0.0
  3
block 171
  1

  0
POLYLINE
  5
555
330
551
100
AcDbEntity
  8
0
 62
     7
420
 16777215
370
    18
100
AcDb2dPolyline
 66
     1
 10
0.0
 20
0.0
 30
0.0
  0
VERTEX
  5
556
330
555
100
AcDbEntity
  8
0
 62
     7
420
 16777215
370
    18
100
AcDbVertex
100
AcDb2dVertex
 10
209.7456263141691
 20
199.9624960235161
 30
0.0
  0
VERTEX
  5
557
330
555
100
AcDbEntity
  8
0
 62
     7
420
 16777215
370
    18
100
AcDbVertex
100
AcDb2dVertex
 10
206.745626314169
 20
199.9624960235161
 30
0.0
  0
SEQEND
  5
558
330
555
100
AcDbEntity
  8
0
 62
     7
420
 16777215
370
    18
  0
ENDBLK
  5
554
330
551
100
AcDbEntity
  8
0
100
AcDbBlockEnd
  0
BLOCK
  5
55B
330
559
100
AcDbEntity
  8
0
100
AcDbBlockBegin
  2
block 172
 70
     0
 10
0.0
 20
0.0
 30
0.0
  3
block 172
  1

  0
POLYLINE
  5
55D
330
559
100
AcDbEntity
  8
0
 62
     7
420
 16777215
370
    18
100
AcDb2dPolyline
 66
     1
 10
0.0
 20
0.0
 30
0.0
  0
VERTEX
  5
55E
330
55D
100
AcDbEntity
  8
0
 62
     7
420
 16777215
370
    18
100
AcDbVertex
100
AcDb2dVertex
 10
129.4956263142392
 20
199.1586484535164
 30
0.0
  0
VERTEX
  5
55F
330
55D
100
AcDbEntity
  8
0
 62
     7
420
 16777215
370
    18
100
AcDbVertex
100
AcDb2dVertex
 10
126.4956263142391
 20
199.9624960235161
 30
0.0
  0
SEQEND
  5
560
330
55D
100
AcDbEntity
  8
0
 62
     7
420
 16777215
370
    18
  0
ENDBLK
  5
55C
330
559
100
AcDbEntity
  8
0
100
AcDbBlockEnd
  0
BLOCK
  5
563
330
561
100
AcDbEntity
  8
0
100
AcDbBlockBegin
  2
block 173
 70
     0
 10
0.0
 20
0.0
 30
0.0
  3
block 173
  1

  0
POLYLINE
  5
565
330
561
100
AcDbEntity
  8
0
 62
     7
420
 16777215
370
    18
100
AcDb2dPolyline
 66
     1
 10
0.0
 20
0.0
 30
0.0
  0
VERTEX
  5
566
330
565
100
AcDbEntity
  8
0
 62
     7
420
 16777215
370
    18
100
AcDbVertex
100
AcDb2dVertex
 10
126.4956263142391
 20
199.9624960235161
 30
0.0
  0
VERTEX
  5
567
330
565
100
AcDbEntity
  8
0
 62
     7
420
 16777215
370
    18
100
AcDbVertex
100
AcDb2dVertex
 10
129.4956263142392
 20
200.7663435935158
 30
0.0
  0
SEQEND
  5
568
330
565
100
AcDbEntity
  8
0
 62
     7
420
 16777215
370
    18
  0
ENDBLK
  5
564
330
561
100
AcDbEntity
  8
0
100
AcDbBlockEnd
  0
BLOCK
  5
56B
330
569
100
AcDbEntity
  8
0
100
AcDbBlockBegin
  2
block 174
 70
     0
 10
0.0
 20
0.0
 30
0.0
  3
block 174
  1

  0
POLYLINE
  5
56D
330
569
100
AcDbEntity
  8
0
 62
     7
420
 16777215
370
    18
100
AcDb2dPolyline
 66
     1
 10
0.0
 20
0.0
 30
0.0
  0
VERTEX
  5
56E
330
56D
100
AcDbEntity
  8
0
 62
     7
420
 16777215
370
    18
100
AcDbVertex
100
AcDb2dVertex
 10
126.4956263142391
 20
199.9624960235161
 30
0.0
  0
VERTEX
  5
56F
330
56D
100
AcDbEntity
  8
0
 62
     7
420
 16777215
370
    18
100
AcDbVertex
100
AcDb2dVertex
 10
129.4956263142392
 20
199.9624960235161
 30
0.0
  0
SEQEND
  5
570
330
56D
100
AcDbEntity
  8
0
 62
     7
420
 16777215
370
    18
  0
ENDBLK
  5
56C
330
569
100
AcDbEntity
  8
0
100
AcDbBlockEnd
  0
BLOCK
  5
573
330
571
100
AcDbEntity
  8
0
100
AcDbBlockBegin
  2
block 175
 70
     0
 10
0.0
 20
0.0
 30
0.0
  3
block 175
  1

  0
POLYLINE
  5
575
330
571
100
AcDbEntity
  8
0
 62
     7
420
 16777215
370
    18
100
AcDb2dPolyline
 66
     1
 10
0.0
 20
0.0
 30
0.0
  0
VERTEX
  5
576
330
575
100
AcDbEntity
  8
0
 62
     7
420
 16777215
370
    18
100
AcDbVertex
100
AcDb2dVertex
 10
219.8456263142403
 20
199.1586484535157
 30
0.0
  0
VERTEX
  5
577
330
575
100
AcDbEntity
  8
0
 62
     7
420
 16777215
370
    18
100
AcDbVertex
100
AcDb2dVertex
 10
216.8456263142402
 20
199.9624960235161
 30
0.0
  0
SEQEND
  5
578
330
575
100
AcDbEntity
  8
0
 62
     7
420
 16777215
370
    18
  0
ENDBLK
  5
574
330
571
100
AcDbEntity
  8
0
100
AcDbBlockEnd
  0
BLOCK
  5
57B
330
579
100
AcDbEntity
  8
0
100
AcDbBlockBegin
  2
block 176
 70
     0
 10
0.0
 20
0.0
 30
0.0
  3
block 176
  1

  0
POLYLINE
  5
57D
330
579
100
AcDbEntity
  8
0
 62
     7
420
 16777215
370
    18
100
AcDb2dPolyline
 66
     1
 10
0.0
 20
0.0
 30
0.0
  0
VERTEX
  5
57E
330
57D
100
AcDbEntity
  8
0
 62
     7
420
 16777215
370
    18
100
AcDbVertex
100
AcDb2dVertex
 10
216.8456263142402
 20
199.9624960235161
 30
0.0
  0
VERTEX
  5
57F
330
57D
100
AcDbEntity
  8
0
 62
     7
420
 16777215
370
    18
100
AcDbVertex
100
AcDb2dVertex
 10
219.8456263142403
 20
200.7663435935158
 30
0.0
  0
SEQEND
  5
580
330
57D
100
AcDbEntity
  8
0
 62
     7
420
 16777215
370
    18
  0
ENDBLK
  5
57C
330
579
100
AcDbEntity
  8
0
100
AcDbBlockEnd
  0
BLOCK
  5
583
330
581
100
AcDbEntity
  8
0
100
AcDbBlockBegin
  2
block 177
 70
     0
 10
0.0
 20
0.0
 30
0.0
  3
block 177
  1

  0
POLYLINE
  5
585
330
581
100
AcDbEntity
  8
0
 62
     7
420
 16777215
370
    18
100
AcDb2dPolyline
 66
     1
 10
0.0
 20
0.0
 30
0.0
  0
VERTEX
  5
586
330
585
100
AcDbEntity
  8
0
 62
     7
420
 16777215
370
    18
100
AcDbVertex
100
AcDb2dVertex
 10
216.8456263142402
 20
199.9624960235161
 30
0.0
  0
VERTEX
  5
587
330
585
100
AcDbEntity
  8
0
 62
     7
420
 16777215
370
    18
100
AcDbVertex
100
AcDb2dVertex
 10
219.8456263142403
 20
199.9624960235161
 30
0.0
  0
SEQEND
  5
588
330
585
100
AcDbEntity
  8
0
 62
     7
420
 16777215
370
    18
  0
ENDBLK
  5
584
330
581
100
AcDbEntity
  8
0
100
AcDbBlockEnd
  0
BLOCK
  5
58B
330
589
100
AcDbEntity
  8
0
100
AcDbBlockBegin
  2
block 178
 70
     0
 10
0.0
 20
0.0
 30
0.0
  3
block 178
  1

  0
POLYLINE
  5
58D
330
589
100
AcDbEntity
  8
0
 62
     7
420
 16777215
370
    18
100
AcDb2dPolyline
 66
     1
 10
0.0
 20
0.0
 30
0.0
  0
VERTEX
  5
58E
330
58D
100
AcDbEntity
  8
0
 62
     7
420
 16777215
370
    18
100
AcDbVertex
100
AcDb2dVertex
 10
206.745626314169
 20
200.7663435935158
 30
0.0
  0
VERTEX
  5
58F
330
58D
100
AcDbEntity
  8
0
 62
     7
420
 16777215
370
    18
100
AcDbVertex
100
AcDb2dVertex
 10
209.7456263141691
 20
199.9624960235161
 30
0.0
  0
SEQEND
  5
590
330
58D
100
AcDbEntity
  8
0
 62
     7
420
 16777215
370
    18
  0
ENDBLK
  5
58C
330
589
100
AcDbEntity
  8
0
100
AcDbBlockEnd
  0
BLOCK
  5
593
330
591
100
AcDbEntity
  8
0
100
AcDbBlockBegin
  2
block 179
 70
     0
 10
0.0
 20
0.0
 30
0.0
  3
block 179
  1

  0
POLYLINE
  5
595
330
591
100
AcDbEntity
  8
0
 62
     7
420
 16777215
370
    18
100
AcDb2dPolyline
 66
     1
 10
0.0
 20
0.0
 30
0.0
  0
VERTEX
  5
596
330
595
100
AcDbEntity
  8
0
 62
     7
420
 16777215
370
    18
100
AcDbVertex
100
AcDb2dVertex
 10
209.7456263141691
 20
199.9624960235161
 30
0.0
  0
VERTEX
  5
597
330
595
100
AcDbEntity
  8
0
 62
     7
420
 16777215
370
    18
100
AcDbVertex
100
AcDb2dVertex
 10
206.745626314169
 20
199.1586484535157
 30
0.0
  0
SEQEND
  5
598
330
595
100
AcDbEntity
  8
0
 62
     7
420
 16777215
370
    18
  0
ENDBLK
  5
594
330
591
100
AcDbEntity
  8
0
100
AcDbBlockEnd
  0
BLOCK
  5
59B
330
599
100
AcDbEntity
  8
0
100
AcDbBlockBegin
  2
block 180
 70
     0
 10
0.0
 20
0.0
 30
0.0
  3
block 180
  1

  0
POLYLINE
  5
59D
330
599
100
AcDbEntity
  8
0
 62
     7
420
 16777215
370
    18
100
AcDb2dPolyline
 66
     1
 10
0.0
 20
0.0
 30
0.0
  0
VERTEX
  5
59E
330
59D
100
AcDbEntity
  8
0
 62
     7
420
 16777215
370
    18
100
AcDbVertex
100
AcDb2dVertex
 10
209.7456263141691
 20
199.9624960235161
 30
0.0
  0
VERTEX
  5
59F
330
59D
100
AcDbEntity
  8
0
 62
     7
420
 16777215
370
    18
100
AcDbVertex
100
AcDb2dVertex
 10
206.745626314169
 20
199.9624960235161
 30
0.0
  0
SEQEND
  5
5A0
330
59D
100
AcDbEntity
  8
0
 62
     7
420
 16777215
370
    18
  0
ENDBLK
  5
59C
330
599
100
AcDbEntity
  8
0
100
AcDbBlockEnd
  0
BLOCK
  5
5A4
330
5A2
100
AcDbEntity
  8
0
100
AcDbBlockBegin
  2
block 181
 70
     0
 10
0.0
 20
0.0
 30
0.0
  3
block 181
  1

  0
SPLINE
  5
5A6
330
5A2
100
AcDbEntity
  8
AM_1
 62
     4
420
    65535
370
    25
100
AcDbSpline
210
0.0
220
0.0
230
1.0
 70
    11
 71
     3
 72
    17
 73
    13
 74
     0
 42
0.0000000001
 43
0.0000000001
 12
1.0
 22
0.0
 32
0.0
 13
1.0
 23
0.0
 33
0.0
 40
0.0
 40
0.0
 40
0.0
 40
0.0
 40
1.0
 40
1.0
 40
1.0
 40
2.0
 40
2.0
 40
2.0
 40
3.0
 40
3.0
 40
3.0
 40
4.0
 40
4.0
 40
4.0
 40
4.0
 10
124.9956263142394
 20
169.962496023516
 30
0.0
 10
124.9956263142394
 20
170.7909231482618
 30
0.0
 10
125.6671991894924
 20
171.462496023516
 30
0.0
 10
126.4956263142391
 20
171.462496023516
 30
0.0
 10
127.3240534389859
 20
171.462496023516
 30
0.0
 10
127.9956263142395
 20
170.7909231482618
 30
0.0
 10
127.9956263142395
 20
169.962496023516
 30
0.0
 10
127.9956263142395
 20
169.1340688987695
 30
0.0
 10
127.3240534389859
 20
168.4624960235162
 30
0.0
 10
126.4956263142391
 20
168.4624960235162
 30
0.0
 10
125.6671991894924
 20
168.4624960235162
 30
0.0
 10
124.9956263142394
 20
169.1340688987695
 30
0.0
 10
124.9956263142394
 20
169.962496023516
 30
0.0
  0
ENDBLK
  5
5A5
330
5A2
100
AcDbEntity
  8
0
100
AcDbBlockEnd
  0
BLOCK
  5
5A9
330
5A7
100
AcDbEntity
  8
0
100
AcDbBlockBegin
  2
block 182
 70
     0
 10
0.0
 20
0.0
 30
0.0
  3
block 182
  1

  0
POLYLINE
  5
5AB
330
5A7
100
AcDbEntity
  8
AM_1
 62
     4
420
    65535
370
    25
100
AcDb2dPolyline
 66
     1
 10
0.0
 20
0.0
 30
0.0
  0
VERTEX
  5
5AC
330
5AB
100
AcDbEntity
  8
AM_1
 62
     4
420
    65535
370
    25
100
AcDbVertex
100
AcDb2dVertex
 10
126.4956263142391
 20
171.462496023516
 30
0.0
  0
VERTEX
  5
5AD
330
5AB
100
AcDbEntity
  8
AM_1
 62
     4
420
    65535
370
    25
100
AcDbVertex
100
AcDb2dVertex
 10
126.4956263142391
 20
168.4624960235162
 30
0.0
  0
SEQEND
  5
5AE
330
5AB
100
AcDbEntity
  8
AM_1
 62
     4
420
    65535
370
    25
  0
ENDBLK
  5
5AA
330
5A7
100
AcDbEntity
  8
0
100
AcDbBlockEnd
  0
BLOCK
  5
5B1
330
5AF
100
AcDbEntity
  8
0
100
AcDbBlockBegin
  2
block 183
 70
     0
 10
0.0
 20
0.0
 30
0.0
  3
block 183
  1

  0
POLYLINE
  5
5B3
330
5AF
100
AcDbEntity
  8
AM_1
 62
     4
420
    65535
370
    25
100
AcDb2dPolyline
 66
     1
 10
0.0
 20
0.0
 30
0.0
  0
VERTEX
  5
5B4
330
5B3
100
AcDbEntity
  8
AM_1
 62
     4
420
    65535
370
    25
100
AcDbVertex
100
AcDb2dVertex
 10
127.9956263142395
 20
169.962496023516
 30
0.0
  0
VERTEX
  5
5B5
330
5B3
100
AcDbEntity
  8
AM_1
 62
     4
420
    65535
370
    25
100
AcDbVertex
100
AcDb2dVertex
 10
124.9956263142394
 20
169.962496023516
 30
0.0
  0
SEQEND
  5
5B6
330
5B3
100
AcDbEntity
  8
AM_1
 62
     4
420
    65535
370
    25
  0
ENDBLK
  5
5B2
330
5AF
100
AcDbEntity
  8
0
100
AcDbBlockEnd
  0
BLOCK
  5
5B9
330
5B7
100
AcDbEntity
  8
0
100
AcDbBlockBegin
  2
block 184
 70
     0
 10
0.0
 20
0.0
 30
0.0
  3
block 184
  1

  0
SPLINE
  5
5BB
330
5B7
100
AcDbEntity
  8
AM_1
370
     0
100
AcDbSpline
210
0.0
220
0.0
230
1.0
 70
    11
 71
     3
 72
    14
 73
    10
 74
     0
 42
0.0000000001
 43
0.0000000001
 12
1.0
 22
0.0
 32
0.0
 13
1.0
 23
0.0
 33
0.0
 40
0.0
 40
0.0
 40
0.0
 40
0.0
 40
1.0
 40
1.0
 40
1.0
 40
2.0
 40
2.0
 40
2.0
 40
3.0
 40
3.0
 40
3.0
 40
3.0
 10
126.4956263142391
 20
168.4624960235162
 30
0.0
 10
126.4956263142391
 20
168.4624960235162
 30
0.0
 10
126.4956263142391
 20
169.962496023516
 30
0.0
 10
126.4956263142391
 20
169.962496023516
 30
0.0
 10
126.4956263142391
 20
169.962496023516
 30
0.0
 10
124.9956263142394
 20
169.962496023516
 30
0.0
 10
124.9956263142394
 20
169.962496023516
 30
0.0
 10
124.9956263142394
 20
169.1340688987695
 30
0.0
 10
125.6671991894924
 20
168.4624960235162
 30
0.0
 10
126.4956263142391
 20
168.4624960235162
 30
0.0
  0
ENDBLK
  5
5BA
330
5B7
100
AcDbEntity
  8
0
100
AcDbBlockEnd
  0
BLOCK
  5
5BE
330
5BC
100
AcDbEntity
  8
0
100
AcDbBlockBegin
  2
block 185
 70
     0
 10
0.0
 20
0.0
 30
0.0
  3
block 185
  1

  0
SPLINE
  5
5C0
330
5BC
100
AcDbEntity
  8
AM_1
370
     0
100
AcDbSpline
210
0.0
220
0.0
230
1.0
 70
    11
 71
     3
 72
    14
 73
    10
 74
     0
 42
0.0000000001
 43
0.0000000001
 12
1.0
 22
0.0
 32
0.0
 13
1.0
 23
0.0
 33
0.0
 40
0.0
 40
0.0
 40
0.0
 40
0.0
 40
1.0
 40
1.0
 40
1.0
 40
2.0
 40
2.0
 40
2.0
 40
3.0
 40
3.0
 40
3.0
 40
3.0
 10
126.4956263142391
 20
168.4624960235162
 30
0.0
 10
126.4956263142391
 20
168.4624960235162
 30
0.0
 10
126.4956263142391
 20
169.962496023516
 30
0.0
 10
126.4956263142391
 20
169.962496023516
 30
0.0
 10
126.4956263142391
 20
169.962496023516
 30
0.0
 10
124.9956263142394
 20
169.962496023516
 30
0.0
 10
124.9956263142394
 20
169.962496023516
 30
0.0
 10
124.9956263142394
 20
169.1340688987695
 30
0.0
 10
125.6671991894924
 20
168.4624960235162
 30
0.0
 10
126.4956263142391
 20
168.4624960235162
 30
0.0
  0
ENDBLK
  5
5BF
330
5BC
100
AcDbEntity
  8
0
100
AcDbBlockEnd
  0
BLOCK
  5
5C3
330
5C1
100
AcDbEntity
  8
0
100
AcDbBlockBegin
  2
block 186
 70
     0
 10
0.0
 20
0.0
 30
0.0
  3
block 186
  1

  0
SPLINE
  5
5C5
330
5C1
100
AcDbEntity
  8
AM_1
370
     0
100
AcDbSpline
210
0.0
220
0.0
230
1.0
 70
    11
 71
     3
 72
    14
 73
    10
 74
     0
 42
0.0000000001
 43
0.0000000001
 12
1.0
 22
0.0
 32
0.0
 13
1.0
 23
0.0
 33
0.0
 40
0.0
 40
0.0
 40
0.0
 40
0.0
 40
1.0
 40
1.0
 40
1.0
 40
2.0
 40
2.0
 40
2.0
 40
3.0
 40
3.0
 40
3.0
 40
3.0
 10
126.4956263142391
 20
168.4624960235162
 30
0.0
 10
126.4956263142391
 20
168.4624960235162
 30
0.0
 10
126.4956263142391
 20
169.962496023516
 30
0.0
 10
126.4956263142391
 20
169.962496023516
 30
0.0
 10
126.4956263142391
 20
169.962496023516
 30
0.0
 10
124.9956263142394
 20
169.962496023516
 30
0.0
 10
124.9956263142394
 20
169.962496023516
 30
0.0
 10
124.9956263142394
 20
169.1340688987695
 30
0.0
 10
125.6671991894924
 20
168.4624960235162
 30
0.0
 10
126.4956263142391
 20
168.4624960235162
 30
0.0
  0
HATCH
  5
5C6
330
5C1
100
AcDbEntity
  8
AM_1
 62
    18
420
        0
100
AcDbHatch
 10
0.0
 20
0.0
 30
0.0
210
0.0
220
0.0
230
1.0
  2
AI_USER_DEFINED_HATCH
 70
     0
 71
     0
 91
        1
 92
        1
 93
        1
 72
     4
 94
        3
 73
     0
 74
     1
 95
       14
 96
       10
 40
0.0
 40
0.0
 40
0.0
 40
0.0
 40
1.0
 40
1.0
 40
1.0
 40
2.0
 40
2.0
 40
2.0
 40
3.0
 40
3.0
 40
3.0
 40
3.0
 10
126.4956263142391
 20
168.4624960235162
 10
126.4956263142391
 20
168.4624960235162
 10
126.4956263142391
 20
169.962496023516
 10
126.4956263142391
 20
169.962496023516
 10
126.4956263142391
 20
169.962496023516
 10
124.9956263142394
 20
169.962496023516
 10
124.9956263142394
 20
169.962496023516
 10
124.9956263142394
 20
169.1340688987695
 10
125.6671991894924
 20
168.4624960235162
 10
126.4956263142391
 20
168.4624960235162
 97
        0
 97
        0
 75
     0
 76
     0
 52
45.0
 41
10.0
 77
     0
 78
     1
 53
45.0
 43
0.0
 44
0.0
 45
-7.071067811865475
 46
7.071067811865476
 79
     0
 98
        0
  0
ENDBLK
  5
5C4
330
5C1
100
AcDbEntity
  8
0
100
AcDbBlockEnd
  0
BLOCK
  5
5C9
330
5C7
100
AcDbEntity
  8
0
100
AcDbBlockBegin
  2
block 187
 70
     0
 10
0.0
 20
0.0
 30
0.0
  3
block 187
  1

  0
SPLINE
  5
5CB
330
5C7
100
AcDbEntity
  8
AM_1
370
     0
100
AcDbSpline
210
0.0
220
0.0
230
1.0
 70
    11
 71
     3
 72
    14
 73
    10
 74
     0
 42
0.0000000001
 43
0.0000000001
 12
1.0
 22
0.0
 32
0.0
 13
1.0
 23
0.0
 33
0.0
 40
0.0
 40
0.0
 40
0.0
 40
0.0
 40
1.0
 40
1.0
 40
1.0
 40
2.0
 40
2.0
 40
2.0
 40
3.0
 40
3.0
 40
3.0
 40
3.0
 10
126.4956263142391
 20
169.962496023516
 30
0.0
 10
126.4956263142391
 20
169.962496023516
 30
0.0
 10
127.9956263142395
 20
169.962496023516
 30
0.0
 10
127.9956263142395
 20
169.962496023516
 30
0.0
 10
127.9956263142395
 20
170.7909231482627
 30
0.0
 10
127.3240534389859
 20
171.462496023516
 30
0.0
 10
126.4956263142391
 20
171.462496023516
 30
0.0
 10
126.4956263142391
 20
171.462496023516
 30
0.0
 10
126.4956263142391
 20
169.962496023516
 30
0.0
 10
126.4956263142391
 20
169.962496023516
 30
0.0
  0
ENDBLK
  5
5CA
330
5C7
100
AcDbEntity
  8
0
100
AcDbBlockEnd
  0
BLOCK
  5
5CE
330
5CC
100
AcDbEntity
  8
0
100
AcDbBlockBegin
  2
block 188
 70
     0
 10
0.0
 20
0.0
 30
0.0
  3
block 188
  1

  0
SPLINE
  5
5D0
330
5CC
100
AcDbEntity
  8
AM_1
370
     0
100
AcDbSpline
210
0.0
220
0.0
230
1.0
 70
    11
 71
     3
 72
    14
 73
    10
 74
     0
 42
0.0000000001
 43
0.0000000001
 12
1.0
 22
0.0
 32
0.0
 13
1.0
 23
0.0
 33
0.0
 40
0.0
 40
0.0
 40
0.0
 40
0.0
 40
1.0
 40
1.0
 40
1.0
 40
2.0
 40
2.0
 40
2.0
 40
3.0
 40
3.0
 40
3.0
 40
3.0
 10
126.4956263142391
 20
169.962496023516
 30
0.0
 10
126.4956263142391
 20
169.962496023516
 30
0.0
 10
127.9956263142395
 20
169.962496023516
 30
0.0
 10
127.9956263142395
 20
169.962496023516
 30
0.0
 10
127.9956263142395
 20
170.7909231482627
 30
0.0
 10
127.3240534389859
 20
171.462496023516
 30
0.0
 10
126.4956263142391
 20
171.462496023516
 30
0.0
 10
126.4956263142391
 20
171.462496023516
 30
0.0
 10
126.4956263142391
 20
169.962496023516
 30
0.0
 10
126.4956263142391
 20
169.962496023516
 30
0.0
  0
ENDBLK
  5
5CF
330
5CC
100
AcDbEntity
  8
0
100
AcDbBlockEnd
  0
BLOCK
  5
5D3
330
5D1
100
AcDbEntity
  8
0
100
AcDbBlockBegin
  2
block 189
 70
     0
 10
0.0
 20
0.0
 30
0.0
  3
block 189
  1

  0
SPLINE
  5
5D5
330
5D1
100
AcDbEntity
  8
AM_1
370
     0
100
AcDbSpline
210
0.0
220
0.0
230
1.0
 70
    11
 71
     3
 72
    14
 73
    10
 74
     0
 42
0.0000000001
 43
0.0000000001
 12
1.0
 22
0.0
 32
0.0
 13
1.0
 23
0.0
 33
0.0
 40
0.0
 40
0.0
 40
0.0
 40
0.0
 40
1.0
 40
1.0
 40
1.0
 40
2.0
 40
2.0
 40
2.0
 40
3.0
 40
3.0
 40
3.0
 40
3.0
 10
126.4956263142391
 20
169.962496023516
 30
0.0
 10
126.4956263142391
 20
169.962496023516
 30
0.0
 10
127.9956263142395
 20
169.962496023516
 30
0.0
 10
127.9956263142395
 20
169.962496023516
 30
0.0
 10
127.9956263142395
 20
170.7909231482627
 30
0.0
 10
127.3240534389859
 20
171.462496023516
 30
0.0
 10
126.4956263142391
 20
171.462496023516
 30
0.0
 10
126.4956263142391
 20
171.462496023516
 30
0.0
 10
126.4956263142391
 20
169.962496023516
 30
0.0
 10
126.4956263142391
 20
169.962496023516
 30
0.0
  0
HATCH
  5
5D6
330
5D1
100
AcDbEntity
  8
AM_1
 62
    18
420
        0
100
AcDbHatch
 10
0.0
 20
0.0
 30
0.0
210
0.0
220
0.0
230
1.0
  2
AI_USER_DEFINED_HATCH
 70
     0
 71
     0
 91
        1
 92
        1
 93
        1
 72
     4
 94
        3
 73
     0
 74
     1
 95
       14
 96
       10
 40
0.0
 40
0.0
 40
0.0
 40
0.0
 40
1.0
 40
1.0
 40
1.0
 40
2.0
 40
2.0
 40
2.0
 40
3.0
 40
3.0
 40
3.0
 40
3.0
 10
126.4956263142391
 20
169.962496023516
 10
126.4956263142391
 20
169.962496023516
 10
127.9956263142395
 20
169.962496023516
 10
127.9956263142395
 20
169.962496023516
 10
127.9956263142395
 20
170.7909231482627
 10
127.3240534389859
 20
171.462496023516
 10
126.4956263142391
 20
171.462496023516
 10
126.4956263142391
 20
171.462496023516
 10
126.4956263142391
 20
169.962496023516
 10
126.4956263142391
 20
169.962496023516
 97
        0
 97
        0
 75
     0
 76
     0
 52
45.0
 41
10.0
 77
     0
 78
     1
 53
45.0
 43
0.0
 44
0.0
 45
-7.071067811865475
 46
7.071067811865476
 79
     0
 98
        0
  0
ENDBLK
  5
5D4
330
5D1
100
AcDbEntity
  8
0
100
AcDbBlockEnd
  0
BLOCK
  5
5D9
330
5D7
100
AcDbEntity
  8
0
100
AcDbBlockBegin
  2
block 190
 70
     0
 10
0.0
 20
0.0
 30
0.0
  3
block 190
  1

  0
SPLINE
  5
5DB
330
5D7
100
AcDbEntity
  8
AM_1
 62
     4
420
    65535
370
    25
100
AcDbSpline
210
0.0
220
0.0
230
1.0
 70
    11
 71
     3
 72
    17
 73
    13
 74
     0
 42
0.0000000001
 43
0.0000000001
 12
1.0
 22
0.0
 32
0.0
 13
1.0
 23
0.0
 33
0.0
 40
0.0
 40
0.0
 40
0.0
 40
0.0
 40
1.0
 40
1.0
 40
1.0
 40
2.0
 40
2.0
 40
2.0
 40
3.0
 40
3.0
 40
3.0
 40
4.0
 40
4.0
 40
4.0
 40
4.0
 10
208.2456263141655
 20
169.9624960235134
 30
0.0
 10
208.2456263141655
 20
170.7909231482592
 30
0.0
 10
208.9171991894191
 20
171.4624960235135
 30
0.0
 10
209.7456263141659
 20
171.4624960235135
 30
0.0
 10
210.574053438912
 20
171.4624960235135
 30
0.0
 10
211.2456263141656
 20
170.7909231482592
 30
0.0
 10
211.2456263141656
 20
169.9624960235134
 30
0.0
 10
211.2456263141656
 20
169.1340688987676
 30
0.0
 10
210.574053438912
 20
168.4624960235134
 30
0.0
 10
209.7456263141659
 20
168.4624960235134
 30
0.0
 10
208.9171991894191
 20
168.4624960235134
 30
0.0
 10
208.2456263141655
 20
169.1340688987676
 30
0.0
 10
208.2456263141655
 20
169.9624960235134
 30
0.0
  0
ENDBLK
  5
5DA
330
5D7
100
AcDbEntity
  8
0
100
AcDbBlockEnd
  0
BLOCK
  5
5DE
330
5DC
100
AcDbEntity
  8
0
100
AcDbBlockBegin
  2
block 191
 70
     0
 10
0.0
 20
0.0
 30
0.0
  3
block 191
  1

  0
POLYLINE
  5
5E0
330
5DC
100
AcDbEntity
  8
AM_1
 62
     4
420
    65535
370
    25
100
AcDb2dPolyline
 66
     1
 10
0.0
 20
0.0
 30
0.0
  0
VERTEX
  5
5E1
330
5E0
100
AcDbEntity
  8
AM_1
 62
     4
420
    65535
370
    25
100
AcDbVertex
100
AcDb2dVertex
 10
209.7456263141659
 20
171.4624960235135
 30
0.0
  0
VERTEX
  5
5E2
330
5E0
100
AcDbEntity
  8
AM_1
 62
     4
420
    65535
370
    25
100
AcDbVertex
100
AcDb2dVertex
 10
209.7456263141659
 20
168.4624960235134
 30
0.0
  0
SEQEND
  5
5E3
330
5E0
100
AcDbEntity
  8
AM_1
 62
     4
420
    65535
370
    25
  0
ENDBLK
  5
5DF
330
5DC
100
AcDbEntity
  8
0
100
AcDbBlockEnd
  0
BLOCK
  5
5E6
330
5E4
100
AcDbEntity
  8
0
100
AcDbBlockBegin
  2
block 192
 70
     0
 10
0.0
 20
0.0
 30
0.0
  3
block 192
  1

  0
POLYLINE
  5
5E8
330
5E4
100
AcDbEntity
  8
AM_1
 62
     4
420
    65535
370
    25
100
AcDb2dPolyline
 66
     1
 10
0.0
 20
0.0
 30
0.0
  0
VERTEX
  5
5E9
330
5E8
100
AcDbEntity
  8
AM_1
 62
     4
420
    65535
370
    25
100
AcDbVertex
100
AcDb2dVertex
 10
211.2456263141656
 20
169.9624960235134
 30
0.0
  0
VERTEX
  5
5EA
330
5E8
100
AcDbEntity
  8
AM_1
 62
     4
420
    65535
370
    25
100
AcDbVertex
100
AcDb2dVertex
 10
208.2456263141655
 20
169.9624960235134
 30
0.0
  0
SEQEND
  5
5EB
330
5E8
100
AcDbEntity
  8
AM_1
 62
     4
420
    65535
370
    25
  0
ENDBLK
  5
5E7
330
5E4
100
AcDbEntity
  8
0
100
AcDbBlockEnd
  0
BLOCK
  5
5EE
330
5EC
100
AcDbEntity
  8
0
100
AcDbBlockBegin
  2
block 193
 70
     0
 10
0.0
 20
0.0
 30
0.0
  3
block 193
  1

  0
SPLINE
  5
5F0
330
5EC
100
AcDbEntity
  8
AM_1
370
     0
100
AcDbSpline
210
0.0
220
0.0
230
1.0
 70
    11
 71
     3
 72
    14
 73
    10
 74
     0
 42
0.0000000001
 43
0.0000000001
 12
1.0
 22
0.0
 32
0.0
 13
1.0
 23
0.0
 33
0.0
 40
0.0
 40
0.0
 40
0.0
 40
0.0
 40
1.0
 40
1.0
 40
1.0
 40
2.0
 40
2.0
 40
2.0
 40
3.0
 40
3.0
 40
3.0
 40
3.0
 10
209.7456263141659
 20
168.4624960235134
 30
0.0
 10
209.7456263141659
 20
168.4624960235134
 30
0.0
 10
209.7456263141659
 20
169.9624960235134
 30
0.0
 10
209.7456263141659
 20
169.9624960235134
 30
0.0
 10
209.7456263141659
 20
169.9624960235134
 30
0.0
 10
208.2456263141655
 20
169.9624960235134
 30
0.0
 10
208.2456263141655
 20
169.9624960235134
 30
0.0
 10
208.2456263141655
 20
169.1340688987676
 30
0.0
 10
208.9171991894191
 20
168.4624960235134
 30
0.0
 10
209.7456263141659
 20
168.4624960235134
 30
0.0
  0
ENDBLK
  5
5EF
330
5EC
100
AcDbEntity
  8
0
100
AcDbBlockEnd
  0
BLOCK
  5
5F3
330
5F1
100
AcDbEntity
  8
0
100
AcDbBlockBegin
  2
block 194
 70
     0
 10
0.0
 20
0.0
 30
0.0
  3
block 194
  1

  0
SPLINE
  5
5F5
330
5F1
100
AcDbEntity
  8
AM_1
370
     0
100
AcDbSpline
210
0.0
220
0.0
230
1.0
 70
    11
 71
     3
 72
    14
 73
    10
 74
     0
 42
0.0000000001
 43
0.0000000001
 12
1.0
 22
0.0
 32
0.0
 13
1.0
 23
0.0
 33
0.0
 40
0.0
 40
0.0
 40
0.0
 40
0.0
 40
1.0
 40
1.0
 40
1.0
 40
2.0
 40
2.0
 40
2.0
 40
3.0
 40
3.0
 40
3.0
 40
3.0
 10
209.7456263141659
 20
168.4624960235134
 30
0.0
 10
209.7456263141659
 20
168.4624960235134
 30
0.0
 10
209.7456263141659
 20
169.9624960235134
 30
0.0
 10
209.7456263141659
 20
169.9624960235134
 30
0.0
 10
209.7456263141659
 20
169.9624960235134
 30
0.0
 10
208.2456263141655
 20
169.9624960235134
 30
0.0
 10
208.2456263141655
 20
169.9624960235134
 30
0.0
 10
208.2456263141655
 20
169.1340688987676
 30
0.0
 10
208.9171991894191
 20
168.4624960235134
 30
0.0
 10
209.7456263141659
 20
168.4624960235134
 30
0.0
  0
ENDBLK
  5
5F4
330
5F1
100
AcDbEntity
  8
0
100
AcDbBlockEnd
  0
BLOCK
  5
5F8
330
5F6
100
AcDbEntity
  8
0
100
AcDbBlockBegin
  2
block 195
 70
     0
 10
0.0
 20
0.0
 30
0.0
  3
block 195
  1

  0
SPLINE
  5
5FA
330
5F6
100
AcDbEntity
  8
AM_1
370
     0
100
AcDbSpline
210
0.0
220
0.0
230
1.0
 70
    11
 71
     3
 72
    14
 73
    10
 74
     0
 42
0.0000000001
 43
0.0000000001
 12
1.0
 22
0.0
 32
0.0
 13
1.0
 23
0.0
 33
0.0
 40
0.0
 40
0.0
 40
0.0
 40
0.0
 40
1.0
 40
1.0
 40
1.0
 40
2.0
 40
2.0
 40
2.0
 40
3.0
 40
3.0
 40
3.0
 40
3.0
 10
209.7456263141652
 20
168.4624960235124
 30
0.0
 10
209.7456263141652
 20
168.4624960235124
 30
0.0
 10
209.7456263141652
 20
169.9624960235124
 30
0.0
 10
209.7456263141652
 20
169.9624960235124
 30
0.0
 10
209.7456263141652
 20
169.9624960235124
 30
0.0
 10
208.2456263141655
 20
169.9624960235124
 30
0.0
 10
208.2456263141655
 20
169.9624960235124
 30
0.0
 10
208.2456263141655
 20
169.1340688987676
 30
0.0
 10
208.9171991894191
 20
168.4624960235124
 30
0.0
 10
209.7456263141652
 20
168.4624960235124
 30
0.0
  0
HATCH
  5
5FB
330
5F6
100
AcDbEntity
  8
AM_1
 62
    18
420
        0
100
AcDbHatch
 10
0.0
 20
0.0
 30
0.0
210
0.0
220
0.0
230
1.0
  2
AI_USER_DEFINED_HATCH
 70
     0
 71
     0
 91
        1
 92
        1
 93
        1
 72
     4
 94
        3
 73
     0
 74
     1
 95
       14
 96
       10
 40
0.0
 40
0.0
 40
0.0
 40
0.0
 40
1.0
 40
1.0
 40
1.0
 40
2.0
 40
2.0
 40
2.0
 40
3.0
 40
3.0
 40
3.0
 40
3.0
 10
209.7456263141652
 20
168.4624960235124
 10
209.7456263141652
 20
168.4624960235124
 10
209.7456263141652
 20
169.9624960235124
 10
209.7456263141652
 20
169.9624960235124
 10
209.7456263141652
 20
169.9624960235124
 10
208.2456263141655
 20
169.9624960235124
 10
208.2456263141655
 20
169.9624960235124
 10
208.2456263141655
 20
169.1340688987676
 10
208.9171991894191
 20
168.4624960235124
 10
209.7456263141652
 20
168.4624960235124
 97
        0
 97
        0
 75
     0
 76
     0
 52
45.0
 41
10.0
 77
     0
 78
     1
 53
45.0
 43
0.0
 44
0.0
 45
-7.071067811865475
 46
7.071067811865476
 79
     0
 98
        0
  0
ENDBLK
  5
5F9
330
5F6
100
AcDbEntity
  8
0
100
AcDbBlockEnd
  0
BLOCK
  5
5FE
330
5FC
100
AcDbEntity
  8
0
100
AcDbBlockBegin
  2
block 196
 70
     0
 10
0.0
 20
0.0
 30
0.0
  3
block 196
  1

  0
SPLINE
  5
600
330
5FC
100
AcDbEntity
  8
AM_1
370
     0
100
AcDbSpline
210
0.0
220
0.0
230
1.0
 70
    11
 71
     3
 72
    14
 73
    10
 74
     0
 42
0.0000000001
 43
0.0000000001
 12
1.0
 22
0.0
 32
0.0
 13
1.0
 23
0.0
 33
0.0
 40
0.0
 40
0.0
 40
0.0
 40
0.0
 40
1.0
 40
1.0
 40
1.0
 40
2.0
 40
2.0
 40
2.0
 40
3.0
 40
3.0
 40
3.0
 40
3.0
 10
209.7456263141659
 20
169.9624960235134
 30
0.0
 10
209.7456263141659
 20
169.9624960235134
 30
0.0
 10
211.2456263141656
 20
169.9624960235134
 30
0.0
 10
211.2456263141656
 20
169.9624960235134
 30
0.0
 10
211.2456263141656
 20
170.7909231482602
 30
0.0
 10
210.574053438912
 20
171.4624960235135
 30
0.0
 10
209.7456263141659
 20
171.4624960235135
 30
0.0
 10
209.7456263141659
 20
171.4624960235135
 30
0.0
 10
209.7456263141659
 20
169.9624960235134
 30
0.0
 10
209.7456263141659
 20
169.9624960235134
 30
0.0
  0
ENDBLK
  5
5FF
330
5FC
100
AcDbEntity
  8
0
100
AcDbBlockEnd
  0
BLOCK
  5
603
330
601
100
AcDbEntity
  8
0
100
AcDbBlockBegin
  2
block 197
 70
     0
 10
0.0
 20
0.0
 30
0.0
  3
block 197
  1

  0
SPLINE
  5
605
330
601
100
AcDbEntity
  8
AM_1
370
     0
100
AcDbSpline
210
0.0
220
0.0
230
1.0
 70
    11
 71
     3
 72
    14
 73
    10
 74
     0
 42
0.0000000001
 43
0.0000000001
 12
1.0
 22
0.0
 32
0.0
 13
1.0
 23
0.0
 33
0.0
 40
0.0
 40
0.0
 40
0.0
 40
0.0
 40
1.0
 40
1.0
 40
1.0
 40
2.0
 40
2.0
 40
2.0
 40
3.0
 40
3.0
 40
3.0
 40
3.0
 10
209.7456263141659
 20
169.9624960235134
 30
0.0
 10
209.7456263141659
 20
169.9624960235134
 30
0.0
 10
211.2456263141656
 20
169.9624960235134
 30
0.0
 10
211.2456263141656
 20
169.9624960235134
 30
0.0
 10
211.2456263141656
 20
170.7909231482602
 30
0.0
 10
210.574053438912
 20
171.4624960235135
 30
0.0
 10
209.7456263141659
 20
171.4624960235135
 30
0.0
 10
209.7456263141659
 20
171.4624960235135
 30
0.0
 10
209.7456263141659
 20
169.9624960235134
 30
0.0
 10
209.7456263141659
 20
169.9624960235134
 30
0.0
  0
ENDBLK
  5
604
330
601
100
AcDbEntity
  8
0
100
AcDbBlockEnd
  0
BLOCK
  5
608
330
606
100
AcDbEntity
  8
0
100
AcDbBlockBegin
  2
block 198
 70
     0
 10
0.0
 20
0.0
 30
0.0
  3
block 198
  1

  0
SPLINE
  5
60A
330
606
100
AcDbEntity
  8
AM_1
370
     0
100
AcDbSpline
210
0.0
220
0.0
230
1.0
 70
    11
 71
     3
 72
    14
 73
    10
 74
     0
 42
0.0000000001
 43
0.0000000001
 12
1.0
 22
0.0
 32
0.0
 13
1.0
 23
0.0
 33
0.0
 40
0.0
 40
0.0
 40
0.0
 40
0.0
 40
1.0
 40
1.0
 40
1.0
 40
2.0
 40
2.0
 40
2.0
 40
3.0
 40
3.0
 40
3.0
 40
3.0
 10
209.7456263141652
 20
169.9624960235124
 30
0.0
 10
209.7456263141652
 20
169.9624960235124
 30
0.0
 10
211.2456263141656
 20
169.9624960235124
 30
0.0
 10
211.2456263141656
 20
169.9624960235124
 30
0.0
 10
211.2456263141656
 20
170.7909231482592
 30
0.0
 10
210.574053438912
 20
171.4624960235125
 30
0.0
 10
209.7456263141652
 20
171.4624960235125
 30
0.0
 10
209.7456263141652
 20
171.4624960235125
 30
0.0
 10
209.7456263141652
 20
169.9624960235124
 30
0.0
 10
209.7456263141652
 20
169.9624960235124
 30
0.0
  0
HATCH
  5
60B
330
606
100
AcDbEntity
  8
AM_1
 62
    18
420
        0
100
AcDbHatch
 10
0.0
 20
0.0
 30
0.0
210
0.0
220
0.0
230
1.0
  2
AI_USER_DEFINED_HATCH
 70
     0
 71
     0
 91
        1
 92
        1
 93
        1
 72
     4
 94
        3
 73
     0
 74
     1
 95
       14
 96
       10
 40
0.0
 40
0.0
 40
0.0
 40
0.0
 40
1.0
 40
1.0
 40
1.0
 40
2.0
 40
2.0
 40
2.0
 40
3.0
 40
3.0
 40
3.0
 40
3.0
 10
209.7456263141652
 20
169.9624960235124
 10
209.7456263141652
 20
169.9624960235124
 10
211.2456263141656
 20
169.9624960235124
 10
211.2456263141656
 20
169.9624960235124
 10
211.2456263141656
 20
170.7909231482592
 10
210.574053438912
 20
171.4624960235125
 10
209.7456263141652
 20
171.4624960235125
 10
209.7456263141652
 20
171.4624960235125
 10
209.7456263141652
 20
169.9624960235124
 10
209.7456263141652
 20
169.9624960235124
 97
        0
 97
        0
 75
     0
 76
     0
 52
45.0
 41
10.0
 77
     0
 78
     1
 53
45.0
 43
0.0
 44
0.0
 45
-7.071067811865475
 46
7.071067811865476
 79
     0
 98
        0
  0
ENDBLK
  5
609
330
606
100
AcDbEntity
  8
0
100
AcDbBlockEnd
  0
BLOCK
  5
60F
330
60D
100
AcDbEntity
  8
0
100
AcDbBlockBegin
  2
block 199
 70
     0
 10
0.0
 20
0.0
 30
0.0
  3
block 199
  1

  0
POLYLINE
  5
611
330
60D
100
AcDbEntity
  8
Defpoints
370
     0
100
AcDb2dPolyline
 66
     1
 10
0.0
 20
0.0
 30
0.0
  0
VERTEX
  5
612
330
611
100
AcDbEntity
  8
Defpoints
370
     0
100
AcDbVertex
100
AcDb2dVertex
 10
216.8456263142402
 20
156.6119376826083
 30
0.0
  0
VERTEX
  5
6B5
330
611
100
AcDbEntity
  8
0
100
AcDbVertex
100
AcDb2dVertex
 10
216.8456263142402
 20
156.6119376826083
 30
0.0
  0
SEQEND
  5
613
330
611
100
AcDbEntity
  8
Defpoints
370
     0
  0
ENDBLK
  5
610
330
60D
100
AcDbEntity
  8
0
100
AcDbBlockEnd
  0
BLOCK
  5
616
330
614
100
AcDbEntity
  8
0
100
AcDbBlockBegin
  2
block 200
 70
     0
 10
0.0
 20
0.0
 30
0.0
  3
block 200
  1

  0
POLYLINE
  5
618
330
614
100
AcDbEntity
  8
Defpoints
370
     0
100
AcDb2dPolyline
 66
     1
 10
0.0
 20
0.0
 30
0.0
  0
VERTEX
  5
619
330
618
100
AcDbEntity
  8
Defpoints
370
     0
100
AcDbVertex
100
AcDb2dVertex
 10
126.4956263142391
 20
154.0874960235161
 30
0.0
  0
VERTEX
  5
6B6
330
618
100
AcDbEntity
  8
0
100
AcDbVertex
100
AcDb2dVertex
 10
126.4956263142391
 20
154.0874960235161
 30
0.0
  0
SEQEND
  5
61A
330
618
100
AcDbEntity
  8
Defpoints
370
     0
  0
ENDBLK
  5
617
330
614
100
AcDbEntity
  8
0
100
AcDbBlockEnd
  0
BLOCK
  5
61D
330
61B
100
AcDbEntity
  8
0
100
AcDbBlockBegin
  2
block 201
 70
     0
 10
0.0
 20
0.0
 30
0.0
  3
block 201
  1

  0
POLYLINE
  5
61F
330
61B
100
AcDbEntity
  8
Defpoints
370
     0
100
AcDb2dPolyline
 66
     1
 10
0.0
 20
0.0
 30
0.0
  0
VERTEX
  5
620
330
61F
100
AcDbEntity
  8
Defpoints
370
     0
100
AcDbVertex
100
AcDb2dVertex
 10
126.4956263142391
 20
124.9624950135147
 30
0.0
  0
VERTEX
  5
6B7
330
61F
100
AcDbEntity
  8
0
100
AcDbVertex
100
AcDb2dVertex
 10
126.4956263142391
 20
124.9624950135147
 30
0.0
  0
SEQEND
  5
621
330
61F
100
AcDbEntity
  8
Defpoints
370
     0
  0
ENDBLK
  5
61E
330
61B
100
AcDbEntity
  8
0
100
AcDbBlockEnd
  0
BLOCK
  5
624
330
622
100
AcDbEntity
  8
0
100
AcDbBlockBegin
  2
block 202
 70
     0
 10
0.0
 20
0.0
 30
0.0
  3
block 202
  1

  0
POLYLINE
  5
626
330
622
100
AcDbEntity
  8
Defpoints
370
     0
100
AcDb2dPolyline
 66
     1
 10
0.0
 20
0.0
 30
0.0
  0
VERTEX
  5
627
330
626
100
AcDbEntity
  8
Defpoints
370
     0
100
AcDbVertex
100
AcDb2dVertex
 10
148.495626314238
 20
147.9624960235158
 30
0.0
  0
VERTEX
  5
6B8
330
626
100
AcDbEntity
  8
0
100
AcDbVertex
100
AcDb2dVertex
 10
148.495626314238
 20
147.9624960235158
 30
0.0
  0
SEQEND
  5
628
330
626
100
AcDbEntity
  8
Defpoints
370
     0
  0
ENDBLK
  5
625
330
622
100
AcDbEntity
  8
0
100
AcDbBlockEnd
  0
BLOCK
  5
62B
330
629
100
AcDbEntity
  8
0
100
AcDbBlockBegin
  2
block 203
 70
     0
 10
0.0
 20
0.0
 30
0.0
  3
block 203
  1

  0
POLYLINE
  5
62D
330
629
100
AcDbEntity
  8
Defpoints
370
     0
100
AcDb2dPolyline
 66
     1
 10
0.0
 20
0.0
 30
0.0
  0
VERTEX
  5
62E
330
62D
100
AcDbEntity
  8
Defpoints
370
     0
100
AcDbVertex
100
AcDb2dVertex
 10
216.8456263142402
 20
156.6119376826083
 30
0.0
  0
VERTEX
  5
6B9
330
62D
100
AcDbEntity
  8
0
100
AcDbVertex
100
AcDb2dVertex
 10
216.8456263142402
 20
156.6119376826083
 30
0.0
  0
SEQEND
  5
62F
330
62D
100
AcDbEntity
  8
Defpoints
370
     0
  0
ENDBLK
  5
62C
330
629
100
AcDbEntity
  8
0
100
AcDbBlockEnd
  0
BLOCK
  5
632
330
630
100
AcDbEntity
  8
0
100
AcDbBlockBegin
  2
block 204
 70
     0
 10
0.0
 20
0.0
 30
0.0
  3
block 204
  1

  0
POLYLINE
  5
634
330
630
100
AcDbEntity
  8
Defpoints
370
     0
100
AcDb2dPolyline
 66
     1
 10
0.0
 20
0.0
 30
0.0
  0
VERTEX
  5
635
330
634
100
AcDbEntity
  8
Defpoints
370
     0
100
AcDbVertex
100
AcDb2dVertex
 10
216.8456263142402
 20
134.9624950135151
 30
0.0
  0
VERTEX
  5
6BA
330
634
100
AcDbEntity
  8
0
100
AcDbVertex
100
AcDb2dVertex
 10
216.8456263142402
 20
134.9624950135151
 30
0.0
  0
SEQEND
  5
636
330
634
100
AcDbEntity
  8
Defpoints
370
     0
  0
ENDBLK
  5
633
330
630
100
AcDbEntity
  8
0
100
AcDbBlockEnd
  0
BLOCK
  5
639
330
637
100
AcDbEntity
  8
0
100
AcDbBlockBegin
  2
block 205
 70
     0
 10
0.0
 20
0.0
 30
0.0
  3
block 205
  1

  0
POLYLINE
  5
63B
330
637
100
AcDbEntity
  8
Defpoints
370
     0
100
AcDb2dPolyline
 66
     1
 10
0.0
 20
0.0
 30
0.0
  0
VERTEX
  5
63C
330
63B
100
AcDbEntity
  8
Defpoints
370
     0
100
AcDbVertex
100
AcDb2dVertex
 10
211.3456263142404
 20
185.9738403299908
 30
0.0
  0
VERTEX
  5
6BB
330
63B
100
AcDbEntity
  8
0
100
AcDbVertex
100
AcDb2dVertex
 10
211.3456263142404
 20
185.9738403299908
 30
0.0
  0
SEQEND
  5
63D
330
63B
100
AcDbEntity
  8
Defpoints
370
     0
  0
ENDBLK
  5
63A
330
637
100
AcDbEntity
  8
0
100
AcDbBlockEnd
  0
BLOCK
  5
640
330
63E
100
AcDbEntity
  8
0
100
AcDbBlockBegin
  2
block 206
 70
     0
 10
0.0
 20
0.0
 30
0.0
  3
block 206
  1

  0
POLYLINE
  5
642
330
63E
100
AcDbEntity
  8
Defpoints
370
     0
100
AcDb2dPolyline
 66
     1
 10
0.0
 20
0.0
 30
0.0
  0
VERTEX
  5
643
330
642
100
AcDbEntity
  8
Defpoints
370
     0
100
AcDbVertex
100
AcDb2dVertex
 10
211.3456263142404
 20
153.973840329991
 30
0.0
  0
VERTEX
  5
6BC
330
642
100
AcDbEntity
  8
0
100
AcDbVertex
100
AcDb2dVertex
 10
211.3456263142404
 20
153.973840329991
 30
0.0
  0
SEQEND
  5
644
330
642
100
AcDbEntity
  8
Defpoints
370
     0
  0
ENDBLK
  5
641
330
63E
100
AcDbEntity
  8
0
100
AcDbBlockEnd
  0
BLOCK
  5
647
330
645
100
AcDbEntity
  8
0
100
AcDbBlockBegin
  2
block 207
 70
     0
 10
0.0
 20
0.0
 30
0.0
  3
block 207
  1

  0
POLYLINE
  5
649
330
645
100
AcDbEntity
  8
Defpoints
370
     0
100
AcDb2dPolyline
 66
     1
 10
0.0
 20
0.0
 30
0.0
  0
VERTEX
  5
64A
330
649
100
AcDbEntity
  8
Defpoints
370
     0
100
AcDbVertex
100
AcDb2dVertex
 10
236.4956263142385
 20
153.973840329991
 30
0.0
  0
VERTEX
  5
6BD
330
649
100
AcDbEntity
  8
0
100
AcDbVertex
100
AcDb2dVertex
 10
236.4956263142385
 20
153.973840329991
 30
0.0
  0
SEQEND
  5
64B
330
649
100
AcDbEntity
  8
Defpoints
370
     0
  0
ENDBLK
  5
648
330
645
100
AcDbEntity
  8
0
100
AcDbBlockEnd
  0
BLOCK
  5
64E
330
64C
100
AcDbEntity
  8
0
100
AcDbBlockBegin
  2
block 208
 70
     0
 10
0.0
 20
0.0
 30
0.0
  3
block 208
  1

  0
POLYLINE
  5
650
330
64C
100
AcDbEntity
  8
Defpoints
370
     0
100
AcDb2dPolyline
 66
     1
 10
0.0
 20
0.0
 30
0.0
  0
VERTEX
  5
651
330
650
100
AcDbEntity
  8
Defpoints
370
     0
100
AcDbVertex
100
AcDb2dVertex
 10
77.99562631423903
 20
162.0252226985879
 30
0.0
  0
VERTEX
  5
6BE
330
650
100
AcDbEntity
  8
0
100
AcDbVertex
100
AcDb2dVertex
 10
77.99562631423903
 20
162.0252226985879
 30
0.0
  0
SEQEND
  5
652
330
650
100
AcDbEntity
  8
Defpoints
370
     0
  0
ENDBLK
  5
64F
330
64C
100
AcDbEntity
  8
0
100
AcDbBlockEnd
  0
BLOCK
  5
655
330
653
100
AcDbEntity
  8
0
100
AcDbBlockBegin
  2
block 209
 70
     0
 10
0.0
 20
0.0
 30
0.0
  3
block 209
  1

  0
POLYLINE
  5
657
330
653
100
AcDbEntity
  8
Defpoints
370
     0
100
AcDb2dPolyline
 66
     1
 10
0.0
 20
0.0
 30
0.0
  0
VERTEX
  5
658
330
657
100
AcDbEntity
  8
Defpoints
370
     0
100
AcDbVertex
100
AcDb2dVertex
 10
126.4956263142391
 20
154.0874960235161
 30
0.0
  0
VERTEX
  5
6BF
330
657
100
AcDbEntity
  8
0
100
AcDbVertex
100
AcDb2dVertex
 10
126.4956263142391
 20
154.0874960235161
 30
0.0
  0
SEQEND
  5
659
330
657
100
AcDbEntity
  8
Defpoints
370
     0
  0
ENDBLK
  5
656
330
653
100
AcDbEntity
  8
0
100
AcDbBlockEnd
  0
BLOCK
  5
65C
330
65A
100
AcDbEntity
  8
0
100
AcDbBlockBegin
  2
block 210
 70
     0
 10
0.0
 20
0.0
 30
0.0
  3
block 210
  1

  0
POLYLINE
  5
65E
330
65A
100
AcDbEntity
  8
Defpoints
370
     0
100
AcDb2dPolyline
 66
     1
 10
0.0
 20
0.0
 30
0.0
  0
VERTEX
  5
65F
330
65E
100
AcDbEntity
  8
Defpoints
370
     0
100
AcDbVertex
100
AcDb2dVertex
 10
126.4956263142391
 20
124.9624950135147
 30
0.0
  0
VERTEX
  5
6C0
330
65E
100
AcDbEntity
  8
0
100
AcDbVertex
100
AcDb2dVertex
 10
126.4956263142391
 20
124.9624950135147
 30
0.0
  0
SEQEND
  5
660
330
65E
100
AcDbEntity
  8
Defpoints
370
     0
  0
ENDBLK
  5
65D
330
65A
100
AcDbEntity
  8
0
100
AcDbBlockEnd
  0
BLOCK
  5
663
330
661
100
AcDbEntity
  8
0
100
AcDbBlockBegin
  2
block 211
 70
     0
 10
0.0
 20
0.0
 30
0.0
  3
block 211
  1

  0
POLYLINE
  5
665
330
661
100
AcDbEntity
  8
Defpoints
370
     0
100
AcDb2dPolyline
 66
     1
 10
0.0
 20
0.0
 30
0.0
  0
VERTEX
  5
666
330
665
100
AcDbEntity
  8
Defpoints
370
     0
100
AcDbVertex
100
AcDb2dVertex
 10
77.99562631423903
 20
162.0252226985879
 30
0.0
  0
VERTEX
  5
6C1
330
665
100
AcDbEntity
  8
0
100
AcDbVertex
100
AcDb2dVertex
 10
77.99562631423903
 20
162.0252226985879
 30
0.0
  0
SEQEND
  5
667
330
665
100
AcDbEntity
  8
Defpoints
370
     0
  0
ENDBLK
  5
664
330
661
100
AcDbEntity
  8
0
100
AcDbBlockEnd
  0
BLOCK
  5
66A
330
668
100
AcDbEntity
  8
0
100
AcDbBlockBegin
  2
block 212
 70
     0
 10
0.0
 20
0.0
 30
0.0
  3
block 212
  1

  0
POLYLINE
  5
66C
330
668
100
AcDbEntity
  8
Defpoints
370
     0
100
AcDb2dPolyline
 66
     1
 10
0.0
 20
0.0
 30
0.0
  0
VERTEX
  5
66D
330
66C
100
AcDbEntity
  8
Defpoints
370
     0
100
AcDbVertex
100
AcDb2dVertex
 10
216.8456263142402
 20
156.6119376826083
 30
0.0
  0
VERTEX
  5
6C2
330
66C
100
AcDbEntity
  8
0
100
AcDbVertex
100
AcDb2dVertex
 10
216.8456263142402
 20
156.6119376826083
 30
0.0
  0
SEQEND
  5
66E
330
66C
100
AcDbEntity
  8
Defpoints
370
     0
  0
ENDBLK
  5
66B
330
668
100
AcDbEntity
  8
0
100
AcDbBlockEnd
  0
BLOCK
  5
671
330
66F
100
AcDbEntity
  8
0
100
AcDbBlockBegin
  2
block 213
 70
     0
 10
0.0
 20
0.0
 30
0.0
  3
block 213
  1

  0
POLYLINE
  5
673
330
66F
100
AcDbEntity
  8
Defpoints
370
     0
100
AcDb2dPolyline
 66
     1
 10
0.0
 20
0.0
 30
0.0
  0
VERTEX
  5
674
330
673
100
AcDbEntity
  8
Defpoints
370
     0
100
AcDbVertex
100
AcDb2dVertex
 10
216.8456263142402
 20
114.962495013515
 30
0.0
  0
VERTEX
  5
6C3
330
673
100
AcDbEntity
  8
0
100
AcDbVertex
100
AcDb2dVertex
 10
216.8456263142402
 20
114.962495013515
 30
0.0
  0
SEQEND
  5
675
330
673
100
AcDbEntity
  8
Defpoints
370
     0
  0
ENDBLK
  5
672
330
66F
100
AcDbEntity
  8
0
100
AcDbBlockEnd
  0
BLOCK
  5
678
330
676
100
AcDbEntity
  8
0
100
AcDbBlockBegin
  2
block 214
 70
     0
 10
0.0
 20
0.0
 30
0.0
  3
block 214
  1

  0
POLYLINE
  5
67A
330
676
100
AcDbEntity
  8
Defpoints
370
     0
100
AcDb2dPolyline
 66
     1
 10
0.0
 20
0.0
 30
0.0
  0
VERTEX
  5
67B
330
67A
100
AcDbEntity
  8
Defpoints
370
     0
100
AcDbVertex
100
AcDb2dVertex
 10
129.4956263142392
 20
192.9624960235161
 30
0.0
  0
VERTEX
  5
6C4
330
67A
100
AcDbEntity
  8
0
100
AcDbVertex
100
AcDb2dVertex
 10
129.4956263142392
 20
192.9624960235161
 30
0.0
  0
SEQEND
  5
67C
330
67A
100
AcDbEntity
  8
Defpoints
370
     0
  0
ENDBLK
  5
679
330
676
100
AcDbEntity
  8
0
100
AcDbBlockEnd
  0
BLOCK
  5
67F
330
67D
100
AcDbEntity
  8
0
100
AcDbBlockBegin
  2
block 215
 70
     0
 10
0.0
 20
0.0
 30
0.0
  3
block 215
  1

  0
POLYLINE
  5
681
330
67D
100
AcDbEntity
  8
Defpoints
370
     0
100
AcDb2dPolyline
 66
     1
 10
0.0
 20
0.0
 30
0.0
  0
VERTEX
  5
682
330
681
100
AcDbEntity
  8
Defpoints
370
     0
100
AcDbVertex
100
AcDb2dVertex
 10
129.4956263142392
 20
146.9624960235165
 30
0.0
  0
VERTEX
  5
6C5
330
681
100
AcDbEntity
  8
0
100
AcDbVertex
100
AcDb2dVertex
 10
129.4956263142392
 20
146.9624960235165
 30
0.0
  0
SEQEND
  5
683
330
681
100
AcDbEntity
  8
Defpoints
370
     0
  0
ENDBLK
  5
680
330
67D
100
AcDbEntity
  8
0
100
AcDbBlockEnd
  0
BLOCK
  5
686
330
684
100
AcDbEntity
  8
0
100
AcDbBlockBegin
  2
block 216
 70
     0
 10
0.0
 20
0.0
 30
0.0
  3
block 216
  1

  0
POLYLINE
  5
688
330
684
100
AcDbEntity
  8
Defpoints
370
     0
100
AcDb2dPolyline
 66
     1
 10
0.0
 20
0.0
 30
0.0
  0
VERTEX
  5
689
330
688
100
AcDbEntity
  8
Defpoints
370
     0
100
AcDbVertex
100
AcDb2dVertex
 10
66.49562631423926
 20
146.9624960235165
 30
0.0
  0
VERTEX
  5
6C6
330
688
100
AcDbEntity
  8
0
100
AcDbVertex
100
AcDb2dVertex
 10
66.49562631423926
 20
146.9624960235165
 30
0.0
  0
SEQEND
  5
68A
330
688
100
AcDbEntity
  8
Defpoints
370
     0
  0
ENDBLK
  5
687
330
684
100
AcDbEntity
  8
0
100
AcDbBlockEnd
  0
BLOCK
  5
68D
330
68B
100
AcDbEntity
  8
0
100
AcDbBlockBegin
  2
block 217
 70
     0
 10
0.0
 20
0.0
 30
0.0
  3
block 217
  1

  0
POLYLINE
  5
68F
330
68B
100
AcDbEntity
  8
Defpoints
370
     0
100
AcDb2dPolyline
 66
     1
 10
0.0
 20
0.0
 30
0.0
  0
VERTEX
  5
690
330
68F
100
AcDbEntity
  8
Defpoints
370
     0
100
AcDbVertex
100
AcDb2dVertex
 10
209.7456263141691
 20
179.9624960235089
 30
0.0
  0
VERTEX
  5
6C7
330
68F
100
AcDbEntity
  8
0
100
AcDbVertex
100
AcDb2dVertex
 10
209.7456263141691
 20
179.9624960235089
 30
0.0
  0
SEQEND
  5
691
330
68F
100
AcDbEntity
  8
Defpoints
370
     0
  0
ENDBLK
  5
68E
330
68B
100
AcDbEntity
  8
0
100
AcDbBlockEnd
  0
BLOCK
  5
694
330
692
100
AcDbEntity
  8
0
100
AcDbBlockBegin
  2
block 218
 70
     0
 10
0.0
 20
0.0
 30
0.0
  3
block 218
  1

  0
POLYLINE
  5
696
330
692
100
AcDbEntity
  8
Defpoints
370
     0
100
AcDb2dPolyline
 66
     1
 10
0.0
 20
0.0
 30
0.0
  0
VERTEX
  5
697
330
696
100
AcDbEntity
  8
Defpoints
370
     0
100
AcDbVertex
100
AcDb2dVertex
 10
126.4956263142391
 20
185.8374960235161
 30
0.0
  0
VERTEX
  5
6C8
330
696
100
AcDbEntity
  8
0
100
AcDbVertex
100
AcDb2dVertex
 10
126.4956263142391
 20
185.8374960235161
 30
0.0
  0
SEQEND
  5
698
330
696
100
AcDbEntity
  8
Defpoints
370
     0
  0
ENDBLK
  5
695
330
692
100
AcDbEntity
  8
0
100
AcDbBlockEnd
  0
BLOCK
  5
69B
330
699
100
AcDbEntity
  8
0
100
AcDbBlockBegin
  2
block 219
 70
     0
 10
0.0
 20
0.0
 30
0.0
  3
block 219
  1

  0
POLYLINE
  5
69D
330
699
100
AcDbEntity
  8
Defpoints
370
     0
100
AcDb2dPolyline
 66
     1
 10
0.0
 20
0.0
 30
0.0
  0
VERTEX
  5
69E
330
69D
100
AcDbEntity
  8
Defpoints
370
     0
100
AcDbVertex
100
AcDb2dVertex
 10
126.4956263142391
 20
199.9624960235161
 30
0.0
  0
VERTEX
  5
6C9
330
69D
100
AcDbEntity
  8
0
100
AcDbVertex
100
AcDb2dVertex
 10
126.4956263142391
 20
199.9624960235161
 30
0.0
  0
SEQEND
  5
69F
330
69D
100
AcDbEntity
  8
Defpoints
370
     0
  0
ENDBLK
  5
69C
330
699
100
AcDbEntity
  8
0
100
AcDbBlockEnd
  0
BLOCK
  5
6A2
330
6A0
100
AcDbEntity
  8
0
100
AcDbBlockBegin
  2
block 220
 70
     0
 10
0.0
 20
0.0
 30
0.0
  3
block 220
  1

  0
POLYLINE
  5
6A4
330
6A0
100
AcDbEntity
  8
Defpoints
370
     0
100
AcDb2dPolyline
 66
     1
 10
0.0
 20
0.0
 30
0.0
  0
VERTEX
  5
6A5
330
6A4
100
AcDbEntity
  8
Defpoints
370
     0
100
AcDbVertex
100
AcDb2dVertex
 10
216.8456263142402
 20
183.3357429773726
 30
0.0
  0
VERTEX
  5
6CA
330
6A4
100
AcDbEntity
  8
0
100
AcDbVertex
100
AcDb2dVertex
 10
216.8456263142402
 20
183.3357429773726
 30
0.0
  0
SEQEND
  5
6A6
330
6A4
100
AcDbEntity
  8
Defpoints
370
     0
  0
ENDBLK
  5
6A3
330
6A0
100
AcDbEntity
  8
0
100
AcDbBlockEnd
  0
BLOCK
  5
6A9
330
6A7
100
AcDbEntity
  8
0
100
AcDbBlockBegin
  2
block 221
 70
     0
 10
0.0
 20
0.0
 30
0.0
  3
block 221
  1

  0
POLYLINE
  5
6AB
330
6A7
100
AcDbEntity
  8
Defpoints
370
     0
100
AcDb2dPolyline
 66
     1
 10
0.0
 20
0.0
 30
0.0
  0
VERTEX
  5
6AC
330
6AB
100
AcDbEntity
  8
Defpoints
370
     0
100
AcDbVertex
100
AcDb2dVertex
 10
209.7456263141691
 20
179.9624960235089
 30
0.0
  0
VERTEX
  5
6CB
330
6AB
100
AcDbEntity
  8
0
100
AcDbVertex
100
AcDb2dVertex
 10
209.7456263141691
 20
179.9624960235089
 30
0.0
  0
SEQEND
  5
6AD
330
6AB
100
AcDbEntity
  8
Defpoints
370
     0
  0
ENDBLK
  5
6AA
330
6A7
100
AcDbEntity
  8
0
100
AcDbBlockEnd
  0
BLOCK
  5
6B0
330
6AE
100
AcDbEntity
  8
0
100
AcDbBlockBegin
  2
block 222
 70
     0
 10
0.0
 20
0.0
 30
0.0
  3
block 222
  1

  0
POLYLINE
  5
6B2
330
6AE
100
AcDbEntity
  8
Defpoints
370
     0
100
AcDb2dPolyline
 66
     1
 10
0.0
 20
0.0
 30
0.0
  0
VERTEX
  5
6B3
330
6B2
100
AcDbEntity
  8
Defpoints
370
     0
100
AcDbVertex
100
AcDb2dVertex
 10
209.7456263141691
 20
199.9624960235161
 30
0.0
  0
VERTEX
  5
6CC
330
6B2
100
AcDbEntity
  8
0
100
AcDbVertex
100
AcDb2dVertex
 10
209.7456263141691
 20
199.9624960235161
 30
0.0
  0
SEQEND
  5
6B4
330
6B2
100
AcDbEntity
  8
Defpoints
370
     0
  0
ENDBLK
  5
6B1
330
6AE
100
AcDbEntity
  8
0
100
AcDbBlockEnd
  0
ENDSEC
  0
SECTION
  2
ENTITIES
  0
INSERT
  5
42
330
1F
100
AcDbEntity
  8
AM_2
100
AcDbBlockReference
  2
block 2
 10
0.0
 20
0.0
 30
0.0
  0
INSERT
  5
4B
330
1F
100
AcDbEntity
  8
AM_0
100
AcDbBlockReference
  2
block 3
 10
0.0
 20
0.0
 30
0.0
  0
INSERT
  5
53
330
1F
100
AcDbEntity
  8
AM_0
100
AcDbBlockReference
  2
block 4
 10
0.0
 20
0.0
 30
0.0
  0
INSERT
  5
5B
330
1F
100
AcDbEntity
  8
AM_0
100
AcDbBlockReference
  2
block 5
 10
0.0
 20
0.0
 30
0.0
  0
INSERT
  5
60
330
1F
100
AcDbEntity
  8
AM_0
100
AcDbBlockReference
  2
block 6
 10
0.0
 20
0.0
 30
0.0
  0
INSERT
  5
65
330
1F
100
AcDbEntity
  8
AM_0
100
AcDbBlockReference
  2
block 7
 10
0.0
 20
0.0
 30
0.0
  0
INSERT
  5
6D
330
1F
100
AcDbEntity
  8
AM_0
100
AcDbBlockReference
  2
block 8
 10
0.0
 20
0.0
 30
0.0
  0
INSERT
  5
75
330
1F
100
AcDbEntity
  8
AM_0
100
AcDbBlockReference
  2
block 9
 10
0.0
 20
0.0
 30
0.0
  0
INSERT
  5
7A
330
1F
100
AcDbEntity
  8
AM_0
100
AcDbBlockReference
  2
block 10
 10
0.0
 20
0.0
 30
0.0
  0
INSERT
  5
82
330
1F
100
AcDbEntity
  8
AM_0
100
AcDbBlockReference
  2
block 11
 10
0.0
 20
0.0
 30
0.0
  0
INSERT
  5
8A
330
1F
100
AcDbEntity
  8
AM_0
100
AcDbBlockReference
  2
block 12
 10
0.0
 20
0.0
 30
0.0
  0
INSERT
  5
92
330
1F
100
AcDbEntity
  8
AM_0
100
AcDbBlockReference
  2
block 13
 10
0.0
 20
0.0
 30
0.0
  0
INSERT
  5
97
330
1F
100
AcDbEntity
  8
AM_0
100
AcDbBlockReference
  2
block 14
 10
0.0
 20
0.0
 30
0.0
  0
INSERT
  5
9C
330
1F
100
AcDbEntity
  8
AM_0
100
AcDbBlockReference
  2
block 15
 10
0.0
 20
0.0
 30
0.0
  0
INSERT
  5
A4
330
1F
100
AcDbEntity
  8
AM_0
100
AcDbBlockReference
  2
block 16
 10
0.0
 20
0.0
 30
0.0
  0
INSERT
  5
A9
330
1F
100
AcDbEntity
  8
AM_0
100
AcDbBlockReference
  2
block 17
 10
0.0
 20
0.0
 30
0.0
  0
INSERT
  5
AE
330
1F
100
AcDbEntity
  8
AM_0
100
AcDbBlockReference
  2
block 18
 10
0.0
 20
0.0
 30
0.0
  0
INSERT
  5
B6
330
1F
100
AcDbEntity
  8
AM_0
100
AcDbBlockReference
  2
block 19
 10
0.0
 20
0.0
 30
0.0
  0
INSERT
  5
BE
330
1F
100
AcDbEntity
  8
AM_0
100
AcDbBlockReference
  2
block 20
 10
0.0
 20
0.0
 30
0.0
  0
INSERT
  5
C6
330
1F
100
AcDbEntity
  8
AM_0
100
AcDbBlockReference
  2
block 21
 10
0.0
 20
0.0
 30
0.0
  0
INSERT
  5
CE
330
1F
100
AcDbEntity
  8
AM_0
100
AcDbBlockReference
  2
block 22
 10
0.0
 20
0.0
 30
0.0
  0
INSERT
  5
D3
330
1F
100
AcDbEntity
  8
AM_0
100
AcDbBlockReference
  2
block 23
 10
0.0
 20
0.0
 30
0.0
  0
INSERT
  5
DB
330
1F
100
AcDbEntity
  8
AM_0
100
AcDbBlockReference
  2
block 24
 10
0.0
 20
0.0
 30
0.0
  0
INSERT
  5
E3
330
1F
100
AcDbEntity
  8
AM_0
100
AcDbBlockReference
  2
block 25
 10
0.0
 20
0.0
 30
0.0
  0
INSERT
  5
EB
330
1F
100
AcDbEntity
  8
AM_0
100
AcDbBlockReference
  2
block 26
 10
0.0
 20
0.0
 30
0.0
  0
INSERT
  5
F3
330
1F
100
AcDbEntity
  8
AM_0
100
AcDbBlockReference
  2
block 27
 10
0.0
 20
0.0
 30
0.0
  0
INSERT
  5
FB
330
1F
100
AcDbEntity
  8
AM_0
100
AcDbBlockReference
  2
block 28
 10
0.0
 20
0.0
 30
0.0
  0
INSERT
  5
103
330
1F
100
AcDbEntity
  8
AM_0
100
AcDbBlockReference
  2
block 29
 10
0.0
 20
0.0
 30
0.0
  0
INSERT
  5
10B
330
1F
100
AcDbEntity
  8
AM_0
100
AcDbBlockReference
  2
block 30
 10
0.0
 20
0.0
 30
0.0
  0
INSERT
  5
113
330
1F
100
AcDbEntity
  8
AM_0
100
AcDbBlockReference
  2
block 31
 10
0.0
 20
0.0
 30
0.0
  0
INSERT
  5
11B
330
1F
100
AcDbEntity
  8
AM_0
100
AcDbBlockReference
  2
block 32
 10
0.0
 20
0.0
 30
0.0
  0
INSERT
  5
123
330
1F
100
AcDbEntity
  8
AM_0
100
AcDbBlockReference
  2
block 33
 10
0.0
 20
0.0
 30
0.0
  0
INSERT
  5
12B
330
1F
100
AcDbEntity
  8
AM_0
100
AcDbBlockReference
  2
block 34
 10
0.0
 20
0.0
 30
0.0
  0
INSERT
  5
133
330
1F
100
AcDbEntity
  8
AM_0
100
AcDbBlockReference
  2
block 35
 10
0.0
 20
0.0
 30
0.0
  0
INSERT
  5
13B
330
1F
100
AcDbEntity
  8
AM_0
100
AcDbBlockReference
  2
block 36
 10
0.0
 20
0.0
 30
0.0
  0
INSERT
  5
143
330
1F
100
AcDbEntity
  8
AM_0
100
AcDbBlockReference
  2
block 37
 10
0.0
 20
0.0
 30
0.0
  0
INSERT
  5
148
330
1F
100
AcDbEntity
  8
AM_0
100
AcDbBlockReference
  2
block 38
 10
0.0
 20
0.0
 30
0.0
  0
INSERT
  5
150
330
1F
100
AcDbEntity
  8
AM_0
100
AcDbBlockReference
  2
block 39
 10
0.0
 20
0.0
 30
0.0
  0
INSERT
  5
158
330
1F
100
AcDbEntity
  8
AM_0
100
AcDbBlockReference
  2
block 40
 10
0.0
 20
0.0
 30
0.0
  0
INSERT
  5
15D
330
1F
100
AcDbEntity
  8
AM_0
100
AcDbBlockReference
  2
block 41
 10
0.0
 20
0.0
 30
0.0
  0
INSERT
  5
165
330
1F
100
AcDbEntity
  8
AM_0
100
AcDbBlockReference
  2
block 42
 10
0.0
 20
0.0
 30
0.0
  0
INSERT
  5
16A
330
1F
100
AcDbEntity
  8
AM_0
100
AcDbBlockReference
  2
block 43
 10
0.0
 20
0.0
 30
0.0
  0
INSERT
  5
16F
330
1F
100
AcDbEntity
  8
AM_0
100
AcDbBlockReference
  2
block 44
 10
0.0
 20
0.0
 30
0.0
  0
INSERT
  5
174
330
1F
100
AcDbEntity
  8
AM_0
100
AcDbBlockReference
  2
block 45
 10
0.0
 20
0.0
 30
0.0
  0
INSERT
  5
179
330
1F
100
AcDbEntity
  8
AM_0
100
AcDbBlockReference
  2
block 46
 10
0.0
 20
0.0
 30
0.0
  0
INSERT
  5
181
330
1F
100
AcDbEntity
  8
AM_0
100
AcDbBlockReference
  2
block 47
 10
0.0
 20
0.0
 30
0.0
  0
INSERT
  5
189
330
1F
100
AcDbEntity
  8
AM_0
100
AcDbBlockReference
  2
block 48
 10
0.0
 20
0.0
 30
0.0
  0
INSERT
  5
191
330
1F
100
AcDbEntity
  8
AM_0
100
AcDbBlockReference
  2
block 49
 10
0.0
 20
0.0
 30
0.0
  0
INSERT
  5
199
330
1F
100
AcDbEntity
  8
AM_0
100
AcDbBlockReference
  2
block 50
 10
0.0
 20
0.0
 30
0.0
  0
INSERT
  5
1A1
330
1F
100
AcDbEntity
  8
AM_0
100
AcDbBlockReference
  2
block 51
 10
0.0
 20
0.0
 30
0.0
  0
INSERT
  5
1A6
330
1F
100
AcDbEntity
  8
AM_0
100
AcDbBlockReference
  2
block 52
 10
0.0
 20
0.0
 30
0.0
  0
INSERT
  5
1AE
330
1F
100
AcDbEntity
  8
AM_0
100
AcDbBlockReference
  2
block 53
 10
0.0
 20
0.0
 30
0.0
  0
INSERT
  5
1B3
330
1F
100
AcDbEntity
  8
AM_0
100
AcDbBlockReference
  2
block 54
 10
0.0
 20
0.0
 30
0.0
  0
INSERT
  5
1BB
330
1F
100
AcDbEntity
  8
AM_0
100
AcDbBlockReference
  2
block 55
 10
0.0
 20
0.0
 30
0.0
  0
INSERT
  5
1C0
330
1F
100
AcDbEntity
  8
AM_0
100
AcDbBlockReference
  2
block 56
 10
0.0
 20
0.0
 30
0.0
  0
INSERT
  5
1C8
330
1F
100
AcDbEntity
  8
AM_0
100
AcDbBlockReference
  2
block 57
 10
0.0
 20
0.0
 30
0.0
  0
INSERT
  5
1D0
330
1F
100
AcDbEntity
  8
AM_0
100
AcDbBlockReference
  2
block 58
 10
0.0
 20
0.0
 30
0.0
  0
INSERT
  5
1D5
330
1F
100
AcDbEntity
  8
AM_0
100
AcDbBlockReference
  2
block 59
 10
0.0
 20
0.0
 30
0.0
  0
INSERT
  5
1DD
330
1F
100
AcDbEntity
  8
AM_0
100
AcDbBlockReference
  2
block 60
 10
0.0
 20
0.0
 30
0.0
  0
INSERT
  5
1E2
330
1F
100
AcDbEntity
  8
AM_0
100
AcDbBlockReference
  2
block 61
 10
0.0
 20
0.0
 30
0.0
  0
INSERT
  5
1EA
330
1F
100
AcDbEntity
  8
AM_0
100
AcDbBlockReference
  2
block 62
 10
0.0
 20
0.0
 30
0.0
  0
INSERT
  5
1F2
330
1F
100
AcDbEntity
  8
AM_0
100
AcDbBlockReference
  2
block 63
 10
0.0
 20
0.0
 30
0.0
  0
INSERT
  5
1FA
330
1F
100
AcDbEntity
  8
AM_0
100
AcDbBlockReference
  2
block 64
 10
0.0
 20
0.0
 30
0.0
  0
INSERT
  5
202
330
1F
100
AcDbEntity
  8
AM_0
100
AcDbBlockReference
  2
block 65
 10
0.0
 20
0.0
 30
0.0
  0
INSERT
  5
20A
330
1F
100
AcDbEntity
  8
AM_0
100
AcDbBlockReference
  2
block 66
 10
0.0
 20
0.0
 30
0.0
  0
INSERT
  5
213
330
1F
100
AcDbEntity
  8
AM_6
100
AcDbBlockReference
  2
block 67
 10
0.0
 20
0.0
 30
0.0
  0
INSERT
  5
218
330
1F
100
AcDbEntity
  8
AM_6
100
AcDbBlockReference
  2
block 68
 10
0.0
 20
0.0
 30
0.0
  0
INSERT
  5
21D
330
1F
100
AcDbEntity
  8
AM_6
100
AcDbBlockReference
  2
block 69
 10
0.0
 20
0.0
 30
0.0
  0
INSERT
  5
225
330
1F
100
AcDbEntity
  8
AM_6
100
AcDbBlockReference
  2
block 70
 10
0.0
 20
0.0
 30
0.0
  0
INSERT
  5
22D
330
1F
100
AcDbEntity
  8
AM_6
100
AcDbBlockReference
  2
block 71
 10
0.0
 20
0.0
 30
0.0
  0
INSERT
  5
235
330
1F
100
AcDbEntity
  8
AM_6
100
AcDbBlockReference
  2
block 72
 10
0.0
 20
0.0
 30
0.0
  0
INSERT
  5
23A
330
1F
100
AcDbEntity
  8
AM_6
100
AcDbBlockReference
  2
block 73
 10
0.0
 20
0.0
 30
0.0
  0
INSERT
  5
242
330
1F
100
AcDbEntity
  8
AM_6
100
AcDbBlockReference
  2
block 74
 10
0.0
 20
0.0
 30
0.0
  0
INSERT
  5
24A
330
1F
100
AcDbEntity
  8
AM_6
100
AcDbBlockReference
  2
block 75
 10
0.0
 20
0.0
 30
0.0
  0
INSERT
  5
252
330
1F
100
AcDbEntity
  8
AM_6
100
AcDbBlockReference
  2
block 76
 10
0.0
 20
0.0
 30
0.0
  0
INSERT
  5
257
330
1F
100
AcDbEntity
  8
AM_6
100
AcDbBlockReference
  2
block 77
 10
0.0
 20
0.0
 30
0.0
  0
INSERT
  5
25F
330
1F
100
AcDbEntity
  8
AM_6
100
AcDbBlockReference
  2
block 78
 10
0.0
 20
0.0
 30
0.0
  0
INSERT
  5
267
330
1F
100
AcDbEntity
  8
AM_6
100
AcDbBlockReference
  2
block 79
 10
0.0
 20
0.0
 30
0.0
  0
INSERT
  5
26F
330
1F
100
AcDbEntity
  8
AM_6
100
AcDbBlockReference
  2
block 80
 10
0.0
 20
0.0
 30
0.0
  0
INSERT
  5
274
330
1F
100
AcDbEntity
  8
AM_6
100
AcDbBlockReference
  2
block 81
 10
0.0
 20
0.0
 30
0.0
  0
INSERT
  5
27C
330
1F
100
AcDbEntity
  8
AM_6
100
AcDbBlockReference
  2
block 82
 10
0.0
 20
0.0
 30
0.0
  0
INSERT
  5
284
330
1F
100
AcDbEntity
  8
AM_6
100
AcDbBlockReference
  2
block 83
 10
0.0
 20
0.0
 30
0.0
  0
INSERT
  5
28C
330
1F
100
AcDbEntity
  8
AM_6
100
AcDbBlockReference
  2
block 84
 10
0.0
 20
0.0
 30
0.0
  0
INSERT
  5
291
330
1F
100
AcDbEntity
  8
AM_6
100
AcDbBlockReference
  2
block 85
 10
0.0
 20
0.0
 30
0.0
  0
INSERT
  5
299
330
1F
100
AcDbEntity
  8
AM_6
100
AcDbBlockReference
  2
block 86
 10
0.0
 20
0.0
 30
0.0
  0
INSERT
  5
2A1
330
1F
100
AcDbEntity
  8
AM_6
100
AcDbBlockReference
  2
block 87
 10
0.0
 20
0.0
 30
0.0
  0
INSERT
  5
2A9
330
1F
100
AcDbEntity
  8
AM_6
100
AcDbBlockReference
  2
block 88
 10
0.0
 20
0.0
 30
0.0
  0
INSERT
  5
2AE
330
1F
100
AcDbEntity
  8
AM_6
100
AcDbBlockReference
  2
block 89
 10
0.0
 20
0.0
 30
0.0
  0
INSERT
  5
2B6
330
1F
100
AcDbEntity
  8
AM_6
100
AcDbBlockReference
  2
block 90
 10
0.0
 20
0.0
 30
0.0
  0
INSERT
  5
2BE
330
1F
100
AcDbEntity
  8
AM_6
100
AcDbBlockReference
  2
block 91
 10
0.0
 20
0.0
 30
0.0
  0
INSERT
  5
2C6
330
1F
100
AcDbEntity
  8
AM_6
100
AcDbBlockReference
  2
block 92
 10
0.0
 20
0.0
 30
0.0
  0
INSERT
  5
2CB
330
1F
100
AcDbEntity
  8
AM_6
100
AcDbBlockReference
  2
block 93
 10
0.0
 20
0.0
 30
0.0
  0
INSERT
  5
2D3
330
1F
100
AcDbEntity
  8
AM_6
100
AcDbBlockReference
  2
block 94
 10
0.0
 20
0.0
 30
0.0
  0
INSERT
  5
2DB
330
1F
100
AcDbEntity
  8
AM_6
100
AcDbBlockReference
  2
block 95
 10
0.0
 20
0.0
 30
0.0
  0
INSERT
  5
2E5
330
1F
100
AcDbEntity
  8
AM_6
100
AcDbBlockReference
  2
block 96
 10
0.0
 20
0.0
 30
0.0
  0
INSERT
  5
2EF
330
1F
100
AcDbEntity
  8
AM_6
100
AcDbBlockReference
  2
block 97
 10
0.0
 20
0.0
 30
0.0
  0
INSERT
  5
2FB
330
1F
100
AcDbEntity
  8
AM_6
100
AcDbBlockReference
  2
block 98
 10
0.0
 20
0.0
 30
0.0
  0
INSERT
  5
300
330
1F
100
AcDbEntity
  8
AM_6
100
AcDbBlockReference
  2
block 99
 10
0.0
 20
0.0
 30
0.0
  0
INSERT
  5
308
330
1F
100
AcDbEntity
  8
AM_6
100
AcDbBlockReference
  2
block 100
 10
0.0
 20
0.0
 30
0.0
  0
INSERT
  5
310
330
1F
100
AcDbEntity
  8
AM_6
100
AcDbBlockReference
  2
block 101
 10
0.0
 20
0.0
 30
0.0
  0
INSERT
  5
31A
330
1F
100
AcDbEntity
  8
AM_6
100
AcDbBlockReference
  2
block 102
 10
0.0
 20
0.0
 30
0.0
  0
INSERT
  5
324
330
1F
100
AcDbEntity
  8
AM_6
100
AcDbBlockReference
  2
block 103
 10
0.0
 20
0.0
 30
0.0
  0
INSERT
  5
330
330
1F
100
AcDbEntity
  8
AM_6
100
AcDbBlockReference
  2
block 104
 10
0.0
 20
0.0
 30
0.0
  0
INSERT
  5
335
330
1F
100
AcDbEntity
  8
AM_6
100
AcDbBlockReference
  2
block 105
 10
0.0
 20
0.0
 30
0.0
  0
INSERT
  5
33D
330
1F
100
AcDbEntity
  8
AM_6
100
AcDbBlockReference
  2
block 106
 10
0.0
 20
0.0
 30
0.0
  0
INSERT
  5
345
330
1F
100
AcDbEntity
  8
AM_6
100
AcDbBlockReference
  2
block 107
 10
0.0
 20
0.0
 30
0.0
  0
INSERT
  5
34D
330
1F
100
AcDbEntity
  8
AM_6
100
AcDbBlockReference
  2
block 108
 10
0.0
 20
0.0
 30
0.0
  0
INSERT
  5
352
330
1F
100
AcDbEntity
  8
AM_6
100
AcDbBlockReference
  2
block 109
 10
0.0
 20
0.0
 30
0.0
  0
INSERT
  5
35A
330
1F
100
AcDbEntity
  8
AM_6
100
AcDbBlockReference
  2
block 110
 10
0.0
 20
0.0
 30
0.0
  0
INSERT
  5
362
330
1F
100
AcDbEntity
  8
AM_6
100
AcDbBlockReference
  2
block 111
 10
0.0
 20
0.0
 30
0.0
  0
INSERT
  5
36A
330
1F
100
AcDbEntity
  8
AM_6
100
AcDbBlockReference
  2
block 112
 10
0.0
 20
0.0
 30
0.0
  0
INSERT
  5
372
330
1F
100
AcDbEntity
  8
AM_6
100
AcDbBlockReference
  2
block 113
 10
0.0
 20
0.0
 30
0.0
  0
INSERT
  5
37A
330
1F
100
AcDbEntity
  8
AM_6
100
AcDbBlockReference
  2
block 114
 10
0.0
 20
0.0
 30
0.0
  0
INSERT
  5
37F
330
1F
100
AcDbEntity
  8
AM_6
100
AcDbBlockReference
  2
block 115
 10
0.0
 20
0.0
 30
0.0
  0
INSERT
  5
387
330
1F
100
AcDbEntity
  8
AM_6
100
AcDbBlockReference
  2
block 116
 10
0.0
 20
0.0
 30
0.0
  0
INSERT
  5
38F
330
1F
100
AcDbEntity
  8
AM_6
100
AcDbBlockReference
  2
block 117
 10
0.0
 20
0.0
 30
0.0
  0
INSERT
  5
399
330
1F
100
AcDbEntity
  8
AM_6
100
AcDbBlockReference
  2
block 118
 10
0.0
 20
0.0
 30
0.0
  0
INSERT
  5
3A3
330
1F
100
AcDbEntity
  8
AM_6
100
AcDbBlockReference
  2
block 119
 10
0.0
 20
0.0
 30
0.0
  0
INSERT
  5
3AF
330
1F
100
AcDbEntity
  8
AM_6
100
AcDbBlockReference
  2
block 120
 10
0.0
 20
0.0
 30
0.0
  0
INSERT
  5
3B5
330
1F
100
AcDbEntity
  8
AM_7
100
AcDbBlockReference
  2
block 121
 10
0.0
 20
0.0
 30
0.0
  0
INSERT
  5
3BF
330
1F
100
AcDbEntity
  8
AM_3
100
AcDbBlockReference
  2
block 122
 10
0.0
 20
0.0
 30
0.0
  0
INSERT
  5
3C8
330
1F
100
AcDbEntity
  8
AM_3
100
AcDbBlockReference
  2
block 123
 10
0.0
 20
0.0
 30
0.0
  0
INSERT
  5
3D1
330
1F
100
AcDbEntity
  8
AM_3
100
AcDbBlockReference
  2
block 124
 10
0.0
 20
0.0
 30
0.0
  0
INSERT
  5
3DA
330
1F
100
AcDbEntity
  8
AM_3
100
AcDbBlockReference
  2
block 125
 10
0.0
 20
0.0
 30
0.0
  0
INSERT
  5
3E3
330
1F
100
AcDbEntity
  8
AM_3
100
AcDbBlockReference
  2
block 126
 10
0.0
 20
0.0
 30
0.0
  0
INSERT
  5
3EC
330
1F
100
AcDbEntity
  8
AM_3
100
AcDbBlockReference
  2
block 127
 10
0.0
 20
0.0
 30
0.0
  0
INSERT
  5
3F5
330
1F
100
AcDbEntity
  8
AM_3
100
AcDbBlockReference
  2
block 128
 10
0.0
 20
0.0
 30
0.0
  0
INSERT
  5
3FE
330
1F
100
AcDbEntity
  8
AM_3
100
AcDbBlockReference
  2
block 129
 10
0.0
 20
0.0
 30
0.0
  0
INSERT
  5
407
330
1F
100
AcDbEntity
  8
AM_3
100
AcDbBlockReference
  2
block 130
 10
0.0
 20
0.0
 30
0.0
  0
INSERT
  5
410
330
1F
100
AcDbEntity
  8
AM_3
100
AcDbBlockReference
  2
block 131
 10
0.0
 20
0.0
 30
0.0
  0
INSERT
  5
419
330
1F
100
AcDbEntity
  8
AM_3
100
AcDbBlockReference
  2
block 132
 10
0.0
 20
0.0
 30
0.0
  0
INSERT
  5
422
330
1F
100
AcDbEntity
  8
0
100
AcDbBlockReference
  2
block 133
 10
0.0
 20
0.0
 30
0.0
  0
INSERT
  5
42A
330
1F
100
AcDbEntity
  8
0
100
AcDbBlockReference
  2
block 134
 10
0.0
 20
0.0
 30
0.0
  0
INSERT
  5
432
330
1F
100
AcDbEntity
  8
0
100
AcDbBlockReference
  2
block 135
 10
0.0
 20
0.0
 30
0.0
  0
INSERT
  5
43A
330
1F
100
AcDbEntity
  8
0
100
AcDbBlockReference
  2
block 136
 10
0.0
 20
0.0
 30
0.0
  0
INSERT
  5
442
330
1F
100
AcDbEntity
  8
0
100
AcDbBlockReference
  2
block 137
 10
0.0
 20
0.0
 30
0.0
  0
INSERT
  5
44A
330
1F
100
AcDbEntity
  8
0
100
AcDbBlockReference
  2
block 138
 10
0.0
 20
0.0
 30
0.0
  0
INSERT
  5
452
330
1F
100
AcDbEntity
  8
0
100
AcDbBlockReference
  2
block 139
 10
0.0
 20
0.0
 30
0.0
  0
INSERT
  5
45A
330
1F
100
AcDbEntity
  8
0
100
AcDbBlockReference
  2
block 140
 10
0.0
 20
0.0
 30
0.0
  0
INSERT
  5
462
330
1F
100
AcDbEntity
  8
0
100
AcDbBlockReference
  2
block 141
 10
0.0
 20
0.0
 30
0.0
  0
INSERT
  5
46A
330
1F
100
AcDbEntity
  8
0
100
AcDbBlockReference
  2
block 142
 10
0.0
 20
0.0
 30
0.0
  0
INSERT
  5
472
330
1F
100
AcDbEntity
  8
0
100
AcDbBlockReference
  2
block 143
 10
0.0
 20
0.0
 30
0.0
  0
INSERT
  5
47A
330
1F
100
AcDbEntity
  8
0
100
AcDbBlockReference
  2
block 144
 10
0.0
 20
0.0
 30
0.0
  0
INSERT
  5
482
330
1F
100
AcDbEntity
  8
0
100
AcDbBlockReference
  2
block 145
 10
0.0
 20
0.0
 30
0.0
  0
INSERT
  5
48A
330
1F
100
AcDbEntity
  8
0
100
AcDbBlockReference
  2
block 146
 10
0.0
 20
0.0
 30
0.0
  0
INSERT
  5
492
330
1F
100
AcDbEntity
  8
0
100
AcDbBlockReference
  2
block 147
 10
0.0
 20
0.0
 30
0.0
  0
INSERT
  5
49A
330
1F
100
AcDbEntity
  8
0
100
AcDbBlockReference
  2
block 148
 10
0.0
 20
0.0
 30
0.0
  0
INSERT
  5
4A2
330
1F
100
AcDbEntity
  8
0
100
AcDbBlockReference
  2
block 149
 10
0.0
 20
0.0
 30
0.0
  0
INSERT
  5
4AA
330
1F
100
AcDbEntity
  8
0
100
AcDbBlockReference
  2
block 150
 10
0.0
 20
0.0
 30
0.0
  0
INSERT
  5
4B2
330
1F
100
AcDbEntity
  8
0
100
AcDbBlockReference
  2
block 151
 10
0.0
 20
0.0
 30
0.0
  0
INSERT
  5
4BA
330
1F
100
AcDbEntity
  8
0
100
AcDbBlockReference
  2
block 152
 10
0.0
 20
0.0
 30
0.0
  0
INSERT
  5
4C2
330
1F
100
AcDbEntity
  8
0
100
AcDbBlockReference
  2
block 153
 10
0.0
 20
0.0
 30
0.0
  0
INSERT
  5
4CA
330
1F
100
AcDbEntity
  8
0
100
AcDbBlockReference
  2
block 154
 10
0.0
 20
0.0
 30
0.0
  0
INSERT
  5
4D2
330
1F
100
AcDbEntity
  8
0
100
AcDbBlockReference
  2
block 155
 10
0.0
 20
0.0
 30
0.0
  0
INSERT
  5
4DA
330
1F
100
AcDbEntity
  8
0
100
AcDbBlockReference
  2
block 156
 10
0.0
 20
0.0
 30
0.0
  0
INSERT
  5
4E2
330
1F
100
AcDbEntity
  8
0
100
AcDbBlockReference
  2
block 157
 10
0.0
 20
0.0
 30
0.0
  0
INSERT
  5
4EA
330
1F
100
AcDbEntity
  8
0
100
AcDbBlockReference
  2
block 158
 10
0.0
 20
0.0
 30
0.0
  0
INSERT
  5
4F2
330
1F
100
AcDbEntity
  8
0
100
AcDbBlockReference
  2
block 159
 10
0.0
 20
0.0
 30
0.0
  0
INSERT
  5
4FA
330
1F
100
AcDbEntity
  8
0
100
AcDbBlockReference
  2
block 160
 10
0.0
 20
0.0
 30
0.0
  0
INSERT
  5
502
330
1F
100
AcDbEntity
  8
0
100
AcDbBlockReference
  2
block 161
 10
0.0
 20
0.0
 30
0.0
  0
INSERT
  5
50A
330
1F
100
AcDbEntity
  8
0
100
AcDbBlockReference
  2
block 162
 10
0.0
 20
0.0
 30
0.0
  0
INSERT
  5
512
330
1F
100
AcDbEntity
  8
0
100
AcDbBlockReference
  2
block 163
 10
0.0
 20
0.0
 30
0.0
  0
INSERT
  5
51A
330
1F
100
AcDbEntity
  8
0
100
AcDbBlockReference
  2
block 164
 10
0.0
 20
0.0
 30
0.0
  0
INSERT
  5
522
330
1F
100
AcDbEntity
  8
0
100
AcDbBlockReference
  2
block 165
 10
0.0
 20
0.0
 30
0.0
  0
INSERT
  5
52A
330
1F
100
AcDbEntity
  8
0
100
AcDbBlockReference
  2
block 166
 10
0.0
 20
0.0
 30
0.0
  0
INSERT
  5
532
330
1F
100
AcDbEntity
  8
0
100
AcDbBlockReference
  2
block 167
 10
0.0
 20
0.0
 30
0.0
  0
INSERT
  5
53A
330
1F
100
AcDbEntity
  8
0
100
AcDbBlockReference
  2
block 168
 10
0.0
 20
0.0
 30
0.0
  0
INSERT
  5
542
330
1F
100
AcDbEntity
  8
0
100
AcDbBlockReference
  2
block 169
 10
0.0
 20
0.0
 30
0.0
  0
INSERT
  5
54A
330
1F
100
AcDbEntity
  8
0
100
AcDbBlockReference
  2
block 170
 10
0.0
 20
0.0
 30
0.0
  0
INSERT
  5
552
330
1F
100
AcDbEntity
  8
0
100
AcDbBlockReference
  2
block 171
 10
0.0
 20
0.0
 30
0.0
  0
INSERT
  5
55A
330
1F
100
AcDbEntity
  8
0
100
AcDbBlockReference
  2
block 172
 10
0.0
 20
0.0
 30
0.0
  0
INSERT
  5
562
330
1F
100
AcDbEntity
  8
0
100
AcDbBlockReference
  2
block 173
 10
0.0
 20
0.0
 30
0.0
  0
INSERT
  5
56A
330
1F
100
AcDbEntity
  8
0
100
AcDbBlockReference
  2
block 174
 10
0.0
 20
0.0
 30
0.0
  0
INSERT
  5
572
330
1F
100
AcDbEntity
  8
0
100
AcDbBlockReference
  2
block 175
 10
0.0
 20
0.0
 30
0.0
  0
INSERT
  5
57A
330
1F
100
AcDbEntity
  8
0
100
AcDbBlockReference
  2
block 176
 10
0.0
 20
0.0
 30
0.0
  0
INSERT
  5
582
330
1F
100
AcDbEntity
  8
0
100
AcDbBlockReference
  2
block 177
 10
0.0
 20
0.0
 30
0.0
  0
INSERT
  5
58A
330
1F
100
AcDbEntity
  8
0
100
AcDbBlockReference
  2
block 178
 10
0.0
 20
0.0
 30
0.0
  0
INSERT
  5
592
330
1F
100
AcDbEntity
  8
0
100
AcDbBlockReference
  2
block 179
 10
0.0
 20
0.0
 30
0.0
  0
INSERT
  5
59A
330
1F
100
AcDbEntity
  8
0
100
AcDbBlockReference
  2
block 180
 10
0.0
 20
0.0
 30
0.0
  0
INSERT
  5
5A3
330
1F
100
AcDbEntity
  8
AM_1
100
AcDbBlockReference
  2
block 181
 10
0.0
 20
0.0
 30
0.0
  0
INSERT
  5
5A8
330
1F
100
AcDbEntity
  8
AM_1
100
AcDbBlockReference
  2
block 182
 10
0.0
 20
0.0
 30
0.0
  0
INSERT
  5
5B0
330
1F
100
AcDbEntity
  8
AM_1
100
AcDbBlockReference
  2
block 183
 10
0.0
 20
0.0
 30
0.0
  0
INSERT
  5
5B8
330
1F
100
AcDbEntity
  8
AM_1
100
AcDbBlockReference
  2
block 184
 10
0.0
 20
0.0
 30
0.0
  0
INSERT
  5
5BD
330
1F
100
AcDbEntity
  8
AM_1
100
AcDbBlockReference
  2
block 185
 10
0.0
 20
0.0
 30
0.0
  0
INSERT
  5
5C2
330
1F
100
AcDbEntity
  8
AM_1
100
AcDbBlockReference
  2
block 186
 10
0.0
 20
0.0
 30
0.0
  0
INSERT
  5
5C8
330
1F
100
AcDbEntity
  8
AM_1
100
AcDbBlockReference
  2
block 187
 10
0.0
 20
0.0
 30
0.0
  0
INSERT
  5
5CD
330
1F
100
AcDbEntity
  8
AM_1
100
AcDbBlockReference
  2
block 188
 10
0.0
 20
0.0
 30
0.0
  0
INSERT
  5
5D2
330
1F
100
AcDbEntity
  8
AM_1
100
AcDbBlockReference
  2
block 189
 10
0.0
 20
0.0
 30
0.0
  0
INSERT
  5
5D8
330
1F
100
AcDbEntity
  8
AM_1
100
AcDbBlockReference
  2
block 190
 10
0.0
 20
0.0
 30
0.0
  0
INSERT
  5
5DD
330
1F
100
AcDbEntity
  8
AM_1
100
AcDbBlockReference
  2
block 191
 10
0.0
 20
0.0
 30
0.0
  0
INSERT
  5
5E5
330
1F
100
AcDbEntity
  8
AM_1
100
AcDbBlockReference
  2
block 192
 10
0.0
 20
0.0
 30
0.0
  0
INSERT
  5
5ED
330
1F
100
AcDbEntity
  8
AM_1
100
AcDbBlockReference
  2
block 193
 10
0.0
 20
0.0
 30
0.0
  0
INSERT
  5
5F2
330
1F
100
AcDbEntity
  8
AM_1
100
AcDbBlockReference
  2
block 194
 10
0.0
 20
0.0
 30
0.0
  0
INSERT
  5
5F7
330
1F
100
AcDbEntity
  8
AM_1
100
AcDbBlockReference
  2
block 195
 10
0.0
 20
0.0
 30
0.0
  0
INSERT
  5
5FD
330
1F
100
AcDbEntity
  8
AM_1
100
AcDbBlockReference
  2
block 196
 10
0.0
 20
0.0
 30
0.0
  0
INSERT
  5
602
330
1F
100
AcDbEntity
  8
AM_1
100
AcDbBlockReference
  2
block 197
 10
0.0
 20
0.0
 30
0.0
  0
INSERT
  5
607
330
1F
100
AcDbEntity
  8
AM_1
100
AcDbBlockReference
  2
block 198
 10
0.0
 20
0.0
 30
0.0
  0
INSERT
  5
60E
330
1F
100
AcDbEntity
  8
Defpoints
100
AcDbBlockReference
  2
block 199
 10
0.0
 20
0.0
 30
0.0
  0
INSERT
  5
615
330
1F
100
AcDbEntity
  8
Defpoints
100
AcDbBlockReference
  2
block 200
 10
0.0
 20
0.0
 30
0.0
  0
INSERT
  5
61C
330
1F
100
AcDbEntity
  8
Defpoints
100
AcDbBlockReference
  2
block 201
 10
0.0
 20
0.0
 30
0.0
  0
INSERT
  5
623
330
1F
100
AcDbEntity
  8
Defpoints
100
AcDbBlockReference
  2
block 202
 10
0.0
 20
0.0
 30
0.0
  0
INSERT
  5
62A
330
1F
100
AcDbEntity
  8
Defpoints
100
AcDbBlockReference
  2
block 203
 10
0.0
 20
0.0
 30
0.0
  0
INSERT
  5
631
330
1F
100
AcDbEntity
  8
Defpoints
100
AcDbBlockReference
  2
block 204
 10
0.0
 20
0.0
 30
0.0
  0
INSERT
  5
638
330
1F
100
AcDbEntity
  8
Defpoints
100
AcDbBlockReference
  2
block 205
 10
0.0
 20
0.0
 30
0.0
  0
INSERT
  5
63F
330
1F
100
AcDbEntity
  8
Defpoints
100
AcDbBlockReference
  2
block 206
 10
0.0
 20
0.0
 30
0.0
  0
INSERT
  5
646
330
1F
100
AcDbEntity
  8
Defpoints
100
AcDbBlockReference
  2
block 207
 10
0.0
 20
0.0
 30
0.0
  0
INSERT
  5
64D
330
1F
100
AcDbEntity
  8
Defpoints
100
AcDbBlockReference
  2
block 208
 10
0.0
 20
0.0
 30
0.0
  0
INSERT
  5
654
330
1F
100
AcDbEntity
  8
Defpoints
100
AcDbBlockReference
  2
block 209
 10
0.0
 20
0.0
 30
0.0
  0
INSERT
  5
65B
330
1F
100
AcDbEntity
  8
Defpoints
100
AcDbBlockReference
  2
block 210
 10
0.0
 20
0.0
 30
0.0
  0
INSERT
  5
662
330
1F
100
AcDbEntity
  8
Defpoints
100
AcDbBlockReference
  2
block 211
 10
0.0
 20
0.0
 30
0.0
  0
INSERT
  5
669
330
1F
100
AcDbEntity
  8
Defpoints
100
AcDbBlockReference
  2
block 212
 10
0.0
 20
0.0
 30
0.0
  0
INSERT
  5
670
330
1F
100
AcDbEntity
  8
Defpoints
100
AcDbBlockReference
  2
block 213
 10
0.0
 20
0.0
 30
0.0
  0
INSERT
  5
677
330
1F
100
AcDbEntity
  8
Defpoints
100
AcDbBlockReference
  2
block 214
 10
0.0
 20
0.0
 30
0.0
  0
INSERT
  5
67E
330
1F
100
AcDbEntity
  8
Defpoints
100
AcDbBlockReference
  2
block 215
 10
0.0
 20
0.0
 30
0.0
  0
INSERT
  5
685
330
1F
100
AcDbEntity
  8
Defpoints
100
AcDbBlockReference
  2
block 216
 10
0.0
 20
0.0
 30
0.0
  0
INSERT
  5
68C
330
1F
100
AcDbEntity
  8
Defpoints
100
AcDbBlockReference
  2
block 217
 10
0.0
 20
0.0
 30
0.0
  0
INSERT
  5
693
330
1F
100
AcDbEntity
  8
Defpoints
100
AcDbBlockReference
  2
block 218
 10
0.0
 20
0.0
 30
0.0
  0
INSERT
  5
69A
330
1F
100
AcDbEntity
  8
Defpoints
100
AcDbBlockReference
  2
block 219
 10
0.0
 20
0.0
 30
0.0
  0
INSERT
  5
6A1
330
1F
100
AcDbEntity
  8
Defpoints
100
AcDbBlockReference
  2
block 220
 10
0.0
 20
0.0
 30
0.0
  0
INSERT
  5
6A8
330
1F
100
AcDbEntity
  8
Defpoints
100
AcDbBlockReference
  2
block 221
 10
0.0
 20
0.0
 30
0.0
  0
INSERT
  5
6AF
330
1F
100
AcDbEntity
  8
Defpoints
100
AcDbBlockReference
  2
block 222
 10
0.0
 20
0.0
 30
0.0
  0
ENDSEC
  0
SECTION
  2
OBJECTS
  0
DICTIONARY
  5
C
330
0
100
AcDbDictionary
281
     1
  3
ACAD_GROUP
350
D
  3
ACAD_LAYOUT
350
1A
  3
ACAD_MATERIAL
350
3B
  3
ACAD_MLEADERSTYLE
350
6CE
  3
ACAD_MLINESTYLE
350
17
  3
ACAD_PLOTSETTINGS
350
19
  3
ACAD_PLOTSTYLENAME
350
E
  3
ACAD_TABLESTYLE
350
6CD
  3
ACAD_VISUALSTYLE
350
2A
  0
SUN
  5
3F
330
29
100
AcDbSun
 90
        1
290
     0
 63
     7
421
 16777215
 40
1.0
291
     1
 91
  2455826
 92
 54000000
292
     0
 70
     2
 71
   256
280
     1
  0
DICTIONARY
  5
D
102
{ACAD_REACTORS
330
C
102
}
330
C
100
AcDbDictionary
281
     1
  0
DICTIONARY
  5
1A
102
{ACAD_REACTORS
330
C
102
}
330
C
100
AcDbDictionary
281
     1
  3
Layout1
350
1E
  3
Layout2
350
26
  3
Model
350
22
  0
DICTIONARY
  5
3B
102
{ACAD_REACTORS
330
C
102
}
330
C
100
AcDbDictionary
281
     1
  3
ByBlock
350
3D
  3
ByLayer
350
3C
  3
Global
350
3E
  0
DICTIONARY
  5
6CE
102
{ACAD_REACTORS
330
C
102
}
330
C
100
AcDbDictionary
281
     1
  0
DICTIONARY
  5
17
102
{ACAD_REACTORS
330
C
102
}
330
C
100
AcDbDictionary
281
     1
  3
Standard
350
18
  0
DICTIONARY
  5
19
102
{ACAD_REACTORS
330
C
102
}
330
C
100
AcDbDictionary
281
     1
  0
ACDBDICTIONARYWDFLT
  5
E
102
{ACAD_REACTORS
330
C
102
}
330
C
100
AcDbDictionary
281
     1
  3
Normal
350
F
100
AcDbDictionaryWithDefault
340
F
  0
DICTIONARY
  5
6CD
102
{ACAD_REACTORS
330
C
102
}
330
C
100
AcDbDictionary
281
     1
  0
DICTIONARY
  5
2A
102
{ACAD_REACTORS
330
C
102
}
330
C
100
AcDbDictionary
281
     1
  3
2dWireframe
350
2F
  3
3D Hidden
350
31
  3
3dWireframe
350
30
  3
Basic
350
32
  3
Brighten
350
36
  3
ColorChange
350
3A
  3
Conceptual
350
34
  3
Dim
350
35
  3
Facepattern
350
39
  3
Flat
350
2B
  3
FlatWithEdges
350
2C
  3
Gouraud
350
2D
  3
GouraudWithEdges
350
2E
  3
Linepattern
350
38
  3
Realistic
350
33
  3
Thicken
350
37
  0
LAYOUT
  5
1E
102
{ACAD_REACTORS
330
1A
102
}
330
1A
100
AcDbPlotSettings
  1

  2
none_device
  4

  6

 40
0.0
 41
0.0
 42
0.0
 43
0.0
 44
0.0
 45
0.0
 46
0.0
 47
0.0
 48
0.0
 49
0.0
140
0.0
141
0.0
142
1.0
143
1.0
 70
   688
 72
     0
 73
     0
 74
     5
  7

 75
    16
 76
     0
 77
     2
 78
   300
147
1.0
148
0.0
149
0.0
100
AcDbLayout
  1
Layout1
 70
     1
 71
     1
 10
0.0
 20
0.0
 11
12.0
 21
9.0
 12
0.0
 22
0.0
 32
0.0
 14
1.000000000000000E+20
 24
1.000000000000000E+20
 34
1.000000000000000E+20
 15
-1.000000000000000E+20
 25
-1.000000000000000E+20
 35
-1.000000000000000E+20
146
0.0
 13
0.0
 23
0.0
 33
0.0
 16
1.0
 26
0.0
 36
0.0
 17
0.0
 27
1.0
 37
0.0
 76
     0
330
1B
  0
LAYOUT
  5
26
102
{ACAD_REACTORS
330
1A
102
}
330
1A
100
AcDbPlotSettings
  1

  2
none_device
  4

  6

 40
0.0
 41
0.0
 42
0.0
 43
0.0
 44
0.0
 45
0.0
 46
0.0
 47
0.0
 48
0.0
 49
0.0
140
0.0
141
0.0
142
1.0
143
1.0
 70
   688
 72
     0
 73
     0
 74
     5
  7

 75
    16
 76
     0
 77
     2
 78
   300
147
1.0
148
0.0
149
0.0
100
AcDbLayout
  1
Layout2
 70
     1
 71
     2
 10
0.0
 20
0.0
 11
0.0
 21
0.0
 12
0.0
 22
0.0
 32
0.0
 14
0.0
 24
0.0
 34
0.0
 15
0.0
 25
0.0
 35
0.0
146
0.0
 13
0.0
 23
0.0
 33
0.0
 16
1.0
 26
0.0
 36
0.0
 17
0.0
 27
1.0
 37
0.0
 76
     0
330
23
  0
LAYOUT
  5
22
102
{ACAD_REACTORS
330
1A
102
}
330
1A
100
AcDbPlotSettings
  1

  2
none_device
  4

  6

 40
0.0
 41
0.0
 42
0.0
 43
0.0
 44
0.0
 45
0.0
 46
0.0
 47
0.0
 48
0.0
 49
0.0
140
0.0
141
0.0
142
1.0
143
1.0
 70
  1712
 72
     0
 73
     0
 74
     0
  7

 75
     0
 76
     0
 77
     2
 78
   300
147
1.0
148
0.0
149
0.0
100
AcDbLayout
  1
Model
 70
     1
 71
     0
 10
0.0
 20
0.0
 11
12.0
 21
9.0
 12
0.0
 22
0.0
 32
0.0
 14
1.000000000000000E+20
 24
1.000000000000000E+20
 34
1.000000000000000E+20
 15
-1.000000000000000E+20
 25
-1.000000000000000E+20
 35
-1.000000000000000E+20
146
0.0
 13
0.0
 23
0.0
 33
0.0
 16
1.0
 26
0.0
 36
0.0
 17
0.0
 27
1.0
 37
0.0
 76
     0
330
1F
331
29
  0
MATERIAL
  5
3D
102
{ACAD_REACTORS
330
3B
102
}
330
3B
100
AcDbMaterial
  1
ByBlock
 72
     1
 94
      127
  0
MATERIAL
  5
3C
102
{ACAD_REACTORS
330
3B
102
}
330
3B
100
AcDbMaterial
  1
ByLayer
 72
     1
 94
      127
  0
MATERIAL
  5
3E
102
{ACAD_REACTORS
330
3B
102
}
330
3B
100
AcDbMaterial
  1
Global
 72
     1
 94
      127
  0
MLINESTYLE
  5
18
102
{ACAD_REACTORS
330
17
102
}
330
17
100
AcDbMlineStyle
  2
Standard
 70
     0
  3

 62
   256
 51
90.0
 52
90.0
 71
     2
 49
0.5
 62
   256
  6
BYLAYER
 49
-0.5
 62
   256
  6
BYLAYER
  0
ACDBPLACEHOLDER
  5
F
102
{ACAD_REACTORS
330
E
102
}
330
E
  0
VISUALSTYLE
  5
2F
102
{ACAD_REACTORS
330
2A
102
}
330
2A
100
AcDbVisualStyle
  2
2dWireframe
 70
     4
177
     2
291
     0
 71
     0
176
     1
 72
     2
176
     1
 73
     0
176
     1
 90
        0
176
     1
 40
-0.6
176
     1
 41
-30.0
176
     1
 62
     5
 63
     7
421
 16777215
176
     1
 74
     1
176
     1
 91
        4
176
     1
 64
     7
176
     1
 65
   257
176
     1
 75
     1
176
     1
175
     1
176
     1
 42
1.0
176
     1
 92
        0
176
     1
 66
   257
176
     1
 43
1.0
176
     1
 76
     1
176
     1
 77
     6
176
     1
 78
     2
176
     1
 67
     7
176
     1
 79
     5
176
     1
170
     0
176
     1
171
     0
176
     1
290
     0
176
     1
 93
        1
176
     1
 44
0.0
176
     1
173
     0
176
     1
  0
VISUALSTYLE
  5
31
102
{ACAD_REACTORS
330
2A
102
}
330
2A
100
AcDbVisualStyle
  2
3D Hidden
 70
     6
177
     2
291
     0
 71
     1
176
     1
 72
     2
176
     1
 73
     2
176
     1
 90
        0
176
     1
 40
-0.6
176
     1
 41
-30.0
176
     1
 62
     5
 63
     7
421
 16777215
176
     1
 74
     2
176
     1
 91
        2
176
     1
 64
     7
176
     1
 65
   257
176
     1
 75
     2
176
     1
175
     1
176
     1
 42
40.0
176
     1
 92
        0
176
     1
 66
   257
176
     1
 43
1.0
176
     1
 76
     1
176
     1
 77
     6
176
     1
 78
     2
176
     1
 67
     7
176
     1
 79
     3
176
     1
170
     0
176
     1
171
     0
176
     1
290
     0
176
     1
 93
        1
176
     1
 44
0.0
176
     1
173
     0
176
     1
  0
VISUALSTYLE
  5
30
102
{ACAD_REACTORS
330
2A
102
}
330
2A
100
AcDbVisualStyle
  2
3dWireframe
 70
     5
177
     2
291
     0
 71
     0
176
     1
 72
     2
176
     1
 73
     0
176
     1
 90
        0
176
     1
 40
-0.6
176
     1
 41
-30.0
176
     1
 62
     5
 63
     7
421
 16777215
176
     1
 74
     1
176
     1
 91
        4
176
     1
 64
     7
176
     1
 65
   257
176
     1
 75
     1
176
     1
175
     1
176
     1
 42
1.0
176
     1
 92
        0
176
     1
 66
   257
176
     1
 43
1.0
176
     1
 76
     1
176
     1
 77
     6
176
     1
 78
     2
176
     1
 67
     7
176
     1
 79
     5
176
     1
170
     0
176
     1
171
     0
176
     1
290
     0
176
     1
 93
        1
176
     1
 44
0.0
176
     1
173
     0
176
     1
  0
VISUALSTYLE
  5
32
102
{ACAD_REACTORS
330
2A
102
}
330
2A
100
AcDbVisualStyle
  2
Basic
 70
     7
177
     2
291
     1
 71
     1
176
     1
 72
     0
176
     1
 73
     1
176
     1
 90
        0
176
     1
 40
-0.6
176
     1
 41
-30.0
176
     1
 62
     5
 63
     7
421
 16777215
176
     1
 74
     0
176
     1
 91
        4
176
     1
 64
     7
176
     1
 65
   257
176
     1
 75
     1
176
     1
175
     1
176
     1
 42
1.0
176
     1
 92
        8
176
     1
 66
     7
176
     1
 43
1.0
176
     1
 76
     1
176
     1
 77
     6
176
     1
 78
     2
176
     1
 67
     7
176
     1
 79
     5
176
     1
170
     0
176
     1
171
     0
176
     1
290
     0
176
     1
 93
        1
176
     1
 44
0.0
176
     1
173
     0
176
     1
  0
VISUALSTYLE
  5
36
102
{ACAD_REACTORS
330
2A
102
}
330
2A
100
AcDbVisualStyle
  2
Brighten
 70
    12
177
     2
291
     1
 71
     2
176
     1
 72
     2
176
     1
 73
     0
176
     1
 90
        0
176
     1
 40
-0.6
176
     1
 41
-30.0
176
     1
 62
     5
 63
     7
421
 16777215
176
     1
 74
     1
176
     1
 91
        4
176
     1
 64
     7
176
     1
 65
   257
176
     1
 75
     1
176
     1
175
     1
176
     1
 42
1.0
176
     1
 92
        8
176
     1
 66
     7
176
     1
 43
1.0
176
     1
 76
     1
176
     1
 77
     6
176
     1
 78
     2
176
     1
 67
     7
176
     1
 79
     5
176
     1
170
     0
176
     1
171
     0
176
     1
290
     0
176
     1
 93
        1
176
     1
 44
50.0
176
     1
173
     0
176
     1
  0
VISUALSTYLE
  5
3A
102
{ACAD_REACTORS
330
2A
102
}
330
2A
100
AcDbVisualStyle
  2
ColorChange
 70
    16
177
     2
291
     1
 71
     2
176
     1
 72
     2
176
     1
 73
     3
176
     1
 90
        0
176
     1
 40
-0.6
176
     1
 41
-30.0
176
     1
 62
     5
 63
     8
421
  8421504
176
     1
 74
     1
176
     1
 91
        4
176
     1
 64
     7
176
     1
 65
   257
176
     1
 75
     1
176
     1
175
     1
176
     1
 42
1.0
176
     1
 92
        8
176
     1
 66
     8
424
  8421504
176
     1
 43
1.0
176
     1
 76
     1
176
     1
 77
     6
176
     1
 78
     2
176
     1
 67
     7
176
     1
 79
     5
176
     1
170
     0
176
     1
171
     0
176
     1
290
     0
176
     1
 93
        1
176
     1
 44
0.0
176
     1
173
     0
176
     1
  0
VISUALSTYLE
  5
34
102
{ACAD_REACTORS
330
2A
102
}
330
2A
100
AcDbVisualStyle
  2
Conceptual
 70
     9
177
     2
291
     0
 71
     3
176
     1
 72
     2
176
     1
 73
     0
176
     1
 90
        0
176
     1
 40
-0.6
176
     1
 41
-30.0
176
     1
 62
     5
 63
     7
421
 16777215
176
     1
 74
     2
176
     1
 91
        2
176
     1
 64
     7
176
     1
 65
   257
176
     1
 75
     1
176
     1
175
     1
176
     1
 42
40.0
176
     1
 92
        8
176
     1
 66
     7
176
     1
 43
1.0
176
     1
 76
     1
176
     1
 77
     6
176
     1
 78
     2
176
     1
 67
     7
176
     1
 79
     3
176
     1
170
     0
176
     1
171
     0
176
     1
290
     0
176
     1
 93
        1
176
     1
 44
0.0
176
     1
173
     0
176
     1
  0
VISUALSTYLE
  5
35
102
{ACAD_REACTORS
330
2A
102
}
330
2A
100
AcDbVisualStyle
  2
Dim
 70
    11
177
     2
291
     1
 71
     2
176
     1
 72
     2
176
     1
 73
     0
176
     1
 90
        0
176
     1
 40
-0.6
176
     1
 41
-30.0
176
     1
 62
     5
 63
     7
421
 16777215
176
     1
 74
     1
176
     1
 91
        4
176
     1
 64
     7
176
     1
 65
   257
176
     1
 75
     1
176
     1
175
     1
176
     1
 42
1.0
176
     1
 92
        8
176
     1
 66
     7
176
     1
 43
1.0
176
     1
 76
     1
176
     1
 77
     6
176
     1
 78
     2
176
     1
 67
     7
176
     1
 79
     5
176
     1
170
     0
176
     1
171
     0
176
     1
290
     0
176
     1
 93
        1
176
     1
 44
-50.0
176
     1
173
     0
176
     1
  0
VISUALSTYLE
  5
39
102
{ACAD_REACTORS
330
2A
102
}
330
2A
100
AcDbVisualStyle
  2
Facepattern
 70
    15
177
     2
291
     1
 71
     2
176
     1
 72
     2
176
     1
 73
     0
176
     1
 90
        0
176
     1
 40
-0.6
176
     1
 41
-30.0
176
     1
 62
     5
 63
     7
421
 16777215
176
     1
 74
     1
176
     1
 91
        4
176
     1
 64
     7
176
     1
 65
   257
176
     1
 75
     1
176
     1
175
     1
176
     1
 42
1.0
176
     1
 92
        8
176
     1
 66
     7
176
     1
 43
1.0
176
     1
 76
     1
176
     1
 77
     6
176
     1
 78
     2
176
     1
 67
     7
176
     1
 79
     5
176
     1
170
     0
176
     1
171
     0
176
     1
290
     0
176
     1
 93
        1
176
     1
 44
0.0
176
     1
173
     0
176
     1
  0
VISUALSTYLE
  5
2B
102
{ACAD_REACTORS
330
2A
102
}
330
2A
100
AcDbVisualStyle
  2
Flat
 70
     0
177
     2
291
     1
 71
     2
176
     1
 72
     1
176
     1
 73
     1
176
     1
 90
        2
176
     1
 40
-0.6
176
     1
 41
30.0
176
     1
 62
     5
 63
     7
421
 16777215
176
     1
 74
     0
176
     1
 91
        4
176
     1
 64
     7
176
     1
 65
   257
176
     1
 75
     1
176
     1
175
     1
176
     1
 42
1.0
176
     1
 92
        8
176
     1
 66
     7
176
     1
 43
1.0
176
     1
 76
     1
176
     1
 77
     6
176
     1
 78
     2
176
     1
 67
     7
176
     1
 79
     5
176
     1
170
     0
176
     1
171
     0
176
     1
290
     0
176
     1
 93
       13
176
     1
 44
0.0
176
     1
173
     0
176
     1
  0
VISUALSTYLE
  5
2C
102
{ACAD_REACTORS
330
2A
102
}
330
2A
100
AcDbVisualStyle
  2
FlatWithEdges
 70
     1
177
     2
291
     1
 71
     2
176
     1
 72
     1
176
     1
 73
     1
176
     1
 90
        2
176
     1
 40
-0.6
176
     1
 41
30.0
176
     1
 62
     5
 63
     7
421
 16777215
176
     1
 74
     1
176
     1
 91
        4
176
     1
 64
     7
176
     1
 65
   257
176
     1
 75
     1
176
     1
175
     1
176
     1
 42
1.0
176
     1
 92
        0
176
     1
 66
   257
176
     1
 43
1.0
176
     1
 76
     1
176
     1
 77
     6
176
     1
 78
     2
176
     1
 67
     7
176
     1
 79
     5
176
     1
170
     0
176
     1
171
     0
176
     1
290
     0
176
     1
 93
       13
176
     1
 44
0.0
176
     1
173
     0
176
     1
  0
VISUALSTYLE
  5
2D
102
{ACAD_REACTORS
330
2A
102
}
330
2A
100
AcDbVisualStyle
  2
Gouraud
 70
     2
177
     2
291
     1
 71
     2
176
     1
 72
     2
176
     1
 73
     1
176
     1
 90
        2
176
     1
 40
-0.6
176
     1
 41
30.0
176
     1
 62
     5
 63
     7
421
 16777215
176
     1
 74
     0
176
     1
 91
        4
176
     1
 64
     7
176
     1
 65
   257
176
     1
 75
     1
176
     1
175
     1
176
     1
 42
1.0
176
     1
 92
        0
176
     1
 66
     7
176
     1
 43
1.0
176
     1
 76
     1
176
     1
 77
     6
176
     1
 78
     2
176
     1
 67
     7
176
     1
 79
     5
176
     1
170
     0
176
     1
171
     0
176
     1
290
     0
176
     1
 93
       13
176
     1
 44
0.0
176
     1
173
     0
176
     1
  0
VISUALSTYLE
  5
2E
102
{ACAD_REACTORS
330
2A
102
}
330
2A
100
AcDbVisualStyle
  2
GouraudWithEdges
 70
     3
177
     2
291
     1
 71
     2
176
     1
 72
     2
176
     1
 73
     1
176
     1
 90
        2
176
     1
 40
-0.6
176
     1
 41
30.0
176
     1
 62
     5
 63
     7
421
 16777215
176
     1
 74
     1
176
     1
 91
        4
176
     1
 64
     7
176
     1
 65
   257
176
     1
 75
     1
176
     1
175
     1
176
     1
 42
1.0
176
     1
 92
        0
176
     1
 66
   257
176
     1
 43
1.0
176
     1
 76
     1
176
     1
 77
     6
176
     1
 78
     2
176
     1
 67
     7
176
     1
 79
     5
176
     1
170
     0
176
     1
171
     0
176
     1
290
     0
176
     1
 93
       13
176
     1
 44
0.0
176
     1
173
     0
176
     1
  0
VISUALSTYLE
  5
38
102
{ACAD_REACTORS
330
2A
102
}
330
2A
100
AcDbVisualStyle
  2
Linepattern
 70
    14
177
     2
291
     1
 71
     2
176
     1
 72
     2
176
     1
 73
     0
176
     1
 90
        0
176
     1
 40
-0.6
176
     1
 41
-30.0
176
     1
 62
     5
 63
     7
421
 16777215
176
     1
 74
     1
176
     1
 91
        4
176
     1
 64
     7
176
     1
 65
   257
176
     1
 75
     7
176
     1
175
     7
176
     1
 42
1.0
176
     1
 92
        8
176
     1
 66
     7
176
     1
 43
1.0
176
     1
 76
     1
176
     1
 77
     6
176
     1
 78
     2
176
     1
 67
     7
176
     1
 79
     5
176
     1
170
     0
176
     1
171
     0
176
     1
290
     0
176
     1
 93
        1
176
     1
 44
0.0
176
     1
173
     0
176
     1
  0
VISUALSTYLE
  5
33
102
{ACAD_REACTORS
330
2A
102
}
330
2A
100
AcDbVisualStyle
  2
Realistic
 70
     8
177
     2
291
     0
 71
     2
176
     1
 72
     2
176
     1
 73
     0
176
     1
 90
        0
176
     1
 40
-0.6
176
     1
 41
-30.0
176
     1
 62
     5
 63
     7
421
 16777215
176
     1
 74
     1
176
     1
 91
        0
176
     1
 64
     7
176
     1
 65
   257
176
     1
 75
     1
176
     1
175
     1
176
     1
 42
1.0
176
     1
 92
        8
176
     1
 66
     8
424
  7895160
176
     1
 43
1.0
176
     1
 76
     1
176
     1
 77
     6
176
     1
 78
     2
176
     1
 67
     7
176
     1
 79
     5
176
     1
170
     0
176
     1
171
     0
176
     1
290
     0
176
     1
 93
       13
176
     1
 44
0.0
176
     1
173
     0
176
     1
  0
VISUALSTYLE
  5
37
102
{ACAD_REACTORS
330
2A
102
}
330
2A
100
AcDbVisualStyle
  2
Thicken
 70
    13
177
     2
291
     1
 71
     2
176
     1
 72
     2
176
     1
 73
     0
176
     1
 90
        0
176
     1
 40
-0.6
176
     1
 41
-30.0
176
     1
 62
     5
 63
     7
421
 16777215
176
     1
 74
     1
176
     1
 91
        4
176
     1
 64
     7
176
     1
 65
   257
176
     1
 75
     1
176
     1
175
     1
176
     1
 42
1.0
176
     1
 92
       12
176
     1
 66
     7
176
     1
 43
1.0
176
     1
 76
     1
176
     1
 77
     6
176
     1
 78
     2
176
     1
 67
     7
176
     1
 79
     5
176
     1
170
     0
176
     1
171
     0
176
     1
290
     0
176
     1
 93
        1
176
     1
 44
0.0
176
     1
173
     0
176
     1
  0
ENDSEC
  0
EOF
