  0
SECTION
  2
HEADER
  9
$ACADVER
  1
AC1024
  9
$ACADMAINTVER
 70
     6
  9
$DWGCODEPAGE
  3
ANSI_932
  9
$INSBASE
 10
0.0
 20
0.0
 30
0.0
  9
$EXTMIN
 10
1.000000000000000E+20
 20
1.000000000000000E+20
 30
1.000000000000000E+20
  9
$EXTMAX
 10
-1.000000000000000E+20
 20
-1.000000000000000E+20
 30
-1.000000000000000E+20
  9
$LIMMIN
 10
0.0
 20
0.0
  9
$LIMMAX
 10
12.0
 20
9.0
  9
$ORTHOMODE
 70
     0
  9
$REGENMODE
 70
     1
  9
$FILLMODE
 70
     1
  9
$QTEXTMODE
 70
     0
  9
$MIRRTEXT
 70
     1
  9
$LTSCALE
 40
1.0
  9
$ATTMODE
 70
     1
  9
$TEXTSIZE
 40
0.2
  9
$TRACEWID
 40
0.05
  9
$TEXTSTYLE
  7
Standard
  9
$CLAYER
  8
0
  9
$CELTYPE
  6
ByLayer
  9
$CECOLOR
 62
   256
  9
$CELTSCALE
 40
1.0
  9
$DISPSILH
 70
     0
  9
$DIMSCALE
 40
1.0
  9
$DIMASZ
 40
0.18
  9
$DIMEXO
 40
0.0625
  9
$DIMDLI
 40
0.38
  9
$DIMRND
 40
0.0
  9
$DIMDLE
 40
0.0
  9
$DIMEXE
 40
0.18
  9
$DIMTP
 40
0.0
  9
$DIMTM
 40
0.0
  9
$DIMTXT
 40
0.18
  9
$DIMCEN
 40
0.09
  9
$DIMTSZ
 40
0.0
  9
$DIMTOL
 70
     0
  9
$DIMLIM
 70
     0
  9
$DIMTIH
 70
     1
  9
$DIMTOH
 70
     1
  9
$DIMSE1
 70
     0
  9
$DIMSE2
 70
     0
  9
$DIMTAD
 70
     0
  9
$DIMZIN
 70
     0
  9
$DIMBLK
  1

  9
$DIMASO
 70
     1
  9
$DIMSHO
 70
     1
  9
$DIMPOST
  1

  9
$DIMAPOST
  1

  9
$DIMALT
 70
     0
  9
$DIMALTD
 70
     2
  9
$DIMALTF
 40
25.4
  9
$DIMLFAC
 40
1.0
  9
$DIMTOFL
 70
     0
  9
$DIMTVP
 40
0.0
  9
$DIMTIX
 70
     0
  9
$DIMSOXD
 70
     0
  9
$DIMSAH
 70
     0
  9
$DIMBLK1
  1

  9
$DIMBLK2
  1

  9
$DIMSTYLE
  2
Standard
  9
$DIMCLRD
 70
     0
  9
$DIMCLRE
 70
     0
  9
$DIMCLRT
 70
     0
  9
$DIMTFAC
 40
1.0
  9
$DIMGAP
 40
0.09
  9
$DIMJUST
 70
     0
  9
$DIMSD1
 70
     0
  9
$DIMSD2
 70
     0
  9
$DIMTOLJ
 70
     1
  9
$DIMTZIN
 70
     0
  9
$DIMALTZ
 70
     0
  9
$DIMALTTZ
 70
     0
  9
$DIMUPT
 70
     0
  9
$DIMDEC
 70
     4
  9
$DIMTDEC
 70
     4
  9
$DIMALTU
 70
     2
  9
$DIMALTTD
 70
     2
  9
$DIMTXSTY
  7
Standard
  9
$DIMAUNIT
 70
     0
  9
$DIMADEC
 70
     0
  9
$DIMALTRND
 40
0.0
  9
$DIMAZIN
 70
     0
  9
$DIMDSEP
 70
    46
  9
$DIMATFIT
 70
     3
  9
$DIMFRAC
 70
     0
  9
$DIMLDRBLK
  1

  9
$DIMLUNIT
 70
     2
  9
$DIMLWD
 70
    -2
  9
$DIMLWE
 70
    -2
  9
$DIMTMOVE
 70
     0
  9
$DIMFXL
 40
1.0
  9
$DIMFXLON
 70
     0
  9
$DIMJOGANG
 40
0.7853981633974483
  9
$DIMTFILL
 70
     0
  9
$DIMTFILLCLR
 70
     0
  9
$DIMARCSYM
 70
     0
  9
$DIMLTYPE
  6

  9
$DIMLTEX1
  6

  9
$DIMLTEX2
  6

  9
$DIMTXTDIRECTION
 70
     0
  9
$LUNITS
 70
     2
  9
$LUPREC
 70
     4
  9
$SKETCHINC
 40
0.1
  9
$FILLETRAD
 40
0.5
  9
$AUNITS
 70
     0
  9
$AUPREC
 70
     0
  9
$MENU
  1
.
  9
$ELEVATION
 40
0.0
  9
$PELEVATION
 40
0.0
  9
$THICKNESS
 40
0.0
  9
$LIMCHECK
 70
     0
  9
$CHAMFERA
 40
0.5
  9
$CHAMFERB
 40
0.5
  9
$CHAMFERC
 40
1.0
  9
$CHAMFERD
 40
0.0
  9
$SKPOLY
 70
     0
  9
$TDCREATE
 40
2459102.475326505
  9
$TDUCREATE
 40
2459102.100326505
  9
$TDUPDATE
 40
2459102.475327489
  9
$TDUUPDATE
 40
2459102.100327489
  9
$TDINDWG
 40
0.0000000116
  9
$TDUSRTIMER
 40
0.0000000116
  9
$USRTIMER
 70
     1
  9
$ANGBASE
 50
0.0
  9
$ANGDIR
 70
     0
  9
$PDMODE
 70
     0
  9
$PDSIZE
 40
0.0
  9
$PLINEWID
 40
0.0
  9
$SPLFRAME
 70
     0
  9
$SPLINETYPE
 70
     6
  9
$SPLINESEGS
 70
     8
  9
$HANDSEED
  5
7D0
  9
$SURFTAB1
 70
     6
  9
$SURFTAB2
 70
     6
  9
$SURFTYPE
 70
     6
  9
$SURFU
 70
     6
  9
$SURFV
 70
     6
  9
$UCSBASE
  2

  9
$UCSNAME
  2

  9
$UCSORG
 10
0.0
 20
0.0
 30
0.0
  9
$UCSXDIR
 10
1.0
 20
0.0
 30
0.0
  9
$UCSYDIR
 10
0.0
 20
1.0
 30
0.0
  9
$UCSORTHOREF
  2

  9
$UCSORTHOVIEW
 70
     0
  9
$UCSORGTOP
 10
0.0
 20
0.0
 30
0.0
  9
$UCSORGBOTTOM
 10
0.0
 20
0.0
 30
0.0
  9
$UCSORGLEFT
 10
0.0
 20
0.0
 30
0.0
  9
$UCSORGRIGHT
 10
0.0
 20
0.0
 30
0.0
  9
$UCSORGFRONT
 10
0.0
 20
0.0
 30
0.0
  9
$UCSORGBACK
 10
0.0
 20
0.0
 30
0.0
  9
$PUCSBASE
  2

  9
$PUCSNAME
  2

  9
$PUCSORG
 10
0.0
 20
0.0
 30
0.0
  9
$PUCSXDIR
 10
1.0
 20
0.0
 30
0.0
  9
$PUCSYDIR
 10
0.0
 20
1.0
 30
0.0
  9
$PUCSORTHOREF
  2

  9
$PUCSORTHOVIEW
 70
     0
  9
$PUCSORGTOP
 10
0.0
 20
0.0
 30
0.0
  9
$PUCSORGBOTTOM
 10
0.0
 20
0.0
 30
0.0
  9
$PUCSORGLEFT
 10
0.0
 20
0.0
 30
0.0
  9
$PUCSORGRIGHT
 10
0.0
 20
0.0
 30
0.0
  9
$PUCSORGFRONT
 10
0.0
 20
0.0
 30
0.0
  9
$PUCSORGBACK
 10
0.0
 20
0.0
 30
0.0
  9
$USERI1
 70
     0
  9
$USERI2
 70
     0
  9
$USERI3
 70
     0
  9
$USERI4
 70
     0
  9
$USERI5
 70
     0
  9
$USERR1
 40
0.0
  9
$USERR2
 40
0.0
  9
$USERR3
 40
0.0
  9
$USERR4
 40
0.0
  9
$USERR5
 40
0.0
  9
$WORLDVIEW
 70
     1
  9
$SHADEDGE
 70
     3
  9
$SHADEDIF
 70
    70
  9
$TILEMODE
 70
     1
  9
$MAXACTVP
 70
    64
  9
$PINSBASE
 10
0.0
 20
0.0
 30
0.0
  9
$PLIMCHECK
 70
     0
  9
$PEXTMIN
 10
1.000000000000000E+20
 20
1.000000000000000E+20
 30
1.000000000000000E+20
  9
$PEXTMAX
 10
-1.000000000000000E+20
 20
-1.000000000000000E+20
 30
-1.000000000000000E+20
  9
$PLIMMIN
 10
0.0
 20
0.0
  9
$PLIMMAX
 10
12.0
 20
9.0
  9
$UNITMODE
 70
     0
  9
$VISRETAIN
 70
     1
  9
$PLINEGEN
 70
     0
  9
$PSLTSCALE
 70
     1
  9
$TREEDEPTH
 70
  3020
  9
$CMLSTYLE
  2
Standard
  9
$CMLJUST
 70
     0
  9
$CMLSCALE
 40
1.0
  9
$PROXYGRAPHICS
 70
     1
  9
$MEASUREMENT
 70
     0
  9
$CELWEIGHT
370
    -1
  9
$ENDCAPS
280
     0
  9
$JOINSTYLE
280
     0
  9
$LWDISPLAY
290
     1
  9
$INSUNITS
 70
     4
  9
$HYPERLINKBASE
  1

  9
$STYLESHEET
  1

  9
$XEDIT
290
     1
  9
$CEPSNTYPE
380
     0
  9
$PSTYLEMODE
290
     1
  9
$FINGERPRINTGUID
  2
{F5ADAD2B-003D-440C-9517-28252F55351B}
  9
$VERSIONGUID
  2
{FAEB1C32-E019-11D5-929B-00C0DF256EC4}
  9
$EXTNAMES
290
     1
  9
$PSVPSCALE
 40
0.0
  9
$OLESTARTUP
290
     0
  9
$SORTENTS
280
   127
  9
$INDEXCTL
280
     0
  9
$HIDETEXT
280
     1
  9
$XCLIPFRAME
280
     2
  9
$HALOGAP
280
     0
  9
$OBSCOLOR
 70
   257
  9
$OBSLTYPE
280
     0
  9
$INTERSECTIONDISPLAY
280
     0
  9
$INTERSECTIONCOLOR
 70
   257
  9
$DIMASSOC
280
     2
  9
$PROJECTNAME
  1

  9
$CAMERADISPLAY
290
     0
  9
$LENSLENGTH
 40
50.0
  9
$CAMERAHEIGHT
 40
0.0
  9
$STEPSPERSEC
 40
2.0
  9
$STEPSIZE
 40
6.0
  9
$3DDWFPREC
 40
2.0
  9
$PSOLWIDTH
 40
0.25
  9
$PSOLHEIGHT
 40
4.0
  9
$LOFTANG1
 40
1.570796326794897
  9
$LOFTANG2
 40
1.570796326794897
  9
$LOFTMAG1
 40
0.0
  9
$LOFTMAG2
 40
0.0
  9
$LOFTPARAM
 70
     7
  9
$LOFTNORMALS
280
     1
  9
$LATITUDE
 40
37.795
  9
$LONGITUDE
 40
-122.394
  9
$NORTHDIRECTION
 40
0.0
  9
$TIMEZONE
 70
 -8000
  9
$LIGHTGLYPHDISPLAY
280
     1
  9
$TILEMODELIGHTSYNCH
280
     1
  9
$CMATERIAL
347
3C
  9
$SOLIDHIST
280
     1
  9
$SHOWHIST
280
     1
  9
$DWFFRAME
280
     2
  9
$DGNFRAME
280
     2
  9
$REALWORLDSCALE
290
     1
  9
$INTERFERECOLOR
 62
   256
  9
$CSHADOW
280
     0
  9
$SHADOWPLANELOCATION
 40
0.0
  0
ENDSEC
  0
SECTION
  2
CLASSES
  0
CLASS
  1
ACDBDICTIONARYWDFLT
  2
AcDbDictionaryWithDefault
  3
ObjectDBX Classes
 90
        0
 91
        4
280
     0
281
     0
  0
CLASS
  1
VISUALSTYLE
  2
AcDbVisualStyle
  3
ObjectDBX Classes
 90
     4095
 91
        4
280
     0
281
     0
  0
CLASS
  1
MATERIAL
  2
AcDbMaterial
  3
ObjectDBX Classes
 90
     1153
 91
        4
280
     0
281
     0
  0
CLASS
  1
SUN
  2
AcDbSun
  3
SCENEOE
 90
     1024
 91
        4
280
     0
281
     0
  0
ENDSEC
  0
SECTION
  2
TABLES
  0
TABLE
  2
VPORT
  5
8
330
0
100
AcDbSymbolTable
 70
     1
  0
VPORT
  5
29
330
8
100
AcDbSymbolTableRecord
100
AcDbViewportTableRecord
  2
*Active
 70
     0
 10
0.0
 20
0.0
 11
1.0
 21
1.0
 12
0.0
 22
0.0
 13
0.0
 23
0.0
 14
0.5
 24
0.5
 15
0.5
 25
0.5
 16
0.0
 26
0.0
 36
1.0
 17
104.9999970067687
 27
148.5000119155985
 37
0.0
 40
297.0000238311971
 41
0.7070706301791173
 42
50.0
 43
0.0
 44
0.0
 50
0.0
 51
0.0
 71
     0
 72
   100
 73
     1
 74
     3
 75
     0
 76
     0
 77
     0
 78
     0
281
     0
 65
     1
110
0.0
120
0.0
130
0.0
111
1.0
121
0.0
131
0.0
112
0.0
122
1.0
132
0.0
 79
     0
146
0.0
 60
     3
 61
     5
292
     1
282
     1
141
0.0
142
0.0
 63
   250
361
3F
  0
ENDTAB
  0
TABLE
  2
LTYPE
  5
5
330
0
100
AcDbSymbolTable
 70
    17
  0
LTYPE
  5
14
330
5
100
AcDbSymbolTableRecord
100
AcDbLinetypeTableRecord
  2
ByBlock
 70
     0
  3

 72
    65
 73
     0
 40
0.0
  0
LTYPE
  5
15
330
5
100
AcDbSymbolTableRecord
100
AcDbLinetypeTableRecord
  2
ByLayer
 70
     0
  3

 72
    65
 73
     0
 40
0.0
  0
LTYPE
  5
16
330
5
100
AcDbSymbolTableRecord
100
AcDbLinetypeTableRecord
  2
Continuous
 70
     0
  3
Solid line
 72
    65
 73
     0
 40
0.0
  0
LTYPE
  5
495
330
5
100
AcDbSymbolTableRecord
100
AcDbLinetypeTableRecord
  2
AI-Linetype-1
 70
     0
  3
Adobe Illustrator Linetype No. 1
 72
    65
 73
     4
 40
17.9999994868737
 49
11.9999996579158
 74
     0
 49
-1.499999957239475
 74
     0
 49
2.99999991447895
 74
     0
 49
-1.499999957239475
 74
     0
  0
LTYPE
  5
49E
330
5
100
AcDbSymbolTableRecord
100
AcDbLinetypeTableRecord
  2
AI-Linetype-2
 70
     0
  3
Adobe Illustrator Linetype No. 2
 72
    65
 73
     4
 40
17.9999994868737
 49
11.9999996579158
 74
     0
 49
-1.499999957239475
 74
     0
 49
2.99999991447895
 74
     0
 49
-1.499999957239475
 74
     0
  0
LTYPE
  5
4A8
330
5
100
AcDbSymbolTableRecord
100
AcDbLinetypeTableRecord
  2
AI-Linetype-3
 70
     0
  3
Adobe Illustrator Linetype No. 3
 72
    65
 73
     2
 40
3.749999893098687
 49
2.99999991447895
 74
     0
 49
-0.7499999786197374
 74
     0
  0
LTYPE
  5
4AF
330
5
100
AcDbSymbolTableRecord
100
AcDbLinetypeTableRecord
  2
AI-Linetype-4
 70
     0
  3
Adobe Illustrator Linetype No. 4
 72
    65
 73
     2
 40
3.749999893098687
 49
2.99999991447895
 74
     0
 49
-0.7499999786197374
 74
     0
  0
LTYPE
  5
4B6
330
5
100
AcDbSymbolTableRecord
100
AcDbLinetypeTableRecord
  2
AI-Linetype-5
 70
     0
  3
Adobe Illustrator Linetype No. 5
 72
    65
 73
     2
 40
7.499999786197375
 49
5.9999998289579
 74
     0
 49
-1.499999957239475
 74
     0
  0
LTYPE
  5
4BD
330
5
100
AcDbSymbolTableRecord
100
AcDbLinetypeTableRecord
  2
AI-Linetype-6
 70
     0
  3
Adobe Illustrator Linetype No. 6
 72
    65
 73
     2
 40
3.749999893098687
 49
2.99999991447895
 74
     0
 49
-0.7499999786197374
 74
     0
  0
LTYPE
  5
4C4
330
5
100
AcDbSymbolTableRecord
100
AcDbLinetypeTableRecord
  2
AI-Linetype-7
 70
     0
  3
Adobe Illustrator Linetype No. 7
 72
    65
 73
     2
 40
7.499999786197375
 49
5.9999998289579
 74
     0
 49
-1.499999957239475
 74
     0
  0
LTYPE
  5
4CD
330
5
100
AcDbSymbolTableRecord
100
AcDbLinetypeTableRecord
  2
AI-Linetype-8
 70
     0
  3
Adobe Illustrator Linetype No. 8
 72
    65
 73
     2
 40
7.499999786197375
 49
5.9999998289579
 74
     0
 49
-1.499999957239475
 74
     0
  0
LTYPE
  5
4D6
330
5
100
AcDbSymbolTableRecord
100
AcDbLinetypeTableRecord
  2
AI-Linetype-9
 70
     0
  3
Adobe Illustrator Linetype No. 9
 72
    65
 73
     2
 40
7.499999786197375
 49
5.9999998289579
 74
     0
 49
-1.499999957239475
 74
     0
  0
LTYPE
  5
4DF
330
5
100
AcDbSymbolTableRecord
100
AcDbLinetypeTableRecord
  2
AI-Linetype-10
 70
     0
  3
Adobe Illustrator Linetype No. 10
 72
    65
 73
     2
 40
7.499999786197375
 49
5.9999998289579
 74
     0
 49
-1.499999957239475
 74
     0
  0
LTYPE
  5
4E8
330
5
100
AcDbSymbolTableRecord
100
AcDbLinetypeTableRecord
  2
AI-Linetype-11
 70
     0
  3
Adobe Illustrator Linetype No. 11
 72
    65
 73
     2
 40
7.499999786197375
 49
5.9999998289579
 74
     0
 49
-1.499999957239475
 74
     0
  0
LTYPE
  5
4F1
330
5
100
AcDbSymbolTableRecord
100
AcDbLinetypeTableRecord
  2
AI-Linetype-12
 70
     0
  3
Adobe Illustrator Linetype No. 12
 72
    65
 73
     2
 40
7.499999786197375
 49
5.9999998289579
 74
     0
 49
-1.499999957239475
 74
     0
  0
LTYPE
  5
4FA
330
5
100
AcDbSymbolTableRecord
100
AcDbLinetypeTableRecord
  2
AI-Linetype-13
 70
     0
  3
Adobe Illustrator Linetype No. 13
 72
    65
 73
     2
 40
7.499999786197375
 49
5.9999998289579
 74
     0
 49
-1.499999957239475
 74
     0
  0
LTYPE
  5
503
330
5
100
AcDbSymbolTableRecord
100
AcDbLinetypeTableRecord
  2
AI-Linetype-14
 70
     0
  3
Adobe Illustrator Linetype No. 14
 72
    65
 73
     2
 40
7.499999786197375
 49
5.9999998289579
 74
     0
 49
-1.499999957239475
 74
     0
  0
LTYPE
  5
50C
330
5
100
AcDbSymbolTableRecord
100
AcDbLinetypeTableRecord
  2
AI-Linetype-15
 70
     0
  3
Adobe Illustrator Linetype No. 15
 72
    65
 73
     2
 40
7.499999786197375
 49
5.9999998289579
 74
     0
 49
-1.499999957239475
 74
     0
  0
LTYPE
  5
515
330
5
100
AcDbSymbolTableRecord
100
AcDbLinetypeTableRecord
  2
AI-Linetype-16
 70
     0
  3
Adobe Illustrator Linetype No. 16
 72
    65
 73
     2
 40
7.499999786197375
 49
5.9999998289579
 74
     0
 49
-1.499999957239475
 74
     0
  0
ENDTAB
  0
TABLE
  2
LAYER
  5
2
330
0
100
AcDbSymbolTable
 70
     8
  0
LAYER
  5
10
330
2
100
AcDbSymbolTableRecord
100
AcDbLayerTableRecord
  2
0
 70
     0
 62
     7
  6
Continuous
370
    -3
390
F
347
3E
  0
LAYER
  5
40
330
2
100
AcDbSymbolTableRecord
100
AcDbLayerTableRecord
  2
AM_2
 70
     0
 62
     7
  6
Continuous
370
    -3
390
F
347
3E
  0
LAYER
  5
49
330
2
100
AcDbSymbolTableRecord
100
AcDbLayerTableRecord
  2
AM_0
 70
     0
 62
     7
  6
Continuous
370
    -3
390
F
347
3E
  0
LAYER
  5
2EB
330
2
100
AcDbSymbolTableRecord
100
AcDbLayerTableRecord
  2
AM_6
 70
     0
 62
     7
  6
Continuous
370
    -3
390
F
347
3E
  0
LAYER
  5
48D
330
2
100
AcDbSymbolTableRecord
100
AcDbLayerTableRecord
  2
AM_7
 70
     0
 62
     7
  6
Continuous
370
    -3
390
F
347
3E
  0
LAYER
  5
4A0
330
2
100
AcDbSymbolTableRecord
100
AcDbLayerTableRecord
  2
AM_3
 70
     0
 62
     7
  6
Continuous
370
    -3
390
F
347
3E
  0
LAYER
  5
69E
330
2
100
AcDbSymbolTableRecord
100
AcDbLayerTableRecord
  2
AM_1
 70
     0
 62
     7
  6
Continuous
370
    -3
390
F
347
3E
  0
LAYER
  5
709
330
2
100
AcDbSymbolTableRecord
100
AcDbLayerTableRecord
  2
Defpoints
 70
     0
 62
     7
  6
Continuous
290
     0
370
    -3
390
F
347
3E
  0
ENDTAB
  0
TABLE
  2
STYLE
  5
3
330
0
100
AcDbSymbolTable
 70
     1
  0
STYLE
  5
11
330
3
100
AcDbSymbolTableRecord
100
AcDbTextStyleTableRecord
  2
Standard
 70
     0
 40
0.0
 41
1.0
 50
0.0
 71
     0
 42
0.2
  3
txt
  4

  0
ENDTAB
  0
TABLE
  2
VIEW
  5
6
330
0
100
AcDbSymbolTable
 70
     0
  0
ENDTAB
  0
TABLE
  2
UCS
  5
7
330
0
100
AcDbSymbolTable
 70
     0
  0
ENDTAB
  0
TABLE
  2
APPID
  5
9
330
0
100
AcDbSymbolTable
 70
     1
  0
APPID
  5
12
330
9
100
AcDbSymbolTableRecord
100
AcDbRegAppTableRecord
  2
ACAD
 70
     0
  0
ENDTAB
  0
TABLE
  2
DIMSTYLE
  5
A
330
0
100
AcDbSymbolTable
 70
     1
100
AcDbDimStyleTable
  0
DIMSTYLE
105
27
330
A
100
AcDbSymbolTableRecord
100
AcDbDimStyleTableRecord
  2
Standard
 70
     0
178
     0
340
11
  0
ENDTAB
  0
TABLE
  2
BLOCK_RECORD
  5
1
330
0
100
AcDbSymbolTable
 70
   254
  0
BLOCK_RECORD
  5
1F
330
1
100
AcDbSymbolTableRecord
100
AcDbBlockTableRecord
  2
*Model_Space
340
22
 70
     0
280
     1
281
     0
  0
BLOCK_RECORD
  5
1B
330
1
100
AcDbSymbolTableRecord
100
AcDbBlockTableRecord
  2
*Paper_Space
340
1E
 70
     0
280
     1
281
     0
  0
BLOCK_RECORD
  5
23
330
1
100
AcDbSymbolTableRecord
100
AcDbBlockTableRecord
  2
*Paper_Space0
340
26
 70
     0
280
     1
281
     0
  0
BLOCK_RECORD
  5
41
330
1
100
AcDbSymbolTableRecord
100
AcDbBlockTableRecord
  2
block 2
340
0
102
{BLKREFS
331
42
102
}
 70
     0
280
     1
281
     0
  0
BLOCK_RECORD
  5
4A
330
1
100
AcDbSymbolTableRecord
100
AcDbBlockTableRecord
  2
block 3
340
0
102
{BLKREFS
331
4B
102
}
 70
     0
280
     1
281
     0
  0
BLOCK_RECORD
  5
52
330
1
100
AcDbSymbolTableRecord
100
AcDbBlockTableRecord
  2
block 4
340
0
102
{BLKREFS
331
53
102
}
 70
     0
280
     1
281
     0
  0
BLOCK_RECORD
  5
5A
330
1
100
AcDbSymbolTableRecord
100
AcDbBlockTableRecord
  2
block 5
340
0
102
{BLKREFS
331
5B
102
}
 70
     0
280
     1
281
     0
  0
BLOCK_RECORD
  5
62
330
1
100
AcDbSymbolTableRecord
100
AcDbBlockTableRecord
  2
block 6
340
0
102
{BLKREFS
331
63
102
}
 70
     0
280
     1
281
     0
  0
BLOCK_RECORD
  5
6A
330
1
100
AcDbSymbolTableRecord
100
AcDbBlockTableRecord
  2
block 7
340
0
102
{BLKREFS
331
6B
102
}
 70
     0
280
     1
281
     0
  0
BLOCK_RECORD
  5
72
330
1
100
AcDbSymbolTableRecord
100
AcDbBlockTableRecord
  2
block 8
340
0
102
{BLKREFS
331
73
102
}
 70
     0
280
     1
281
     0
  0
BLOCK_RECORD
  5
7A
330
1
100
AcDbSymbolTableRecord
100
AcDbBlockTableRecord
  2
block 9
340
0
102
{BLKREFS
331
7B
102
}
 70
     0
280
     1
281
     0
  0
BLOCK_RECORD
  5
82
330
1
100
AcDbSymbolTableRecord
100
AcDbBlockTableRecord
  2
block 10
340
0
102
{BLKREFS
331
83
102
}
 70
     0
280
     1
281
     0
  0
BLOCK_RECORD
  5
8A
330
1
100
AcDbSymbolTableRecord
100
AcDbBlockTableRecord
  2
block 11
340
0
102
{BLKREFS
331
8B
102
}
 70
     0
280
     1
281
     0
  0
BLOCK_RECORD
  5
92
330
1
100
AcDbSymbolTableRecord
100
AcDbBlockTableRecord
  2
block 12
340
0
102
{BLKREFS
331
93
102
}
 70
     0
280
     1
281
     0
  0
BLOCK_RECORD
  5
9A
330
1
100
AcDbSymbolTableRecord
100
AcDbBlockTableRecord
  2
block 13
340
0
102
{BLKREFS
331
9B
102
}
 70
     0
280
     1
281
     0
  0
BLOCK_RECORD
  5
A2
330
1
100
AcDbSymbolTableRecord
100
AcDbBlockTableRecord
  2
block 14
340
0
102
{BLKREFS
331
A3
102
}
 70
     0
280
     1
281
     0
  0
BLOCK_RECORD
  5
AA
330
1
100
AcDbSymbolTableRecord
100
AcDbBlockTableRecord
  2
block 15
340
0
102
{BLKREFS
331
AB
102
}
 70
     0
280
     1
281
     0
  0
BLOCK_RECORD
  5
B2
330
1
100
AcDbSymbolTableRecord
100
AcDbBlockTableRecord
  2
block 16
340
0
102
{BLKREFS
331
B3
102
}
 70
     0
280
     1
281
     0
  0
BLOCK_RECORD
  5
B7
330
1
100
AcDbSymbolTableRecord
100
AcDbBlockTableRecord
  2
block 17
340
0
102
{BLKREFS
331
B8
102
}
 70
     0
280
     1
281
     0
  0
BLOCK_RECORD
  5
BF
330
1
100
AcDbSymbolTableRecord
100
AcDbBlockTableRecord
  2
block 18
340
0
102
{BLKREFS
331
C0
102
}
 70
     0
280
     1
281
     0
  0
BLOCK_RECORD
  5
C7
330
1
100
AcDbSymbolTableRecord
100
AcDbBlockTableRecord
  2
block 19
340
0
102
{BLKREFS
331
C8
102
}
 70
     0
280
     1
281
     0
  0
BLOCK_RECORD
  5
CF
330
1
100
AcDbSymbolTableRecord
100
AcDbBlockTableRecord
  2
block 20
340
0
102
{BLKREFS
331
D0
102
}
 70
     0
280
     1
281
     0
  0
BLOCK_RECORD
  5
D7
330
1
100
AcDbSymbolTableRecord
100
AcDbBlockTableRecord
  2
block 21
340
0
102
{BLKREFS
331
D8
102
}
 70
     0
280
     1
281
     0
  0
BLOCK_RECORD
  5
DF
330
1
100
AcDbSymbolTableRecord
100
AcDbBlockTableRecord
  2
block 22
340
0
102
{BLKREFS
331
E0
102
}
 70
     0
280
     1
281
     0
  0
BLOCK_RECORD
  5
E7
330
1
100
AcDbSymbolTableRecord
100
AcDbBlockTableRecord
  2
block 23
340
0
102
{BLKREFS
331
E8
102
}
 70
     0
280
     1
281
     0
  0
BLOCK_RECORD
  5
EC
330
1
100
AcDbSymbolTableRecord
100
AcDbBlockTableRecord
  2
block 24
340
0
102
{BLKREFS
331
ED
102
}
 70
     0
280
     1
281
     0
  0
BLOCK_RECORD
  5
F1
330
1
100
AcDbSymbolTableRecord
100
AcDbBlockTableRecord
  2
block 25
340
0
102
{BLKREFS
331
F2
102
}
 70
     0
280
     1
281
     0
  0
BLOCK_RECORD
  5
F6
330
1
100
AcDbSymbolTableRecord
100
AcDbBlockTableRecord
  2
block 26
340
0
102
{BLKREFS
331
F7
102
}
 70
     0
280
     1
281
     0
  0
BLOCK_RECORD
  5
FE
330
1
100
AcDbSymbolTableRecord
100
AcDbBlockTableRecord
  2
block 27
340
0
102
{BLKREFS
331
FF
102
}
 70
     0
280
     1
281
     0
  0
BLOCK_RECORD
  5
106
330
1
100
AcDbSymbolTableRecord
100
AcDbBlockTableRecord
  2
block 28
340
0
102
{BLKREFS
331
107
102
}
 70
     0
280
     1
281
     0
  0
BLOCK_RECORD
  5
10E
330
1
100
AcDbSymbolTableRecord
100
AcDbBlockTableRecord
  2
block 29
340
0
102
{BLKREFS
331
10F
102
}
 70
     0
280
     1
281
     0
  0
BLOCK_RECORD
  5
116
330
1
100
AcDbSymbolTableRecord
100
AcDbBlockTableRecord
  2
block 30
340
0
102
{BLKREFS
331
117
102
}
 70
     0
280
     1
281
     0
  0
BLOCK_RECORD
  5
11E
330
1
100
AcDbSymbolTableRecord
100
AcDbBlockTableRecord
  2
block 31
340
0
102
{BLKREFS
331
11F
102
}
 70
     0
280
     1
281
     0
  0
BLOCK_RECORD
  5
126
330
1
100
AcDbSymbolTableRecord
100
AcDbBlockTableRecord
  2
block 32
340
0
102
{BLKREFS
331
127
102
}
 70
     0
280
     1
281
     0
  0
BLOCK_RECORD
  5
12E
330
1
100
AcDbSymbolTableRecord
100
AcDbBlockTableRecord
  2
block 33
340
0
102
{BLKREFS
331
12F
102
}
 70
     0
280
     1
281
     0
  0
BLOCK_RECORD
  5
136
330
1
100
AcDbSymbolTableRecord
100
AcDbBlockTableRecord
  2
block 34
340
0
102
{BLKREFS
331
137
102
}
 70
     0
280
     1
281
     0
  0
BLOCK_RECORD
  5
13E
330
1
100
AcDbSymbolTableRecord
100
AcDbBlockTableRecord
  2
block 35
340
0
102
{BLKREFS
331
13F
102
}
 70
     0
280
     1
281
     0
  0
BLOCK_RECORD
  5
146
330
1
100
AcDbSymbolTableRecord
100
AcDbBlockTableRecord
  2
block 36
340
0
102
{BLKREFS
331
147
102
}
 70
     0
280
     1
281
     0
  0
BLOCK_RECORD
  5
14E
330
1
100
AcDbSymbolTableRecord
100
AcDbBlockTableRecord
  2
block 37
340
0
102
{BLKREFS
331
14F
102
}
 70
     0
280
     1
281
     0
  0
BLOCK_RECORD
  5
153
330
1
100
AcDbSymbolTableRecord
100
AcDbBlockTableRecord
  2
block 38
340
0
102
{BLKREFS
331
154
102
}
 70
     0
280
     1
281
     0
  0
BLOCK_RECORD
  5
15B
330
1
100
AcDbSymbolTableRecord
100
AcDbBlockTableRecord
  2
block 39
340
0
102
{BLKREFS
331
15C
102
}
 70
     0
280
     1
281
     0
  0
BLOCK_RECORD
  5
163
330
1
100
AcDbSymbolTableRecord
100
AcDbBlockTableRecord
  2
block 40
340
0
102
{BLKREFS
331
164
102
}
 70
     0
280
     1
281
     0
  0
BLOCK_RECORD
  5
168
330
1
100
AcDbSymbolTableRecord
100
AcDbBlockTableRecord
  2
block 41
340
0
102
{BLKREFS
331
169
102
}
 70
     0
280
     1
281
     0
  0
BLOCK_RECORD
  5
170
330
1
100
AcDbSymbolTableRecord
100
AcDbBlockTableRecord
  2
block 42
340
0
102
{BLKREFS
331
171
102
}
 70
     0
280
     1
281
     0
  0
BLOCK_RECORD
  5
178
330
1
100
AcDbSymbolTableRecord
100
AcDbBlockTableRecord
  2
block 43
340
0
102
{BLKREFS
331
179
102
}
 70
     0
280
     1
281
     0
  0
BLOCK_RECORD
  5
180
330
1
100
AcDbSymbolTableRecord
100
AcDbBlockTableRecord
  2
block 44
340
0
102
{BLKREFS
331
181
102
}
 70
     0
280
     1
281
     0
  0
BLOCK_RECORD
  5
188
330
1
100
AcDbSymbolTableRecord
100
AcDbBlockTableRecord
  2
block 45
340
0
102
{BLKREFS
331
189
102
}
 70
     0
280
     1
281
     0
  0
BLOCK_RECORD
  5
190
330
1
100
AcDbSymbolTableRecord
100
AcDbBlockTableRecord
  2
block 46
340
0
102
{BLKREFS
331
191
102
}
 70
     0
280
     1
281
     0
  0
BLOCK_RECORD
  5
198
330
1
100
AcDbSymbolTableRecord
100
AcDbBlockTableRecord
  2
block 47
340
0
102
{BLKREFS
331
199
102
}
 70
     0
280
     1
281
     0
  0
BLOCK_RECORD
  5
1A0
330
1
100
AcDbSymbolTableRecord
100
AcDbBlockTableRecord
  2
block 48
340
0
102
{BLKREFS
331
1A1
102
}
 70
     0
280
     1
281
     0
  0
BLOCK_RECORD
  5
1A5
330
1
100
AcDbSymbolTableRecord
100
AcDbBlockTableRecord
  2
block 49
340
0
102
{BLKREFS
331
1A6
102
}
 70
     0
280
     1
281
     0
  0
BLOCK_RECORD
  5
1AD
330
1
100
AcDbSymbolTableRecord
100
AcDbBlockTableRecord
  2
block 50
340
0
102
{BLKREFS
331
1AE
102
}
 70
     0
280
     1
281
     0
  0
BLOCK_RECORD
  5
1B5
330
1
100
AcDbSymbolTableRecord
100
AcDbBlockTableRecord
  2
block 51
340
0
102
{BLKREFS
331
1B6
102
}
 70
     0
280
     1
281
     0
  0
BLOCK_RECORD
  5
1BD
330
1
100
AcDbSymbolTableRecord
100
AcDbBlockTableRecord
  2
block 52
340
0
102
{BLKREFS
331
1BE
102
}
 70
     0
280
     1
281
     0
  0
BLOCK_RECORD
  5
1C5
330
1
100
AcDbSymbolTableRecord
100
AcDbBlockTableRecord
  2
block 53
340
0
102
{BLKREFS
331
1C6
102
}
 70
     0
280
     1
281
     0
  0
BLOCK_RECORD
  5
1CD
330
1
100
AcDbSymbolTableRecord
100
AcDbBlockTableRecord
  2
block 54
340
0
102
{BLKREFS
331
1CE
102
}
 70
     0
280
     1
281
     0
  0
BLOCK_RECORD
  5
1D5
330
1
100
AcDbSymbolTableRecord
100
AcDbBlockTableRecord
  2
block 55
340
0
102
{BLKREFS
331
1D6
102
}
 70
     0
280
     1
281
     0
  0
BLOCK_RECORD
  5
1DA
330
1
100
AcDbSymbolTableRecord
100
AcDbBlockTableRecord
  2
block 56
340
0
102
{BLKREFS
331
1DB
102
}
 70
     0
280
     1
281
     0
  0
BLOCK_RECORD
  5
1E2
330
1
100
AcDbSymbolTableRecord
100
AcDbBlockTableRecord
  2
block 57
340
0
102
{BLKREFS
331
1E3
102
}
 70
     0
280
     1
281
     0
  0
BLOCK_RECORD
  5
1EA
330
1
100
AcDbSymbolTableRecord
100
AcDbBlockTableRecord
  2
block 58
340
0
102
{BLKREFS
331
1EB
102
}
 70
     0
280
     1
281
     0
  0
BLOCK_RECORD
  5
1F2
330
1
100
AcDbSymbolTableRecord
100
AcDbBlockTableRecord
  2
block 59
340
0
102
{BLKREFS
331
1F3
102
}
 70
     0
280
     1
281
     0
  0
BLOCK_RECORD
  5
1FA
330
1
100
AcDbSymbolTableRecord
100
AcDbBlockTableRecord
  2
block 60
340
0
102
{BLKREFS
331
1FB
102
}
 70
     0
280
     1
281
     0
  0
BLOCK_RECORD
  5
202
330
1
100
AcDbSymbolTableRecord
100
AcDbBlockTableRecord
  2
block 61
340
0
102
{BLKREFS
331
203
102
}
 70
     0
280
     1
281
     0
  0
BLOCK_RECORD
  5
207
330
1
100
AcDbSymbolTableRecord
100
AcDbBlockTableRecord
  2
block 62
340
0
102
{BLKREFS
331
208
102
}
 70
     0
280
     1
281
     0
  0
BLOCK_RECORD
  5
20C
330
1
100
AcDbSymbolTableRecord
100
AcDbBlockTableRecord
  2
block 63
340
0
102
{BLKREFS
331
20D
102
}
 70
     0
280
     1
281
     0
  0
BLOCK_RECORD
  5
214
330
1
100
AcDbSymbolTableRecord
100
AcDbBlockTableRecord
  2
block 64
340
0
102
{BLKREFS
331
215
102
}
 70
     0
280
     1
281
     0
  0
BLOCK_RECORD
  5
21C
330
1
100
AcDbSymbolTableRecord
100
AcDbBlockTableRecord
  2
block 65
340
0
102
{BLKREFS
331
21D
102
}
 70
     0
280
     1
281
     0
  0
BLOCK_RECORD
  5
224
330
1
100
AcDbSymbolTableRecord
100
AcDbBlockTableRecord
  2
block 66
340
0
102
{BLKREFS
331
225
102
}
 70
     0
280
     1
281
     0
  0
BLOCK_RECORD
  5
22C
330
1
100
AcDbSymbolTableRecord
100
AcDbBlockTableRecord
  2
block 67
340
0
102
{BLKREFS
331
22D
102
}
 70
     0
280
     1
281
     0
  0
BLOCK_RECORD
  5
234
330
1
100
AcDbSymbolTableRecord
100
AcDbBlockTableRecord
  2
block 68
340
0
102
{BLKREFS
331
235
102
}
 70
     0
280
     1
281
     0
  0
BLOCK_RECORD
  5
23C
330
1
100
AcDbSymbolTableRecord
100
AcDbBlockTableRecord
  2
block 69
340
0
102
{BLKREFS
331
23D
102
}
 70
     0
280
     1
281
     0
  0
BLOCK_RECORD
  5
244
330
1
100
AcDbSymbolTableRecord
100
AcDbBlockTableRecord
  2
block 70
340
0
102
{BLKREFS
331
245
102
}
 70
     0
280
     1
281
     0
  0
BLOCK_RECORD
  5
24C
330
1
100
AcDbSymbolTableRecord
100
AcDbBlockTableRecord
  2
block 71
340
0
102
{BLKREFS
331
24D
102
}
 70
     0
280
     1
281
     0
  0
BLOCK_RECORD
  5
254
330
1
100
AcDbSymbolTableRecord
100
AcDbBlockTableRecord
  2
block 72
340
0
102
{BLKREFS
331
255
102
}
 70
     0
280
     1
281
     0
  0
BLOCK_RECORD
  5
25C
330
1
100
AcDbSymbolTableRecord
100
AcDbBlockTableRecord
  2
block 73
340
0
102
{BLKREFS
331
25D
102
}
 70
     0
280
     1
281
     0
  0
BLOCK_RECORD
  5
264
330
1
100
AcDbSymbolTableRecord
100
AcDbBlockTableRecord
  2
block 74
340
0
102
{BLKREFS
331
265
102
}
 70
     0
280
     1
281
     0
  0
BLOCK_RECORD
  5
269
330
1
100
AcDbSymbolTableRecord
100
AcDbBlockTableRecord
  2
block 75
340
0
102
{BLKREFS
331
26A
102
}
 70
     0
280
     1
281
     0
  0
BLOCK_RECORD
  5
271
330
1
100
AcDbSymbolTableRecord
100
AcDbBlockTableRecord
  2
block 76
340
0
102
{BLKREFS
331
272
102
}
 70
     0
280
     1
281
     0
  0
BLOCK_RECORD
  5
279
330
1
100
AcDbSymbolTableRecord
100
AcDbBlockTableRecord
  2
block 77
340
0
102
{BLKREFS
331
27A
102
}
 70
     0
280
     1
281
     0
  0
BLOCK_RECORD
  5
27E
330
1
100
AcDbSymbolTableRecord
100
AcDbBlockTableRecord
  2
block 78
340
0
102
{BLKREFS
331
27F
102
}
 70
     0
280
     1
281
     0
  0
BLOCK_RECORD
  5
286
330
1
100
AcDbSymbolTableRecord
100
AcDbBlockTableRecord
  2
block 79
340
0
102
{BLKREFS
331
287
102
}
 70
     0
280
     1
281
     0
  0
BLOCK_RECORD
  5
28B
330
1
100
AcDbSymbolTableRecord
100
AcDbBlockTableRecord
  2
block 80
340
0
102
{BLKREFS
331
28C
102
}
 70
     0
280
     1
281
     0
  0
BLOCK_RECORD
  5
290
330
1
100
AcDbSymbolTableRecord
100
AcDbBlockTableRecord
  2
block 81
340
0
102
{BLKREFS
331
291
102
}
 70
     0
280
     1
281
     0
  0
BLOCK_RECORD
  5
295
330
1
100
AcDbSymbolTableRecord
100
AcDbBlockTableRecord
  2
block 82
340
0
102
{BLKREFS
331
296
102
}
 70
     0
280
     1
281
     0
  0
BLOCK_RECORD
  5
29A
330
1
100
AcDbSymbolTableRecord
100
AcDbBlockTableRecord
  2
block 83
340
0
102
{BLKREFS
331
29B
102
}
 70
     0
280
     1
281
     0
  0
BLOCK_RECORD
  5
2A2
330
1
100
AcDbSymbolTableRecord
100
AcDbBlockTableRecord
  2
block 84
340
0
102
{BLKREFS
331
2A3
102
}
 70
     0
280
     1
281
     0
  0
BLOCK_RECORD
  5
2A7
330
1
100
AcDbSymbolTableRecord
100
AcDbBlockTableRecord
  2
block 85
340
0
102
{BLKREFS
331
2A8
102
}
 70
     0
280
     1
281
     0
  0
BLOCK_RECORD
  5
2AF
330
1
100
AcDbSymbolTableRecord
100
AcDbBlockTableRecord
  2
block 86
340
0
102
{BLKREFS
331
2B0
102
}
 70
     0
280
     1
281
     0
  0
BLOCK_RECORD
  5
2B4
330
1
100
AcDbSymbolTableRecord
100
AcDbBlockTableRecord
  2
block 87
340
0
102
{BLKREFS
331
2B5
102
}
 70
     0
280
     1
281
     0
  0
BLOCK_RECORD
  5
2BC
330
1
100
AcDbSymbolTableRecord
100
AcDbBlockTableRecord
  2
block 88
340
0
102
{BLKREFS
331
2BD
102
}
 70
     0
280
     1
281
     0
  0
BLOCK_RECORD
  5
2C4
330
1
100
AcDbSymbolTableRecord
100
AcDbBlockTableRecord
  2
block 89
340
0
102
{BLKREFS
331
2C5
102
}
 70
     0
280
     1
281
     0
  0
BLOCK_RECORD
  5
2CC
330
1
100
AcDbSymbolTableRecord
100
AcDbBlockTableRecord
  2
block 90
340
0
102
{BLKREFS
331
2CD
102
}
 70
     0
280
     1
281
     0
  0
BLOCK_RECORD
  5
2D4
330
1
100
AcDbSymbolTableRecord
100
AcDbBlockTableRecord
  2
block 91
340
0
102
{BLKREFS
331
2D5
102
}
 70
     0
280
     1
281
     0
  0
BLOCK_RECORD
  5
2DC
330
1
100
AcDbSymbolTableRecord
100
AcDbBlockTableRecord
  2
block 92
340
0
102
{BLKREFS
331
2DD
102
}
 70
     0
280
     1
281
     0
  0
BLOCK_RECORD
  5
2E4
330
1
100
AcDbSymbolTableRecord
100
AcDbBlockTableRecord
  2
block 93
340
0
102
{BLKREFS
331
2E5
102
}
 70
     0
280
     1
281
     0
  0
BLOCK_RECORD
  5
2EC
330
1
100
AcDbSymbolTableRecord
100
AcDbBlockTableRecord
  2
block 94
340
0
102
{BLKREFS
331
2ED
102
}
 70
     0
280
     1
281
     0
  0
BLOCK_RECORD
  5
2F1
330
1
100
AcDbSymbolTableRecord
100
AcDbBlockTableRecord
  2
block 95
340
0
102
{BLKREFS
331
2F2
102
}
 70
     0
280
     1
281
     0
  0
BLOCK_RECORD
  5
2F6
330
1
100
AcDbSymbolTableRecord
100
AcDbBlockTableRecord
  2
block 96
340
0
102
{BLKREFS
331
2F7
102
}
 70
     0
280
     1
281
     0
  0
BLOCK_RECORD
  5
2FE
330
1
100
AcDbSymbolTableRecord
100
AcDbBlockTableRecord
  2
block 97
340
0
102
{BLKREFS
331
2FF
102
}
 70
     0
280
     1
281
     0
  0
BLOCK_RECORD
  5
306
330
1
100
AcDbSymbolTableRecord
100
AcDbBlockTableRecord
  2
block 98
340
0
102
{BLKREFS
331
307
102
}
 70
     0
280
     1
281
     0
  0
BLOCK_RECORD
  5
30E
330
1
100
AcDbSymbolTableRecord
100
AcDbBlockTableRecord
  2
block 99
340
0
102
{BLKREFS
331
30F
102
}
 70
     0
280
     1
281
     0
  0
BLOCK_RECORD
  5
313
330
1
100
AcDbSymbolTableRecord
100
AcDbBlockTableRecord
  2
block 100
340
0
102
{BLKREFS
331
314
102
}
 70
     0
280
     1
281
     0
  0
BLOCK_RECORD
  5
31B
330
1
100
AcDbSymbolTableRecord
100
AcDbBlockTableRecord
  2
block 101
340
0
102
{BLKREFS
331
31C
102
}
 70
     0
280
     1
281
     0
  0
BLOCK_RECORD
  5
323
330
1
100
AcDbSymbolTableRecord
100
AcDbBlockTableRecord
  2
block 102
340
0
102
{BLKREFS
331
324
102
}
 70
     0
280
     1
281
     0
  0
BLOCK_RECORD
  5
32B
330
1
100
AcDbSymbolTableRecord
100
AcDbBlockTableRecord
  2
block 103
340
0
102
{BLKREFS
331
32C
102
}
 70
     0
280
     1
281
     0
  0
BLOCK_RECORD
  5
330
330
1
100
AcDbSymbolTableRecord
100
AcDbBlockTableRecord
  2
block 104
340
0
102
{BLKREFS
331
331
102
}
 70
     0
280
     1
281
     0
  0
BLOCK_RECORD
  5
338
330
1
100
AcDbSymbolTableRecord
100
AcDbBlockTableRecord
  2
block 105
340
0
102
{BLKREFS
331
339
102
}
 70
     0
280
     1
281
     0
  0
BLOCK_RECORD
  5
340
330
1
100
AcDbSymbolTableRecord
100
AcDbBlockTableRecord
  2
block 106
340
0
102
{BLKREFS
331
341
102
}
 70
     0
280
     1
281
     0
  0
BLOCK_RECORD
  5
348
330
1
100
AcDbSymbolTableRecord
100
AcDbBlockTableRecord
  2
block 107
340
0
102
{BLKREFS
331
349
102
}
 70
     0
280
     1
281
     0
  0
BLOCK_RECORD
  5
34D
330
1
100
AcDbSymbolTableRecord
100
AcDbBlockTableRecord
  2
block 108
340
0
102
{BLKREFS
331
34E
102
}
 70
     0
280
     1
281
     0
  0
BLOCK_RECORD
  5
355
330
1
100
AcDbSymbolTableRecord
100
AcDbBlockTableRecord
  2
block 109
340
0
102
{BLKREFS
331
356
102
}
 70
     0
280
     1
281
     0
  0
BLOCK_RECORD
  5
35D
330
1
100
AcDbSymbolTableRecord
100
AcDbBlockTableRecord
  2
block 110
340
0
102
{BLKREFS
331
35E
102
}
 70
     0
280
     1
281
     0
  0
BLOCK_RECORD
  5
365
330
1
100
AcDbSymbolTableRecord
100
AcDbBlockTableRecord
  2
block 111
340
0
102
{BLKREFS
331
366
102
}
 70
     0
280
     1
281
     0
  0
BLOCK_RECORD
  5
36A
330
1
100
AcDbSymbolTableRecord
100
AcDbBlockTableRecord
  2
block 112
340
0
102
{BLKREFS
331
36B
102
}
 70
     0
280
     1
281
     0
  0
BLOCK_RECORD
  5
372
330
1
100
AcDbSymbolTableRecord
100
AcDbBlockTableRecord
  2
block 113
340
0
102
{BLKREFS
331
373
102
}
 70
     0
280
     1
281
     0
  0
BLOCK_RECORD
  5
37A
330
1
100
AcDbSymbolTableRecord
100
AcDbBlockTableRecord
  2
block 114
340
0
102
{BLKREFS
331
37B
102
}
 70
     0
280
     1
281
     0
  0
BLOCK_RECORD
  5
382
330
1
100
AcDbSymbolTableRecord
100
AcDbBlockTableRecord
  2
block 115
340
0
102
{BLKREFS
331
383
102
}
 70
     0
280
     1
281
     0
  0
BLOCK_RECORD
  5
387
330
1
100
AcDbSymbolTableRecord
100
AcDbBlockTableRecord
  2
block 116
340
0
102
{BLKREFS
331
388
102
}
 70
     0
280
     1
281
     0
  0
BLOCK_RECORD
  5
38F
330
1
100
AcDbSymbolTableRecord
100
AcDbBlockTableRecord
  2
block 117
340
0
102
{BLKREFS
331
390
102
}
 70
     0
280
     1
281
     0
  0
BLOCK_RECORD
  5
397
330
1
100
AcDbSymbolTableRecord
100
AcDbBlockTableRecord
  2
block 118
340
0
102
{BLKREFS
331
398
102
}
 70
     0
280
     1
281
     0
  0
BLOCK_RECORD
  5
39F
330
1
100
AcDbSymbolTableRecord
100
AcDbBlockTableRecord
  2
block 119
340
0
102
{BLKREFS
331
3A0
102
}
 70
     0
280
     1
281
     0
  0
BLOCK_RECORD
  5
3A4
330
1
100
AcDbSymbolTableRecord
100
AcDbBlockTableRecord
  2
block 120
340
0
102
{BLKREFS
331
3A5
102
}
 70
     0
280
     1
281
     0
  0
BLOCK_RECORD
  5
3AC
330
1
100
AcDbSymbolTableRecord
100
AcDbBlockTableRecord
  2
block 121
340
0
102
{BLKREFS
331
3AD
102
}
 70
     0
280
     1
281
     0
  0
BLOCK_RECORD
  5
3B4
330
1
100
AcDbSymbolTableRecord
100
AcDbBlockTableRecord
  2
block 122
340
0
102
{BLKREFS
331
3B5
102
}
 70
     0
280
     1
281
     0
  0
BLOCK_RECORD
  5
3BE
330
1
100
AcDbSymbolTableRecord
100
AcDbBlockTableRecord
  2
block 123
340
0
102
{BLKREFS
331
3BF
102
}
 70
     0
280
     1
281
     0
  0
BLOCK_RECORD
  5
3C8
330
1
100
AcDbSymbolTableRecord
100
AcDbBlockTableRecord
  2
block 124
340
0
102
{BLKREFS
331
3C9
102
}
 70
     0
280
     1
281
     0
  0
BLOCK_RECORD
  5
3D4
330
1
100
AcDbSymbolTableRecord
100
AcDbBlockTableRecord
  2
block 125
340
0
102
{BLKREFS
331
3D5
102
}
 70
     0
280
     1
281
     0
  0
BLOCK_RECORD
  5
3D9
330
1
100
AcDbSymbolTableRecord
100
AcDbBlockTableRecord
  2
block 126
340
0
102
{BLKREFS
331
3DA
102
}
 70
     0
280
     1
281
     0
  0
BLOCK_RECORD
  5
3E1
330
1
100
AcDbSymbolTableRecord
100
AcDbBlockTableRecord
  2
block 127
340
0
102
{BLKREFS
331
3E2
102
}
 70
     0
280
     1
281
     0
  0
BLOCK_RECORD
  5
3E9
330
1
100
AcDbSymbolTableRecord
100
AcDbBlockTableRecord
  2
block 128
340
0
102
{BLKREFS
331
3EA
102
}
 70
     0
280
     1
281
     0
  0
BLOCK_RECORD
  5
3F3
330
1
100
AcDbSymbolTableRecord
100
AcDbBlockTableRecord
  2
block 129
340
0
102
{BLKREFS
331
3F4
102
}
 70
     0
280
     1
281
     0
  0
BLOCK_RECORD
  5
3FD
330
1
100
AcDbSymbolTableRecord
100
AcDbBlockTableRecord
  2
block 130
340
0
102
{BLKREFS
331
3FE
102
}
 70
     0
280
     1
281
     0
  0
BLOCK_RECORD
  5
409
330
1
100
AcDbSymbolTableRecord
100
AcDbBlockTableRecord
  2
block 131
340
0
102
{BLKREFS
331
40A
102
}
 70
     0
280
     1
281
     0
  0
BLOCK_RECORD
  5
40E
330
1
100
AcDbSymbolTableRecord
100
AcDbBlockTableRecord
  2
block 132
340
0
102
{BLKREFS
331
40F
102
}
 70
     0
280
     1
281
     0
  0
BLOCK_RECORD
  5
416
330
1
100
AcDbSymbolTableRecord
100
AcDbBlockTableRecord
  2
block 133
340
0
102
{BLKREFS
331
417
102
}
 70
     0
280
     1
281
     0
  0
BLOCK_RECORD
  5
41E
330
1
100
AcDbSymbolTableRecord
100
AcDbBlockTableRecord
  2
block 134
340
0
102
{BLKREFS
331
41F
102
}
 70
     0
280
     1
281
     0
  0
BLOCK_RECORD
  5
426
330
1
100
AcDbSymbolTableRecord
100
AcDbBlockTableRecord
  2
block 135
340
0
102
{BLKREFS
331
427
102
}
 70
     0
280
     1
281
     0
  0
BLOCK_RECORD
  5
42B
330
1
100
AcDbSymbolTableRecord
100
AcDbBlockTableRecord
  2
block 136
340
0
102
{BLKREFS
331
42C
102
}
 70
     0
280
     1
281
     0
  0
BLOCK_RECORD
  5
433
330
1
100
AcDbSymbolTableRecord
100
AcDbBlockTableRecord
  2
block 137
340
0
102
{BLKREFS
331
434
102
}
 70
     0
280
     1
281
     0
  0
BLOCK_RECORD
  5
43B
330
1
100
AcDbSymbolTableRecord
100
AcDbBlockTableRecord
  2
block 138
340
0
102
{BLKREFS
331
43C
102
}
 70
     0
280
     1
281
     0
  0
BLOCK_RECORD
  5
443
330
1
100
AcDbSymbolTableRecord
100
AcDbBlockTableRecord
  2
block 139
340
0
102
{BLKREFS
331
444
102
}
 70
     0
280
     1
281
     0
  0
BLOCK_RECORD
  5
44B
330
1
100
AcDbSymbolTableRecord
100
AcDbBlockTableRecord
  2
block 140
340
0
102
{BLKREFS
331
44C
102
}
 70
     0
280
     1
281
     0
  0
BLOCK_RECORD
  5
453
330
1
100
AcDbSymbolTableRecord
100
AcDbBlockTableRecord
  2
block 141
340
0
102
{BLKREFS
331
454
102
}
 70
     0
280
     1
281
     0
  0
BLOCK_RECORD
  5
458
330
1
100
AcDbSymbolTableRecord
100
AcDbBlockTableRecord
  2
block 142
340
0
102
{BLKREFS
331
459
102
}
 70
     0
280
     1
281
     0
  0
BLOCK_RECORD
  5
460
330
1
100
AcDbSymbolTableRecord
100
AcDbBlockTableRecord
  2
block 143
340
0
102
{BLKREFS
331
461
102
}
 70
     0
280
     1
281
     0
  0
BLOCK_RECORD
  5
468
330
1
100
AcDbSymbolTableRecord
100
AcDbBlockTableRecord
  2
block 144
340
0
102
{BLKREFS
331
469
102
}
 70
     0
280
     1
281
     0
  0
BLOCK_RECORD
  5
472
330
1
100
AcDbSymbolTableRecord
100
AcDbBlockTableRecord
  2
block 145
340
0
102
{BLKREFS
331
473
102
}
 70
     0
280
     1
281
     0
  0
BLOCK_RECORD
  5
47C
330
1
100
AcDbSymbolTableRecord
100
AcDbBlockTableRecord
  2
block 146
340
0
102
{BLKREFS
331
47D
102
}
 70
     0
280
     1
281
     0
  0
BLOCK_RECORD
  5
488
330
1
100
AcDbSymbolTableRecord
100
AcDbBlockTableRecord
  2
block 147
340
0
102
{BLKREFS
331
489
102
}
 70
     0
280
     1
281
     0
  0
BLOCK_RECORD
  5
48E
330
1
100
AcDbSymbolTableRecord
100
AcDbBlockTableRecord
  2
block 148
340
0
102
{BLKREFS
331
48F
102
}
 70
     0
280
     1
281
     0
  0
BLOCK_RECORD
  5
497
330
1
100
AcDbSymbolTableRecord
100
AcDbBlockTableRecord
  2
block 149
340
0
102
{BLKREFS
331
498
102
}
 70
     0
280
     1
281
     0
  0
BLOCK_RECORD
  5
4A1
330
1
100
AcDbSymbolTableRecord
100
AcDbBlockTableRecord
  2
block 150
340
0
102
{BLKREFS
331
4A2
102
}
 70
     0
280
     1
281
     0
  0
BLOCK_RECORD
  5
4AA
330
1
100
AcDbSymbolTableRecord
100
AcDbBlockTableRecord
  2
block 151
340
0
102
{BLKREFS
331
4AB
102
}
 70
     0
280
     1
281
     0
  0
BLOCK_RECORD
  5
4B0
330
1
100
AcDbSymbolTableRecord
100
AcDbBlockTableRecord
  2
block 152
340
0
102
{BLKREFS
331
4B1
102
}
 70
     0
280
     1
281
     0
  0
BLOCK_RECORD
  5
4B8
330
1
100
AcDbSymbolTableRecord
100
AcDbBlockTableRecord
  2
block 153
340
0
102
{BLKREFS
331
4B9
102
}
 70
     0
280
     1
281
     0
  0
BLOCK_RECORD
  5
4BE
330
1
100
AcDbSymbolTableRecord
100
AcDbBlockTableRecord
  2
block 154
340
0
102
{BLKREFS
331
4BF
102
}
 70
     0
280
     1
281
     0
  0
BLOCK_RECORD
  5
4C6
330
1
100
AcDbSymbolTableRecord
100
AcDbBlockTableRecord
  2
block 155
340
0
102
{BLKREFS
331
4C7
102
}
 70
     0
280
     1
281
     0
  0
BLOCK_RECORD
  5
4CF
330
1
100
AcDbSymbolTableRecord
100
AcDbBlockTableRecord
  2
block 156
340
0
102
{BLKREFS
331
4D0
102
}
 70
     0
280
     1
281
     0
  0
BLOCK_RECORD
  5
4D8
330
1
100
AcDbSymbolTableRecord
100
AcDbBlockTableRecord
  2
block 157
340
0
102
{BLKREFS
331
4D9
102
}
 70
     0
280
     1
281
     0
  0
BLOCK_RECORD
  5
4E1
330
1
100
AcDbSymbolTableRecord
100
AcDbBlockTableRecord
  2
block 158
340
0
102
{BLKREFS
331
4E2
102
}
 70
     0
280
     1
281
     0
  0
BLOCK_RECORD
  5
4EA
330
1
100
AcDbSymbolTableRecord
100
AcDbBlockTableRecord
  2
block 159
340
0
102
{BLKREFS
331
4EB
102
}
 70
     0
280
     1
281
     0
  0
BLOCK_RECORD
  5
4F3
330
1
100
AcDbSymbolTableRecord
100
AcDbBlockTableRecord
  2
block 160
340
0
102
{BLKREFS
331
4F4
102
}
 70
     0
280
     1
281
     0
  0
BLOCK_RECORD
  5
4FC
330
1
100
AcDbSymbolTableRecord
100
AcDbBlockTableRecord
  2
block 161
340
0
102
{BLKREFS
331
4FD
102
}
 70
     0
280
     1
281
     0
  0
BLOCK_RECORD
  5
505
330
1
100
AcDbSymbolTableRecord
100
AcDbBlockTableRecord
  2
block 162
340
0
102
{BLKREFS
331
506
102
}
 70
     0
280
     1
281
     0
  0
BLOCK_RECORD
  5
50E
330
1
100
AcDbSymbolTableRecord
100
AcDbBlockTableRecord
  2
block 163
340
0
102
{BLKREFS
331
50F
102
}
 70
     0
280
     1
281
     0
  0
BLOCK_RECORD
  5
517
330
1
100
AcDbSymbolTableRecord
100
AcDbBlockTableRecord
  2
block 164
340
0
102
{BLKREFS
331
518
102
}
 70
     0
280
     1
281
     0
  0
BLOCK_RECORD
  5
51E
330
1
100
AcDbSymbolTableRecord
100
AcDbBlockTableRecord
  2
block 165
340
0
102
{BLKREFS
331
51F
102
}
 70
     0
280
     1
281
     0
  0
BLOCK_RECORD
  5
526
330
1
100
AcDbSymbolTableRecord
100
AcDbBlockTableRecord
  2
block 166
340
0
102
{BLKREFS
331
527
102
}
 70
     0
280
     1
281
     0
  0
BLOCK_RECORD
  5
52E
330
1
100
AcDbSymbolTableRecord
100
AcDbBlockTableRecord
  2
block 167
340
0
102
{BLKREFS
331
52F
102
}
 70
     0
280
     1
281
     0
  0
BLOCK_RECORD
  5
536
330
1
100
AcDbSymbolTableRecord
100
AcDbBlockTableRecord
  2
block 168
340
0
102
{BLKREFS
331
537
102
}
 70
     0
280
     1
281
     0
  0
BLOCK_RECORD
  5
53E
330
1
100
AcDbSymbolTableRecord
100
AcDbBlockTableRecord
  2
block 169
340
0
102
{BLKREFS
331
53F
102
}
 70
     0
280
     1
281
     0
  0
BLOCK_RECORD
  5
546
330
1
100
AcDbSymbolTableRecord
100
AcDbBlockTableRecord
  2
block 170
340
0
102
{BLKREFS
331
547
102
}
 70
     0
280
     1
281
     0
  0
BLOCK_RECORD
  5
54E
330
1
100
AcDbSymbolTableRecord
100
AcDbBlockTableRecord
  2
block 171
340
0
102
{BLKREFS
331
54F
102
}
 70
     0
280
     1
281
     0
  0
BLOCK_RECORD
  5
556
330
1
100
AcDbSymbolTableRecord
100
AcDbBlockTableRecord
  2
block 172
340
0
102
{BLKREFS
331
557
102
}
 70
     0
280
     1
281
     0
  0
BLOCK_RECORD
  5
55E
330
1
100
AcDbSymbolTableRecord
100
AcDbBlockTableRecord
  2
block 173
340
0
102
{BLKREFS
331
55F
102
}
 70
     0
280
     1
281
     0
  0
BLOCK_RECORD
  5
566
330
1
100
AcDbSymbolTableRecord
100
AcDbBlockTableRecord
  2
block 174
340
0
102
{BLKREFS
331
567
102
}
 70
     0
280
     1
281
     0
  0
BLOCK_RECORD
  5
56E
330
1
100
AcDbSymbolTableRecord
100
AcDbBlockTableRecord
  2
block 175
340
0
102
{BLKREFS
331
56F
102
}
 70
     0
280
     1
281
     0
  0
BLOCK_RECORD
  5
576
330
1
100
AcDbSymbolTableRecord
100
AcDbBlockTableRecord
  2
block 176
340
0
102
{BLKREFS
331
577
102
}
 70
     0
280
     1
281
     0
  0
BLOCK_RECORD
  5
57E
330
1
100
AcDbSymbolTableRecord
100
AcDbBlockTableRecord
  2
block 177
340
0
102
{BLKREFS
331
57F
102
}
 70
     0
280
     1
281
     0
  0
BLOCK_RECORD
  5
586
330
1
100
AcDbSymbolTableRecord
100
AcDbBlockTableRecord
  2
block 178
340
0
102
{BLKREFS
331
587
102
}
 70
     0
280
     1
281
     0
  0
BLOCK_RECORD
  5
58E
330
1
100
AcDbSymbolTableRecord
100
AcDbBlockTableRecord
  2
block 179
340
0
102
{BLKREFS
331
58F
102
}
 70
     0
280
     1
281
     0
  0
BLOCK_RECORD
  5
596
330
1
100
AcDbSymbolTableRecord
100
AcDbBlockTableRecord
  2
block 180
340
0
102
{BLKREFS
331
597
102
}
 70
     0
280
     1
281
     0
  0
BLOCK_RECORD
  5
59E
330
1
100
AcDbSymbolTableRecord
100
AcDbBlockTableRecord
  2
block 181
340
0
102
{BLKREFS
331
59F
102
}
 70
     0
280
     1
281
     0
  0
BLOCK_RECORD
  5
5A6
330
1
100
AcDbSymbolTableRecord
100
AcDbBlockTableRecord
  2
block 182
340
0
102
{BLKREFS
331
5A7
102
}
 70
     0
280
     1
281
     0
  0
BLOCK_RECORD
  5
5AE
330
1
100
AcDbSymbolTableRecord
100
AcDbBlockTableRecord
  2
block 183
340
0
102
{BLKREFS
331
5AF
102
}
 70
     0
280
     1
281
     0
  0
BLOCK_RECORD
  5
5B6
330
1
100
AcDbSymbolTableRecord
100
AcDbBlockTableRecord
  2
block 184
340
0
102
{BLKREFS
331
5B7
102
}
 70
     0
280
     1
281
     0
  0
BLOCK_RECORD
  5
5BE
330
1
100
AcDbSymbolTableRecord
100
AcDbBlockTableRecord
  2
block 185
340
0
102
{BLKREFS
331
5BF
102
}
 70
     0
280
     1
281
     0
  0
BLOCK_RECORD
  5
5C6
330
1
100
AcDbSymbolTableRecord
100
AcDbBlockTableRecord
  2
block 186
340
0
102
{BLKREFS
331
5C7
102
}
 70
     0
280
     1
281
     0
  0
BLOCK_RECORD
  5
5CE
330
1
100
AcDbSymbolTableRecord
100
AcDbBlockTableRecord
  2
block 187
340
0
102
{BLKREFS
331
5CF
102
}
 70
     0
280
     1
281
     0
  0
BLOCK_RECORD
  5
5D6
330
1
100
AcDbSymbolTableRecord
100
AcDbBlockTableRecord
  2
block 188
340
0
102
{BLKREFS
331
5D7
102
}
 70
     0
280
     1
281
     0
  0
BLOCK_RECORD
  5
5DE
330
1
100
AcDbSymbolTableRecord
100
AcDbBlockTableRecord
  2
block 189
340
0
102
{BLKREFS
331
5DF
102
}
 70
     0
280
     1
281
     0
  0
BLOCK_RECORD
  5
5E6
330
1
100
AcDbSymbolTableRecord
100
AcDbBlockTableRecord
  2
block 190
340
0
102
{BLKREFS
331
5E7
102
}
 70
     0
280
     1
281
     0
  0
BLOCK_RECORD
  5
5EE
330
1
100
AcDbSymbolTableRecord
100
AcDbBlockTableRecord
  2
block 191
340
0
102
{BLKREFS
331
5EF
102
}
 70
     0
280
     1
281
     0
  0
BLOCK_RECORD
  5
5F6
330
1
100
AcDbSymbolTableRecord
100
AcDbBlockTableRecord
  2
block 192
340
0
102
{BLKREFS
331
5F7
102
}
 70
     0
280
     1
281
     0
  0
BLOCK_RECORD
  5
5FE
330
1
100
AcDbSymbolTableRecord
100
AcDbBlockTableRecord
  2
block 193
340
0
102
{BLKREFS
331
5FF
102
}
 70
     0
280
     1
281
     0
  0
BLOCK_RECORD
  5
606
330
1
100
AcDbSymbolTableRecord
100
AcDbBlockTableRecord
  2
block 194
340
0
102
{BLKREFS
331
607
102
}
 70
     0
280
     1
281
     0
  0
BLOCK_RECORD
  5
60E
330
1
100
AcDbSymbolTableRecord
100
AcDbBlockTableRecord
  2
block 195
340
0
102
{BLKREFS
331
60F
102
}
 70
     0
280
     1
281
     0
  0
BLOCK_RECORD
  5
616
330
1
100
AcDbSymbolTableRecord
100
AcDbBlockTableRecord
  2
block 196
340
0
102
{BLKREFS
331
617
102
}
 70
     0
280
     1
281
     0
  0
BLOCK_RECORD
  5
61E
330
1
100
AcDbSymbolTableRecord
100
AcDbBlockTableRecord
  2
block 197
340
0
102
{BLKREFS
331
61F
102
}
 70
     0
280
     1
281
     0
  0
BLOCK_RECORD
  5
626
330
1
100
AcDbSymbolTableRecord
100
AcDbBlockTableRecord
  2
block 198
340
0
102
{BLKREFS
331
627
102
}
 70
     0
280
     1
281
     0
  0
BLOCK_RECORD
  5
62E
330
1
100
AcDbSymbolTableRecord
100
AcDbBlockTableRecord
  2
block 199
340
0
102
{BLKREFS
331
62F
102
}
 70
     0
280
     1
281
     0
  0
BLOCK_RECORD
  5
636
330
1
100
AcDbSymbolTableRecord
100
AcDbBlockTableRecord
  2
block 200
340
0
102
{BLKREFS
331
637
102
}
 70
     0
280
     1
281
     0
  0
BLOCK_RECORD
  5
63E
330
1
100
AcDbSymbolTableRecord
100
AcDbBlockTableRecord
  2
block 201
340
0
102
{BLKREFS
331
63F
102
}
 70
     0
280
     1
281
     0
  0
BLOCK_RECORD
  5
646
330
1
100
AcDbSymbolTableRecord
100
AcDbBlockTableRecord
  2
block 202
340
0
102
{BLKREFS
331
647
102
}
 70
     0
280
     1
281
     0
  0
BLOCK_RECORD
  5
64E
330
1
100
AcDbSymbolTableRecord
100
AcDbBlockTableRecord
  2
block 203
340
0
102
{BLKREFS
331
64F
102
}
 70
     0
280
     1
281
     0
  0
BLOCK_RECORD
  5
656
330
1
100
AcDbSymbolTableRecord
100
AcDbBlockTableRecord
  2
block 204
340
0
102
{BLKREFS
331
657
102
}
 70
     0
280
     1
281
     0
  0
BLOCK_RECORD
  5
65E
330
1
100
AcDbSymbolTableRecord
100
AcDbBlockTableRecord
  2
block 205
340
0
102
{BLKREFS
331
65F
102
}
 70
     0
280
     1
281
     0
  0
BLOCK_RECORD
  5
666
330
1
100
AcDbSymbolTableRecord
100
AcDbBlockTableRecord
  2
block 206
340
0
102
{BLKREFS
331
667
102
}
 70
     0
280
     1
281
     0
  0
BLOCK_RECORD
  5
66E
330
1
100
AcDbSymbolTableRecord
100
AcDbBlockTableRecord
  2
block 207
340
0
102
{BLKREFS
331
66F
102
}
 70
     0
280
     1
281
     0
  0
BLOCK_RECORD
  5
676
330
1
100
AcDbSymbolTableRecord
100
AcDbBlockTableRecord
  2
block 208
340
0
102
{BLKREFS
331
677
102
}
 70
     0
280
     1
281
     0
  0
BLOCK_RECORD
  5
67E
330
1
100
AcDbSymbolTableRecord
100
AcDbBlockTableRecord
  2
block 209
340
0
102
{BLKREFS
331
67F
102
}
 70
     0
280
     1
281
     0
  0
BLOCK_RECORD
  5
686
330
1
100
AcDbSymbolTableRecord
100
AcDbBlockTableRecord
  2
block 210
340
0
102
{BLKREFS
331
687
102
}
 70
     0
280
     1
281
     0
  0
BLOCK_RECORD
  5
68E
330
1
100
AcDbSymbolTableRecord
100
AcDbBlockTableRecord
  2
block 211
340
0
102
{BLKREFS
331
68F
102
}
 70
     0
280
     1
281
     0
  0
BLOCK_RECORD
  5
696
330
1
100
AcDbSymbolTableRecord
100
AcDbBlockTableRecord
  2
block 212
340
0
102
{BLKREFS
331
697
102
}
 70
     0
280
     1
281
     0
  0
BLOCK_RECORD
  5
69F
330
1
100
AcDbSymbolTableRecord
100
AcDbBlockTableRecord
  2
block 213
340
0
102
{BLKREFS
331
6A0
102
}
 70
     0
280
     1
281
     0
  0
BLOCK_RECORD
  5
6A4
330
1
100
AcDbSymbolTableRecord
100
AcDbBlockTableRecord
  2
block 214
340
0
102
{BLKREFS
331
6A5
102
}
 70
     0
280
     1
281
     0
  0
BLOCK_RECORD
  5
6AC
330
1
100
AcDbSymbolTableRecord
100
AcDbBlockTableRecord
  2
block 215
340
0
102
{BLKREFS
331
6AD
102
}
 70
     0
280
     1
281
     0
  0
BLOCK_RECORD
  5
6B4
330
1
100
AcDbSymbolTableRecord
100
AcDbBlockTableRecord
  2
block 216
340
0
102
{BLKREFS
331
6B5
102
}
 70
     0
280
     1
281
     0
  0
BLOCK_RECORD
  5
6B9
330
1
100
AcDbSymbolTableRecord
100
AcDbBlockTableRecord
  2
block 217
340
0
102
{BLKREFS
331
6BA
102
}
 70
     0
280
     1
281
     0
  0
BLOCK_RECORD
  5
6BE
330
1
100
AcDbSymbolTableRecord
100
AcDbBlockTableRecord
  2
block 218
340
0
102
{BLKREFS
331
6BF
102
}
 70
     0
280
     1
281
     0
  0
BLOCK_RECORD
  5
6C4
330
1
100
AcDbSymbolTableRecord
100
AcDbBlockTableRecord
  2
block 219
340
0
102
{BLKREFS
331
6C5
102
}
 70
     0
280
     1
281
     0
  0
BLOCK_RECORD
  5
6C9
330
1
100
AcDbSymbolTableRecord
100
AcDbBlockTableRecord
  2
block 220
340
0
102
{BLKREFS
331
6CA
102
}
 70
     0
280
     1
281
     0
  0
BLOCK_RECORD
  5
6CE
330
1
100
AcDbSymbolTableRecord
100
AcDbBlockTableRecord
  2
block 221
340
0
102
{BLKREFS
331
6CF
102
}
 70
     0
280
     1
281
     0
  0
BLOCK_RECORD
  5
6D4
330
1
100
AcDbSymbolTableRecord
100
AcDbBlockTableRecord
  2
block 222
340
0
102
{BLKREFS
331
6D5
102
}
 70
     0
280
     1
281
     0
  0
BLOCK_RECORD
  5
6D9
330
1
100
AcDbSymbolTableRecord
100
AcDbBlockTableRecord
  2
block 223
340
0
102
{BLKREFS
331
6DA
102
}
 70
     0
280
     1
281
     0
  0
BLOCK_RECORD
  5
6E1
330
1
100
AcDbSymbolTableRecord
100
AcDbBlockTableRecord
  2
block 224
340
0
102
{BLKREFS
331
6E2
102
}
 70
     0
280
     1
281
     0
  0
BLOCK_RECORD
  5
6E9
330
1
100
AcDbSymbolTableRecord
100
AcDbBlockTableRecord
  2
block 225
340
0
102
{BLKREFS
331
6EA
102
}
 70
     0
280
     1
281
     0
  0
BLOCK_RECORD
  5
6EE
330
1
100
AcDbSymbolTableRecord
100
AcDbBlockTableRecord
  2
block 226
340
0
102
{BLKREFS
331
6EF
102
}
 70
     0
280
     1
281
     0
  0
BLOCK_RECORD
  5
6F3
330
1
100
AcDbSymbolTableRecord
100
AcDbBlockTableRecord
  2
block 227
340
0
102
{BLKREFS
331
6F4
102
}
 70
     0
280
     1
281
     0
  0
BLOCK_RECORD
  5
6F9
330
1
100
AcDbSymbolTableRecord
100
AcDbBlockTableRecord
  2
block 228
340
0
102
{BLKREFS
331
6FA
102
}
 70
     0
280
     1
281
     0
  0
BLOCK_RECORD
  5
6FE
330
1
100
AcDbSymbolTableRecord
100
AcDbBlockTableRecord
  2
block 229
340
0
102
{BLKREFS
331
6FF
102
}
 70
     0
280
     1
281
     0
  0
BLOCK_RECORD
  5
703
330
1
100
AcDbSymbolTableRecord
100
AcDbBlockTableRecord
  2
block 230
340
0
102
{BLKREFS
331
704
102
}
 70
     0
280
     1
281
     0
  0
BLOCK_RECORD
  5
70A
330
1
100
AcDbSymbolTableRecord
100
AcDbBlockTableRecord
  2
block 231
340
0
102
{BLKREFS
331
70B
102
}
 70
     0
280
     1
281
     0
  0
BLOCK_RECORD
  5
711
330
1
100
AcDbSymbolTableRecord
100
AcDbBlockTableRecord
  2
block 232
340
0
102
{BLKREFS
331
712
102
}
 70
     0
280
     1
281
     0
  0
BLOCK_RECORD
  5
718
330
1
100
AcDbSymbolTableRecord
100
AcDbBlockTableRecord
  2
block 233
340
0
102
{BLKREFS
331
719
102
}
 70
     0
280
     1
281
     0
  0
BLOCK_RECORD
  5
71F
330
1
100
AcDbSymbolTableRecord
100
AcDbBlockTableRecord
  2
block 234
340
0
102
{BLKREFS
331
720
102
}
 70
     0
280
     1
281
     0
  0
BLOCK_RECORD
  5
726
330
1
100
AcDbSymbolTableRecord
100
AcDbBlockTableRecord
  2
block 235
340
0
102
{BLKREFS
331
727
102
}
 70
     0
280
     1
281
     0
  0
BLOCK_RECORD
  5
72D
330
1
100
AcDbSymbolTableRecord
100
AcDbBlockTableRecord
  2
block 236
340
0
102
{BLKREFS
331
72E
102
}
 70
     0
280
     1
281
     0
  0
BLOCK_RECORD
  5
734
330
1
100
AcDbSymbolTableRecord
100
AcDbBlockTableRecord
  2
block 237
340
0
102
{BLKREFS
331
735
102
}
 70
     0
280
     1
281
     0
  0
BLOCK_RECORD
  5
73B
330
1
100
AcDbSymbolTableRecord
100
AcDbBlockTableRecord
  2
block 238
340
0
102
{BLKREFS
331
73C
102
}
 70
     0
280
     1
281
     0
  0
BLOCK_RECORD
  5
742
330
1
100
AcDbSymbolTableRecord
100
AcDbBlockTableRecord
  2
block 239
340
0
102
{BLKREFS
331
743
102
}
 70
     0
280
     1
281
     0
  0
BLOCK_RECORD
  5
749
330
1
100
AcDbSymbolTableRecord
100
AcDbBlockTableRecord
  2
block 240
340
0
102
{BLKREFS
331
74A
102
}
 70
     0
280
     1
281
     0
  0
BLOCK_RECORD
  5
750
330
1
100
AcDbSymbolTableRecord
100
AcDbBlockTableRecord
  2
block 241
340
0
102
{BLKREFS
331
751
102
}
 70
     0
280
     1
281
     0
  0
BLOCK_RECORD
  5
757
330
1
100
AcDbSymbolTableRecord
100
AcDbBlockTableRecord
  2
block 242
340
0
102
{BLKREFS
331
758
102
}
 70
     0
280
     1
281
     0
  0
BLOCK_RECORD
  5
75E
330
1
100
AcDbSymbolTableRecord
100
AcDbBlockTableRecord
  2
block 243
340
0
102
{BLKREFS
331
75F
102
}
 70
     0
280
     1
281
     0
  0
BLOCK_RECORD
  5
765
330
1
100
AcDbSymbolTableRecord
100
AcDbBlockTableRecord
  2
block 244
340
0
102
{BLKREFS
331
766
102
}
 70
     0
280
     1
281
     0
  0
BLOCK_RECORD
  5
76C
330
1
100
AcDbSymbolTableRecord
100
AcDbBlockTableRecord
  2
block 245
340
0
102
{BLKREFS
331
76D
102
}
 70
     0
280
     1
281
     0
  0
BLOCK_RECORD
  5
773
330
1
100
AcDbSymbolTableRecord
100
AcDbBlockTableRecord
  2
block 246
340
0
102
{BLKREFS
331
774
102
}
 70
     0
280
     1
281
     0
  0
BLOCK_RECORD
  5
77A
330
1
100
AcDbSymbolTableRecord
100
AcDbBlockTableRecord
  2
block 247
340
0
102
{BLKREFS
331
77B
102
}
 70
     0
280
     1
281
     0
  0
BLOCK_RECORD
  5
781
330
1
100
AcDbSymbolTableRecord
100
AcDbBlockTableRecord
  2
block 248
340
0
102
{BLKREFS
331
782
102
}
 70
     0
280
     1
281
     0
  0
BLOCK_RECORD
  5
788
330
1
100
AcDbSymbolTableRecord
100
AcDbBlockTableRecord
  2
block 249
340
0
102
{BLKREFS
331
789
102
}
 70
     0
280
     1
281
     0
  0
BLOCK_RECORD
  5
78F
330
1
100
AcDbSymbolTableRecord
100
AcDbBlockTableRecord
  2
block 250
340
0
102
{BLKREFS
331
790
102
}
 70
     0
280
     1
281
     0
  0
BLOCK_RECORD
  5
796
330
1
100
AcDbSymbolTableRecord
100
AcDbBlockTableRecord
  2
block 251
340
0
102
{BLKREFS
331
797
102
}
 70
     0
280
     1
281
     0
  0
BLOCK_RECORD
  5
79D
330
1
100
AcDbSymbolTableRecord
100
AcDbBlockTableRecord
  2
block 252
340
0
102
{BLKREFS
331
79E
102
}
 70
     0
280
     1
281
     0
  0
BLOCK_RECORD
  5
7A4
330
1
100
AcDbSymbolTableRecord
100
AcDbBlockTableRecord
  2
block 253
340
0
102
{BLKREFS
331
7A5
102
}
 70
     0
280
     1
281
     0
  0
BLOCK_RECORD
  5
7AB
330
1
100
AcDbSymbolTableRecord
100
AcDbBlockTableRecord
  2
block 254
340
0
102
{BLKREFS
331
7AC
102
}
 70
     0
280
     1
281
     0
  0
ENDTAB
  0
ENDSEC
  0
SECTION
  2
BLOCKS
  0
BLOCK
  5
20
330
1F
100
AcDbEntity
  8
0
100
AcDbBlockBegin
  2
*Model_Space
 70
     0
 10
0.0
 20
0.0
 30
0.0
  3
*Model_Space
  1

  0
ENDBLK
  5
21
330
1F
100
AcDbEntity
  8
0
100
AcDbBlockEnd
  0
BLOCK
  5
1C
330
1B
100
AcDbEntity
 67
     1
  8
0
100
AcDbBlockBegin
  2
*Paper_Space
 70
     0
 10
0.0
 20
0.0
 30
0.0
  3
*Paper_Space
  1

  0
ENDBLK
  5
1D
330
1B
100
AcDbEntity
 67
     1
  8
0
100
AcDbBlockEnd
  0
BLOCK
  5
24
330
23
100
AcDbEntity
  8
0
100
AcDbBlockBegin
  2
*Paper_Space0
 70
     0
 10
0.0
 20
0.0
 30
0.0
  3
*Paper_Space0
  1

  0
ENDBLK
  5
25
330
23
100
AcDbEntity
  8
0
100
AcDbBlockEnd
  0
BLOCK
  5
43
330
41
100
AcDbEntity
  8
0
100
AcDbBlockBegin
  2
block 2
 70
     0
 10
0.0
 20
0.0
 30
0.0
  3
block 2
  1

  0
POLYLINE
  5
45
330
41
100
AcDbEntity
  8
AM_2
 62
   181
420
 10452991
370
    18
100
AcDb2dPolyline
 66
     1
 10
0.0
 20
0.0
 30
0.0
  0
VERTEX
  5
46
330
45
100
AcDbEntity
  8
AM_2
 62
   181
420
 10452991
370
    18
100
AcDbVertex
100
AcDb2dVertex
 10
112.6638325642482
 20
193.6033711226003
 30
0.0
  0
VERTEX
  5
47
330
45
100
AcDbEntity
  8
AM_2
 62
   181
420
 10452991
370
    18
100
AcDbVertex
100
AcDb2dVertex
 10
112.6638325642539
 20
161.6033711226014
 30
0.0
  0
SEQEND
  5
48
330
45
100
AcDbEntity
  8
AM_2
 62
   181
420
 10452991
370
    18
  0
ENDBLK
  5
44
330
41
100
AcDbEntity
  8
0
100
AcDbBlockEnd
  0
BLOCK
  5
4C
330
4A
100
AcDbEntity
  8
0
100
AcDbBlockBegin
  2
block 3
 70
     0
 10
0.0
 20
0.0
 30
0.0
  3
block 3
  1

  0
POLYLINE
  5
4E
330
4A
100
AcDbEntity
  8
AM_0
 62
     3
420
    65280
370
    40
100
AcDb2dPolyline
 66
     1
 10
0.0
 20
0.0
 30
0.0
  0
VERTEX
  5
4F
330
4E
100
AcDbEntity
  8
AM_0
 62
     3
420
    65280
370
    40
100
AcDbVertex
100
AcDb2dVertex
 10
110.8638325643244
 20
161.6033711225988
 30
0.0
  0
VERTEX
  5
50
330
4E
100
AcDbEntity
  8
AM_0
 62
     3
420
    65280
370
    40
100
AcDbVertex
100
AcDb2dVertex
 10
110.3638301150731
 20
161.603368673351
 30
0.0
  0
SEQEND
  5
51
330
4E
100
AcDbEntity
  8
AM_0
 62
     3
420
    65280
370
    40
  0
ENDBLK
  5
4D
330
4A
100
AcDbEntity
  8
0
100
AcDbBlockEnd
  0
BLOCK
  5
54
330
52
100
AcDbEntity
  8
0
100
AcDbBlockBegin
  2
block 4
 70
     0
 10
0.0
 20
0.0
 30
0.0
  3
block 4
  1

  0
POLYLINE
  5
56
330
52
100
AcDbEntity
  8
AM_0
 62
     3
420
    65280
370
    40
100
AcDb2dPolyline
 66
     1
 10
0.0
 20
0.0
 30
0.0
  0
VERTEX
  5
57
330
56
100
AcDbEntity
  8
AM_0
 62
     3
420
    65280
370
    40
100
AcDbVertex
100
AcDb2dVertex
 10
110.8638325643116
 20
193.6033784702917
 30
0.0
  0
VERTEX
  5
58
330
56
100
AcDbEntity
  8
AM_0
 62
     3
420
    65280
370
    40
100
AcDbVertex
100
AcDb2dVertex
 10
110.36383256431
 20
193.6033784702898
 30
0.0
  0
SEQEND
  5
59
330
56
100
AcDbEntity
  8
AM_0
 62
     3
420
    65280
370
    40
  0
ENDBLK
  5
55
330
52
100
AcDbEntity
  8
0
100
AcDbBlockEnd
  0
BLOCK
  5
5C
330
5A
100
AcDbEntity
  8
0
100
AcDbBlockBegin
  2
block 5
 70
     0
 10
0.0
 20
0.0
 30
0.0
  3
block 5
  1

  0
POLYLINE
  5
5E
330
5A
100
AcDbEntity
  8
AM_0
 62
     3
420
    65280
370
    40
100
AcDb2dPolyline
 66
     1
 10
0.0
 20
0.0
 30
0.0
  0
VERTEX
  5
5F
330
5E
100
AcDbEntity
  8
AM_0
 62
     3
420
    65280
370
    40
100
AcDbVertex
100
AcDb2dVertex
 10
81.86383256430834
 20
201.6033711226031
 30
0.0
  0
VERTEX
  5
60
330
5E
100
AcDbEntity
  8
AM_0
 62
     3
420
    65280
370
    40
100
AcDbVertex
100
AcDb2dVertex
 10
83.8638325643081
 20
201.6033711226031
 30
0.0
  0
SEQEND
  5
61
330
5E
100
AcDbEntity
  8
AM_0
 62
     3
420
    65280
370
    40
  0
ENDBLK
  5
5D
330
5A
100
AcDbEntity
  8
0
100
AcDbBlockEnd
  0
BLOCK
  5
64
330
62
100
AcDbEntity
  8
0
100
AcDbBlockBegin
  2
block 6
 70
     0
 10
0.0
 20
0.0
 30
0.0
  3
block 6
  1

  0
POLYLINE
  5
66
330
62
100
AcDbEntity
  8
AM_0
 62
     3
420
    65280
370
    40
100
AcDb2dPolyline
 66
     1
 10
0.0
 20
0.0
 30
0.0
  0
VERTEX
  5
67
330
66
100
AcDbEntity
  8
AM_0
 62
     3
420
    65280
370
    40
100
AcDbVertex
100
AcDb2dVertex
 10
96.86383256430823
 20
169.6033711226029
 30
0.0
  0
VERTEX
  5
68
330
66
100
AcDbEntity
  8
AM_0
 62
     3
420
    65280
370
    40
100
AcDbVertex
100
AcDb2dVertex
 10
109.8638325643077
 20
169.6033711226029
 30
0.0
  0
SEQEND
  5
69
330
66
100
AcDbEntity
  8
AM_0
 62
     3
420
    65280
370
    40
  0
ENDBLK
  5
65
330
62
100
AcDbEntity
  8
0
100
AcDbBlockEnd
  0
BLOCK
  5
6C
330
6A
100
AcDbEntity
  8
0
100
AcDbBlockBegin
  2
block 7
 70
     0
 10
0.0
 20
0.0
 30
0.0
  3
block 7
  1

  0
POLYLINE
  5
6E
330
6A
100
AcDbEntity
  8
AM_0
 62
     3
420
    65280
370
    40
100
AcDb2dPolyline
 66
     1
 10
0.0
 20
0.0
 30
0.0
  0
VERTEX
  5
6F
330
6E
100
AcDbEntity
  8
AM_0
 62
     3
420
    65280
370
    40
100
AcDbVertex
100
AcDb2dVertex
 10
96.86383256430823
 20
185.6033711226029
 30
0.0
  0
VERTEX
  5
70
330
6E
100
AcDbEntity
  8
AM_0
 62
     3
420
    65280
370
    40
100
AcDbVertex
100
AcDb2dVertex
 10
109.8638325643077
 20
185.6033711226029
 30
0.0
  0
SEQEND
  5
71
330
6E
100
AcDbEntity
  8
AM_0
 62
     3
420
    65280
370
    40
  0
ENDBLK
  5
6D
330
6A
100
AcDbEntity
  8
0
100
AcDbBlockEnd
  0
BLOCK
  5
74
330
72
100
AcDbEntity
  8
0
100
AcDbBlockBegin
  2
block 8
 70
     0
 10
0.0
 20
0.0
 30
0.0
  3
block 8
  1

  0
POLYLINE
  5
76
330
72
100
AcDbEntity
  8
AM_0
 62
     3
420
    65280
370
    40
100
AcDb2dPolyline
 66
     1
 10
0.0
 20
0.0
 30
0.0
  0
VERTEX
  5
77
330
76
100
AcDbEntity
  8
AM_0
 62
     3
420
    65280
370
    40
100
AcDbVertex
100
AcDb2dVertex
 10
99.9888325643081
 20
205.1033711226032
 30
0.0
  0
VERTEX
  5
78
330
76
100
AcDbEntity
  8
AM_0
 62
     3
420
    65280
370
    40
100
AcDbVertex
100
AcDb2dVertex
 10
103.7388325643081
 20
205.1033711226032
 30
0.0
  0
SEQEND
  5
79
330
76
100
AcDbEntity
  8
AM_0
 62
     3
420
    65280
370
    40
  0
ENDBLK
  5
75
330
72
100
AcDbEntity
  8
0
100
AcDbBlockEnd
  0
BLOCK
  5
7C
330
7A
100
AcDbEntity
  8
0
100
AcDbBlockBegin
  2
block 9
 70
     0
 10
0.0
 20
0.0
 30
0.0
  3
block 9
  1

  0
POLYLINE
  5
7E
330
7A
100
AcDbEntity
  8
AM_0
 62
     3
420
    65280
370
    40
100
AcDb2dPolyline
 66
     1
 10
0.0
 20
0.0
 30
0.0
  0
VERTEX
  5
7F
330
7E
100
AcDbEntity
  8
AM_0
 62
     3
420
    65280
370
    40
100
AcDbVertex
100
AcDb2dVertex
 10
83.8638325643081
 20
146.1033711226034
 30
0.0
  0
VERTEX
  5
80
330
7E
100
AcDbEntity
  8
AM_0
 62
     3
420
    65280
370
    40
100
AcDbVertex
100
AcDb2dVertex
 10
98.48633348954854
 20
146.1033711226034
 30
0.0
  0
SEQEND
  5
81
330
7E
100
AcDbEntity
  8
AM_0
 62
     3
420
    65280
370
    40
  0
ENDBLK
  5
7D
330
7A
100
AcDbEntity
  8
0
100
AcDbBlockEnd
  0
BLOCK
  5
84
330
82
100
AcDbEntity
  8
0
100
AcDbBlockBegin
  2
block 10
 70
     0
 10
0.0
 20
0.0
 30
0.0
  3
block 10
  1

  0
POLYLINE
  5
86
330
82
100
AcDbEntity
  8
AM_0
 62
     3
420
    65280
370
    40
100
AcDb2dPolyline
 66
     1
 10
0.0
 20
0.0
 30
0.0
  0
VERTEX
  5
87
330
86
100
AcDbEntity
  8
AM_0
 62
     3
420
    65280
370
    40
100
AcDbVertex
100
AcDb2dVertex
 10
105.241331639067
 20
146.1033711226034
 30
0.0
  0
VERTEX
  5
88
330
86
100
AcDbEntity
  8
AM_0
 62
     3
420
    65280
370
    40
100
AcDbVertex
100
AcDb2dVertex
 10
109.8638325643077
 20
146.1033711226034
 30
0.0
  0
SEQEND
  5
89
330
86
100
AcDbEntity
  8
AM_0
 62
     3
420
    65280
370
    40
  0
ENDBLK
  5
85
330
82
100
AcDbEntity
  8
0
100
AcDbBlockEnd
  0
BLOCK
  5
8C
330
8A
100
AcDbEntity
  8
0
100
AcDbBlockBegin
  2
block 11
 70
     0
 10
0.0
 20
0.0
 30
0.0
  3
block 11
  1

  0
POLYLINE
  5
8E
330
8A
100
AcDbEntity
  8
AM_0
 62
     3
420
    65280
370
    40
100
AcDb2dPolyline
 66
     1
 10
0.0
 20
0.0
 30
0.0
  0
VERTEX
  5
8F
330
8E
100
AcDbEntity
  8
AM_0
 62
     3
420
    65280
370
    40
100
AcDbVertex
100
AcDb2dVertex
 10
83.8638325643081
 20
209.1033711226031
 30
0.0
  0
VERTEX
  5
90
330
8E
100
AcDbEntity
  8
AM_0
 62
     3
420
    65280
370
    40
100
AcDbVertex
100
AcDb2dVertex
 10
98.4863334895495
 20
209.1033711226031
 30
0.0
  0
SEQEND
  5
91
330
8E
100
AcDbEntity
  8
AM_0
 62
     3
420
    65280
370
    40
  0
ENDBLK
  5
8D
330
8A
100
AcDbEntity
  8
0
100
AcDbBlockEnd
  0
BLOCK
  5
94
330
92
100
AcDbEntity
  8
0
100
AcDbBlockBegin
  2
block 12
 70
     0
 10
0.0
 20
0.0
 30
0.0
  3
block 12
  1

  0
POLYLINE
  5
96
330
92
100
AcDbEntity
  8
AM_0
 62
     3
420
    65280
370
    40
100
AcDb2dPolyline
 66
     1
 10
0.0
 20
0.0
 30
0.0
  0
VERTEX
  5
97
330
96
100
AcDbEntity
  8
AM_0
 62
     3
420
    65280
370
    40
100
AcDbVertex
100
AcDb2dVertex
 10
105.241331639067
 20
209.1033711226031
 30
0.0
  0
VERTEX
  5
98
330
96
100
AcDbEntity
  8
AM_0
 62
     3
420
    65280
370
    40
100
AcDbVertex
100
AcDb2dVertex
 10
109.8638325643077
 20
209.1033711226031
 30
0.0
  0
SEQEND
  5
99
330
96
100
AcDbEntity
  8
AM_0
 62
     3
420
    65280
370
    40
  0
ENDBLK
  5
95
330
92
100
AcDbEntity
  8
0
100
AcDbBlockEnd
  0
BLOCK
  5
9C
330
9A
100
AcDbEntity
  8
0
100
AcDbBlockBegin
  2
block 13
 70
     0
 10
0.0
 20
0.0
 30
0.0
  3
block 13
  1

  0
POLYLINE
  5
9E
330
9A
100
AcDbEntity
  8
AM_0
 62
     3
420
    65280
370
    40
100
AcDb2dPolyline
 66
     1
 10
0.0
 20
0.0
 30
0.0
  0
VERTEX
  5
9F
330
9E
100
AcDbEntity
  8
AM_0
 62
     3
420
    65280
370
    40
100
AcDbVertex
100
AcDb2dVertex
 10
83.8638325643081
 20
146.1033711226034
 30
0.0
  0
VERTEX
  5
A0
330
9E
100
AcDbEntity
  8
AM_0
 62
     3
420
    65280
370
    40
100
AcDbVertex
100
AcDb2dVertex
 10
83.8638325643081
 20
209.1033711226031
 30
0.0
  0
SEQEND
  5
A1
330
9E
100
AcDbEntity
  8
AM_0
 62
     3
420
    65280
370
    40
  0
ENDBLK
  5
9D
330
9A
100
AcDbEntity
  8
0
100
AcDbBlockEnd
  0
BLOCK
  5
A4
330
A2
100
AcDbEntity
  8
0
100
AcDbBlockBegin
  2
block 14
 70
     0
 10
0.0
 20
0.0
 30
0.0
  3
block 14
  1

  0
POLYLINE
  5
A6
330
A2
100
AcDbEntity
  8
AM_0
 62
     3
420
    65280
370
    40
100
AcDb2dPolyline
 66
     1
 10
0.0
 20
0.0
 30
0.0
  0
VERTEX
  5
A7
330
A6
100
AcDbEntity
  8
AM_0
 62
     3
420
    65280
370
    40
100
AcDbVertex
100
AcDb2dVertex
 10
51.86383256430825
 20
156.0298701862731
 30
0.0
  0
VERTEX
  5
A8
330
A6
100
AcDbEntity
  8
AM_0
 62
     3
420
    65280
370
    40
100
AcDbVertex
100
AcDb2dVertex
 10
51.86383256430825
 20
170.3333711226034
 30
0.0
  0
SEQEND
  5
A9
330
A6
100
AcDbEntity
  8
AM_0
 62
     3
420
    65280
370
    40
  0
ENDBLK
  5
A5
330
A2
100
AcDbEntity
  8
0
100
AcDbBlockEnd
  0
BLOCK
  5
AC
330
AA
100
AcDbEntity
  8
0
100
AcDbBlockBegin
  2
block 15
 70
     0
 10
0.0
 20
0.0
 30
0.0
  3
block 15
  1

  0
POLYLINE
  5
AE
330
AA
100
AcDbEntity
  8
AM_0
 62
     3
420
    65280
370
    40
100
AcDb2dPolyline
 66
     1
 10
0.0
 20
0.0
 30
0.0
  0
VERTEX
  5
AF
330
AE
100
AcDbEntity
  8
AM_0
 62
     3
420
    65280
370
    40
100
AcDbVertex
100
AcDb2dVertex
 10
51.86383256430825
 20
184.8733711226037
 30
0.0
  0
VERTEX
  5
B0
330
AE
100
AcDbEntity
  8
AM_0
 62
     3
420
    65280
370
    40
100
AcDbVertex
100
AcDb2dVertex
 10
51.86383256430825
 20
199.1768720589337
 30
0.0
  0
SEQEND
  5
B1
330
AE
100
AcDbEntity
  8
AM_0
 62
     3
420
    65280
370
    40
  0
ENDBLK
  5
AD
330
AA
100
AcDbEntity
  8
0
100
AcDbBlockEnd
  0
BLOCK
  5
B4
330
B2
100
AcDbEntity
  8
0
100
AcDbBlockBegin
  2
block 16
 70
     0
 10
0.0
 20
0.0
 30
0.0
  3
block 16
  1

  0
SPLINE
  5
B6
330
B2
100
AcDbEntity
  8
AM_0
 62
     3
420
    65280
370
    40
100
AcDbSpline
210
0.0
220
0.0
230
1.0
 70
     8
 71
     3
 72
     8
 73
     4
 74
     0
 42
0.0000000001
 43
0.0000000001
 12
1.0
 22
0.0
 32
0.0
 13
1.0
 23
0.0
 33
0.0
 40
0.0
 40
0.0
 40
0.0
 40
0.0
 40
1.0
 40
1.0
 40
1.0
 40
1.0
 10
53.00390742397538
 20
200.3753748655864
 30
0.0
 10
52.36525621015562
 20
200.3434423048961
 30
0.0
 10
51.86383256430825
 20
199.8163210884462
 30
0.0
 10
51.86383256430825
 20
199.176872058933
 30
0.0
  0
ENDBLK
  5
B5
330
B2
100
AcDbEntity
  8
0
100
AcDbBlockEnd
  0
BLOCK
  5
B9
330
B7
100
AcDbEntity
  8
0
100
AcDbBlockBegin
  2
block 17
 70
     0
 10
0.0
 20
0.0
 30
0.0
  3
block 17
  1

  0
POLYLINE
  5
BB
330
B7
100
AcDbEntity
  8
AM_0
 62
     3
420
    65280
370
    40
100
AcDb2dPolyline
 66
     1
 10
0.0
 20
0.0
 30
0.0
  0
VERTEX
  5
BC
330
BB
100
AcDbEntity
  8
AM_0
 62
     3
420
    65280
370
    40
100
AcDbVertex
100
AcDb2dVertex
 10
81.86383256430834
 20
153.388371122603
 30
0.0
  0
VERTEX
  5
BD
330
BB
100
AcDbEntity
  8
AM_0
 62
     3
420
    65280
370
    40
100
AcDbVertex
100
AcDb2dVertex
 10
81.86383256430834
 20
201.8183711226032
 30
0.0
  0
SEQEND
  5
BE
330
BB
100
AcDbEntity
  8
AM_0
 62
     3
420
    65280
370
    40
  0
ENDBLK
  5
BA
330
B7
100
AcDbEntity
  8
0
100
AcDbBlockEnd
  0
BLOCK
  5
C1
330
BF
100
AcDbEntity
  8
0
100
AcDbBlockBegin
  2
block 18
 70
     0
 10
0.0
 20
0.0
 30
0.0
  3
block 18
  1

  0
POLYLINE
  5
C3
330
BF
100
AcDbEntity
  8
AM_0
 62
     3
420
    65280
370
    40
100
AcDb2dPolyline
 66
     1
 10
0.0
 20
0.0
 30
0.0
  0
VERTEX
  5
C4
330
C3
100
AcDbEntity
  8
AM_0
 62
     3
420
    65280
370
    40
100
AcDbVertex
100
AcDb2dVertex
 10
99.9888325643081
 20
148.7057758584115
 30
0.0
  0
VERTEX
  5
C5
330
C3
100
AcDbEntity
  8
AM_0
 62
     3
420
    65280
370
    40
100
AcDbVertex
100
AcDb2dVertex
 10
99.9888325643081
 20
169.6033711226029
 30
0.0
  0
SEQEND
  5
C6
330
C3
100
AcDbEntity
  8
AM_0
 62
     3
420
    65280
370
    40
  0
ENDBLK
  5
C2
330
BF
100
AcDbEntity
  8
0
100
AcDbBlockEnd
  0
BLOCK
  5
C9
330
C7
100
AcDbEntity
  8
0
100
AcDbBlockBegin
  2
block 19
 70
     0
 10
0.0
 20
0.0
 30
0.0
  3
block 19
  1

  0
POLYLINE
  5
CB
330
C7
100
AcDbEntity
  8
AM_0
 62
     3
420
    65280
370
    40
100
AcDb2dPolyline
 66
     1
 10
0.0
 20
0.0
 30
0.0
  0
VERTEX
  5
CC
330
CB
100
AcDbEntity
  8
AM_0
 62
     3
420
    65280
370
    40
100
AcDbVertex
100
AcDb2dVertex
 10
99.9888325643081
 20
185.6033711226029
 30
0.0
  0
VERTEX
  5
CD
330
CB
100
AcDbEntity
  8
AM_0
 62
     3
420
    65280
370
    40
100
AcDbVertex
100
AcDb2dVertex
 10
99.9888325643081
 20
206.5009663867952
 30
0.0
  0
SEQEND
  5
CE
330
CB
100
AcDbEntity
  8
AM_0
 62
     3
420
    65280
370
    40
  0
ENDBLK
  5
CA
330
C7
100
AcDbEntity
  8
0
100
AcDbBlockEnd
  0
BLOCK
  5
D1
330
CF
100
AcDbEntity
  8
0
100
AcDbBlockBegin
  2
block 20
 70
     0
 10
0.0
 20
0.0
 30
0.0
  3
block 20
  1

  0
POLYLINE
  5
D3
330
CF
100
AcDbEntity
  8
AM_0
 62
     3
420
    65280
370
    40
100
AcDb2dPolyline
 66
     1
 10
0.0
 20
0.0
 30
0.0
  0
VERTEX
  5
D4
330
D3
100
AcDbEntity
  8
AM_0
 62
     3
420
    65280
370
    40
100
AcDbVertex
100
AcDb2dVertex
 10
103.7388325643081
 20
148.7057758584115
 30
0.0
  0
VERTEX
  5
D5
330
D3
100
AcDbEntity
  8
AM_0
 62
     3
420
    65280
370
    40
100
AcDbVertex
100
AcDb2dVertex
 10
103.7388325643081
 20
169.6033711226029
 30
0.0
  0
SEQEND
  5
D6
330
D3
100
AcDbEntity
  8
AM_0
 62
     3
420
    65280
370
    40
  0
ENDBLK
  5
D2
330
CF
100
AcDbEntity
  8
0
100
AcDbBlockEnd
  0
BLOCK
  5
D9
330
D7
100
AcDbEntity
  8
0
100
AcDbBlockBegin
  2
block 21
 70
     0
 10
0.0
 20
0.0
 30
0.0
  3
block 21
  1

  0
POLYLINE
  5
DB
330
D7
100
AcDbEntity
  8
AM_0
 62
     3
420
    65280
370
    40
100
AcDb2dPolyline
 66
     1
 10
0.0
 20
0.0
 30
0.0
  0
VERTEX
  5
DC
330
DB
100
AcDbEntity
  8
AM_0
 62
     3
420
    65280
370
    40
100
AcDbVertex
100
AcDb2dVertex
 10
103.7388325643065
 20
185.6033711226029
 30
0.0
  0
VERTEX
  5
DD
330
DB
100
AcDbEntity
  8
AM_0
 62
     3
420
    65280
370
    40
100
AcDbVertex
100
AcDb2dVertex
 10
103.7388325643081
 20
206.5009663867952
 30
0.0
  0
SEQEND
  5
DE
330
DB
100
AcDbEntity
  8
AM_0
 62
     3
420
    65280
370
    40
  0
ENDBLK
  5
DA
330
D7
100
AcDbEntity
  8
0
100
AcDbBlockEnd
  0
BLOCK
  5
E1
330
DF
100
AcDbEntity
  8
0
100
AcDbBlockBegin
  2
block 22
 70
     0
 10
0.0
 20
0.0
 30
0.0
  3
block 22
  1

  0
POLYLINE
  5
E3
330
DF
100
AcDbEntity
  8
AM_0
 62
     3
420
    65280
370
    40
100
AcDb2dPolyline
 66
     1
 10
0.0
 20
0.0
 30
0.0
  0
VERTEX
  5
E4
330
E3
100
AcDbEntity
  8
AM_0
 62
     3
420
    65280
370
    40
100
AcDbVertex
100
AcDb2dVertex
 10
109.8638325643077
 20
146.1033711226034
 30
0.0
  0
VERTEX
  5
E5
330
E3
100
AcDbEntity
  8
AM_0
 62
     3
420
    65280
370
    40
100
AcDbVertex
100
AcDb2dVertex
 10
109.8638325643077
 20
209.1033711226031
 30
0.0
  0
SEQEND
  5
E6
330
E3
100
AcDbEntity
  8
AM_0
 62
     3
420
    65280
370
    40
  0
ENDBLK
  5
E2
330
DF
100
AcDbEntity
  8
0
100
AcDbBlockEnd
  0
BLOCK
  5
E9
330
E7
100
AcDbEntity
  8
0
100
AcDbBlockBegin
  2
block 23
 70
     0
 10
0.0
 20
0.0
 30
0.0
  3
block 23
  1

  0
SPLINE
  5
EB
330
E7
100
AcDbEntity
  8
AM_0
 62
     3
420
    65280
370
    40
100
AcDbSpline
210
0.0
220
0.0
230
1.0
 70
     8
 71
     3
 72
     8
 73
     4
 74
     0
 42
0.0000000001
 43
0.0000000001
 12
1.0
 22
0.0
 32
0.0
 13
1.0
 23
0.0
 33
0.0
 40
0.0
 40
0.0
 40
0.0
 40
0.0
 40
1.0
 40
1.0
 40
1.0
 40
1.0
 10
110.3638301150731
 20
161.603368673351
 30
0.0
 10
110.0876886966463
 20
161.6033673206809
 30
0.0
 10
109.8638325643077
 20
161.3795100917871
 30
0.0
 10
109.8638325643077
 20
161.1033686733577
 30
0.0
  0
ENDBLK
  5
EA
330
E7
100
AcDbEntity
  8
0
100
AcDbBlockEnd
  0
BLOCK
  5
EE
330
EC
100
AcDbEntity
  8
0
100
AcDbBlockBegin
  2
block 24
 70
     0
 10
0.0
 20
0.0
 30
0.0
  3
block 24
  1

  0
SPLINE
  5
F0
330
EC
100
AcDbEntity
  8
AM_0
 62
     3
420
    65280
370
    40
100
AcDbSpline
210
0.0
220
0.0
230
1.0
 70
     8
 71
     3
 72
     8
 73
     4
 74
     0
 42
0.0000000001
 43
0.0000000001
 12
1.0
 22
0.0
 32
0.0
 13
1.0
 23
0.0
 33
0.0
 40
0.0
 40
0.0
 40
0.0
 40
0.0
 40
1.0
 40
1.0
 40
1.0
 40
1.0
 10
109.8638325643077
 20
194.1033784702898
 30
0.0
 10
109.8638325643077
 20
193.8272360953746
 30
0.0
 10
110.0876901893936
 20
193.6033784702898
 30
0.0
 10
110.3638325643087
 20
193.6033784702898
 30
0.0
  0
ENDBLK
  5
EF
330
EC
100
AcDbEntity
  8
0
100
AcDbBlockEnd
  0
BLOCK
  5
F3
330
F1
100
AcDbEntity
  8
0
100
AcDbBlockBegin
  2
block 25
 70
     0
 10
0.0
 20
0.0
 30
0.0
  3
block 25
  1

  0
SPLINE
  5
F5
330
F1
100
AcDbEntity
  8
AM_0
 62
     3
420
    65280
370
    40
100
AcDbSpline
210
0.0
220
0.0
230
1.0
 70
     8
 71
     3
 72
    11
 73
     7
 74
     0
 42
0.0000000001
 43
0.0000000001
 12
1.0
 22
0.0
 32
0.0
 13
1.0
 23
0.0
 33
0.0
 40
0.0
 40
0.0
 40
0.0
 40
0.0
 40
1.0
 40
1.0
 40
1.0
 40
2.0
 40
2.0
 40
2.0
 40
2.0
 10
96.86383256430823
 20
185.6033711226029
 30
0.0
 10
92.44555456566155
 20
185.6033711226029
 30
0.0
 10
88.86383256430827
 20
182.0216491212499
 30
0.0
 10
88.86383256430827
 20
177.6033711226029
 30
0.0
 10
88.86383256430827
 20
173.1850931239572
 30
0.0
 10
92.44555456566155
 20
169.6033711226029
 30
0.0
 10
96.86383256430823
 20
169.6033711226029
 30
0.0
  0
ENDBLK
  5
F4
330
F1
100
AcDbEntity
  8
0
100
AcDbBlockEnd
  0
BLOCK
  5
F8
330
F6
100
AcDbEntity
  8
0
100
AcDbBlockBegin
  2
block 26
 70
     0
 10
0.0
 20
0.0
 30
0.0
  3
block 26
  1

  0
POLYLINE
  5
FA
330
F6
100
AcDbEntity
  8
AM_0
 62
     3
420
    65280
370
    40
100
AcDb2dPolyline
 66
     1
 10
0.0
 20
0.0
 30
0.0
  0
VERTEX
  5
FB
330
FA
100
AcDbEntity
  8
AM_0
 62
     3
420
    65280
370
    40
100
AcDbVertex
100
AcDb2dVertex
 10
98.48633348954854
 20
209.1033711226031
 30
0.0
  0
VERTEX
  5
FC
330
FA
100
AcDbEntity
  8
AM_0
 62
     3
420
    65280
370
    40
100
AcDbVertex
100
AcDb2dVertex
 10
99.9888325643081
 20
206.5009663867952
 30
0.0
  0
SEQEND
  5
FD
330
FA
100
AcDbEntity
  8
AM_0
 62
     3
420
    65280
370
    40
  0
ENDBLK
  5
F9
330
F6
100
AcDbEntity
  8
0
100
AcDbBlockEnd
  0
BLOCK
  5
100
330
FE
100
AcDbEntity
  8
0
100
AcDbBlockBegin
  2
block 27
 70
     0
 10
0.0
 20
0.0
 30
0.0
  3
block 27
  1

  0
POLYLINE
  5
102
330
FE
100
AcDbEntity
  8
AM_0
 62
     3
420
    65280
370
    40
100
AcDb2dPolyline
 66
     1
 10
0.0
 20
0.0
 30
0.0
  0
VERTEX
  5
103
330
102
100
AcDbEntity
  8
AM_0
 62
     3
420
    65280
370
    40
100
AcDbVertex
100
AcDb2dVertex
 10
105.241331639067
 20
209.1033711226031
 30
0.0
  0
VERTEX
  5
104
330
102
100
AcDbEntity
  8
AM_0
 62
     3
420
    65280
370
    40
100
AcDbVertex
100
AcDb2dVertex
 10
103.7388325643081
 20
206.5009663867952
 30
0.0
  0
SEQEND
  5
105
330
102
100
AcDbEntity
  8
AM_0
 62
     3
420
    65280
370
    40
  0
ENDBLK
  5
101
330
FE
100
AcDbEntity
  8
0
100
AcDbBlockEnd
  0
BLOCK
  5
108
330
106
100
AcDbEntity
  8
0
100
AcDbBlockBegin
  2
block 28
 70
     0
 10
0.0
 20
0.0
 30
0.0
  3
block 28
  1

  0
POLYLINE
  5
10A
330
106
100
AcDbEntity
  8
AM_0
 62
     3
420
    65280
370
    40
100
AcDb2dPolyline
 66
     1
 10
0.0
 20
0.0
 30
0.0
  0
VERTEX
  5
10B
330
10A
100
AcDbEntity
  8
AM_0
 62
     3
420
    65280
370
    40
100
AcDbVertex
100
AcDb2dVertex
 10
98.48633348954854
 20
209.1033711226031
 30
0.0
  0
VERTEX
  5
10C
330
10A
100
AcDbEntity
  8
AM_0
 62
     3
420
    65280
370
    40
100
AcDbVertex
100
AcDb2dVertex
 10
98.48633348954854
 20
185.6033711226029
 30
0.0
  0
SEQEND
  5
10D
330
10A
100
AcDbEntity
  8
AM_0
 62
     3
420
    65280
370
    40
  0
ENDBLK
  5
109
330
106
100
AcDbEntity
  8
0
100
AcDbBlockEnd
  0
BLOCK
  5
110
330
10E
100
AcDbEntity
  8
0
100
AcDbBlockBegin
  2
block 29
 70
     0
 10
0.0
 20
0.0
 30
0.0
  3
block 29
  1

  0
POLYLINE
  5
112
330
10E
100
AcDbEntity
  8
AM_0
 62
     3
420
    65280
370
    40
100
AcDb2dPolyline
 66
     1
 10
0.0
 20
0.0
 30
0.0
  0
VERTEX
  5
113
330
112
100
AcDbEntity
  8
AM_0
 62
     3
420
    65280
370
    40
100
AcDbVertex
100
AcDb2dVertex
 10
98.48633348954854
 20
169.6033711226029
 30
0.0
  0
VERTEX
  5
114
330
112
100
AcDbEntity
  8
AM_0
 62
     3
420
    65280
370
    40
100
AcDbVertex
100
AcDb2dVertex
 10
98.4863334895495
 20
157.6033711226032
 30
0.0
  0
SEQEND
  5
115
330
112
100
AcDbEntity
  8
AM_0
 62
     3
420
    65280
370
    40
  0
ENDBLK
  5
111
330
10E
100
AcDbEntity
  8
0
100
AcDbBlockEnd
  0
BLOCK
  5
118
330
116
100
AcDbEntity
  8
0
100
AcDbBlockBegin
  2
block 30
 70
     0
 10
0.0
 20
0.0
 30
0.0
  3
block 30
  1

  0
POLYLINE
  5
11A
330
116
100
AcDbEntity
  8
AM_0
 62
     3
420
    65280
370
    40
100
AcDb2dPolyline
 66
     1
 10
0.0
 20
0.0
 30
0.0
  0
VERTEX
  5
11B
330
11A
100
AcDbEntity
  8
AM_0
 62
     3
420
    65280
370
    40
100
AcDbVertex
100
AcDb2dVertex
 10
98.48633348954854
 20
153.2671840753277
 30
0.0
  0
VERTEX
  5
11C
330
11A
100
AcDbEntity
  8
AM_0
 62
     3
420
    65280
370
    40
100
AcDbVertex
100
AcDb2dVertex
 10
98.48633348954854
 20
146.1033711226034
 30
0.0
  0
SEQEND
  5
11D
330
11A
100
AcDbEntity
  8
AM_0
 62
     3
420
    65280
370
    40
  0
ENDBLK
  5
119
330
116
100
AcDbEntity
  8
0
100
AcDbBlockEnd
  0
BLOCK
  5
120
330
11E
100
AcDbEntity
  8
0
100
AcDbBlockBegin
  2
block 31
 70
     0
 10
0.0
 20
0.0
 30
0.0
  3
block 31
  1

  0
POLYLINE
  5
122
330
11E
100
AcDbEntity
  8
AM_0
 62
     3
420
    65280
370
    40
100
AcDb2dPolyline
 66
     1
 10
0.0
 20
0.0
 30
0.0
  0
VERTEX
  5
123
330
122
100
AcDbEntity
  8
AM_0
 62
     3
420
    65280
370
    40
100
AcDbVertex
100
AcDb2dVertex
 10
105.241331639067
 20
209.1033711226031
 30
0.0
  0
VERTEX
  5
124
330
122
100
AcDbEntity
  8
AM_0
 62
     3
420
    65280
370
    40
100
AcDbVertex
100
AcDb2dVertex
 10
105.241331639067
 20
185.6033711226029
 30
0.0
  0
SEQEND
  5
125
330
122
100
AcDbEntity
  8
AM_0
 62
     3
420
    65280
370
    40
  0
ENDBLK
  5
121
330
11E
100
AcDbEntity
  8
0
100
AcDbBlockEnd
  0
BLOCK
  5
128
330
126
100
AcDbEntity
  8
0
100
AcDbBlockBegin
  2
block 32
 70
     0
 10
0.0
 20
0.0
 30
0.0
  3
block 32
  1

  0
POLYLINE
  5
12A
330
126
100
AcDbEntity
  8
AM_0
 62
     3
420
    65280
370
    40
100
AcDb2dPolyline
 66
     1
 10
0.0
 20
0.0
 30
0.0
  0
VERTEX
  5
12B
330
12A
100
AcDbEntity
  8
AM_0
 62
     3
420
    65280
370
    40
100
AcDbVertex
100
AcDb2dVertex
 10
105.241331639067
 20
169.6033711226029
 30
0.0
  0
VERTEX
  5
12C
330
12A
100
AcDbEntity
  8
AM_0
 62
     3
420
    65280
370
    40
100
AcDbVertex
100
AcDb2dVertex
 10
105.241331639067
 20
157.6033711226032
 30
0.0
  0
SEQEND
  5
12D
330
12A
100
AcDbEntity
  8
AM_0
 62
     3
420
    65280
370
    40
  0
ENDBLK
  5
129
330
126
100
AcDbEntity
  8
0
100
AcDbBlockEnd
  0
BLOCK
  5
130
330
12E
100
AcDbEntity
  8
0
100
AcDbBlockBegin
  2
block 33
 70
     0
 10
0.0
 20
0.0
 30
0.0
  3
block 33
  1

  0
POLYLINE
  5
132
330
12E
100
AcDbEntity
  8
AM_0
 62
     3
420
    65280
370
    40
100
AcDb2dPolyline
 66
     1
 10
0.0
 20
0.0
 30
0.0
  0
VERTEX
  5
133
330
132
100
AcDbEntity
  8
AM_0
 62
     3
420
    65280
370
    40
100
AcDbVertex
100
AcDb2dVertex
 10
105.241331639067
 20
153.2671840753277
 30
0.0
  0
VERTEX
  5
134
330
132
100
AcDbEntity
  8
AM_0
 62
     3
420
    65280
370
    40
100
AcDbVertex
100
AcDb2dVertex
 10
105.241331639067
 20
146.1033711226034
 30
0.0
  0
SEQEND
  5
135
330
132
100
AcDbEntity
  8
AM_0
 62
     3
420
    65280
370
    40
  0
ENDBLK
  5
131
330
12E
100
AcDbEntity
  8
0
100
AcDbBlockEnd
  0
BLOCK
  5
138
330
136
100
AcDbEntity
  8
0
100
AcDbBlockBegin
  2
block 34
 70
     0
 10
0.0
 20
0.0
 30
0.0
  3
block 34
  1

  0
POLYLINE
  5
13A
330
136
100
AcDbEntity
  8
AM_0
 62
     3
420
    65280
370
    40
100
AcDb2dPolyline
 66
     1
 10
0.0
 20
0.0
 30
0.0
  0
VERTEX
  5
13B
330
13A
100
AcDbEntity
  8
AM_0
 62
     3
420
    65280
370
    40
100
AcDbVertex
100
AcDb2dVertex
 10
99.9888325643081
 20
150.1033711226026
 30
0.0
  0
VERTEX
  5
13C
330
13A
100
AcDbEntity
  8
AM_0
 62
     3
420
    65280
370
    40
100
AcDbVertex
100
AcDb2dVertex
 10
103.7388325643081
 20
150.1033711226026
 30
0.0
  0
SEQEND
  5
13D
330
13A
100
AcDbEntity
  8
AM_0
 62
     3
420
    65280
370
    40
  0
ENDBLK
  5
139
330
136
100
AcDbEntity
  8
0
100
AcDbBlockEnd
  0
BLOCK
  5
140
330
13E
100
AcDbEntity
  8
0
100
AcDbBlockBegin
  2
block 35
 70
     0
 10
0.0
 20
0.0
 30
0.0
  3
block 35
  1

  0
POLYLINE
  5
142
330
13E
100
AcDbEntity
  8
AM_0
 62
     3
420
    65280
370
    40
100
AcDb2dPolyline
 66
     1
 10
0.0
 20
0.0
 30
0.0
  0
VERTEX
  5
143
330
142
100
AcDbEntity
  8
AM_0
 62
     3
420
    65280
370
    40
100
AcDbVertex
100
AcDb2dVertex
 10
98.48633348954854
 20
146.1033711226034
 30
0.0
  0
VERTEX
  5
144
330
142
100
AcDbEntity
  8
AM_0
 62
     3
420
    65280
370
    40
100
AcDbVertex
100
AcDb2dVertex
 10
99.9888325643081
 20
148.7057758584115
 30
0.0
  0
SEQEND
  5
145
330
142
100
AcDbEntity
  8
AM_0
 62
     3
420
    65280
370
    40
  0
ENDBLK
  5
141
330
13E
100
AcDbEntity
  8
0
100
AcDbBlockEnd
  0
BLOCK
  5
148
330
146
100
AcDbEntity
  8
0
100
AcDbBlockBegin
  2
block 36
 70
     0
 10
0.0
 20
0.0
 30
0.0
  3
block 36
  1

  0
POLYLINE
  5
14A
330
146
100
AcDbEntity
  8
AM_0
 62
     3
420
    65280
370
    40
100
AcDb2dPolyline
 66
     1
 10
0.0
 20
0.0
 30
0.0
  0
VERTEX
  5
14B
330
14A
100
AcDbEntity
  8
AM_0
 62
     3
420
    65280
370
    40
100
AcDbVertex
100
AcDb2dVertex
 10
105.241331639067
 20
146.1033711226034
 30
0.0
  0
VERTEX
  5
14C
330
14A
100
AcDbEntity
  8
AM_0
 62
     3
420
    65280
370
    40
100
AcDbVertex
100
AcDb2dVertex
 10
103.7388325643081
 20
148.7057758584115
 30
0.0
  0
SEQEND
  5
14D
330
14A
100
AcDbEntity
  8
AM_0
 62
     3
420
    65280
370
    40
  0
ENDBLK
  5
149
330
146
100
AcDbEntity
  8
0
100
AcDbBlockEnd
  0
BLOCK
  5
150
330
14E
100
AcDbEntity
  8
0
100
AcDbBlockBegin
  2
block 37
 70
     0
 10
0.0
 20
0.0
 30
0.0
  3
block 37
  1

  0
SPLINE
  5
152
330
14E
100
AcDbEntity
  8
AM_0
 62
     3
420
    65280
370
    40
100
AcDbSpline
210
0.0
220
0.0
230
1.0
 70
    11
 71
     3
 72
    17
 73
    13
 74
     0
 42
0.0000000001
 43
0.0000000001
 12
1.0
 22
0.0
 32
0.0
 13
1.0
 23
0.0
 33
0.0
 40
0.0
 40
0.0
 40
0.0
 40
0.0
 40
1.0
 40
1.0
 40
1.0
 40
2.0
 40
2.0
 40
2.0
 40
3.0
 40
3.0
 40
3.0
 40
4.0
 40
4.0
 40
4.0
 40
4.0
 10
89.8638325643083
 20
177.6033711226029
 30
0.0
 10
89.8638325643083
 20
181.4693643714183
 30
0.0
 10
92.99783931549283
 20
184.6033711226028
 30
0.0
 10
96.86383256430823
 20
184.6033711226028
 30
0.0
 10
100.7298258131236
 20
184.6033711226028
 30
0.0
 10
103.8638325643082
 20
181.4693643714183
 30
0.0
 10
103.8638325643082
 20
177.6033711226029
 30
0.0
 10
103.8638325643082
 20
173.7373778737878
 30
0.0
 10
100.7298258131236
 20
170.603371122603
 30
0.0
 10
96.86383256430823
 20
170.603371122603
 30
0.0
 10
92.99783931549283
 20
170.603371122603
 30
0.0
 10
89.8638325643083
 20
173.7373778737878
 30
0.0
 10
89.8638325643083
 20
177.6033711226029
 30
0.0
  0
ENDBLK
  5
151
330
14E
100
AcDbEntity
  8
0
100
AcDbBlockEnd
  0
BLOCK
  5
155
330
153
100
AcDbEntity
  8
0
100
AcDbBlockBegin
  2
block 38
 70
     0
 10
0.0
 20
0.0
 30
0.0
  3
block 38
  1

  0
POLYLINE
  5
157
330
153
100
AcDbEntity
  8
AM_0
 62
     3
420
    65280
370
    40
100
AcDb2dPolyline
 66
     1
 10
0.0
 20
0.0
 30
0.0
  0
VERTEX
  5
158
330
157
100
AcDbEntity
  8
AM_0
 62
     3
420
    65280
370
    40
100
AcDbVertex
100
AcDb2dVertex
 10
109.8638325643077
 20
157.6033711226032
 30
0.0
  0
VERTEX
  5
159
330
157
100
AcDbEntity
  8
AM_0
 62
     3
420
    65280
370
    40
100
AcDbVertex
100
AcDb2dVertex
 10
103.7388325643081
 20
157.6033711226032
 30
0.0
  0
SEQEND
  5
15A
330
157
100
AcDbEntity
  8
AM_0
 62
     3
420
    65280
370
    40
  0
ENDBLK
  5
156
330
153
100
AcDbEntity
  8
0
100
AcDbBlockEnd
  0
BLOCK
  5
15D
330
15B
100
AcDbEntity
  8
0
100
AcDbBlockBegin
  2
block 39
 70
     0
 10
0.0
 20
0.0
 30
0.0
  3
block 39
  1

  0
POLYLINE
  5
15F
330
15B
100
AcDbEntity
  8
AM_0
 62
     3
420
    65280
370
    40
100
AcDb2dPolyline
 66
     1
 10
0.0
 20
0.0
 30
0.0
  0
VERTEX
  5
160
330
15F
100
AcDbEntity
  8
AM_0
 62
     3
420
    65280
370
    40
100
AcDbVertex
100
AcDb2dVertex
 10
99.9888325643081
 20
157.6033711226032
 30
0.0
  0
VERTEX
  5
161
330
15F
100
AcDbEntity
  8
AM_0
 62
     3
420
    65280
370
    40
100
AcDbVertex
100
AcDb2dVertex
 10
95.97554646796405
 20
157.6033711226032
 30
0.0
  0
SEQEND
  5
162
330
15F
100
AcDbEntity
  8
AM_0
 62
     3
420
    65280
370
    40
  0
ENDBLK
  5
15E
330
15B
100
AcDbEntity
  8
0
100
AcDbBlockEnd
  0
BLOCK
  5
165
330
163
100
AcDbEntity
  8
0
100
AcDbBlockBegin
  2
block 40
 70
     0
 10
0.0
 20
0.0
 30
0.0
  3
block 40
  1

  0
SPLINE
  5
167
330
163
100
AcDbEntity
  8
AM_0
 62
     3
420
    65280
370
    40
100
AcDbSpline
210
0.0
220
0.0
230
1.0
 70
     8
 71
     3
 72
     8
 73
     4
 74
     0
 42
0.0000000001
 43
0.0000000001
 12
1.0
 22
0.0
 32
0.0
 13
1.0
 23
0.0
 33
0.0
 40
0.0
 40
0.0
 40
0.0
 40
0.0
 40
1.0
 40
1.0
 40
1.0
 40
1.0
 10
95.97554646796405
 20
157.6033711226032
 30
0.0
 10
92.98012487910508
 20
157.6033711226032
 30
0.0
 10
90.23566561632515
 20
155.9300067454272
 30
0.0
 10
88.86383256430827
 20
153.2671840753277
 30
0.0
  0
ENDBLK
  5
166
330
163
100
AcDbEntity
  8
0
100
AcDbBlockEnd
  0
BLOCK
  5
16A
330
168
100
AcDbEntity
  8
0
100
AcDbBlockBegin
  2
block 41
 70
     0
 10
0.0
 20
0.0
 30
0.0
  3
block 41
  1

  0
POLYLINE
  5
16C
330
168
100
AcDbEntity
  8
AM_0
 62
     3
420
    65280
370
    40
100
AcDb2dPolyline
 66
     1
 10
0.0
 20
0.0
 30
0.0
  0
VERTEX
  5
16D
330
16C
100
AcDbEntity
  8
AM_0
 62
     3
420
    65280
370
    40
100
AcDbVertex
100
AcDb2dVertex
 10
109.8638325643077
 20
153.2671840753277
 30
0.0
  0
VERTEX
  5
16E
330
16C
100
AcDbEntity
  8
AM_0
 62
     3
420
    65280
370
    40
100
AcDbVertex
100
AcDb2dVertex
 10
105.241331639067
 20
153.2671840753277
 30
0.0
  0
SEQEND
  5
16F
330
16C
100
AcDbEntity
  8
AM_0
 62
     3
420
    65280
370
    40
  0
ENDBLK
  5
16B
330
168
100
AcDbEntity
  8
0
100
AcDbBlockEnd
  0
BLOCK
  5
172
330
170
100
AcDbEntity
  8
0
100
AcDbBlockBegin
  2
block 42
 70
     0
 10
0.0
 20
0.0
 30
0.0
  3
block 42
  1

  0
POLYLINE
  5
174
330
170
100
AcDbEntity
  8
AM_0
 62
     3
420
    65280
370
    40
100
AcDb2dPolyline
 66
     1
 10
0.0
 20
0.0
 30
0.0
  0
VERTEX
  5
175
330
174
100
AcDbEntity
  8
AM_0
 62
     3
420
    65280
370
    40
100
AcDbVertex
100
AcDb2dVertex
 10
98.48633348954854
 20
153.2671840753277
 30
0.0
  0
VERTEX
  5
176
330
174
100
AcDbEntity
  8
AM_0
 62
     3
420
    65280
370
    40
100
AcDbVertex
100
AcDb2dVertex
 10
88.86383256430827
 20
153.2671840753277
 30
0.0
  0
SEQEND
  5
177
330
174
100
AcDbEntity
  8
AM_0
 62
     3
420
    65280
370
    40
  0
ENDBLK
  5
173
330
170
100
AcDbEntity
  8
0
100
AcDbBlockEnd
  0
BLOCK
  5
17A
330
178
100
AcDbEntity
  8
0
100
AcDbBlockBegin
  2
block 43
 70
     0
 10
0.0
 20
0.0
 30
0.0
  3
block 43
  1

  0
POLYLINE
  5
17C
330
178
100
AcDbEntity
  8
AM_0
 62
     3
420
    65280
370
    40
100
AcDb2dPolyline
 66
     1
 10
0.0
 20
0.0
 30
0.0
  0
VERTEX
  5
17D
330
17C
100
AcDbEntity
  8
AM_0
 62
     3
420
    65280
370
    40
100
AcDbVertex
100
AcDb2dVertex
 10
98.48633348954854
 20
153.2671840753277
 30
0.0
  0
VERTEX
  5
17E
330
17C
100
AcDbEntity
  8
AM_0
 62
     3
420
    65280
370
    40
100
AcDbVertex
100
AcDb2dVertex
 10
99.9888325643081
 20
156.7450151937917
 30
0.0
  0
SEQEND
  5
17F
330
17C
100
AcDbEntity
  8
AM_0
 62
     3
420
    65280
370
    40
  0
ENDBLK
  5
17B
330
178
100
AcDbEntity
  8
0
100
AcDbBlockEnd
  0
BLOCK
  5
182
330
180
100
AcDbEntity
  8
0
100
AcDbBlockBegin
  2
block 44
 70
     0
 10
0.0
 20
0.0
 30
0.0
  3
block 44
  1

  0
POLYLINE
  5
184
330
180
100
AcDbEntity
  8
AM_0
 62
     3
420
    65280
370
    40
100
AcDb2dPolyline
 66
     1
 10
0.0
 20
0.0
 30
0.0
  0
VERTEX
  5
185
330
184
100
AcDbEntity
  8
AM_0
 62
     3
420
    65280
370
    40
100
AcDbVertex
100
AcDb2dVertex
 10
103.7388325643081
 20
156.7450151937917
 30
0.0
  0
VERTEX
  5
186
330
184
100
AcDbEntity
  8
AM_0
 62
     3
420
    65280
370
    40
100
AcDbVertex
100
AcDb2dVertex
 10
105.241331639067
 20
153.2671840753277
 30
0.0
  0
SEQEND
  5
187
330
184
100
AcDbEntity
  8
AM_0
 62
     3
420
    65280
370
    40
  0
ENDBLK
  5
183
330
180
100
AcDbEntity
  8
0
100
AcDbBlockEnd
  0
BLOCK
  5
18A
330
188
100
AcDbEntity
  8
0
100
AcDbBlockBegin
  2
block 45
 70
     0
 10
0.0
 20
0.0
 30
0.0
  3
block 45
  1

  0
POLYLINE
  5
18C
330
188
100
AcDbEntity
  8
AM_0
 62
     3
420
    65280
370
    40
100
AcDb2dPolyline
 66
     1
 10
0.0
 20
0.0
 30
0.0
  0
VERTEX
  5
18D
330
18C
100
AcDbEntity
  8
AM_0
 62
     3
420
    65280
370
    40
100
AcDbVertex
100
AcDb2dVertex
 10
81.86383256430834
 20
201.8183711226032
 30
0.0
  0
VERTEX
  5
18E
330
18C
100
AcDbEntity
  8
AM_0
 62
     3
420
    65280
370
    40
100
AcDbVertex
100
AcDb2dVertex
 10
53.00390742397538
 20
200.3753748655868
 30
0.0
  0
SEQEND
  5
18F
330
18C
100
AcDbEntity
  8
AM_0
 62
     3
420
    65280
370
    40
  0
ENDBLK
  5
18B
330
188
100
AcDbEntity
  8
0
100
AcDbBlockEnd
  0
BLOCK
  5
192
330
190
100
AcDbEntity
  8
0
100
AcDbBlockBegin
  2
block 46
 70
     0
 10
0.0
 20
0.0
 30
0.0
  3
block 46
  1

  0
POLYLINE
  5
194
330
190
100
AcDbEntity
  8
AM_0
 62
     3
420
    65280
370
    40
100
AcDb2dPolyline
 66
     1
 10
0.0
 20
0.0
 30
0.0
  0
VERTEX
  5
195
330
194
100
AcDbEntity
  8
AM_0
 62
     3
420
    65280
370
    40
100
AcDbVertex
100
AcDb2dVertex
 10
81.86383256430834
 20
153.603371122603
 30
0.0
  0
VERTEX
  5
196
330
194
100
AcDbEntity
  8
AM_0
 62
     3
420
    65280
370
    40
100
AcDbVertex
100
AcDb2dVertex
 10
83.8638325643081
 20
153.603371122603
 30
0.0
  0
SEQEND
  5
197
330
194
100
AcDbEntity
  8
AM_0
 62
     3
420
    65280
370
    40
  0
ENDBLK
  5
193
330
190
100
AcDbEntity
  8
0
100
AcDbBlockEnd
  0
BLOCK
  5
19A
330
198
100
AcDbEntity
  8
0
100
AcDbBlockBegin
  2
block 47
 70
     0
 10
0.0
 20
0.0
 30
0.0
  3
block 47
  1

  0
POLYLINE
  5
19C
330
198
100
AcDbEntity
  8
AM_0
 62
     3
420
    65280
370
    40
100
AcDb2dPolyline
 66
     1
 10
0.0
 20
0.0
 30
0.0
  0
VERTEX
  5
19D
330
19C
100
AcDbEntity
  8
AM_0
 62
     3
420
    65280
370
    40
100
AcDbVertex
100
AcDb2dVertex
 10
81.86383256430834
 20
153.388371122603
 30
0.0
  0
VERTEX
  5
19E
330
19C
100
AcDbEntity
  8
AM_0
 62
     3
420
    65280
370
    40
100
AcDbVertex
100
AcDb2dVertex
 10
53.00390742397538
 20
154.83136737962
 30
0.0
  0
SEQEND
  5
19F
330
19C
100
AcDbEntity
  8
AM_0
 62
     3
420
    65280
370
    40
  0
ENDBLK
  5
19B
330
198
100
AcDbEntity
  8
0
100
AcDbBlockEnd
  0
BLOCK
  5
1A2
330
1A0
100
AcDbEntity
  8
0
100
AcDbBlockBegin
  2
block 48
 70
     0
 10
0.0
 20
0.0
 30
0.0
  3
block 48
  1

  0
SPLINE
  5
1A4
330
1A0
100
AcDbEntity
  8
AM_0
 62
     3
420
    65280
370
    40
100
AcDbSpline
210
0.0
220
0.0
230
1.0
 70
     8
 71
     3
 72
     8
 73
     4
 74
     0
 42
0.0000000001
 43
0.0000000001
 12
1.0
 22
0.0
 32
0.0
 13
1.0
 23
0.0
 33
0.0
 40
0.0
 40
0.0
 40
0.0
 40
0.0
 40
1.0
 40
1.0
 40
1.0
 40
1.0
 10
51.86383256430825
 20
156.0298701862731
 30
0.0
 10
51.86383256430825
 20
155.3904211567603
 30
0.0
 10
52.36525621015562
 20
154.863299940311
 30
0.0
 10
53.00390742397538
 20
154.8313673796194
 30
0.0
  0
ENDBLK
  5
1A3
330
1A0
100
AcDbEntity
  8
0
100
AcDbBlockEnd
  0
BLOCK
  5
1A7
330
1A5
100
AcDbEntity
  8
0
100
AcDbBlockBegin
  2
block 49
 70
     0
 10
0.0
 20
0.0
 30
0.0
  3
block 49
  1

  0
POLYLINE
  5
1A9
330
1A5
100
AcDbEntity
  8
AM_0
 62
     3
420
    65280
370
    40
100
AcDb2dPolyline
 66
     1
 10
0.0
 20
0.0
 30
0.0
  0
VERTEX
  5
1AA
330
1A9
100
AcDbEntity
  8
AM_0
 62
     3
420
    65280
370
    40
100
AcDbVertex
100
AcDb2dVertex
 10
52.86383256430828
 20
183.8733711226037
 30
0.0
  0
VERTEX
  5
1AB
330
1A9
100
AcDbEntity
  8
AM_0
 62
     3
420
    65280
370
    40
100
AcDbVertex
100
AcDb2dVertex
 10
52.86383256430828
 20
186.5825639407014
 30
0.0
  0
SEQEND
  5
1AC
330
1A9
100
AcDbEntity
  8
AM_0
 62
     3
420
    65280
370
    40
  0
ENDBLK
  5
1A8
330
1A5
100
AcDbEntity
  8
0
100
AcDbBlockEnd
  0
BLOCK
  5
1AF
330
1AD
100
AcDbEntity
  8
0
100
AcDbBlockBegin
  2
block 50
 70
     0
 10
0.0
 20
0.0
 30
0.0
  3
block 50
  1

  0
POLYLINE
  5
1B1
330
1AD
100
AcDbEntity
  8
AM_0
 62
     3
420
    65280
370
    40
100
AcDb2dPolyline
 66
     1
 10
0.0
 20
0.0
 30
0.0
  0
VERTEX
  5
1B2
330
1B1
100
AcDbEntity
  8
AM_0
 62
     3
420
    65280
370
    40
100
AcDbVertex
100
AcDb2dVertex
 10
57.86383256430813
 20
167.9011381322038
 30
0.0
  0
VERTEX
  5
1B3
330
1B1
100
AcDbEntity
  8
AM_0
 62
     3
420
    65280
370
    40
100
AcDbVertex
100
AcDb2dVertex
 10
57.86383256430813
 20
187.3056041130033
 30
0.0
  0
SEQEND
  5
1B4
330
1B1
100
AcDbEntity
  8
AM_0
 62
     3
420
    65280
370
    40
  0
ENDBLK
  5
1B0
330
1AD
100
AcDbEntity
  8
0
100
AcDbBlockEnd
  0
BLOCK
  5
1B7
330
1B5
100
AcDbEntity
  8
0
100
AcDbBlockBegin
  2
block 51
 70
     0
 10
0.0
 20
0.0
 30
0.0
  3
block 51
  1

  0
POLYLINE
  5
1B9
330
1B5
100
AcDbEntity
  8
AM_0
 62
     3
420
    65280
370
    40
100
AcDb2dPolyline
 66
     1
 10
0.0
 20
0.0
 30
0.0
  0
VERTEX
  5
1BA
330
1B9
100
AcDbEntity
  8
AM_0
 62
     3
420
    65280
370
    40
100
AcDbVertex
100
AcDb2dVertex
 10
52.86383256430828
 20
183.8733711226037
 30
0.0
  0
VERTEX
  5
1BB
330
1B9
100
AcDbEntity
  8
AM_0
 62
     3
420
    65280
370
    40
100
AcDbVertex
100
AcDb2dVertex
 10
51.86383256430825
 20
184.8733711226037
 30
0.0
  0
SEQEND
  5
1BC
330
1B9
100
AcDbEntity
  8
AM_0
 62
     3
420
    65280
370
    40
  0
ENDBLK
  5
1B8
330
1B5
100
AcDbEntity
  8
0
100
AcDbBlockEnd
  0
BLOCK
  5
1BF
330
1BD
100
AcDbEntity
  8
0
100
AcDbBlockBegin
  2
block 52
 70
     0
 10
0.0
 20
0.0
 30
0.0
  3
block 52
  1

  0
POLYLINE
  5
1C1
330
1BD
100
AcDbEntity
  8
AM_0
 62
     3
420
    65280
370
    40
100
AcDb2dPolyline
 66
     1
 10
0.0
 20
0.0
 30
0.0
  0
VERTEX
  5
1C2
330
1C1
100
AcDbEntity
  8
AM_0
 62
     3
420
    65280
370
    40
100
AcDbVertex
100
AcDb2dVertex
 10
51.86383256430825
 20
188.6103836600728
 30
0.0
  0
VERTEX
  5
1C3
330
1C1
100
AcDbEntity
  8
AM_0
 62
     3
420
    65280
370
    40
100
AcDbVertex
100
AcDb2dVertex
 10
52.86383256430828
 20
186.5825639407014
 30
0.0
  0
SEQEND
  5
1C4
330
1C1
100
AcDbEntity
  8
AM_0
 62
     3
420
    65280
370
    40
  0
ENDBLK
  5
1C0
330
1BD
100
AcDbEntity
  8
0
100
AcDbBlockEnd
  0
BLOCK
  5
1C7
330
1C5
100
AcDbEntity
  8
0
100
AcDbBlockBegin
  2
block 53
 70
     0
 10
0.0
 20
0.0
 30
0.0
  3
block 53
  1

  0
POLYLINE
  5
1C9
330
1C5
100
AcDbEntity
  8
AM_0
 62
     3
420
    65280
370
    40
100
AcDb2dPolyline
 66
     1
 10
0.0
 20
0.0
 30
0.0
  0
VERTEX
  5
1CA
330
1C9
100
AcDbEntity
  8
AM_0
 62
     3
420
    65280
370
    40
100
AcDbVertex
100
AcDb2dVertex
 10
52.86383256430828
 20
186.5825639407014
 30
0.0
  0
VERTEX
  5
1CB
330
1C9
100
AcDbEntity
  8
AM_0
 62
     3
420
    65280
370
    40
100
AcDbVertex
100
AcDb2dVertex
 10
57.86383256430813
 20
187.3056041130033
 30
0.0
  0
SEQEND
  5
1CC
330
1C9
100
AcDbEntity
  8
AM_0
 62
     3
420
    65280
370
    40
  0
ENDBLK
  5
1C8
330
1C5
100
AcDbEntity
  8
0
100
AcDbBlockEnd
  0
BLOCK
  5
1CF
330
1CD
100
AcDbEntity
  8
0
100
AcDbBlockBegin
  2
block 54
 70
     0
 10
0.0
 20
0.0
 30
0.0
  3
block 54
  1

  0
POLYLINE
  5
1D1
330
1CD
100
AcDbEntity
  8
AM_0
 62
     3
420
    65280
370
    40
100
AcDb2dPolyline
 66
     1
 10
0.0
 20
0.0
 30
0.0
  0
VERTEX
  5
1D2
330
1D1
100
AcDbEntity
  8
AM_0
 62
     3
420
    65280
370
    40
100
AcDbVertex
100
AcDb2dVertex
 10
56.36383256430808
 20
183.8733711226037
 30
0.0
  0
VERTEX
  5
1D3
330
1D1
100
AcDbEntity
  8
AM_0
 62
     3
420
    65280
370
    40
100
AcDbVertex
100
AcDb2dVertex
 10
52.86383256430828
 20
183.8733711226037
 30
0.0
  0
SEQEND
  5
1D4
330
1D1
100
AcDbEntity
  8
AM_0
 62
     3
420
    65280
370
    40
  0
ENDBLK
  5
1D0
330
1CD
100
AcDbEntity
  8
0
100
AcDbBlockEnd
  0
BLOCK
  5
1D7
330
1D5
100
AcDbEntity
  8
0
100
AcDbBlockBegin
  2
block 55
 70
     0
 10
0.0
 20
0.0
 30
0.0
  3
block 55
  1

  0
SPLINE
  5
1D9
330
1D5
100
AcDbEntity
  8
AM_0
 62
     3
420
    65280
370
    40
100
AcDbSpline
210
0.0
220
0.0
230
1.0
 70
     8
 71
     3
 72
     8
 73
     4
 74
     0
 42
0.0000000001
 43
0.0000000001
 12
1.0
 22
0.0
 32
0.0
 13
1.0
 23
0.0
 33
0.0
 40
0.0
 40
0.0
 40
0.0
 40
0.0
 40
1.0
 40
1.0
 40
1.0
 40
1.0
 10
57.86383256430813
 20
182.3733711226036
 30
0.0
 10
57.86383256430813
 20
183.2017982473494
 30
0.0
 10
57.19225968905388
 20
183.8733711226037
 30
0.0
 10
56.36383256430808
 20
183.8733711226037
 30
0.0
  0
ENDBLK
  5
1D8
330
1D5
100
AcDbEntity
  8
0
100
AcDbBlockEnd
  0
BLOCK
  5
1DC
330
1DA
100
AcDbEntity
  8
0
100
AcDbBlockBegin
  2
block 56
 70
     0
 10
0.0
 20
0.0
 30
0.0
  3
block 56
  1

  0
POLYLINE
  5
1DE
330
1DA
100
AcDbEntity
  8
AM_0
 62
     3
420
    65280
370
    40
100
AcDb2dPolyline
 66
     1
 10
0.0
 20
0.0
 30
0.0
  0
VERTEX
  5
1DF
330
1DE
100
AcDbEntity
  8
AM_0
 62
     3
420
    65280
370
    40
100
AcDbVertex
100
AcDb2dVertex
 10
52.86383256430828
 20
171.3333711226034
 30
0.0
  0
VERTEX
  5
1E0
330
1DE
100
AcDbEntity
  8
AM_0
 62
     3
420
    65280
370
    40
100
AcDbVertex
100
AcDb2dVertex
 10
52.86383256430828
 20
168.6241783045057
 30
0.0
  0
SEQEND
  5
1E1
330
1DE
100
AcDbEntity
  8
AM_0
 62
     3
420
    65280
370
    40
  0
ENDBLK
  5
1DD
330
1DA
100
AcDbEntity
  8
0
100
AcDbBlockEnd
  0
BLOCK
  5
1E4
330
1E2
100
AcDbEntity
  8
0
100
AcDbBlockBegin
  2
block 57
 70
     0
 10
0.0
 20
0.0
 30
0.0
  3
block 57
  1

  0
POLYLINE
  5
1E6
330
1E2
100
AcDbEntity
  8
AM_0
 62
     3
420
    65280
370
    40
100
AcDb2dPolyline
 66
     1
 10
0.0
 20
0.0
 30
0.0
  0
VERTEX
  5
1E7
330
1E6
100
AcDbEntity
  8
AM_0
 62
     3
420
    65280
370
    40
100
AcDbVertex
100
AcDb2dVertex
 10
52.86383256430828
 20
171.3333711226034
 30
0.0
  0
VERTEX
  5
1E8
330
1E6
100
AcDbEntity
  8
AM_0
 62
     3
420
    65280
370
    40
100
AcDbVertex
100
AcDb2dVertex
 10
51.86383256430825
 20
170.3333711226034
 30
0.0
  0
SEQEND
  5
1E9
330
1E6
100
AcDbEntity
  8
AM_0
 62
     3
420
    65280
370
    40
  0
ENDBLK
  5
1E5
330
1E2
100
AcDbEntity
  8
0
100
AcDbBlockEnd
  0
BLOCK
  5
1EC
330
1EA
100
AcDbEntity
  8
0
100
AcDbBlockBegin
  2
block 58
 70
     0
 10
0.0
 20
0.0
 30
0.0
  3
block 58
  1

  0
POLYLINE
  5
1EE
330
1EA
100
AcDbEntity
  8
AM_0
 62
     3
420
    65280
370
    40
100
AcDb2dPolyline
 66
     1
 10
0.0
 20
0.0
 30
0.0
  0
VERTEX
  5
1EF
330
1EE
100
AcDbEntity
  8
AM_0
 62
     3
420
    65280
370
    40
100
AcDbVertex
100
AcDb2dVertex
 10
51.86383256430825
 20
166.5963585851343
 30
0.0
  0
VERTEX
  5
1F0
330
1EE
100
AcDbEntity
  8
AM_0
 62
     3
420
    65280
370
    40
100
AcDbVertex
100
AcDb2dVertex
 10
52.86383256430828
 20
168.6241783045057
 30
0.0
  0
SEQEND
  5
1F1
330
1EE
100
AcDbEntity
  8
AM_0
 62
     3
420
    65280
370
    40
  0
ENDBLK
  5
1ED
330
1EA
100
AcDbEntity
  8
0
100
AcDbBlockEnd
  0
BLOCK
  5
1F4
330
1F2
100
AcDbEntity
  8
0
100
AcDbBlockBegin
  2
block 59
 70
     0
 10
0.0
 20
0.0
 30
0.0
  3
block 59
  1

  0
POLYLINE
  5
1F6
330
1F2
100
AcDbEntity
  8
AM_0
 62
     3
420
    65280
370
    40
100
AcDb2dPolyline
 66
     1
 10
0.0
 20
0.0
 30
0.0
  0
VERTEX
  5
1F7
330
1F6
100
AcDbEntity
  8
AM_0
 62
     3
420
    65280
370
    40
100
AcDbVertex
100
AcDb2dVertex
 10
52.86383256430828
 20
168.6241783045057
 30
0.0
  0
VERTEX
  5
1F8
330
1F6
100
AcDbEntity
  8
AM_0
 62
     3
420
    65280
370
    40
100
AcDbVertex
100
AcDb2dVertex
 10
57.86383256430813
 20
167.9011381322038
 30
0.0
  0
SEQEND
  5
1F9
330
1F6
100
AcDbEntity
  8
AM_0
 62
     3
420
    65280
370
    40
  0
ENDBLK
  5
1F5
330
1F2
100
AcDbEntity
  8
0
100
AcDbBlockEnd
  0
BLOCK
  5
1FC
330
1FA
100
AcDbEntity
  8
0
100
AcDbBlockBegin
  2
block 60
 70
     0
 10
0.0
 20
0.0
 30
0.0
  3
block 60
  1

  0
POLYLINE
  5
1FE
330
1FA
100
AcDbEntity
  8
AM_0
 62
     3
420
    65280
370
    40
100
AcDb2dPolyline
 66
     1
 10
0.0
 20
0.0
 30
0.0
  0
VERTEX
  5
1FF
330
1FE
100
AcDbEntity
  8
AM_0
 62
     3
420
    65280
370
    40
100
AcDbVertex
100
AcDb2dVertex
 10
56.36383256430808
 20
171.3333711226034
 30
0.0
  0
VERTEX
  5
200
330
1FE
100
AcDbEntity
  8
AM_0
 62
     3
420
    65280
370
    40
100
AcDbVertex
100
AcDb2dVertex
 10
52.86383256430828
 20
171.3333711226034
 30
0.0
  0
SEQEND
  5
201
330
1FE
100
AcDbEntity
  8
AM_0
 62
     3
420
    65280
370
    40
  0
ENDBLK
  5
1FD
330
1FA
100
AcDbEntity
  8
0
100
AcDbBlockEnd
  0
BLOCK
  5
204
330
202
100
AcDbEntity
  8
0
100
AcDbBlockBegin
  2
block 61
 70
     0
 10
0.0
 20
0.0
 30
0.0
  3
block 61
  1

  0
SPLINE
  5
206
330
202
100
AcDbEntity
  8
AM_0
 62
     3
420
    65280
370
    40
100
AcDbSpline
210
0.0
220
0.0
230
1.0
 70
     8
 71
     3
 72
     8
 73
     4
 74
     0
 42
0.0000000001
 43
0.0000000001
 12
1.0
 22
0.0
 32
0.0
 13
1.0
 23
0.0
 33
0.0
 40
0.0
 40
0.0
 40
0.0
 40
0.0
 40
1.0
 40
1.0
 40
1.0
 40
1.0
 10
56.36383256430808
 20
171.3333711226034
 30
0.0
 10
57.19225968905388
 20
171.3333711226034
 30
0.0
 10
57.86383256430813
 20
172.0049439978567
 30
0.0
 10
57.86383256430813
 20
172.8333711226035
 30
0.0
  0
ENDBLK
  5
205
330
202
100
AcDbEntity
  8
0
100
AcDbBlockEnd
  0
BLOCK
  5
209
330
207
100
AcDbEntity
  8
0
100
AcDbBlockBegin
  2
block 62
 70
     0
 10
0.0
 20
0.0
 30
0.0
  3
block 62
  1

  0
SPLINE
  5
20B
330
207
100
AcDbEntity
  8
AM_0
 62
     3
420
    65280
370
    40
100
AcDbSpline
210
0.0
220
0.0
230
1.0
 70
    11
 71
     3
 72
    17
 73
    13
 74
     0
 42
0.0000000001
 43
0.0000000001
 12
1.0
 22
0.0
 32
0.0
 13
1.0
 23
0.0
 33
0.0
 40
0.0
 40
0.0
 40
0.0
 40
0.0
 40
1.0
 40
1.0
 40
1.0
 40
2.0
 40
2.0
 40
2.0
 40
3.0
 40
3.0
 40
3.0
 40
4.0
 40
4.0
 40
4.0
 40
4.0
 10
71.11383256430813
 20
177.6033711226029
 30
0.0
 10
71.11383256430813
 20
179.6744389344688
 30
0.0
 10
72.7927647524425
 20
181.3533711226032
 30
0.0
 10
74.8638325643081
 20
181.3533711226032
 30
0.0
 10
76.93490037617401
 20
181.3533711226032
 30
0.0
 10
78.61383256430807
 20
179.6744389344688
 30
0.0
 10
78.61383256430807
 20
177.6033711226029
 30
0.0
 10
78.61383256430807
 20
175.5323033107383
 30
0.0
 10
76.93490037617401
 20
173.8533711226029
 30
0.0
 10
74.8638325643081
 20
173.8533711226029
 30
0.0
 10
72.7927647524425
 20
173.8533711226029
 30
0.0
 10
71.11383256430813
 20
175.5323033107383
 30
0.0
 10
71.11383256430813
 20
177.6033711226029
 30
0.0
  0
ENDBLK
  5
20A
330
207
100
AcDbEntity
  8
0
100
AcDbBlockEnd
  0
BLOCK
  5
20E
330
20C
100
AcDbEntity
  8
0
100
AcDbBlockBegin
  2
block 63
 70
     0
 10
0.0
 20
0.0
 30
0.0
  3
block 63
  1

  0
POLYLINE
  5
210
330
20C
100
AcDbEntity
  8
AM_0
 62
     3
420
    65280
370
    40
100
AcDb2dPolyline
 66
     1
 10
0.0
 20
0.0
 30
0.0
  0
VERTEX
  5
211
330
210
100
AcDbEntity
  8
AM_0
 62
     3
420
    65280
370
    40
100
AcDbVertex
100
AcDb2dVertex
 10
110.8638325643103
 20
193.6033784702917
 30
0.0
  0
VERTEX
  5
212
330
210
100
AcDbEntity
  8
AM_0
 62
     3
420
    65280
370
    40
100
AcDbVertex
100
AcDb2dVertex
 10
110.8638325643296
 20
161.6033711225988
 30
0.0
  0
SEQEND
  5
213
330
210
100
AcDbEntity
  8
AM_0
 62
     3
420
    65280
370
    40
  0
ENDBLK
  5
20F
330
20C
100
AcDbEntity
  8
0
100
AcDbBlockEnd
  0
BLOCK
  5
216
330
214
100
AcDbEntity
  8
0
100
AcDbBlockBegin
  2
block 64
 70
     0
 10
0.0
 20
0.0
 30
0.0
  3
block 64
  1

  0
POLYLINE
  5
218
330
214
100
AcDbEntity
  8
AM_0
 62
     3
420
    65280
370
    40
100
AcDb2dPolyline
 66
     1
 10
0.0
 20
0.0
 30
0.0
  0
VERTEX
  5
219
330
218
100
AcDbEntity
  8
AM_0
 62
     3
420
    65280
370
    40
100
AcDbVertex
100
AcDb2dVertex
 10
157.0138325643086
 20
188.6033711225994
 30
0.0
  0
VERTEX
  5
21A
330
218
100
AcDbEntity
  8
AM_0
 62
     3
420
    65280
370
    40
100
AcDbVertex
100
AcDb2dVertex
 10
154.1138325642536
 20
188.6033711225994
 30
0.0
  0
SEQEND
  5
21B
330
218
100
AcDbEntity
  8
AM_0
 62
     3
420
    65280
370
    40
  0
ENDBLK
  5
217
330
214
100
AcDbEntity
  8
0
100
AcDbBlockEnd
  0
BLOCK
  5
21E
330
21C
100
AcDbEntity
  8
0
100
AcDbBlockBegin
  2
block 65
 70
     0
 10
0.0
 20
0.0
 30
0.0
  3
block 65
  1

  0
POLYLINE
  5
220
330
21C
100
AcDbEntity
  8
AM_0
 62
     3
420
    65280
370
    40
100
AcDb2dPolyline
 66
     1
 10
0.0
 20
0.0
 30
0.0
  0
VERTEX
  5
221
330
220
100
AcDbEntity
  8
AM_0
 62
     3
420
    65280
370
    40
100
AcDbVertex
100
AcDb2dVertex
 10
112.3638325642478
 20
192.6033711225992
 30
0.0
  0
VERTEX
  5
222
330
220
100
AcDbEntity
  8
AM_0
 62
     3
420
    65280
370
    40
100
AcDbVertex
100
AcDb2dVertex
 10
111.8638325643161
 20
192.6033711225992
 30
0.0
  0
SEQEND
  5
223
330
220
100
AcDbEntity
  8
AM_0
 62
     3
420
    65280
370
    40
  0
ENDBLK
  5
21F
330
21C
100
AcDbEntity
  8
0
100
AcDbBlockEnd
  0
BLOCK
  5
226
330
224
100
AcDbEntity
  8
0
100
AcDbBlockBegin
  2
block 66
 70
     0
 10
0.0
 20
0.0
 30
0.0
  3
block 66
  1

  0
POLYLINE
  5
228
330
224
100
AcDbEntity
  8
AM_0
 62
     3
420
    65280
370
    40
100
AcDb2dPolyline
 66
     1
 10
0.0
 20
0.0
 30
0.0
  0
VERTEX
  5
229
330
228
100
AcDbEntity
  8
AM_0
 62
     3
420
    65280
370
    40
100
AcDbVertex
100
AcDb2dVertex
 10
157.0138325643086
 20
166.6033711226067
 30
0.0
  0
VERTEX
  5
22A
330
228
100
AcDbEntity
  8
AM_0
 62
     3
420
    65280
370
    40
100
AcDbVertex
100
AcDb2dVertex
 10
154.1138325642568
 20
166.6033711226067
 30
0.0
  0
SEQEND
  5
22B
330
228
100
AcDbEntity
  8
AM_0
 62
     3
420
    65280
370
    40
  0
ENDBLK
  5
227
330
224
100
AcDbEntity
  8
0
100
AcDbBlockEnd
  0
BLOCK
  5
22E
330
22C
100
AcDbEntity
  8
0
100
AcDbBlockBegin
  2
block 67
 70
     0
 10
0.0
 20
0.0
 30
0.0
  3
block 67
  1

  0
POLYLINE
  5
230
330
22C
100
AcDbEntity
  8
AM_0
 62
     3
420
    65280
370
    40
100
AcDb2dPolyline
 66
     1
 10
0.0
 20
0.0
 30
0.0
  0
VERTEX
  5
231
330
230
100
AcDbEntity
  8
AM_0
 62
     3
420
    65280
370
    40
100
AcDbVertex
100
AcDb2dVertex
 10
112.3638325642478
 20
162.6033711225969
 30
0.0
  0
VERTEX
  5
232
330
230
100
AcDbEntity
  8
AM_0
 62
     3
420
    65280
370
    40
100
AcDbVertex
100
AcDb2dVertex
 10
111.8638325643187
 20
162.6033711225969
 30
0.0
  0
SEQEND
  5
233
330
230
100
AcDbEntity
  8
AM_0
 62
     3
420
    65280
370
    40
  0
ENDBLK
  5
22F
330
22C
100
AcDbEntity
  8
0
100
AcDbBlockEnd
  0
BLOCK
  5
236
330
234
100
AcDbEntity
  8
0
100
AcDbBlockBegin
  2
block 68
 70
     0
 10
0.0
 20
0.0
 30
0.0
  3
block 68
  1

  0
POLYLINE
  5
238
330
234
100
AcDbEntity
  8
AM_0
 62
     3
420
    65280
370
    40
100
AcDb2dPolyline
 66
     1
 10
0.0
 20
0.0
 30
0.0
  0
VERTEX
  5
239
330
238
100
AcDbEntity
  8
AM_0
 62
     3
420
    65280
370
    40
100
AcDbVertex
100
AcDb2dVertex
 10
111.8638325643065
 20
192.6033711226086
 30
0.0
  0
VERTEX
  5
23A
330
238
100
AcDbEntity
  8
AM_0
 62
     3
420
    65280
370
    40
100
AcDbVertex
100
AcDb2dVertex
 10
110.8638325643071
 20
193.6033711226086
 30
0.0
  0
SEQEND
  5
23B
330
238
100
AcDbEntity
  8
AM_0
 62
     3
420
    65280
370
    40
  0
ENDBLK
  5
237
330
234
100
AcDbEntity
  8
0
100
AcDbBlockEnd
  0
BLOCK
  5
23E
330
23C
100
AcDbEntity
  8
0
100
AcDbBlockBegin
  2
block 69
 70
     0
 10
0.0
 20
0.0
 30
0.0
  3
block 69
  1

  0
POLYLINE
  5
240
330
23C
100
AcDbEntity
  8
AM_0
 62
     3
420
    65280
370
    40
100
AcDb2dPolyline
 66
     1
 10
0.0
 20
0.0
 30
0.0
  0
VERTEX
  5
241
330
240
100
AcDbEntity
  8
AM_0
 62
     3
420
    65280
370
    40
100
AcDbVertex
100
AcDb2dVertex
 10
111.8638325643232
 20
162.6033711225995
 30
0.0
  0
VERTEX
  5
242
330
240
100
AcDbEntity
  8
AM_0
 62
     3
420
    65280
370
    40
100
AcDbVertex
100
AcDb2dVertex
 10
110.8638325643244
 20
161.6033711225988
 30
0.0
  0
SEQEND
  5
243
330
240
100
AcDbEntity
  8
AM_0
 62
     3
420
    65280
370
    40
  0
ENDBLK
  5
23F
330
23C
100
AcDbEntity
  8
0
100
AcDbBlockEnd
  0
BLOCK
  5
246
330
244
100
AcDbEntity
  8
0
100
AcDbBlockBegin
  2
block 70
 70
     0
 10
0.0
 20
0.0
 30
0.0
  3
block 70
  1

  0
POLYLINE
  5
248
330
244
100
AcDbEntity
  8
AM_0
 62
     3
420
    65280
370
    40
100
AcDb2dPolyline
 66
     1
 10
0.0
 20
0.0
 30
0.0
  0
VERTEX
  5
249
330
248
100
AcDbEntity
  8
AM_0
 62
     3
420
    65280
370
    40
100
AcDbVertex
100
AcDb2dVertex
 10
111.8638325643161
 20
192.6033711225992
 30
0.0
  0
VERTEX
  5
24A
330
248
100
AcDbEntity
  8
AM_0
 62
     3
420
    65280
370
    40
100
AcDbVertex
100
AcDb2dVertex
 10
111.8638325643232
 20
162.6033711225995
 30
0.0
  0
SEQEND
  5
24B
330
248
100
AcDbEntity
  8
AM_0
 62
     3
420
    65280
370
    40
  0
ENDBLK
  5
247
330
244
100
AcDbEntity
  8
0
100
AcDbBlockEnd
  0
BLOCK
  5
24E
330
24C
100
AcDbEntity
  8
0
100
AcDbBlockBegin
  2
block 71
 70
     0
 10
0.0
 20
0.0
 30
0.0
  3
block 71
  1

  0
POLYLINE
  5
250
330
24C
100
AcDbEntity
  8
AM_0
 62
     3
420
    65280
370
    40
100
AcDb2dPolyline
 66
     1
 10
0.0
 20
0.0
 30
0.0
  0
VERTEX
  5
251
330
250
100
AcDbEntity
  8
AM_0
 62
     3
420
    65280
370
    40
100
AcDbVertex
100
AcDb2dVertex
 10
157.0138325643086
 20
188.6033711225994
 30
0.0
  0
VERTEX
  5
252
330
250
100
AcDbEntity
  8
AM_0
 62
     3
420
    65280
370
    40
100
AcDbVertex
100
AcDb2dVertex
 10
154.1138325642536
 20
188.6033711225994
 30
0.0
  0
SEQEND
  5
253
330
250
100
AcDbEntity
  8
AM_0
 62
     3
420
    65280
370
    40
  0
ENDBLK
  5
24F
330
24C
100
AcDbEntity
  8
0
100
AcDbBlockEnd
  0
BLOCK
  5
256
330
254
100
AcDbEntity
  8
0
100
AcDbBlockBegin
  2
block 72
 70
     0
 10
0.0
 20
0.0
 30
0.0
  3
block 72
  1

  0
POLYLINE
  5
258
330
254
100
AcDbEntity
  8
AM_0
 62
     3
420
    65280
370
    40
100
AcDb2dPolyline
 66
     1
 10
0.0
 20
0.0
 30
0.0
  0
VERTEX
  5
259
330
258
100
AcDbEntity
  8
AM_0
 62
     3
420
    65280
370
    40
100
AcDbVertex
100
AcDb2dVertex
 10
157.0138325643086
 20
166.6033711226067
 30
0.0
  0
VERTEX
  5
25A
330
258
100
AcDbEntity
  8
AM_0
 62
     3
420
    65280
370
    40
100
AcDbVertex
100
AcDb2dVertex
 10
154.1138325642568
 20
166.6033711226067
 30
0.0
  0
SEQEND
  5
25B
330
258
100
AcDbEntity
  8
AM_0
 62
     3
420
    65280
370
    40
  0
ENDBLK
  5
257
330
254
100
AcDbEntity
  8
0
100
AcDbBlockEnd
  0
BLOCK
  5
25E
330
25C
100
AcDbEntity
  8
0
100
AcDbBlockBegin
  2
block 73
 70
     0
 10
0.0
 20
0.0
 30
0.0
  3
block 73
  1

  0
POLYLINE
  5
260
330
25C
100
AcDbEntity
  8
AM_0
 62
     3
420
    65280
370
    40
100
AcDb2dPolyline
 66
     1
 10
0.0
 20
0.0
 30
0.0
  0
VERTEX
  5
261
330
260
100
AcDbEntity
  8
AM_0
 62
     3
420
    65280
370
    40
100
AcDbVertex
100
AcDb2dVertex
 10
158.0138325643073
 20
193.6147154290778
 30
0.0
  0
VERTEX
  5
262
330
260
100
AcDbEntity
  8
AM_0
 62
     3
420
    65280
370
    40
100
AcDbVertex
100
AcDb2dVertex
 10
168.7138325643093
 20
193.6147154290778
 30
0.0
  0
SEQEND
  5
263
330
260
100
AcDbEntity
  8
AM_0
 62
     3
420
    65280
370
    40
  0
ENDBLK
  5
25F
330
25C
100
AcDbEntity
  8
0
100
AcDbBlockEnd
  0
BLOCK
  5
266
330
264
100
AcDbEntity
  8
0
100
AcDbBlockBegin
  2
block 74
 70
     0
 10
0.0
 20
0.0
 30
0.0
  3
block 74
  1

  0
SPLINE
  5
268
330
264
100
AcDbEntity
  8
AM_0
 62
     3
420
    65280
370
    40
100
AcDbSpline
210
0.0
220
0.0
230
1.0
 70
     8
 71
     3
 72
     8
 73
     4
 74
     0
 42
0.0000000001
 43
0.0000000001
 12
1.0
 22
0.0
 32
0.0
 13
1.0
 23
0.0
 33
0.0
 40
0.0
 40
0.0
 40
0.0
 40
0.0
 40
1.0
 40
1.0
 40
1.0
 40
1.0
 10
158.0138325643073
 20
193.6147154290778
 30
0.0
 10
157.461547814477
 20
193.6147154290778
 30
0.0
 10
157.0138325643086
 20
193.1670001789084
 30
0.0
 10
157.0138325643086
 20
192.6147154290777
 30
0.0
  0
ENDBLK
  5
267
330
264
100
AcDbEntity
  8
0
100
AcDbBlockEnd
  0
BLOCK
  5
26B
330
269
100
AcDbEntity
  8
0
100
AcDbBlockBegin
  2
block 75
 70
     0
 10
0.0
 20
0.0
 30
0.0
  3
block 75
  1

  0
POLYLINE
  5
26D
330
269
100
AcDbEntity
  8
AM_0
 62
     3
420
    65280
370
    40
100
AcDb2dPolyline
 66
     1
 10
0.0
 20
0.0
 30
0.0
  0
VERTEX
  5
26E
330
26D
100
AcDbEntity
  8
AM_0
 62
     3
420
    65280
370
    40
100
AcDbVertex
100
AcDb2dVertex
 10
168.7138325643093
 20
161.6147154290776
 30
0.0
  0
VERTEX
  5
26F
330
26D
100
AcDbEntity
  8
AM_0
 62
     3
420
    65280
370
    40
100
AcDbVertex
100
AcDb2dVertex
 10
158.0138325643073
 20
161.6147154290776
 30
0.0
  0
SEQEND
  5
270
330
26D
100
AcDbEntity
  8
AM_0
 62
     3
420
    65280
370
    40
  0
ENDBLK
  5
26C
330
269
100
AcDbEntity
  8
0
100
AcDbBlockEnd
  0
BLOCK
  5
273
330
271
100
AcDbEntity
  8
0
100
AcDbBlockBegin
  2
block 76
 70
     0
 10
0.0
 20
0.0
 30
0.0
  3
block 76
  1

  0
POLYLINE
  5
275
330
271
100
AcDbEntity
  8
AM_0
 62
     3
420
    65280
370
    40
100
AcDb2dPolyline
 66
     1
 10
0.0
 20
0.0
 30
0.0
  0
VERTEX
  5
276
330
275
100
AcDbEntity
  8
AM_0
 62
     3
420
    65280
370
    40
100
AcDbVertex
100
AcDb2dVertex
 10
157.0138325643086
 20
162.6147154290776
 30
0.0
  0
VERTEX
  5
277
330
275
100
AcDbEntity
  8
AM_0
 62
     3
420
    65280
370
    40
100
AcDbVertex
100
AcDb2dVertex
 10
157.0138325643086
 20
192.6147154290777
 30
0.0
  0
SEQEND
  5
278
330
275
100
AcDbEntity
  8
AM_0
 62
     3
420
    65280
370
    40
  0
ENDBLK
  5
274
330
271
100
AcDbEntity
  8
0
100
AcDbBlockEnd
  0
BLOCK
  5
27B
330
279
100
AcDbEntity
  8
0
100
AcDbBlockBegin
  2
block 77
 70
     0
 10
0.0
 20
0.0
 30
0.0
  3
block 77
  1

  0
SPLINE
  5
27D
330
279
100
AcDbEntity
  8
AM_0
 62
     3
420
    65280
370
    40
100
AcDbSpline
210
0.0
220
0.0
230
1.0
 70
     8
 71
     3
 72
     8
 73
     4
 74
     0
 42
0.0000000001
 43
0.0000000001
 12
1.0
 22
0.0
 32
0.0
 13
1.0
 23
0.0
 33
0.0
 40
0.0
 40
0.0
 40
0.0
 40
0.0
 40
1.0
 40
1.0
 40
1.0
 40
1.0
 10
157.0138325643086
 20
162.6147154290776
 30
0.0
 10
157.0138325643086
 20
162.062430679246
 30
0.0
 10
157.461547814477
 20
161.6147154290776
 30
0.0
 10
158.0138325643073
 20
161.6147154290776
 30
0.0
  0
ENDBLK
  5
27C
330
279
100
AcDbEntity
  8
0
100
AcDbBlockEnd
  0
BLOCK
  5
280
330
27E
100
AcDbEntity
  8
0
100
AcDbBlockBegin
  2
block 78
 70
     0
 10
0.0
 20
0.0
 30
0.0
  3
block 78
  1

  0
POLYLINE
  5
282
330
27E
100
AcDbEntity
  8
AM_0
 62
     3
420
    65280
370
    40
100
AcDb2dPolyline
 66
     1
 10
0.0
 20
0.0
 30
0.0
  0
VERTEX
  5
283
330
282
100
AcDbEntity
  8
AM_0
 62
     3
420
    65280
370
    40
100
AcDbVertex
100
AcDb2dVertex
 10
174.2138325643092
 20
190.9766180764595
 30
0.0
  0
VERTEX
  5
284
330
282
100
AcDbEntity
  8
AM_0
 62
     3
420
    65280
370
    40
100
AcDbVertex
100
AcDb2dVertex
 10
174.2138325643092
 20
164.2528127816965
 30
0.0
  0
SEQEND
  5
285
330
282
100
AcDbEntity
  8
AM_0
 62
     3
420
    65280
370
    40
  0
ENDBLK
  5
281
330
27E
100
AcDbEntity
  8
0
100
AcDbBlockEnd
  0
BLOCK
  5
288
330
286
100
AcDbEntity
  8
0
100
AcDbBlockBegin
  2
block 79
 70
     0
 10
0.0
 20
0.0
 30
0.0
  3
block 79
  1

  0
SPLINE
  5
28A
330
286
100
AcDbEntity
  8
AM_0
 62
     3
420
    65280
370
    40
100
AcDbSpline
210
0.0
220
0.0
230
1.0
 70
     8
 71
     3
 72
     8
 73
     4
 74
     0
 42
0.0000000001
 43
0.0000000001
 12
1.0
 22
0.0
 32
0.0
 13
1.0
 23
0.0
 33
0.0
 40
0.0
 40
0.0
 40
0.0
 40
0.0
 40
1.0
 40
1.0
 40
1.0
 40
1.0
 10
173.8566897071649
 20
191.7426041689419
 30
0.0
 10
172.4158157007492
 20
192.9518639140881
 30
0.0
 10
170.5949032789788
 20
193.6147154290778
 30
0.0
 10
168.7138325643074
 20
193.6147154290778
 30
0.0
  0
ENDBLK
  5
289
330
286
100
AcDbEntity
  8
0
100
AcDbBlockEnd
  0
BLOCK
  5
28D
330
28B
100
AcDbEntity
  8
0
100
AcDbBlockBegin
  2
block 80
 70
     0
 10
0.0
 20
0.0
 30
0.0
  3
block 80
  1

  0
SPLINE
  5
28F
330
28B
100
AcDbEntity
  8
AM_0
 62
     3
420
    65280
370
    40
100
AcDbSpline
210
0.0
220
0.0
230
1.0
 70
     8
 71
     3
 72
     8
 73
     4
 74
     0
 42
0.0000000001
 43
0.0000000001
 12
1.0
 22
0.0
 32
0.0
 13
1.0
 23
0.0
 33
0.0
 40
0.0
 40
0.0
 40
0.0
 40
0.0
 40
1.0
 40
1.0
 40
1.0
 40
1.0
 10
174.2138325643092
 20
190.9766180764595
 30
0.0
 10
174.2138325643092
 20
191.2721792155093
 30
0.0
 10
174.0830854291549
 20
191.5526005795541
 30
0.0
 10
173.8566897071649
 20
191.7426041689425
 30
0.0
  0
ENDBLK
  5
28E
330
28B
100
AcDbEntity
  8
0
100
AcDbBlockEnd
  0
BLOCK
  5
292
330
290
100
AcDbEntity
  8
0
100
AcDbBlockBegin
  2
block 81
 70
     0
 10
0.0
 20
0.0
 30
0.0
  3
block 81
  1

  0
SPLINE
  5
294
330
290
100
AcDbEntity
  8
AM_0
 62
     3
420
    65280
370
    40
100
AcDbSpline
210
0.0
220
0.0
230
1.0
 70
     8
 71
     3
 72
     8
 73
     4
 74
     0
 42
0.0000000001
 43
0.0000000001
 12
1.0
 22
0.0
 32
0.0
 13
1.0
 23
0.0
 33
0.0
 40
0.0
 40
0.0
 40
0.0
 40
0.0
 40
1.0
 40
1.0
 40
1.0
 40
1.0
 10
168.7138325643093
 20
161.6147154290776
 30
0.0
 10
170.5949032789788
 20
161.6147154290776
 30
0.0
 10
172.4158157007492
 20
162.2775669440673
 30
0.0
 10
173.8566897071649
 20
163.4868266892132
 30
0.0
  0
ENDBLK
  5
293
330
290
100
AcDbEntity
  8
0
100
AcDbBlockEnd
  0
BLOCK
  5
297
330
295
100
AcDbEntity
  8
0
100
AcDbBlockBegin
  2
block 82
 70
     0
 10
0.0
 20
0.0
 30
0.0
  3
block 82
  1

  0
SPLINE
  5
299
330
295
100
AcDbEntity
  8
AM_0
 62
     3
420
    65280
370
    40
100
AcDbSpline
210
0.0
220
0.0
230
1.0
 70
     8
 71
     3
 72
     8
 73
     4
 74
     0
 42
0.0000000001
 43
0.0000000001
 12
1.0
 22
0.0
 32
0.0
 13
1.0
 23
0.0
 33
0.0
 40
0.0
 40
0.0
 40
0.0
 40
0.0
 40
1.0
 40
1.0
 40
1.0
 40
1.0
 10
173.8566897071649
 20
163.4868266892132
 30
0.0
 10
174.0830854291549
 20
163.6768302786016
 30
0.0
 10
174.2138325643079
 20
163.9572516426463
 30
0.0
 10
174.2138325643079
 20
164.2528127816965
 30
0.0
  0
ENDBLK
  5
298
330
295
100
AcDbEntity
  8
0
100
AcDbBlockEnd
  0
BLOCK
  5
29C
330
29A
100
AcDbEntity
  8
0
100
AcDbBlockBegin
  2
block 83
 70
     0
 10
0.0
 20
0.0
 30
0.0
  3
block 83
  1

  0
POLYLINE
  5
29E
330
29A
100
AcDbEntity
  8
AM_0
 62
     3
420
    65280
370
    40
100
AcDb2dPolyline
 66
     1
 10
0.0
 20
0.0
 30
0.0
  0
VERTEX
  5
29F
330
29E
100
AcDbEntity
  8
AM_0
 62
     3
420
    65280
370
    40
100
AcDbVertex
100
AcDb2dVertex
 10
154.1138325642568
 20
162.6033711226046
 30
0.0
  0
VERTEX
  5
2A0
330
29E
100
AcDbEntity
  8
AM_0
 62
     3
420
    65280
370
    40
100
AcDbVertex
100
AcDb2dVertex
 10
154.1138325642523
 20
192.6033711226012
 30
0.0
  0
SEQEND
  5
2A1
330
29E
100
AcDbEntity
  8
AM_0
 62
     3
420
    65280
370
    40
  0
ENDBLK
  5
29D
330
29A
100
AcDbEntity
  8
0
100
AcDbBlockEnd
  0
BLOCK
  5
2A4
330
2A2
100
AcDbEntity
  8
0
100
AcDbBlockBegin
  2
block 84
 70
     0
 10
0.0
 20
0.0
 30
0.0
  3
block 84
  1

  0
SPLINE
  5
2A6
330
2A2
100
AcDbEntity
  8
AM_0
 62
     3
420
    65280
370
    40
100
AcDbSpline
210
0.0
220
0.0
230
1.0
 70
     8
 71
     3
 72
     8
 73
     4
 74
     0
 42
0.0000000001
 43
0.0000000001
 12
1.0
 22
0.0
 32
0.0
 13
1.0
 23
0.0
 33
0.0
 40
0.0
 40
0.0
 40
0.0
 40
0.0
 40
1.0
 40
1.0
 40
1.0
 40
1.0
 10
153.1138325642574
 20
161.6033711226039
 30
0.0
 10
153.6661173140878
 20
161.6033711226039
 30
0.0
 10
154.1138325642568
 20
162.051086372773
 30
0.0
 10
154.1138325642568
 20
162.603371122604
 30
0.0
  0
ENDBLK
  5
2A5
330
2A2
100
AcDbEntity
  8
0
100
AcDbBlockEnd
  0
BLOCK
  5
2A9
330
2A7
100
AcDbEntity
  8
0
100
AcDbBlockBegin
  2
block 85
 70
     0
 10
0.0
 20
0.0
 30
0.0
  3
block 85
  1

  0
POLYLINE
  5
2AB
330
2A7
100
AcDbEntity
  8
AM_0
 62
     3
420
    65280
370
    40
100
AcDb2dPolyline
 66
     1
 10
0.0
 20
0.0
 30
0.0
  0
VERTEX
  5
2AC
330
2AB
100
AcDbEntity
  8
AM_0
 62
     3
420
    65280
370
    40
100
AcDbVertex
100
AcDb2dVertex
 10
112.6638325642482
 20
193.6033711226003
 30
0.0
  0
VERTEX
  5
2AD
330
2AB
100
AcDbEntity
  8
AM_0
 62
     3
420
    65280
370
    40
100
AcDbVertex
100
AcDb2dVertex
 10
153.1138325642523
 20
193.6033711226003
 30
0.0
  0
SEQEND
  5
2AE
330
2AB
100
AcDbEntity
  8
AM_0
 62
     3
420
    65280
370
    40
  0
ENDBLK
  5
2AA
330
2A7
100
AcDbEntity
  8
0
100
AcDbBlockEnd
  0
BLOCK
  5
2B1
330
2AF
100
AcDbEntity
  8
0
100
AcDbBlockBegin
  2
block 86
 70
     0
 10
0.0
 20
0.0
 30
0.0
  3
block 86
  1

  0
SPLINE
  5
2B3
330
2AF
100
AcDbEntity
  8
AM_0
 62
     3
420
    65280
370
    40
100
AcDbSpline
210
0.0
220
0.0
230
1.0
 70
     8
 71
     3
 72
     8
 73
     4
 74
     0
 42
0.0000000001
 43
0.0000000001
 12
1.0
 22
0.0
 32
0.0
 13
1.0
 23
0.0
 33
0.0
 40
0.0
 40
0.0
 40
0.0
 40
0.0
 40
1.0
 40
1.0
 40
1.0
 40
1.0
 10
154.1138325642523
 20
192.6033711226012
 30
0.0
 10
154.1138325642523
 20
193.1556558724318
 30
0.0
 10
153.6661173140839
 20
193.6033711226012
 30
0.0
 10
153.1138325642523
 20
193.6033711226012
 30
0.0
  0
ENDBLK
  5
2B2
330
2AF
100
AcDbEntity
  8
0
100
AcDbBlockEnd
  0
BLOCK
  5
2B6
330
2B4
100
AcDbEntity
  8
0
100
AcDbBlockBegin
  2
block 87
 70
     0
 10
0.0
 20
0.0
 30
0.0
  3
block 87
  1

  0
POLYLINE
  5
2B8
330
2B4
100
AcDbEntity
  8
AM_0
 62
     3
420
    65280
370
    40
100
AcDb2dPolyline
 66
     1
 10
0.0
 20
0.0
 30
0.0
  0
VERTEX
  5
2B9
330
2B8
100
AcDbEntity
  8
AM_0
 62
     3
420
    65280
370
    40
100
AcDbVertex
100
AcDb2dVertex
 10
112.6638325642539
 20
161.6033711226014
 30
0.0
  0
VERTEX
  5
2BA
330
2B8
100
AcDbEntity
  8
AM_0
 62
     3
420
    65280
370
    40
100
AcDbVertex
100
AcDb2dVertex
 10
153.1138325642574
 20
161.6033711226039
 30
0.0
  0
SEQEND
  5
2BB
330
2B8
100
AcDbEntity
  8
AM_0
 62
     3
420
    65280
370
    40
  0
ENDBLK
  5
2B7
330
2B4
100
AcDbEntity
  8
0
100
AcDbBlockEnd
  0
BLOCK
  5
2BE
330
2BC
100
AcDbEntity
  8
0
100
AcDbBlockBegin
  2
block 88
 70
     0
 10
0.0
 20
0.0
 30
0.0
  3
block 88
  1

  0
POLYLINE
  5
2C0
330
2BC
100
AcDbEntity
  8
AM_0
 62
     3
420
    65280
370
    40
100
AcDb2dPolyline
 66
     1
 10
0.0
 20
0.0
 30
0.0
  0
VERTEX
  5
2C1
330
2C0
100
AcDbEntity
  8
AM_0
 62
     3
420
    65280
370
    40
100
AcDbVertex
100
AcDb2dVertex
 10
112.3638325642478
 20
193.3033711226018
 30
0.0
  0
VERTEX
  5
2C2
330
2C0
100
AcDbEntity
  8
AM_0
 62
     3
420
    65280
370
    40
100
AcDbVertex
100
AcDb2dVertex
 10
112.6638325642475
 20
193.6033711226012
 30
0.0
  0
SEQEND
  5
2C3
330
2C0
100
AcDbEntity
  8
AM_0
 62
     3
420
    65280
370
    40
  0
ENDBLK
  5
2BF
330
2BC
100
AcDbEntity
  8
0
100
AcDbBlockEnd
  0
BLOCK
  5
2C6
330
2C4
100
AcDbEntity
  8
0
100
AcDbBlockBegin
  2
block 89
 70
     0
 10
0.0
 20
0.0
 30
0.0
  3
block 89
  1

  0
POLYLINE
  5
2C8
330
2C4
100
AcDbEntity
  8
AM_0
 62
     3
420
    65280
370
    40
100
AcDb2dPolyline
 66
     1
 10
0.0
 20
0.0
 30
0.0
  0
VERTEX
  5
2C9
330
2C8
100
AcDbEntity
  8
AM_0
 62
     3
420
    65280
370
    40
100
AcDbVertex
100
AcDb2dVertex
 10
112.3638325642478
 20
193.3033711226018
 30
0.0
  0
VERTEX
  5
2CA
330
2C8
100
AcDbEntity
  8
AM_0
 62
     3
420
    65280
370
    40
100
AcDbVertex
100
AcDb2dVertex
 10
112.3638325642478
 20
161.9033711225998
 30
0.0
  0
SEQEND
  5
2CB
330
2C8
100
AcDbEntity
  8
AM_0
 62
     3
420
    65280
370
    40
  0
ENDBLK
  5
2C7
330
2C4
100
AcDbEntity
  8
0
100
AcDbBlockEnd
  0
BLOCK
  5
2CE
330
2CC
100
AcDbEntity
  8
0
100
AcDbBlockBegin
  2
block 90
 70
     0
 10
0.0
 20
0.0
 30
0.0
  3
block 90
  1

  0
POLYLINE
  5
2D0
330
2CC
100
AcDbEntity
  8
AM_0
 62
     3
420
    65280
370
    40
100
AcDb2dPolyline
 66
     1
 10
0.0
 20
0.0
 30
0.0
  0
VERTEX
  5
2D1
330
2D0
100
AcDbEntity
  8
AM_0
 62
     3
420
    65280
370
    40
100
AcDbVertex
100
AcDb2dVertex
 10
112.3638325642478
 20
161.9033711225998
 30
0.0
  0
VERTEX
  5
2D2
330
2D0
100
AcDbEntity
  8
AM_0
 62
     3
420
    65280
370
    40
100
AcDbVertex
100
AcDb2dVertex
 10
112.6638325642488
 20
161.6033711226001
 30
0.0
  0
SEQEND
  5
2D3
330
2D0
100
AcDbEntity
  8
AM_0
 62
     3
420
    65280
370
    40
  0
ENDBLK
  5
2CF
330
2CC
100
AcDbEntity
  8
0
100
AcDbBlockEnd
  0
BLOCK
  5
2D6
330
2D4
100
AcDbEntity
  8
0
100
AcDbBlockBegin
  2
block 91
 70
     0
 10
0.0
 20
0.0
 30
0.0
  3
block 91
  1

  0
POLYLINE
  5
2D8
330
2D4
100
AcDbEntity
  8
AM_0
 62
     3
420
    65280
370
    40
100
AcDb2dPolyline
 66
     1
 10
0.0
 20
0.0
 30
0.0
  0
VERTEX
  5
2D9
330
2D8
100
AcDbEntity
  8
AM_0
 62
     3
420
    65280
370
    40
100
AcDbVertex
100
AcDb2dVertex
 10
157.0138325643086
 20
188.603371122601
 30
0.0
  0
VERTEX
  5
2DA
330
2D8
100
AcDbEntity
  8
AM_0
 62
     3
420
    65280
370
    40
100
AcDbVertex
100
AcDb2dVertex
 10
154.11383256433
 20
188.603371122601
 30
0.0
  0
SEQEND
  5
2DB
330
2D8
100
AcDbEntity
  8
AM_0
 62
     3
420
    65280
370
    40
  0
ENDBLK
  5
2D7
330
2D4
100
AcDbEntity
  8
0
100
AcDbBlockEnd
  0
BLOCK
  5
2DE
330
2DC
100
AcDbEntity
  8
0
100
AcDbBlockBegin
  2
block 92
 70
     0
 10
0.0
 20
0.0
 30
0.0
  3
block 92
  1

  0
POLYLINE
  5
2E0
330
2DC
100
AcDbEntity
  8
AM_0
 62
     3
420
    65280
370
    40
100
AcDb2dPolyline
 66
     1
 10
0.0
 20
0.0
 30
0.0
  0
VERTEX
  5
2E1
330
2E0
100
AcDbEntity
  8
AM_0
 62
     3
420
    65280
370
    40
100
AcDbVertex
100
AcDb2dVertex
 10
157.0138325643086
 20
166.6033711226086
 30
0.0
  0
VERTEX
  5
2E2
330
2E0
100
AcDbEntity
  8
AM_0
 62
     3
420
    65280
370
    40
100
AcDbVertex
100
AcDb2dVertex
 10
154.11383256433
 20
166.6033711226086
 30
0.0
  0
SEQEND
  5
2E3
330
2E0
100
AcDbEntity
  8
AM_0
 62
     3
420
    65280
370
    40
  0
ENDBLK
  5
2DF
330
2DC
100
AcDbEntity
  8
0
100
AcDbBlockEnd
  0
BLOCK
  5
2E6
330
2E4
100
AcDbEntity
  8
0
100
AcDbBlockBegin
  2
block 93
 70
     0
 10
0.0
 20
0.0
 30
0.0
  3
block 93
  1

  0
POLYLINE
  5
2E8
330
2E4
100
AcDbEntity
  8
AM_0
370
     0
100
AcDb2dPolyline
 66
     1
 10
0.0
 20
0.0
 30
0.0
  0
VERTEX
  5
2E9
330
2E8
100
AcDbEntity
  8
AM_0
370
     0
100
AcDbVertex
100
AcDb2dVertex
 10
83.8638325643081
 20
177.6033711226029
 30
0.0
  0
VERTEX
  5
7B2
330
2E8
100
AcDbEntity
  8
0
100
AcDbVertex
100
AcDb2dVertex
 10
83.8638325643081
 20
177.6033711226029
 30
0.0
  0
SEQEND
  5
2EA
330
2E8
100
AcDbEntity
  8
AM_0
370
     0
  0
ENDBLK
  5
2E7
330
2E4
100
AcDbEntity
  8
0
100
AcDbBlockEnd
  0
BLOCK
  5
2EE
330
2EC
100
AcDbEntity
  8
0
100
AcDbBlockBegin
  2
block 94
 70
     0
 10
0.0
 20
0.0
 30
0.0
  3
block 94
  1

  0
MTEXT
  5
2F0
330
2EC
100
AcDbEntity
  8
AM_6
 62
     7
420
 16777215
100
AcDbMText
 10
13.10878614521795
 20
81.31353906082126
 30
0.0
 40
3.999999674242106
 41
0.0
 46
0.0
 71
     7
 72
     1
  1
\fromans.shx|b0|i0|c0|p34;\W0.8;SYNCHRO MASTER
 73
     1
 44
1.0
  0
ENDBLK
  5
2EF
330
2EC
100
AcDbEntity
  8
0
100
AcDbBlockEnd
  0
BLOCK
  5
2F3
330
2F1
100
AcDbEntity
  8
0
100
AcDbBlockBegin
  2
block 95
 70
     0
 10
0.0
 20
0.0
 30
0.0
  3
block 95
  1

  0
MTEXT
  5
2F5
330
2F1
100
AcDbEntity
  8
AM_6
 62
     7
420
 16777215
100
AcDbMText
 10
12.65164350617208
 20
74.64684865992716
 30
0.0
 40
3.999999674242106
 41
0.0
 46
0.0
 71
     7
 72
     1
  1
\fromans.shx|b0|i0|c0|p34;\W0.8;HSK63A-SMH16-90
 73
     1
 44
1.0
  0
ENDBLK
  5
2F4
330
2F1
100
AcDbEntity
  8
0
100
AcDbBlockEnd
  0
BLOCK
  5
2F8
330
2F6
100
AcDbEntity
  8
0
100
AcDbBlockBegin
  2
block 96
 70
     0
 10
0.0
 20
0.0
 30
0.0
  3
block 96
  1

  0
POLYLINE
  5
2FA
330
2F6
100
AcDbEntity
  8
AM_6
 62
     7
420
 16777215
370
    18
100
AcDb2dPolyline
 66
     1
 10
0.0
 20
0.0
 30
0.0
  0
VERTEX
  5
2FB
330
2FA
100
AcDbEntity
  8
AM_6
 62
     7
420
 16777215
370
    18
100
AcDbVertex
100
AcDb2dVertex
 10
174.2138325643092
 20
163.2528127816958
 30
0.0
  0
VERTEX
  5
2FC
330
2FA
100
AcDbEntity
  8
AM_6
 62
     7
420
 16777215
370
    18
100
AcDbVertex
100
AcDb2dVertex
 10
174.2138325643092
 20
130.6033701126042
 30
0.0
  0
SEQEND
  5
2FD
330
2FA
100
AcDbEntity
  8
AM_6
 62
     7
420
 16777215
370
    18
  0
ENDBLK
  5
2F9
330
2F6
100
AcDbEntity
  8
0
100
AcDbBlockEnd
  0
BLOCK
  5
300
330
2FE
100
AcDbEntity
  8
0
100
AcDbBlockBegin
  2
block 97
 70
     0
 10
0.0
 20
0.0
 30
0.0
  3
block 97
  1

  0
POLYLINE
  5
302
330
2FE
100
AcDbEntity
  8
AM_6
 62
     7
420
 16777215
370
    18
100
AcDb2dPolyline
 66
     1
 10
0.0
 20
0.0
 30
0.0
  0
VERTEX
  5
303
330
302
100
AcDbEntity
  8
AM_6
 62
     7
420
 16777215
370
    18
100
AcDbVertex
100
AcDb2dVertex
 10
83.8638325643081
 20
145.1033711226034
 30
0.0
  0
VERTEX
  5
304
330
302
100
AcDbEntity
  8
AM_6
 62
     7
420
 16777215
370
    18
100
AcDbVertex
100
AcDb2dVertex
 10
83.8638325643081
 20
130.6033701126042
 30
0.0
  0
SEQEND
  5
305
330
302
100
AcDbEntity
  8
AM_6
 62
     7
420
 16777215
370
    18
  0
ENDBLK
  5
301
330
2FE
100
AcDbEntity
  8
0
100
AcDbBlockEnd
  0
BLOCK
  5
308
330
306
100
AcDbEntity
  8
0
100
AcDbBlockBegin
  2
block 98
 70
     0
 10
0.0
 20
0.0
 30
0.0
  3
block 98
  1

  0
POLYLINE
  5
30A
330
306
100
AcDbEntity
  8
AM_6
 62
     7
420
 16777215
370
    18
100
AcDb2dPolyline
 66
     1
 10
0.0
 20
0.0
 30
0.0
  0
VERTEX
  5
30B
330
30A
100
AcDbEntity
  8
AM_6
 62
     7
420
 16777215
370
    18
100
AcDbVertex
100
AcDb2dVertex
 10
171.2138325643085
 20
132.6033701126042
 30
0.0
  0
VERTEX
  5
30C
330
30A
100
AcDbEntity
  8
AM_6
 62
     7
420
 16777215
370
    18
100
AcDbVertex
100
AcDb2dVertex
 10
86.8638325643082
 20
132.6033701126042
 30
0.0
  0
SEQEND
  5
30D
330
30A
100
AcDbEntity
  8
AM_6
 62
     7
420
 16777215
370
    18
  0
ENDBLK
  5
309
330
306
100
AcDbEntity
  8
0
100
AcDbBlockEnd
  0
BLOCK
  5
310
330
30E
100
AcDbEntity
  8
0
100
AcDbBlockBegin
  2
block 99
 70
     0
 10
0.0
 20
0.0
 30
0.0
  3
block 99
  1

  0
MTEXT
  5
312
330
30E
100
AcDbEntity
  8
AM_6
 62
     7
420
 16777215
100
AcDbMText
 10
121.2674041444878
 20
133.4033881807605
 30
0.0
 40
3.999999674242106
 41
0.0
 46
0.0
 71
     7
 72
     1
  1
\fromans.shx|b0|i0|c0|p34;\W0.8;90.35
 73
     1
 44
1.0
  0
ENDBLK
  5
311
330
30E
100
AcDbEntity
  8
0
100
AcDbBlockEnd
  0
BLOCK
  5
315
330
313
100
AcDbEntity
  8
0
100
AcDbBlockBegin
  2
block 100
 70
     0
 10
0.0
 20
0.0
 30
0.0
  3
block 100
  1

  0
POLYLINE
  5
317
330
313
100
AcDbEntity
  8
AM_6
 62
     7
420
 16777215
370
    18
100
AcDb2dPolyline
 66
     1
 10
0.0
 20
0.0
 30
0.0
  0
VERTEX
  5
318
330
317
100
AcDbEntity
  8
AM_6
 62
     7
420
 16777215
370
    18
100
AcDbVertex
100
AcDb2dVertex
 10
109.8638325643077
 20
145.1033711226034
 30
0.0
  0
VERTEX
  5
319
330
317
100
AcDbEntity
  8
AM_6
 62
     7
420
 16777215
370
    18
100
AcDbVertex
100
AcDb2dVertex
 10
109.8638325643077
 20
140.6033701126045
 30
0.0
  0
SEQEND
  5
31A
330
317
100
AcDbEntity
  8
AM_6
 62
     7
420
 16777215
370
    18
  0
ENDBLK
  5
316
330
313
100
AcDbEntity
  8
0
100
AcDbBlockEnd
  0
BLOCK
  5
31D
330
31B
100
AcDbEntity
  8
0
100
AcDbBlockBegin
  2
block 101
 70
     0
 10
0.0
 20
0.0
 30
0.0
  3
block 101
  1

  0
POLYLINE
  5
31F
330
31B
100
AcDbEntity
  8
AM_6
 62
     7
420
 16777215
370
    18
100
AcDb2dPolyline
 66
     1
 10
0.0
 20
0.0
 30
0.0
  0
VERTEX
  5
320
330
31F
100
AcDbEntity
  8
AM_6
 62
     7
420
 16777215
370
    18
100
AcDbVertex
100
AcDb2dVertex
 10
174.2138325643092
 20
163.2528127816958
 30
0.0
  0
VERTEX
  5
321
330
31F
100
AcDbEntity
  8
AM_6
 62
     7
420
 16777215
370
    18
100
AcDbVertex
100
AcDb2dVertex
 10
174.2138325643092
 20
140.6033701126039
 30
0.0
  0
SEQEND
  5
322
330
31F
100
AcDbEntity
  8
AM_6
 62
     7
420
 16777215
370
    18
  0
ENDBLK
  5
31E
330
31B
100
AcDbEntity
  8
0
100
AcDbBlockEnd
  0
BLOCK
  5
325
330
323
100
AcDbEntity
  8
0
100
AcDbBlockBegin
  2
block 102
 70
     0
 10
0.0
 20
0.0
 30
0.0
  3
block 102
  1

  0
POLYLINE
  5
327
330
323
100
AcDbEntity
  8
AM_6
 62
     7
420
 16777215
370
    18
100
AcDb2dPolyline
 66
     1
 10
0.0
 20
0.0
 30
0.0
  0
VERTEX
  5
328
330
327
100
AcDbEntity
  8
AM_6
 62
     7
420
 16777215
370
    18
100
AcDbVertex
100
AcDb2dVertex
 10
112.8638325643078
 20
142.603370112604
 30
0.0
  0
VERTEX
  5
329
330
327
100
AcDbEntity
  8
AM_6
 62
     7
420
 16777215
370
    18
100
AcDbVertex
100
AcDb2dVertex
 10
171.2138325643085
 20
142.603370112604
 30
0.0
  0
SEQEND
  5
32A
330
327
100
AcDbEntity
  8
AM_6
 62
     7
420
 16777215
370
    18
  0
ENDBLK
  5
326
330
323
100
AcDbEntity
  8
0
100
AcDbBlockEnd
  0
BLOCK
  5
32D
330
32B
100
AcDbEntity
  8
0
100
AcDbBlockBegin
  2
block 103
 70
     0
 10
0.0
 20
0.0
 30
0.0
  3
block 103
  1

  0
MTEXT
  5
32F
330
32B
100
AcDbEntity
  8
AM_6
 62
     7
420
 16777215
100
AcDbMText
 10
133.8864551633329
 20
143.4033807184081
 30
0.0
 40
3.999999674242106
 41
0.0
 46
0.0
 71
     7
 72
     1
  1
\fromans.shx|b0|i0|c0|p34;\W0.8;64.35
 73
     1
 44
1.0
  0
ENDBLK
  5
32E
330
32B
100
AcDbEntity
  8
0
100
AcDbBlockEnd
  0
BLOCK
  5
332
330
330
100
AcDbEntity
  8
0
100
AcDbBlockBegin
  2
block 104
 70
     0
 10
0.0
 20
0.0
 30
0.0
  3
block 104
  1

  0
POLYLINE
  5
334
330
330
100
AcDbEntity
  8
AM_6
 62
     7
420
 16777215
370
    18
100
AcDb2dPolyline
 66
     1
 10
0.0
 20
0.0
 30
0.0
  0
VERTEX
  5
335
330
334
100
AcDbEntity
  8
AM_6
 62
     7
420
 16777215
370
    18
100
AcDbVertex
100
AcDb2dVertex
 10
169.7138325643074
 20
193.6147154290778
 30
0.0
  0
VERTEX
  5
336
330
334
100
AcDbEntity
  8
AM_6
 62
     7
420
 16777215
370
    18
100
AcDbVertex
100
AcDb2dVertex
 10
191.0916021293596
 20
193.6147154290778
 30
0.0
  0
SEQEND
  5
337
330
334
100
AcDbEntity
  8
AM_6
 62
     7
420
 16777215
370
    18
  0
ENDBLK
  5
333
330
330
100
AcDbEntity
  8
0
100
AcDbBlockEnd
  0
BLOCK
  5
33A
330
338
100
AcDbEntity
  8
0
100
AcDbBlockBegin
  2
block 105
 70
     0
 10
0.0
 20
0.0
 30
0.0
  3
block 105
  1

  0
POLYLINE
  5
33C
330
338
100
AcDbEntity
  8
AM_6
 62
     7
420
 16777215
370
    18
100
AcDb2dPolyline
 66
     1
 10
0.0
 20
0.0
 30
0.0
  0
VERTEX
  5
33D
330
33C
100
AcDbEntity
  8
AM_6
 62
     7
420
 16777215
370
    18
100
AcDbVertex
100
AcDb2dVertex
 10
169.7138325643087
 20
161.6147154290776
 30
0.0
  0
VERTEX
  5
33E
330
33C
100
AcDbEntity
  8
AM_6
 62
     7
420
 16777215
370
    18
100
AcDbVertex
100
AcDb2dVertex
 10
191.0916021293596
 20
161.6147154290776
 30
0.0
  0
SEQEND
  5
33F
330
33C
100
AcDbEntity
  8
AM_6
 62
     7
420
 16777215
370
    18
  0
ENDBLK
  5
33B
330
338
100
AcDbEntity
  8
0
100
AcDbBlockEnd
  0
BLOCK
  5
342
330
340
100
AcDbEntity
  8
0
100
AcDbBlockBegin
  2
block 106
 70
     0
 10
0.0
 20
0.0
 30
0.0
  3
block 106
  1

  0
POLYLINE
  5
344
330
340
100
AcDbEntity
  8
AM_6
 62
     7
420
 16777215
370
    18
100
AcDb2dPolyline
 66
     1
 10
0.0
 20
0.0
 30
0.0
  0
VERTEX
  5
345
330
344
100
AcDbEntity
  8
AM_6
 62
     7
420
 16777215
370
    18
100
AcDbVertex
100
AcDb2dVertex
 10
189.0916021293602
 20
190.6147154290776
 30
0.0
  0
VERTEX
  5
346
330
344
100
AcDbEntity
  8
AM_6
 62
     7
420
 16777215
370
    18
100
AcDbVertex
100
AcDb2dVertex
 10
189.0916021293602
 20
164.614715429078
 30
0.0
  0
SEQEND
  5
347
330
344
100
AcDbEntity
  8
AM_6
 62
     7
420
 16777215
370
    18
  0
ENDBLK
  5
343
330
340
100
AcDbEntity
  8
0
100
AcDbBlockEnd
  0
BLOCK
  5
34A
330
348
100
AcDbEntity
  8
0
100
AcDbBlockBegin
  2
block 107
 70
     0
 10
0.0
 20
0.0
 30
0.0
  3
block 107
  1

  0
MTEXT
  5
34C
330
348
100
AcDbEntity
  8
AM_6
 62
     7
420
 16777215
100
AcDbMText
 10
188.2916076189427
 20
172.2051648875039
 30
0.0
 40
3.999999674242106
 41
0.0
 46
0.0
 71
     7
 72
     1
  1
\fromans.shx|b0|i0|c0|p34;\W0.8;Ă32
 11
6.123233995736766E-17
 21
1.0
 31
0.0
 73
     1
 44
1.0
  0
ENDBLK
  5
34B
330
348
100
AcDbEntity
  8
0
100
AcDbBlockEnd
  0
BLOCK
  5
34F
330
34D
100
AcDbEntity
  8
0
100
AcDbBlockBegin
  2
block 108
 70
     0
 10
0.0
 20
0.0
 30
0.0
  3
block 108
  1

  0
POLYLINE
  5
351
330
34D
100
AcDbEntity
  8
AM_6
 62
     7
420
 16777215
370
    18
100
AcDb2dPolyline
 66
     1
 10
0.0
 20
0.0
 30
0.0
  0
VERTEX
  5
352
330
351
100
AcDbEntity
  8
AM_6
 62
     7
420
 16777215
370
    18
100
AcDbVertex
100
AcDb2dVertex
 10
51.86383256430825
 20
155.0298701862737
 30
0.0
  0
VERTEX
  5
353
330
351
100
AcDbEntity
  8
AM_6
 62
     7
420
 16777215
370
    18
100
AcDbVertex
100
AcDb2dVertex
 10
51.86383256430825
 20
130.6033701126042
 30
0.0
  0
SEQEND
  5
354
330
351
100
AcDbEntity
  8
AM_6
 62
     7
420
 16777215
370
    18
  0
ENDBLK
  5
350
330
34D
100
AcDbEntity
  8
0
100
AcDbBlockEnd
  0
BLOCK
  5
357
330
355
100
AcDbEntity
  8
0
100
AcDbBlockBegin
  2
block 109
 70
     0
 10
0.0
 20
0.0
 30
0.0
  3
block 109
  1

  0
POLYLINE
  5
359
330
355
100
AcDbEntity
  8
AM_6
 62
     7
420
 16777215
370
    18
100
AcDb2dPolyline
 66
     1
 10
0.0
 20
0.0
 30
0.0
  0
VERTEX
  5
35A
330
359
100
AcDbEntity
  8
AM_6
 62
     7
420
 16777215
370
    18
100
AcDbVertex
100
AcDb2dVertex
 10
83.8638325643081
 20
145.1033711226034
 30
0.0
  0
VERTEX
  5
35B
330
359
100
AcDbEntity
  8
AM_6
 62
     7
420
 16777215
370
    18
100
AcDbVertex
100
AcDb2dVertex
 10
83.8638325643081
 20
130.6033701126042
 30
0.0
  0
SEQEND
  5
35C
330
359
100
AcDbEntity
  8
AM_6
 62
     7
420
 16777215
370
    18
  0
ENDBLK
  5
358
330
355
100
AcDbEntity
  8
0
100
AcDbBlockEnd
  0
BLOCK
  5
35F
330
35D
100
AcDbEntity
  8
0
100
AcDbBlockBegin
  2
block 110
 70
     0
 10
0.0
 20
0.0
 30
0.0
  3
block 110
  1

  0
POLYLINE
  5
361
330
35D
100
AcDbEntity
  8
AM_6
 62
     7
420
 16777215
370
    18
100
AcDb2dPolyline
 66
     1
 10
0.0
 20
0.0
 30
0.0
  0
VERTEX
  5
362
330
361
100
AcDbEntity
  8
AM_6
 62
     7
420
 16777215
370
    18
100
AcDbVertex
100
AcDb2dVertex
 10
54.86383256430835
 20
132.6033701126042
 30
0.0
  0
VERTEX
  5
363
330
361
100
AcDbEntity
  8
AM_6
 62
     7
420
 16777215
370
    18
100
AcDbVertex
100
AcDb2dVertex
 10
80.86383256430831
 20
132.6033701126042
 30
0.0
  0
SEQEND
  5
364
330
361
100
AcDbEntity
  8
AM_6
 62
     7
420
 16777215
370
    18
  0
ENDBLK
  5
360
330
35D
100
AcDbEntity
  8
0
100
AcDbBlockEnd
  0
BLOCK
  5
367
330
365
100
AcDbEntity
  8
0
100
AcDbBlockBegin
  2
block 111
 70
     0
 10
0.0
 20
0.0
 30
0.0
  3
block 111
  1

  0
MTEXT
  5
369
330
365
100
AcDbEntity
  8
AM_6
 62
     7
420
 16777215
100
AcDbMText
 10
63.90192958505805
 20
133.4033881807605
 30
0.0
 40
3.999999674242106
 41
0.0
 46
0.0
 71
     7
 72
     1
  1
\fromans.shx|b0|i0|c0|p34;\W0.8;32
 73
     1
 44
1.0
  0
ENDBLK
  5
368
330
365
100
AcDbEntity
  8
0
100
AcDbBlockEnd
  0
BLOCK
  5
36C
330
36A
100
AcDbEntity
  8
0
100
AcDbBlockBegin
  2
block 112
 70
     0
 10
0.0
 20
0.0
 30
0.0
  3
block 112
  1

  0
POLYLINE
  5
36E
330
36A
100
AcDbEntity
  8
AM_6
 62
     7
420
 16777215
370
    18
100
AcDb2dPolyline
 66
     1
 10
0.0
 20
0.0
 30
0.0
  0
VERTEX
  5
36F
330
36E
100
AcDbEntity
  8
AM_6
 62
     7
420
 16777215
370
    18
100
AcDbVertex
100
AcDb2dVertex
 10
51.86383256430825
 20
155.0298701862737
 30
0.0
  0
VERTEX
  5
370
330
36E
100
AcDbEntity
  8
AM_6
 62
     7
420
 16777215
370
    18
100
AcDbVertex
100
AcDb2dVertex
 10
51.86383256430825
 20
120.6033701126038
 30
0.0
  0
SEQEND
  5
371
330
36E
100
AcDbEntity
  8
AM_6
 62
     7
420
 16777215
370
    18
  0
ENDBLK
  5
36D
330
36A
100
AcDbEntity
  8
0
100
AcDbBlockEnd
  0
BLOCK
  5
374
330
372
100
AcDbEntity
  8
0
100
AcDbBlockBegin
  2
block 113
 70
     0
 10
0.0
 20
0.0
 30
0.0
  3
block 113
  1

  0
POLYLINE
  5
376
330
372
100
AcDbEntity
  8
AM_6
 62
     7
420
 16777215
370
    18
100
AcDb2dPolyline
 66
     1
 10
0.0
 20
0.0
 30
0.0
  0
VERTEX
  5
377
330
376
100
AcDbEntity
  8
AM_6
 62
     7
420
 16777215
370
    18
100
AcDbVertex
100
AcDb2dVertex
 10
174.2138325643092
 20
163.2528127816958
 30
0.0
  0
VERTEX
  5
378
330
376
100
AcDbEntity
  8
AM_6
 62
     7
420
 16777215
370
    18
100
AcDbVertex
100
AcDb2dVertex
 10
174.2138325643092
 20
120.6033701126038
 30
0.0
  0
SEQEND
  5
379
330
376
100
AcDbEntity
  8
AM_6
 62
     7
420
 16777215
370
    18
  0
ENDBLK
  5
375
330
372
100
AcDbEntity
  8
0
100
AcDbBlockEnd
  0
BLOCK
  5
37C
330
37A
100
AcDbEntity
  8
0
100
AcDbBlockBegin
  2
block 114
 70
     0
 10
0.0
 20
0.0
 30
0.0
  3
block 114
  1

  0
POLYLINE
  5
37E
330
37A
100
AcDbEntity
  8
AM_6
 62
     7
420
 16777215
370
    18
100
AcDb2dPolyline
 66
     1
 10
0.0
 20
0.0
 30
0.0
  0
VERTEX
  5
37F
330
37E
100
AcDbEntity
  8
AM_6
 62
     7
420
 16777215
370
    18
100
AcDbVertex
100
AcDb2dVertex
 10
54.86383256430835
 20
122.6033701126039
 30
0.0
  0
VERTEX
  5
380
330
37E
100
AcDbEntity
  8
AM_6
 62
     7
420
 16777215
370
    18
100
AcDbVertex
100
AcDb2dVertex
 10
171.2138325643085
 20
122.6033701126039
 30
0.0
  0
SEQEND
  5
381
330
37E
100
AcDbEntity
  8
AM_6
 62
     7
420
 16777215
370
    18
  0
ENDBLK
  5
37D
330
37A
100
AcDbEntity
  8
0
100
AcDbBlockEnd
  0
BLOCK
  5
384
330
382
100
AcDbEntity
  8
0
100
AcDbBlockBegin
  2
block 115
 70
     0
 10
0.0
 20
0.0
 30
0.0
  3
block 115
  1

  0
MTEXT
  5
386
330
382
100
AcDbEntity
  8
AM_6
 62
     7
420
 16777215
100
AcDbMText
 10
102.6007356175247
 20
123.4033956431129
 30
0.0
 40
3.999999674242106
 41
0.0
 46
0.0
 71
     7
 72
     1
  1
\fromans.shx|b0|i0|c0|p34;\W0.8;122.35
 73
     1
 44
1.0
  0
ENDBLK
  5
385
330
382
100
AcDbEntity
  8
0
100
AcDbBlockEnd
  0
BLOCK
  5
389
330
387
100
AcDbEntity
  8
0
100
AcDbBlockBegin
  2
block 116
 70
     0
 10
0.0
 20
0.0
 30
0.0
  3
block 116
  1

  0
POLYLINE
  5
38B
330
387
100
AcDbEntity
  8
AM_6
 62
     7
420
 16777215
370
    18
100
AcDb2dPolyline
 66
     1
 10
0.0
 20
0.0
 30
0.0
  0
VERTEX
  5
38C
330
38B
100
AcDbEntity
  8
AM_6
 62
     7
420
 16777215
370
    18
100
AcDbVertex
100
AcDb2dVertex
 10
82.86383256430805
 20
209.1033711226031
 30
0.0
  0
VERTEX
  5
38D
330
38B
100
AcDbEntity
  8
AM_6
 62
     7
420
 16777215
370
    18
100
AcDbVertex
100
AcDb2dVertex
 10
36.86383256430836
 20
209.1033711226031
 30
0.0
  0
SEQEND
  5
38E
330
38B
100
AcDbEntity
  8
AM_6
 62
     7
420
 16777215
370
    18
  0
ENDBLK
  5
38A
330
387
100
AcDbEntity
  8
0
100
AcDbBlockEnd
  0
BLOCK
  5
391
330
38F
100
AcDbEntity
  8
0
100
AcDbBlockBegin
  2
block 117
 70
     0
 10
0.0
 20
0.0
 30
0.0
  3
block 117
  1

  0
POLYLINE
  5
393
330
38F
100
AcDbEntity
  8
AM_6
 62
     7
420
 16777215
370
    18
100
AcDb2dPolyline
 66
     1
 10
0.0
 20
0.0
 30
0.0
  0
VERTEX
  5
394
330
393
100
AcDbEntity
  8
AM_6
 62
     7
420
 16777215
370
    18
100
AcDbVertex
100
AcDb2dVertex
 10
82.86383256430805
 20
146.1033711226034
 30
0.0
  0
VERTEX
  5
395
330
393
100
AcDbEntity
  8
AM_6
 62
     7
420
 16777215
370
    18
100
AcDbVertex
100
AcDb2dVertex
 10
36.86383256430836
 20
146.1033711226034
 30
0.0
  0
SEQEND
  5
396
330
393
100
AcDbEntity
  8
AM_6
 62
     7
420
 16777215
370
    18
  0
ENDBLK
  5
392
330
38F
100
AcDbEntity
  8
0
100
AcDbBlockEnd
  0
BLOCK
  5
399
330
397
100
AcDbEntity
  8
0
100
AcDbBlockBegin
  2
block 118
 70
     0
 10
0.0
 20
0.0
 30
0.0
  3
block 118
  1

  0
POLYLINE
  5
39B
330
397
100
AcDbEntity
  8
AM_6
 62
     7
420
 16777215
370
    18
100
AcDb2dPolyline
 66
     1
 10
0.0
 20
0.0
 30
0.0
  0
VERTEX
  5
39C
330
39B
100
AcDbEntity
  8
AM_6
 62
     7
420
 16777215
370
    18
100
AcDbVertex
100
AcDb2dVertex
 10
38.8638325643081
 20
206.1033711226029
 30
0.0
  0
VERTEX
  5
39D
330
39B
100
AcDbEntity
  8
AM_6
 62
     7
420
 16777215
370
    18
100
AcDbVertex
100
AcDb2dVertex
 10
38.8638325643081
 20
149.1033711226032
 30
0.0
  0
SEQEND
  5
39E
330
39B
100
AcDbEntity
  8
AM_6
 62
     7
420
 16777215
370
    18
  0
ENDBLK
  5
39A
330
397
100
AcDbEntity
  8
0
100
AcDbBlockEnd
  0
BLOCK
  5
3A1
330
39F
100
AcDbEntity
  8
0
100
AcDbBlockBegin
  2
block 119
 70
     0
 10
0.0
 20
0.0
 30
0.0
  3
block 119
  1

  0
MTEXT
  5
3A3
330
39F
100
AcDbEntity
  8
AM_6
 62
     7
420
 16777215
100
AcDbMText
 10
38.06384801972666
 20
172.1934515628541
 30
0.0
 40
3.999999674242106
 41
0.0
 46
0.0
 71
     7
 72
     1
  1
\fromans.shx|b0|i0|c0|p34;\W0.8;Ă63
 11
6.123233995736766E-17
 21
1.0
 31
0.0
 73
     1
 44
1.0
  0
ENDBLK
  5
3A2
330
39F
100
AcDbEntity
  8
0
100
AcDbBlockEnd
  0
BLOCK
  5
3A6
330
3A4
100
AcDbEntity
  8
0
100
AcDbBlockBegin
  2
block 120
 70
     0
 10
0.0
 20
0.0
 30
0.0
  3
block 120
  1

  0
POLYLINE
  5
3A8
330
3A4
100
AcDbEntity
  8
AM_6
 62
     3
420
    65280
370
    18
100
AcDb2dPolyline
 66
     1
 10
0.0
 20
0.0
 30
0.0
  0
VERTEX
  5
3A9
330
3A8
100
AcDbEntity
  8
AM_6
 62
     3
420
    65280
370
    18
100
AcDbVertex
100
AcDb2dVertex
 10
192.9350899541262
 20
146.5476567135238
 30
0.0
  0
VERTEX
  5
3AA
330
3A8
100
AcDbEntity
  8
AM_6
 62
     3
420
    65280
370
    18
100
AcDbVertex
100
AcDb2dVertex
 10
181.4350899541267
 20
146.5476567135238
 30
0.0
  0
SEQEND
  5
3AB
330
3A8
100
AcDbEntity
  8
AM_6
 62
     3
420
    65280
370
    18
  0
ENDBLK
  5
3A7
330
3A4
100
AcDbEntity
  8
0
100
AcDbBlockEnd
  0
BLOCK
  5
3AE
330
3AC
100
AcDbEntity
  8
0
100
AcDbBlockBegin
  2
block 121
 70
     0
 10
0.0
 20
0.0
 30
0.0
  3
block 121
  1

  0
POLYLINE
  5
3B0
330
3AC
100
AcDbEntity
  8
AM_6
 62
     3
420
    65280
370
    18
100
AcDb2dPolyline
 66
     1
 10
0.0
 20
0.0
 30
0.0
  0
VERTEX
  5
3B1
330
3B0
100
AcDbEntity
  8
AM_6
 62
     3
420
    65280
370
    18
100
AcDbVertex
100
AcDb2dVertex
 10
181.4350899541267
 20
146.5476567135238
 30
0.0
  0
VERTEX
  5
3B2
330
3B0
100
AcDbEntity
  8
AM_6
 62
     3
420
    65280
370
    18
100
AcDbVertex
100
AcDb2dVertex
 10
169.2076590016349
 20
173.0628985865798
 30
0.0
  0
SEQEND
  5
3B3
330
3B0
100
AcDbEntity
  8
AM_6
 62
     3
420
    65280
370
    18
  0
ENDBLK
  5
3AF
330
3AC
100
AcDbEntity
  8
0
100
AcDbBlockEnd
  0
BLOCK
  5
3B6
330
3B4
100
AcDbEntity
  8
0
100
AcDbBlockBegin
  2
block 122
 70
     0
 10
0.0
 20
0.0
 30
0.0
  3
block 122
  1

  0
POLYLINE
  5
3B8
330
3B4
100
AcDbEntity
  8
AM_6
370
     0
100
AcDb2dPolyline
 66
     1
 10
0.0
 20
0.0
 30
0.0
  0
VERTEX
  5
3B9
330
3B8
100
AcDbEntity
  8
AM_6
370
     0
100
AcDbVertex
100
AcDb2dVertex
 10
169.7373807953853
 20
173.3071783366244
 30
0.0
  0
VERTEX
  5
3BA
330
3B8
100
AcDbEntity
  8
AM_6
370
     0
100
AcDbVertex
100
AcDb2dVertex
 10
167.7419804955077
 20
176.2412293617946
 30
0.0
  0
VERTEX
  5
3BB
330
3B8
100
AcDbEntity
  8
AM_6
370
     0
100
AcDbVertex
100
AcDb2dVertex
 10
168.6779372078845
 20
172.8186188365356
 30
0.0
  0
VERTEX
  5
3BC
330
3B8
100
AcDbEntity
  8
AM_6
370
     0
100
AcDbVertex
100
AcDb2dVertex
 10
169.7373807953853
 20
173.3071783366244
 30
0.0
  0
SEQEND
  5
3BD
330
3B8
100
AcDbEntity
  8
AM_6
370
     0
  0
ENDBLK
  5
3B7
330
3B4
100
AcDbEntity
  8
0
100
AcDbBlockEnd
  0
BLOCK
  5
3C0
330
3BE
100
AcDbEntity
  8
0
100
AcDbBlockBegin
  2
block 123
 70
     0
 10
0.0
 20
0.0
 30
0.0
  3
block 123
  1

  0
POLYLINE
  5
3C2
330
3BE
100
AcDbEntity
  8
AM_6
370
     0
100
AcDb2dPolyline
 66
     1
 10
0.0
 20
0.0
 30
0.0
  0
VERTEX
  5
3C3
330
3C2
100
AcDbEntity
  8
AM_6
370
     0
100
AcDbVertex
100
AcDb2dVertex
 10
169.7373807953853
 20
173.3071783366244
 30
0.0
  0
VERTEX
  5
3C4
330
3C2
100
AcDbEntity
  8
AM_6
370
     0
100
AcDbVertex
100
AcDb2dVertex
 10
167.7419804955077
 20
176.2412293617946
 30
0.0
  0
VERTEX
  5
3C5
330
3C2
100
AcDbEntity
  8
AM_6
370
     0
100
AcDbVertex
100
AcDb2dVertex
 10
168.6779372078845
 20
172.8186188365356
 30
0.0
  0
VERTEX
  5
3C6
330
3C2
100
AcDbEntity
  8
AM_6
370
     0
100
AcDbVertex
100
AcDb2dVertex
 10
169.7373807953853
 20
173.3071783366244
 30
0.0
  0
SEQEND
  5
3C7
330
3C2
100
AcDbEntity
  8
AM_6
370
     0
  0
ENDBLK
  5
3C1
330
3BE
100
AcDbEntity
  8
0
100
AcDbBlockEnd
  0
BLOCK
  5
3CA
330
3C8
100
AcDbEntity
  8
0
100
AcDbBlockBegin
  2
block 124
 70
     0
 10
0.0
 20
0.0
 30
0.0
  3
block 124
  1

  0
POLYLINE
  5
3CC
330
3C8
100
AcDbEntity
  8
AM_6
370
     0
100
AcDb2dPolyline
 66
     1
 10
0.0
 20
0.0
 30
0.0
  0
VERTEX
  5
3CD
330
3CC
100
AcDbEntity
  8
AM_6
370
     0
100
AcDbVertex
100
AcDb2dVertex
 10
169.7373807953853
 20
173.3071783366244
 30
0.0
  0
VERTEX
  5
3CE
330
3CC
100
AcDbEntity
  8
AM_6
370
     0
100
AcDbVertex
100
AcDb2dVertex
 10
167.7419804955077
 20
176.2412293617937
 30
0.0
  0
VERTEX
  5
3CF
330
3CC
100
AcDbEntity
  8
AM_6
370
     0
100
AcDbVertex
100
AcDb2dVertex
 10
168.6779372078852
 20
172.8186188365356
 30
0.0
  0
VERTEX
  5
3D0
330
3CC
100
AcDbEntity
  8
AM_6
370
     0
100
AcDbVertex
100
AcDb2dVertex
 10
169.7373807953853
 20
173.3071783366244
 30
0.0
  0
VERTEX
  5
3D1
330
3CC
100
AcDbEntity
  8
AM_6
370
     0
100
AcDbVertex
100
AcDb2dVertex
 10
169.7373807953853
 20
173.3071783366244
 30
0.0
  0
SEQEND
  5
3D3
330
3CC
100
AcDbEntity
  8
AM_6
370
     0
  0
HATCH
  5
3D2
330
3C8
100
AcDbEntity
  8
AM_6
 62
     3
420
    65280
100
AcDbHatch
 10
0.0
 20
0.0
 30
0.0
210
0.0
220
0.0
230
1.0
  2
SOLID
 70
     1
 71
     0
 91
        1
 92
        1
 93
        3
 72
     1
 10
169.7373807953853
 20
173.3071783366244
 11
167.7419804955077
 21
176.2412293617937
 72
     1
 10
167.7419804955077
 20
176.2412293617937
 11
168.6779372078852
 21
172.8186188365356
 72
     1
 10
168.6779372078852
 20
172.8186188365356
 11
169.7373807953853
 21
173.3071783366244
 97
        0
 75
     2
 76
     1
 98
        0
  0
ENDBLK
  5
3CB
330
3C8
100
AcDbEntity
  8
0
100
AcDbBlockEnd
  0
BLOCK
  5
3D6
330
3D4
100
AcDbEntity
  8
0
100
AcDbBlockBegin
  2
block 125
 70
     0
 10
0.0
 20
0.0
 30
0.0
  3
block 125
  1

  0
MTEXT
  5
3D8
330
3D4
100
AcDbEntity
  8
AM_6
 62
     2
420
 16776960
100
AcDbMText
 10
183.7350812664577
 20
148.2976556195282
 30
0.0
 40
3.499999953157898
 41
0.0
 46
0.0
 71
     7
 72
     1
  1
\fromans.shx|b0|i0|c0|p34;\W0.8;CSW
 73
     1
 44
1.0
  0
ENDBLK
  5
3D7
330
3D4
100
AcDbEntity
  8
0
100
AcDbBlockEnd
  0
BLOCK
  5
3DB
330
3D9
100
AcDbEntity
  8
0
100
AcDbBlockBegin
  2
block 126
 70
     0
 10
0.0
 20
0.0
 30
0.0
  3
block 126
  1

  0
POLYLINE
  5
3DD
330
3D9
100
AcDbEntity
  8
AM_6
 62
     3
420
    65280
370
    18
100
AcDb2dPolyline
 66
     1
 10
0.0
 20
0.0
 30
0.0
  0
VERTEX
  5
3DE
330
3DD
100
AcDbEntity
  8
AM_6
 62
     3
420
    65280
370
    18
100
AcDbVertex
100
AcDb2dVertex
 10
23.03049923097518
 20
132.6033711226032
 30
0.0
  0
VERTEX
  5
3DF
330
3DD
100
AcDbEntity
  8
AM_6
 62
     3
420
    65280
370
    18
100
AcDbVertex
100
AcDb2dVertex
 10
43.86383256430828
 20
132.6033711226032
 30
0.0
  0
SEQEND
  5
3E0
330
3DD
100
AcDbEntity
  8
AM_6
 62
     3
420
    65280
370
    18
  0
ENDBLK
  5
3DC
330
3D9
100
AcDbEntity
  8
0
100
AcDbBlockEnd
  0
BLOCK
  5
3E3
330
3E1
100
AcDbEntity
  8
0
100
AcDbBlockBegin
  2
block 127
 70
     0
 10
0.0
 20
0.0
 30
0.0
  3
block 127
  1

  0
POLYLINE
  5
3E5
330
3E1
100
AcDbEntity
  8
AM_6
 62
     3
420
    65280
370
    18
100
AcDb2dPolyline
 66
     1
 10
0.0
 20
0.0
 30
0.0
  0
VERTEX
  5
3E6
330
3E5
100
AcDbEntity
  8
AM_6
 62
     3
420
    65280
370
    18
100
AcDbVertex
100
AcDb2dVertex
 10
43.86383256430828
 20
132.6033711226032
 30
0.0
  0
VERTEX
  5
3E7
330
3E5
100
AcDbEntity
  8
AM_6
 62
     3
420
    65280
370
    18
100
AcDbVertex
100
AcDb2dVertex
 10
80.4731665644882
 20
173.8540518589093
 30
0.0
  0
SEQEND
  5
3E8
330
3E5
100
AcDbEntity
  8
AM_6
 62
     3
420
    65280
370
    18
  0
ENDBLK
  5
3E4
330
3E1
100
AcDbEntity
  8
0
100
AcDbBlockEnd
  0
BLOCK
  5
3EB
330
3E9
100
AcDbEntity
  8
0
100
AcDbBlockBegin
  2
block 128
 70
     0
 10
0.0
 20
0.0
 30
0.0
  3
block 128
  1

  0
POLYLINE
  5
3ED
330
3E9
100
AcDbEntity
  8
AM_6
370
     0
100
AcDb2dPolyline
 66
     1
 10
0.0
 20
0.0
 30
0.0
  0
VERTEX
  5
3EE
330
3ED
100
AcDbEntity
  8
AM_6
370
     0
100
AcDbVertex
100
AcDb2dVertex
 10
80.90945947749925
 20
173.4668487221556
 30
0.0
  0
VERTEX
  5
3EF
330
3ED
100
AcDbEntity
  8
AM_6
370
     0
100
AcDbVertex
100
AcDb2dVertex
 10
82.79638539430432
 20
176.4718093474459
 30
0.0
  0
VERTEX
  5
3F0
330
3ED
100
AcDbEntity
  8
AM_6
370
     0
100
AcDbVertex
100
AcDb2dVertex
 10
80.03687365147779
 20
174.2412549956627
 30
0.0
  0
VERTEX
  5
3F1
330
3ED
100
AcDbEntity
  8
AM_6
370
     0
100
AcDbVertex
100
AcDb2dVertex
 10
80.90945947749925
 20
173.4668487221556
 30
0.0
  0
SEQEND
  5
3F2
330
3ED
100
AcDbEntity
  8
AM_6
370
     0
  0
ENDBLK
  5
3EC
330
3E9
100
AcDbEntity
  8
0
100
AcDbBlockEnd
  0
BLOCK
  5
3F5
330
3F3
100
AcDbEntity
  8
0
100
AcDbBlockBegin
  2
block 129
 70
     0
 10
0.0
 20
0.0
 30
0.0
  3
block 129
  1

  0
POLYLINE
  5
3F7
330
3F3
100
AcDbEntity
  8
AM_6
370
     0
100
AcDb2dPolyline
 66
     1
 10
0.0
 20
0.0
 30
0.0
  0
VERTEX
  5
3F8
330
3F7
100
AcDbEntity
  8
AM_6
370
     0
100
AcDbVertex
100
AcDb2dVertex
 10
80.90945947749925
 20
173.4668487221553
 30
0.0
  0
VERTEX
  5
3F9
330
3F7
100
AcDbEntity
  8
AM_6
370
     0
100
AcDbVertex
100
AcDb2dVertex
 10
82.79638539430432
 20
176.4718093474459
 30
0.0
  0
VERTEX
  5
3FA
330
3F7
100
AcDbEntity
  8
AM_6
370
     0
100
AcDbVertex
100
AcDb2dVertex
 10
80.03687365147779
 20
174.2412549956627
 30
0.0
  0
VERTEX
  5
3FB
330
3F7
100
AcDbEntity
  8
AM_6
370
     0
100
AcDbVertex
100
AcDb2dVertex
 10
80.90945947749925
 20
173.4668487221553
 30
0.0
  0
SEQEND
  5
3FC
330
3F7
100
AcDbEntity
  8
AM_6
370
     0
  0
ENDBLK
  5
3F6
330
3F3
100
AcDbEntity
  8
0
100
AcDbBlockEnd
  0
BLOCK
  5
3FF
330
3FD
100
AcDbEntity
  8
0
100
AcDbBlockBegin
  2
block 130
 70
     0
 10
0.0
 20
0.0
 30
0.0
  3
block 130
  1

  0
POLYLINE
  5
401
330
3FD
100
AcDbEntity
  8
AM_6
370
     0
100
AcDb2dPolyline
 66
     1
 10
0.0
 20
0.0
 30
0.0
  0
VERTEX
  5
402
330
401
100
AcDbEntity
  8
AM_6
370
     0
100
AcDbVertex
100
AcDb2dVertex
 10
80.90945947749957
 20
173.4668487221547
 30
0.0
  0
VERTEX
  5
403
330
401
100
AcDbEntity
  8
AM_6
370
     0
100
AcDbVertex
100
AcDb2dVertex
 10
82.79638539430464
 20
176.4718093474469
 30
0.0
  0
VERTEX
  5
404
330
401
100
AcDbEntity
  8
AM_6
370
     0
100
AcDbVertex
100
AcDb2dVertex
 10
80.0368736514781
 20
174.2412549956617
 30
0.0
  0
VERTEX
  5
405
330
401
100
AcDbEntity
  8
AM_6
370
     0
100
AcDbVertex
100
AcDb2dVertex
 10
80.90945947749957
 20
173.4668487221547
 30
0.0
  0
VERTEX
  5
406
330
401
100
AcDbEntity
  8
AM_6
370
     0
100
AcDbVertex
100
AcDb2dVertex
 10
80.90945947749957
 20
173.4668487221547
 30
0.0
  0
SEQEND
  5
408
330
401
100
AcDbEntity
  8
AM_6
370
     0
  0
HATCH
  5
407
330
3FD
100
AcDbEntity
  8
AM_6
 62
     3
420
    65280
100
AcDbHatch
 10
0.0
 20
0.0
 30
0.0
210
0.0
220
0.0
230
1.0
  2
SOLID
 70
     1
 71
     0
 91
        1
 92
        1
 93
        3
 72
     1
 10
80.90945947749957
 20
173.4668487221547
 11
82.79638539430464
 21
176.4718093474469
 72
     1
 10
82.79638539430464
 20
176.4718093474469
 11
80.0368736514781
 21
174.2412549956617
 72
     1
 10
80.0368736514781
 20
174.2412549956617
 11
80.90945947749957
 21
173.4668487221547
 97
        0
 75
     2
 76
     1
 98
        0
  0
ENDBLK
  5
400
330
3FD
100
AcDbEntity
  8
0
100
AcDbBlockEnd
  0
BLOCK
  5
40B
330
409
100
AcDbEntity
  8
0
100
AcDbBlockBegin
  2
block 131
 70
     0
 10
0.0
 20
0.0
 30
0.0
  3
block 131
  1

  0
MTEXT
  5
40D
330
409
100
AcDbEntity
  8
AM_6
 62
     2
420
 16776960
100
AcDbMText
 10
21.43049907148564
 20
136.353369615163
 30
0.0
 40
3.499999953157898
 41
0.0
 46
0.0
 71
     7
 72
     1
  1
\fromans.shx|b0|i0|c0|p34;\W0.8;PCS,MCS
 73
     1
 44
1.0
  0
ENDBLK
  5
40C
330
409
100
AcDbEntity
  8
0
100
AcDbBlockEnd
  0
BLOCK
  5
410
330
40E
100
AcDbEntity
  8
0
100
AcDbBlockBegin
  2
block 132
 70
     0
 10
0.0
 20
0.0
 30
0.0
  3
block 132
  1

  0
POLYLINE
  5
412
330
40E
100
AcDbEntity
  8
AM_6
 62
     7
420
 16777215
370
    18
100
AcDb2dPolyline
 66
     1
 10
0.0
 20
0.0
 30
0.0
  0
VERTEX
  5
413
330
412
100
AcDbEntity
  8
AM_6
 62
     7
420
 16777215
370
    18
100
AcDbVertex
100
AcDb2dVertex
 10
167.1138325643131
 20
188.6033711225985
 30
0.0
  0
VERTEX
  5
414
330
412
100
AcDbEntity
  8
AM_6
 62
     7
420
 16777215
370
    18
100
AcDbVertex
100
AcDb2dVertex
 10
167.1138325643131
 20
219.5920268161265
 30
0.0
  0
SEQEND
  5
415
330
412
100
AcDbEntity
  8
AM_6
 62
     7
420
 16777215
370
    18
  0
ENDBLK
  5
411
330
40E
100
AcDbEntity
  8
0
100
AcDbBlockEnd
  0
BLOCK
  5
418
330
416
100
AcDbEntity
  8
0
100
AcDbBlockBegin
  2
block 133
 70
     0
 10
0.0
 20
0.0
 30
0.0
  3
block 133
  1

  0
POLYLINE
  5
41A
330
416
100
AcDbEntity
  8
AM_6
 62
     7
420
 16777215
370
    18
100
AcDb2dPolyline
 66
     1
 10
0.0
 20
0.0
 30
0.0
  0
VERTEX
  5
41B
330
41A
100
AcDbEntity
  8
AM_6
 62
     7
420
 16777215
370
    18
100
AcDbVertex
100
AcDb2dVertex
 10
83.8638325643081
 20
210.1033711226031
 30
0.0
  0
VERTEX
  5
41C
330
41A
100
AcDbEntity
  8
AM_6
 62
     7
420
 16777215
370
    18
100
AcDbVertex
100
AcDb2dVertex
 10
83.8638325643081
 20
219.5920268161265
 30
0.0
  0
SEQEND
  5
41D
330
41A
100
AcDbEntity
  8
AM_6
 62
     7
420
 16777215
370
    18
  0
ENDBLK
  5
419
330
416
100
AcDbEntity
  8
0
100
AcDbBlockEnd
  0
BLOCK
  5
420
330
41E
100
AcDbEntity
  8
0
100
AcDbBlockBegin
  2
block 134
 70
     0
 10
0.0
 20
0.0
 30
0.0
  3
block 134
  1

  0
POLYLINE
  5
422
330
41E
100
AcDbEntity
  8
AM_6
 62
     7
420
 16777215
370
    18
100
AcDb2dPolyline
 66
     1
 10
0.0
 20
0.0
 30
0.0
  0
VERTEX
  5
423
330
422
100
AcDbEntity
  8
AM_6
 62
     7
420
 16777215
370
    18
100
AcDbVertex
100
AcDb2dVertex
 10
164.113832564313
 20
217.5920268161265
 30
0.0
  0
VERTEX
  5
424
330
422
100
AcDbEntity
  8
AM_6
 62
     7
420
 16777215
370
    18
100
AcDbVertex
100
AcDb2dVertex
 10
86.8638325643082
 20
217.5920268161265
 30
0.0
  0
SEQEND
  5
425
330
422
100
AcDbEntity
  8
AM_6
 62
     7
420
 16777215
370
    18
  0
ENDBLK
  5
421
330
41E
100
AcDbEntity
  8
0
100
AcDbBlockEnd
  0
BLOCK
  5
428
330
426
100
AcDbEntity
  8
0
100
AcDbBlockBegin
  2
block 135
 70
     0
 10
0.0
 20
0.0
 30
0.0
  3
block 135
  1

  0
MTEXT
  5
42A
330
426
100
AcDbEntity
  8
AM_6
 62
     7
420
 16777215
100
AcDbMText
 10
117.7174055017122
 20
218.3920312971273
 30
0.0
 40
3.999999674242106
 41
0.0
 46
0.0
 71
     7
 72
     1
  1
\fromans.shx|b0|i0|c0|p34;\W0.8;83.25
 73
     1
 44
1.0
  0
ENDBLK
  5
429
330
426
100
AcDbEntity
  8
0
100
AcDbBlockEnd
  0
BLOCK
  5
42D
330
42B
100
AcDbEntity
  8
0
100
AcDbBlockBegin
  2
block 136
 70
     0
 10
0.0
 20
0.0
 30
0.0
  3
block 136
  1

  0
POLYLINE
  5
42F
330
42B
100
AcDbEntity
  8
AM_6
 62
     7
420
 16777215
370
    18
100
AcDb2dPolyline
 66
     1
 10
0.0
 20
0.0
 30
0.0
  0
VERTEX
  5
430
330
42F
100
AcDbEntity
  8
AM_6
 62
     7
420
 16777215
370
    18
100
AcDbVertex
100
AcDb2dVertex
 10
174.2138325643092
 20
191.9766180764592
 30
0.0
  0
VERTEX
  5
431
330
42F
100
AcDbEntity
  8
AM_6
 62
     7
420
 16777215
370
    18
100
AcDbVertex
100
AcDb2dVertex
 10
174.2138325643092
 20
219.5920268161265
 30
0.0
  0
SEQEND
  5
432
330
42F
100
AcDbEntity
  8
AM_6
 62
     7
420
 16777215
370
    18
  0
ENDBLK
  5
42E
330
42B
100
AcDbEntity
  8
0
100
AcDbBlockEnd
  0
BLOCK
  5
435
330
433
100
AcDbEntity
  8
0
100
AcDbBlockBegin
  2
block 137
 70
     0
 10
0.0
 20
0.0
 30
0.0
  3
block 137
  1

  0
POLYLINE
  5
437
330
433
100
AcDbEntity
  8
AM_6
 62
     7
420
 16777215
370
    18
100
AcDb2dPolyline
 66
     1
 10
0.0
 20
0.0
 30
0.0
  0
VERTEX
  5
438
330
437
100
AcDbEntity
  8
AM_6
 62
     7
420
 16777215
370
    18
100
AcDbVertex
100
AcDb2dVertex
 10
167.1138325643131
 20
188.6033711225985
 30
0.0
  0
VERTEX
  5
439
330
437
100
AcDbEntity
  8
AM_6
 62
     7
420
 16777215
370
    18
100
AcDbVertex
100
AcDb2dVertex
 10
167.1138325643131
 20
219.5920268161265
 30
0.0
  0
SEQEND
  5
43A
330
437
100
AcDbEntity
  8
AM_6
 62
     7
420
 16777215
370
    18
  0
ENDBLK
  5
436
330
433
100
AcDbEntity
  8
0
100
AcDbBlockEnd
  0
BLOCK
  5
43D
330
43B
100
AcDbEntity
  8
0
100
AcDbBlockBegin
  2
block 138
 70
     0
 10
0.0
 20
0.0
 30
0.0
  3
block 138
  1

  0
POLYLINE
  5
43F
330
43B
100
AcDbEntity
  8
AM_6
 62
     7
420
 16777215
370
    18
100
AcDb2dPolyline
 66
     1
 10
0.0
 20
0.0
 30
0.0
  0
VERTEX
  5
440
330
43F
100
AcDbEntity
  8
AM_6
 62
     7
420
 16777215
370
    18
100
AcDbVertex
100
AcDb2dVertex
 10
177.213832564308
 20
217.5920268161265
 30
0.0
  0
VERTEX
  5
441
330
43F
100
AcDbEntity
  8
AM_6
 62
     7
420
 16777215
370
    18
100
AcDbVertex
100
AcDb2dVertex
 10
180.2138325643081
 20
217.5920268161265
 30
0.0
  0
SEQEND
  5
442
330
43F
100
AcDbEntity
  8
AM_6
 62
     7
420
 16777215
370
    18
  0
ENDBLK
  5
43E
330
43B
100
AcDbEntity
  8
0
100
AcDbBlockEnd
  0
BLOCK
  5
445
330
443
100
AcDbEntity
  8
0
100
AcDbBlockBegin
  2
block 139
 70
     0
 10
0.0
 20
0.0
 30
0.0
  3
block 139
  1

  0
POLYLINE
  5
447
330
443
100
AcDbEntity
  8
AM_6
 62
     7
420
 16777215
370
    18
100
AcDb2dPolyline
 66
     1
 10
0.0
 20
0.0
 30
0.0
  0
VERTEX
  5
448
330
447
100
AcDbEntity
  8
AM_6
 62
     7
420
 16777215
370
    18
100
AcDbVertex
100
AcDb2dVertex
 10
164.113832564313
 20
217.5920268161265
 30
0.0
  0
VERTEX
  5
449
330
447
100
AcDbEntity
  8
AM_6
 62
     7
420
 16777215
370
    18
100
AcDbVertex
100
AcDb2dVertex
 10
161.1138325643129
 20
217.5920268161265
 30
0.0
  0
SEQEND
  5
44A
330
447
100
AcDbEntity
  8
AM_6
 62
     7
420
 16777215
370
    18
  0
ENDBLK
  5
446
330
443
100
AcDbEntity
  8
0
100
AcDbBlockEnd
  0
BLOCK
  5
44D
330
44B
100
AcDbEntity
  8
0
100
AcDbBlockBegin
  2
block 140
 70
     0
 10
0.0
 20
0.0
 30
0.0
  3
block 140
  1

  0
POLYLINE
  5
44F
330
44B
100
AcDbEntity
  8
AM_6
 62
     7
420
 16777215
370
    18
100
AcDb2dPolyline
 66
     1
 10
0.0
 20
0.0
 30
0.0
  0
VERTEX
  5
450
330
44F
100
AcDbEntity
  8
AM_6
 62
     7
420
 16777215
370
    18
100
AcDbVertex
100
AcDb2dVertex
 10
174.2138325643092
 20
217.5920268161265
 30
0.0
  0
VERTEX
  5
451
330
44F
100
AcDbEntity
  8
AM_6
 62
     7
420
 16777215
370
    18
100
AcDbVertex
100
AcDb2dVertex
 10
167.1138325643131
 20
217.5920268161265
 30
0.0
  0
SEQEND
  5
452
330
44F
100
AcDbEntity
  8
AM_6
 62
     7
420
 16777215
370
    18
  0
ENDBLK
  5
44E
330
44B
100
AcDbEntity
  8
0
100
AcDbBlockEnd
  0
BLOCK
  5
455
330
453
100
AcDbEntity
  8
0
100
AcDbBlockBegin
  2
block 141
 70
     0
 10
0.0
 20
0.0
 30
0.0
  3
block 141
  1

  0
MTEXT
  5
457
330
453
100
AcDbEntity
  8
AM_6
 62
     7
420
 16777215
100
AcDbMText
 10
166.3971645363087
 20
218.3920312971273
 30
0.0
 40
3.999999674242106
 41
0.0
 46
0.0
 71
     7
 72
     1
  1
\fromans.shx|b0|i0|c0|p34;\W0.8;7.1
 73
     1
 44
1.0
  0
ENDBLK
  5
456
330
453
100
AcDbEntity
  8
0
100
AcDbBlockEnd
  0
BLOCK
  5
45A
330
458
100
AcDbEntity
  8
0
100
AcDbBlockBegin
  2
block 142
 70
     0
 10
0.0
 20
0.0
 30
0.0
  3
block 142
  1

  0
POLYLINE
  5
45C
330
458
100
AcDbEntity
  8
AM_6
 62
     3
420
    65280
370
    18
100
AcDb2dPolyline
 66
     1
 10
0.0
 20
0.0
 30
0.0
  0
VERTEX
  5
45D
330
45C
100
AcDbEntity
  8
AM_6
 62
     3
420
    65280
370
    18
100
AcDbVertex
100
AcDb2dVertex
 10
197.3471658976414
 20
132.6033711226032
 30
0.0
  0
VERTEX
  5
45E
330
45C
100
AcDbEntity
  8
AM_6
 62
     3
420
    65280
370
    18
100
AcDbVertex
100
AcDb2dVertex
 10
184.1138325643086
 20
132.6033711226032
 30
0.0
  0
SEQEND
  5
45F
330
45C
100
AcDbEntity
  8
AM_6
 62
     3
420
    65280
370
    18
  0
ENDBLK
  5
45B
330
458
100
AcDbEntity
  8
0
100
AcDbBlockEnd
  0
BLOCK
  5
462
330
460
100
AcDbEntity
  8
0
100
AcDbBlockBegin
  2
block 143
 70
     0
 10
0.0
 20
0.0
 30
0.0
  3
block 143
  1

  0
POLYLINE
  5
464
330
460
100
AcDbEntity
  8
AM_6
 62
     3
420
    65280
370
    18
100
AcDb2dPolyline
 66
     1
 10
0.0
 20
0.0
 30
0.0
  0
VERTEX
  5
465
330
464
100
AcDbEntity
  8
AM_6
 62
     3
420
    65280
370
    18
100
AcDbVertex
100
AcDb2dVertex
 10
184.1138325643079
 20
132.6033711226032
 30
0.0
  0
VERTEX
  5
466
330
464
100
AcDbEntity
  8
AM_6
 62
     3
420
    65280
370
    18
100
AcDbVertex
100
AcDb2dVertex
 10
160.341343314037
 20
181.2906227438064
 30
0.0
  0
SEQEND
  5
467
330
464
100
AcDbEntity
  8
AM_6
 62
     3
420
    65280
370
    18
  0
ENDBLK
  5
463
330
460
100
AcDbEntity
  8
0
100
AcDbBlockEnd
  0
BLOCK
  5
46A
330
468
100
AcDbEntity
  8
0
100
AcDbBlockBegin
  2
block 144
 70
     0
 10
0.0
 20
0.0
 30
0.0
  3
block 144
  1

  0
POLYLINE
  5
46C
330
468
100
AcDbEntity
  8
AM_6
370
     0
100
AcDb2dPolyline
 66
     1
 10
0.0
 20
0.0
 30
0.0
  0
VERTEX
  5
46D
330
46C
100
AcDbEntity
  8
AM_6
370
     0
100
AcDbVertex
100
AcDb2dVertex
 10
160.8655289459473
 20
181.5465664844117
 30
0.0
  0
VERTEX
  5
46E
330
46C
100
AcDbEntity
  8
AM_6
370
     0
100
AcDbVertex
100
AcDb2dVertex
 10
158.8056808642623
 20
184.4357365478447
 30
0.0
  0
VERTEX
  5
46F
330
46C
100
AcDbEntity
  8
AM_6
370
     0
100
AcDbVertex
100
AcDb2dVertex
 10
159.8171576821273
 20
181.0346790032011
 30
0.0
  0
VERTEX
  5
470
330
46C
100
AcDbEntity
  8
AM_6
370
     0
100
AcDbVertex
100
AcDb2dVertex
 10
160.8655289459473
 20
181.5465664844117
 30
0.0
  0
SEQEND
  5
471
330
46C
100
AcDbEntity
  8
AM_6
370
     0
  0
ENDBLK
  5
46B
330
468
100
AcDbEntity
  8
0
100
AcDbBlockEnd
  0
BLOCK
  5
474
330
472
100
AcDbEntity
  8
0
100
AcDbBlockBegin
  2
block 145
 70
     0
 10
0.0
 20
0.0
 30
0.0
  3
block 145
  1

  0
POLYLINE
  5
476
330
472
100
AcDbEntity
  8
AM_6
370
     0
100
AcDb2dPolyline
 66
     1
 10
0.0
 20
0.0
 30
0.0
  0
VERTEX
  5
477
330
476
100
AcDbEntity
  8
AM_6
370
     0
100
AcDbVertex
100
AcDb2dVertex
 10
160.8655289459473
 20
181.5465664844117
 30
0.0
  0
VERTEX
  5
478
330
476
100
AcDbEntity
  8
AM_6
370
     0
100
AcDbVertex
100
AcDb2dVertex
 10
158.8056808642623
 20
184.4357365478447
 30
0.0
  0
VERTEX
  5
479
330
476
100
AcDbEntity
  8
AM_6
370
     0
100
AcDbVertex
100
AcDb2dVertex
 10
159.8171576821273
 20
181.0346790032011
 30
0.0
  0
VERTEX
  5
47A
330
476
100
AcDbEntity
  8
AM_6
370
     0
100
AcDbVertex
100
AcDb2dVertex
 10
160.8655289459473
 20
181.5465664844117
 30
0.0
  0
SEQEND
  5
47B
330
476
100
AcDbEntity
  8
AM_6
370
     0
  0
ENDBLK
  5
475
330
472
100
AcDbEntity
  8
0
100
AcDbBlockEnd
  0
BLOCK
  5
47E
330
47C
100
AcDbEntity
  8
0
100
AcDbBlockBegin
  2
block 146
 70
     0
 10
0.0
 20
0.0
 30
0.0
  3
block 146
  1

  0
POLYLINE
  5
480
330
47C
100
AcDbEntity
  8
AM_6
370
     0
100
AcDb2dPolyline
 66
     1
 10
0.0
 20
0.0
 30
0.0
  0
VERTEX
  5
481
330
480
100
AcDbEntity
  8
AM_6
370
     0
100
AcDbVertex
100
AcDb2dVertex
 10
160.8655289459473
 20
181.5465664844117
 30
0.0
  0
VERTEX
  5
482
330
480
100
AcDbEntity
  8
AM_6
370
     0
100
AcDbVertex
100
AcDb2dVertex
 10
158.8056808642629
 20
184.4357365478457
 30
0.0
  0
VERTEX
  5
483
330
480
100
AcDbEntity
  8
AM_6
370
     0
100
AcDbVertex
100
AcDb2dVertex
 10
159.8171576821273
 20
181.0346790032011
 30
0.0
  0
VERTEX
  5
484
330
480
100
AcDbEntity
  8
AM_6
370
     0
100
AcDbVertex
100
AcDb2dVertex
 10
160.8655289459473
 20
181.5465664844117
 30
0.0
  0
VERTEX
  5
485
330
480
100
AcDbEntity
  8
AM_6
370
     0
100
AcDbVertex
100
AcDb2dVertex
 10
160.8655289459473
 20
181.5465664844117
 30
0.0
  0
SEQEND
  5
487
330
480
100
AcDbEntity
  8
AM_6
370
     0
  0
HATCH
  5
486
330
47C
100
AcDbEntity
  8
AM_6
 62
     3
420
    65280
100
AcDbHatch
 10
0.0
 20
0.0
 30
0.0
210
0.0
220
0.0
230
1.0
  2
SOLID
 70
     1
 71
     0
 91
        1
 92
        1
 93
        3
 72
     1
 10
160.8655289459473
 20
181.5465664844117
 11
158.8056808642629
 21
184.4357365478457
 72
     1
 10
158.8056808642629
 20
184.4357365478457
 11
159.8171576821273
 21
181.0346790032011
 72
     1
 10
159.8171576821273
 20
181.0346790032011
 11
160.8655289459473
 21
181.5465664844117
 97
        0
 75
     2
 76
     1
 98
        0
  0
ENDBLK
  5
47F
330
47C
100
AcDbEntity
  8
0
100
AcDbBlockEnd
  0
BLOCK
  5
48A
330
488
100
AcDbEntity
  8
0
100
AcDbBlockBegin
  2
block 147
 70
     0
 10
0.0
 20
0.0
 30
0.0
  3
block 147
  1

  0
MTEXT
  5
48C
330
488
100
AcDbEntity
  8
AM_6
 62
     2
420
 16776960
100
AcDbMText
 10
186.0138396751762
 20
134.3533732608181
 30
0.0
 40
3.499999953157898
 41
0.0
 46
0.0
 71
     7
 72
     1
  1
\fromans.shx|b0|i0|c0|p34;\W0.8;ER16
 73
     1
 44
1.0
  0
ENDBLK
  5
48B
330
488
100
AcDbEntity
  8
0
100
AcDbBlockEnd
  0
BLOCK
  5
490
330
48E
100
AcDbEntity
  8
0
100
AcDbBlockBegin
  2
block 148
 70
     0
 10
0.0
 20
0.0
 30
0.0
  3
block 148
  1

  0
POLYLINE
  5
492
330
48E
100
AcDbEntity
  8
AM_7
  6
AI-Linetype-1
 62
     2
420
 16776960
370
    18
100
AcDb2dPolyline
 66
     1
 10
0.0
 20
0.0
 30
0.0
  0
VERTEX
  5
493
330
492
100
AcDbEntity
  8
AM_7
  6
AI-Linetype-1
 62
     2
420
 16776960
370
    18
100
AcDbVertex
100
AcDb2dVertex
 10
74.8638325643081
 20
168.3533711226027
 30
0.0
  0
VERTEX
  5
494
330
492
100
AcDbEntity
  8
AM_7
  6
AI-Linetype-1
 62
     2
420
 16776960
370
    18
100
AcDbVertex
100
AcDb2dVertex
 10
74.8638325643081
 20
186.8529849089547
 30
0.0
  0
SEQEND
  5
496
330
492
100
AcDbEntity
  8
AM_7
  6
AI-Linetype-1
 62
     2
420
 16776960
370
    18
  0
ENDBLK
  5
491
330
48E
100
AcDbEntity
  8
0
100
AcDbBlockEnd
  0
BLOCK
  5
499
330
497
100
AcDbEntity
  8
0
100
AcDbBlockBegin
  2
block 149
 70
     0
 10
0.0
 20
0.0
 30
0.0
  3
block 149
  1

  0
POLYLINE
  5
49B
330
497
100
AcDbEntity
  8
AM_7
  6
AI-Linetype-2
 62
     2
420
 16776960
370
    18
100
AcDb2dPolyline
 66
     1
 10
0.0
 20
0.0
 30
0.0
  0
VERTEX
  5
49C
330
49B
100
AcDbEntity
  8
AM_7
  6
AI-Linetype-2
 62
     2
420
 16776960
370
    18
100
AcDbVertex
100
AcDb2dVertex
 10
48.86383256430814
 20
177.6033711226029
 30
0.0
  0
VERTEX
  5
49D
330
49B
100
AcDbEntity
  8
AM_7
  6
AI-Linetype-2
 62
     2
420
 16776960
370
    18
100
AcDbVertex
100
AcDb2dVertex
 10
179.2138325643081
 20
177.6033711226029
 30
0.0
  0
SEQEND
  5
49F
330
49B
100
AcDbEntity
  8
AM_7
  6
AI-Linetype-2
 62
     2
420
 16776960
370
    18
  0
ENDBLK
  5
49A
330
497
100
AcDbEntity
  8
0
100
AcDbBlockEnd
  0
BLOCK
  5
4A3
330
4A1
100
AcDbEntity
  8
0
100
AcDbBlockBegin
  2
block 150
 70
     0
 10
0.0
 20
0.0
 30
0.0
  3
block 150
  1

  0
POLYLINE
  5
4A5
330
4A1
100
AcDbEntity
  8
AM_3
  6
AI-Linetype-3
 62
    11
420
 16744319
370
    18
100
AcDb2dPolyline
 66
     1
 10
0.0
 20
0.0
 30
0.0
  0
VERTEX
  5
4A6
330
4A5
100
AcDbEntity
  8
AM_3
  6
AI-Linetype-3
 62
    11
420
 16744319
370
    18
100
AcDbVertex
100
AcDb2dVertex
 10
61.86383256430828
 20
172.8333711226035
 30
0.0
  0
VERTEX
  5
4A7
330
4A5
100
AcDbEntity
  8
AM_3
  6
AI-Linetype-3
 62
    11
420
 16744319
370
    18
100
AcDbVertex
100
AcDb2dVertex
 10
61.86383256430828
 20
182.3733711226036
 30
0.0
  0
SEQEND
  5
4A9
330
4A5
100
AcDbEntity
  8
AM_3
  6
AI-Linetype-3
 62
    11
420
 16744319
370
    18
  0
ENDBLK
  5
4A4
330
4A1
100
AcDbEntity
  8
0
100
AcDbBlockEnd
  0
BLOCK
  5
4AC
330
4AA
100
AcDbEntity
  8
0
100
AcDbBlockBegin
  2
block 151
 70
     0
 10
0.0
 20
0.0
 30
0.0
  3
block 151
  1

  0
SPLINE
  5
4AE
330
4AA
100
AcDbEntity
  8
AM_3
  6
AI-Linetype-4
 62
    11
420
 16744319
370
    18
100
AcDbSpline
210
0.0
220
0.0
230
1.0
 70
     8
 71
     3
 72
     8
 73
     4
 74
     0
 42
0.0000000001
 43
0.0000000001
 12
1.0
 22
0.0
 32
0.0
 13
1.0
 23
0.0
 33
0.0
 40
0.0
 40
0.0
 40
0.0
 40
0.0
 40
1.0
 40
1.0
 40
1.0
 40
1.0
 10
61.86383256430828
 20
182.3733711226033
 30
0.0
 10
61.86383256430828
 20
183.2017982473494
 30
0.0
 10
61.19225968905402
 20
183.8733711226037
 30
0.0
 10
60.36383256430823
 20
183.8733711226037
 30
0.0
  0
ENDBLK
  5
4AD
330
4AA
100
AcDbEntity
  8
0
100
AcDbBlockEnd
  0
BLOCK
  5
4B2
330
4B0
100
AcDbEntity
  8
0
100
AcDbBlockBegin
  2
block 152
 70
     0
 10
0.0
 20
0.0
 30
0.0
  3
block 152
  1

  0
POLYLINE
  5
4B4
330
4B0
100
AcDbEntity
  8
AM_3
  6
AI-Linetype-5
 62
    11
420
 16744319
370
    18
100
AcDb2dPolyline
 66
     1
 10
0.0
 20
0.0
 30
0.0
  0
VERTEX
  5
4B5
330
4B4
100
AcDbEntity
  8
AM_3
  6
AI-Linetype-5
 62
    11
420
 16744319
370
    18
100
AcDbVertex
100
AcDb2dVertex
 10
56.36383256430808
 20
183.8733711226037
 30
0.0
  0
VERTEX
  5
7B3
330
4B4
100
AcDbEntity
  8
0
100
AcDbVertex
100
AcDb2dVertex
 10
56.36383256430808
 20
183.8733711226037
 30
0.0
  0
SEQEND
  5
4B7
330
4B4
100
AcDbEntity
  8
AM_3
  6
AI-Linetype-5
 62
    11
420
 16744319
370
    18
  0
ENDBLK
  5
4B3
330
4B0
100
AcDbEntity
  8
0
100
AcDbBlockEnd
  0
BLOCK
  5
4BA
330
4B8
100
AcDbEntity
  8
0
100
AcDbBlockBegin
  2
block 153
 70
     0
 10
0.0
 20
0.0
 30
0.0
  3
block 153
  1

  0
SPLINE
  5
4BC
330
4B8
100
AcDbEntity
  8
AM_3
  6
AI-Linetype-6
 62
    11
420
 16744319
370
    18
100
AcDbSpline
210
0.0
220
0.0
230
1.0
 70
     8
 71
     3
 72
     8
 73
     4
 74
     0
 42
0.0000000001
 43
0.0000000001
 12
1.0
 22
0.0
 32
0.0
 13
1.0
 23
0.0
 33
0.0
 40
0.0
 40
0.0
 40
0.0
 40
0.0
 40
1.0
 40
1.0
 40
1.0
 40
1.0
 10
60.36383256430823
 20
171.3333711226034
 30
0.0
 10
61.19225968905402
 20
171.3333711226034
 30
0.0
 10
61.86383256430828
 20
172.0049439978567
 30
0.0
 10
61.86383256430828
 20
172.8333711226035
 30
0.0
  0
ENDBLK
  5
4BB
330
4B8
100
AcDbEntity
  8
0
100
AcDbBlockEnd
  0
BLOCK
  5
4C0
330
4BE
100
AcDbEntity
  8
0
100
AcDbBlockBegin
  2
block 154
 70
     0
 10
0.0
 20
0.0
 30
0.0
  3
block 154
  1

  0
POLYLINE
  5
4C2
330
4BE
100
AcDbEntity
  8
AM_3
  6
AI-Linetype-7
 62
    11
420
 16744319
370
    18
100
AcDb2dPolyline
 66
     1
 10
0.0
 20
0.0
 30
0.0
  0
VERTEX
  5
4C3
330
4C2
100
AcDbEntity
  8
AM_3
  6
AI-Linetype-7
 62
    11
420
 16744319
370
    18
100
AcDbVertex
100
AcDb2dVertex
 10
56.36383256430808
 20
171.3333711226034
 30
0.0
  0
VERTEX
  5
7B4
330
4C2
100
AcDbEntity
  8
0
100
AcDbVertex
100
AcDb2dVertex
 10
56.36383256430808
 20
171.3333711226034
 30
0.0
  0
SEQEND
  5
4C5
330
4C2
100
AcDbEntity
  8
AM_3
  6
AI-Linetype-7
 62
    11
420
 16744319
370
    18
  0
ENDBLK
  5
4C1
330
4BE
100
AcDbEntity
  8
0
100
AcDbBlockEnd
  0
BLOCK
  5
4C8
330
4C6
100
AcDbEntity
  8
0
100
AcDbBlockBegin
  2
block 155
 70
     0
 10
0.0
 20
0.0
 30
0.0
  3
block 155
  1

  0
POLYLINE
  5
4CA
330
4C6
100
AcDbEntity
  8
AM_3
  6
AI-Linetype-8
 62
    11
420
 16744319
370
    18
100
AcDb2dPolyline
 66
     1
 10
0.0
 20
0.0
 30
0.0
  0
VERTEX
  5
4CB
330
4CA
100
AcDbEntity
  8
AM_3
  6
AI-Linetype-8
 62
    11
420
 16744319
370
    18
100
AcDbVertex
100
AcDb2dVertex
 10
56.36383256430808
 20
183.8733711226037
 30
0.0
  0
VERTEX
  5
4CC
330
4CA
100
AcDbEntity
  8
AM_3
  6
AI-Linetype-8
 62
    11
420
 16744319
370
    18
100
AcDbVertex
100
AcDb2dVertex
 10
60.36383256430823
 20
183.8733711226037
 30
0.0
  0
SEQEND
  5
4CE
330
4CA
100
AcDbEntity
  8
AM_3
  6
AI-Linetype-8
 62
    11
420
 16744319
370
    18
  0
ENDBLK
  5
4C9
330
4C6
100
AcDbEntity
  8
0
100
AcDbBlockEnd
  0
BLOCK
  5
4D1
330
4CF
100
AcDbEntity
  8
0
100
AcDbBlockBegin
  2
block 156
 70
     0
 10
0.0
 20
0.0
 30
0.0
  3
block 156
  1

  0
POLYLINE
  5
4D3
330
4CF
100
AcDbEntity
  8
AM_3
  6
AI-Linetype-9
 62
    11
420
 16744319
370
    18
100
AcDb2dPolyline
 66
     1
 10
0.0
 20
0.0
 30
0.0
  0
VERTEX
  5
4D4
330
4D3
100
AcDbEntity
  8
AM_3
  6
AI-Linetype-9
 62
    11
420
 16744319
370
    18
100
AcDbVertex
100
AcDb2dVertex
 10
56.36383256430808
 20
171.3333711226034
 30
0.0
  0
VERTEX
  5
4D5
330
4D3
100
AcDbEntity
  8
AM_3
  6
AI-Linetype-9
 62
    11
420
 16744319
370
    18
100
AcDbVertex
100
AcDb2dVertex
 10
60.36383256430823
 20
171.3333711226034
 30
0.0
  0
SEQEND
  5
4D7
330
4D3
100
AcDbEntity
  8
AM_3
  6
AI-Linetype-9
 62
    11
420
 16744319
370
    18
  0
ENDBLK
  5
4D2
330
4CF
100
AcDbEntity
  8
0
100
AcDbBlockEnd
  0
BLOCK
  5
4DA
330
4D8
100
AcDbEntity
  8
0
100
AcDbBlockBegin
  2
block 157
 70
     0
 10
0.0
 20
0.0
 30
0.0
  3
block 157
  1

  0
POLYLINE
  5
4DC
330
4D8
100
AcDbEntity
  8
AM_3
  6
AI-Linetype-10
 62
    11
420
 16744319
370
    18
100
AcDb2dPolyline
 66
     1
 10
0.0
 20
0.0
 30
0.0
  0
VERTEX
  5
4DD
330
4DC
100
AcDbEntity
  8
AM_3
  6
AI-Linetype-10
 62
    11
420
 16744319
370
    18
100
AcDbVertex
100
AcDb2dVertex
 10
167.1138325643131
 20
187.6033711226029
 30
0.0
  0
VERTEX
  5
4DE
330
4DC
100
AcDbEntity
  8
AM_3
  6
AI-Linetype-10
 62
    11
420
 16744319
370
    18
100
AcDbVertex
100
AcDb2dVertex
 10
167.113832564308
 20
167.6033711226029
 30
0.0
  0
SEQEND
  5
4E0
330
4DC
100
AcDbEntity
  8
AM_3
  6
AI-Linetype-10
 62
    11
420
 16744319
370
    18
  0
ENDBLK
  5
4DB
330
4D8
100
AcDbEntity
  8
0
100
AcDbBlockEnd
  0
BLOCK
  5
4E3
330
4E1
100
AcDbEntity
  8
0
100
AcDbBlockBegin
  2
block 158
 70
     0
 10
0.0
 20
0.0
 30
0.0
  3
block 158
  1

  0
POLYLINE
  5
4E5
330
4E1
100
AcDbEntity
  8
AM_3
  6
AI-Linetype-11
 62
    11
420
 16744319
370
    18
100
AcDb2dPolyline
 66
     1
 10
0.0
 20
0.0
 30
0.0
  0
VERTEX
  5
4E6
330
4E5
100
AcDbEntity
  8
AM_3
  6
AI-Linetype-11
 62
    11
420
 16744319
370
    18
100
AcDbVertex
100
AcDb2dVertex
 10
166.1138325643086
 20
166.6033711226028
 30
0.0
  0
VERTEX
  5
4E7
330
4E5
100
AcDbEntity
  8
AM_3
  6
AI-Linetype-11
 62
    11
420
 16744319
370
    18
100
AcDbVertex
100
AcDb2dVertex
 10
167.113832564308
 20
167.6033711226029
 30
0.0
  0
SEQEND
  5
4E9
330
4E5
100
AcDbEntity
  8
AM_3
  6
AI-Linetype-11
 62
    11
420
 16744319
370
    18
  0
ENDBLK
  5
4E4
330
4E1
100
AcDbEntity
  8
0
100
AcDbBlockEnd
  0
BLOCK
  5
4EC
330
4EA
100
AcDbEntity
  8
0
100
AcDbBlockBegin
  2
block 159
 70
     0
 10
0.0
 20
0.0
 30
0.0
  3
block 159
  1

  0
POLYLINE
  5
4EE
330
4EA
100
AcDbEntity
  8
AM_3
  6
AI-Linetype-12
 62
    11
420
 16744319
370
    18
100
AcDb2dPolyline
 66
     1
 10
0.0
 20
0.0
 30
0.0
  0
VERTEX
  5
4EF
330
4EE
100
AcDbEntity
  8
AM_3
  6
AI-Linetype-12
 62
    11
420
 16744319
370
    18
100
AcDbVertex
100
AcDb2dVertex
 10
166.1138325643092
 20
166.6033711226048
 30
0.0
  0
VERTEX
  5
4F0
330
4EE
100
AcDbEntity
  8
AM_3
  6
AI-Linetype-12
 62
    11
420
 16744319
370
    18
100
AcDbVertex
100
AcDb2dVertex
 10
149.7638325643999
 20
166.6033711226086
 30
0.0
  0
SEQEND
  5
4F2
330
4EE
100
AcDbEntity
  8
AM_3
  6
AI-Linetype-12
 62
    11
420
 16744319
370
    18
  0
ENDBLK
  5
4ED
330
4EA
100
AcDbEntity
  8
0
100
AcDbBlockEnd
  0
BLOCK
  5
4F5
330
4F3
100
AcDbEntity
  8
0
100
AcDbBlockBegin
  2
block 160
 70
     0
 10
0.0
 20
0.0
 30
0.0
  3
block 160
  1

  0
POLYLINE
  5
4F7
330
4F3
100
AcDbEntity
  8
AM_3
  6
AI-Linetype-13
 62
    11
420
 16744319
370
    18
100
AcDb2dPolyline
 66
     1
 10
0.0
 20
0.0
 30
0.0
  0
VERTEX
  5
4F8
330
4F7
100
AcDbEntity
  8
AM_3
  6
AI-Linetype-13
 62
    11
420
 16744319
370
    18
100
AcDbVertex
100
AcDb2dVertex
 10
166.1138325643086
 20
188.603371122603
 30
0.0
  0
VERTEX
  5
4F9
330
4F7
100
AcDbEntity
  8
AM_3
  6
AI-Linetype-13
 62
    11
420
 16744319
370
    18
100
AcDbVertex
100
AcDb2dVertex
 10
167.113832564308
 20
187.6033711226029
 30
0.0
  0
SEQEND
  5
4FB
330
4F7
100
AcDbEntity
  8
AM_3
  6
AI-Linetype-13
 62
    11
420
 16744319
370
    18
  0
ENDBLK
  5
4F6
330
4F3
100
AcDbEntity
  8
0
100
AcDbBlockEnd
  0
BLOCK
  5
4FE
330
4FC
100
AcDbEntity
  8
0
100
AcDbBlockBegin
  2
block 161
 70
     0
 10
0.0
 20
0.0
 30
0.0
  3
block 161
  1

  0
POLYLINE
  5
500
330
4FC
100
AcDbEntity
  8
AM_3
  6
AI-Linetype-14
 62
    11
420
 16744319
370
    18
100
AcDb2dPolyline
 66
     1
 10
0.0
 20
0.0
 30
0.0
  0
VERTEX
  5
501
330
500
100
AcDbEntity
  8
AM_3
  6
AI-Linetype-14
 62
    11
420
 16744319
370
    18
100
AcDbVertex
100
AcDb2dVertex
 10
167.113832564308
 20
169.6033711226029
 30
0.0
  0
VERTEX
  5
502
330
500
100
AcDbEntity
  8
AM_3
  6
AI-Linetype-14
 62
    11
420
 16744319
370
    18
100
AcDbVertex
100
AcDb2dVertex
 10
147.5465658277698
 20
172.3533711225932
 30
0.0
  0
SEQEND
  5
504
330
500
100
AcDbEntity
  8
AM_3
  6
AI-Linetype-14
 62
    11
420
 16744319
370
    18
  0
ENDBLK
  5
4FF
330
4FC
100
AcDbEntity
  8
0
100
AcDbBlockEnd
  0
BLOCK
  5
507
330
505
100
AcDbEntity
  8
0
100
AcDbBlockBegin
  2
block 162
 70
     0
 10
0.0
 20
0.0
 30
0.0
  3
block 162
  1

  0
POLYLINE
  5
509
330
505
100
AcDbEntity
  8
AM_3
  6
AI-Linetype-15
 62
    11
420
 16744319
370
    18
100
AcDb2dPolyline
 66
     1
 10
0.0
 20
0.0
 30
0.0
  0
VERTEX
  5
50A
330
509
100
AcDbEntity
  8
AM_3
  6
AI-Linetype-15
 62
    11
420
 16744319
370
    18
100
AcDbVertex
100
AcDb2dVertex
 10
167.113832564308
 20
185.6033711226029
 30
0.0
  0
VERTEX
  5
50B
330
509
100
AcDbEntity
  8
AM_3
  6
AI-Linetype-15
 62
    11
420
 16744319
370
    18
100
AcDbVertex
100
AcDb2dVertex
 10
147.5465658277698
 20
182.8533711226058
 30
0.0
  0
SEQEND
  5
50D
330
509
100
AcDbEntity
  8
AM_3
  6
AI-Linetype-15
 62
    11
420
 16744319
370
    18
  0
ENDBLK
  5
508
330
505
100
AcDbEntity
  8
0
100
AcDbBlockEnd
  0
BLOCK
  5
510
330
50E
100
AcDbEntity
  8
0
100
AcDbBlockBegin
  2
block 163
 70
     0
 10
0.0
 20
0.0
 30
0.0
  3
block 163
  1

  0
POLYLINE
  5
512
330
50E
100
AcDbEntity
  8
AM_3
  6
AI-Linetype-16
 62
    11
420
 16744319
370
    18
100
AcDb2dPolyline
 66
     1
 10
0.0
 20
0.0
 30
0.0
  0
VERTEX
  5
513
330
512
100
AcDbEntity
  8
AM_3
  6
AI-Linetype-16
 62
    11
420
 16744319
370
    18
100
AcDbVertex
100
AcDb2dVertex
 10
166.1138325643092
 20
188.603371122601
 30
0.0
  0
VERTEX
  5
514
330
512
100
AcDbEntity
  8
AM_3
  6
AI-Linetype-16
 62
    11
420
 16744319
370
    18
100
AcDbVertex
100
AcDb2dVertex
 10
149.7638325643826
 20
188.6033711225994
 30
0.0
  0
SEQEND
  5
516
330
512
100
AcDbEntity
  8
AM_3
  6
AI-Linetype-16
 62
    11
420
 16744319
370
    18
  0
ENDBLK
  5
511
330
50E
100
AcDbEntity
  8
0
100
AcDbBlockEnd
  0
BLOCK
  5
519
330
517
100
AcDbEntity
  8
0
100
AcDbBlockBegin
  2
block 164
 70
     0
 10
0.0
 20
0.0
 30
0.0
  3
block 164
  1

  0
POLYLINE
  5
51B
330
517
100
AcDbEntity
  8
0
370
     0
100
AcDb2dPolyline
 66
     1
 10
0.0
 20
0.0
 30
0.0
  0
VERTEX
  5
51C
330
51B
100
AcDbEntity
  8
0
370
     0
100
AcDbVertex
100
AcDb2dVertex
 10
83.8638325643081
 20
177.6033711226029
 30
0.0
  0
VERTEX
  5
7B5
330
51B
100
AcDbEntity
  8
0
100
AcDbVertex
100
AcDb2dVertex
 10
83.8638325643081
 20
177.6033711226029
 30
0.0
  0
SEQEND
  5
51D
330
51B
100
AcDbEntity
  8
0
370
     0
  0
ENDBLK
  5
51A
330
517
100
AcDbEntity
  8
0
100
AcDbBlockEnd
  0
BLOCK
  5
520
330
51E
100
AcDbEntity
  8
0
100
AcDbBlockBegin
  2
block 165
 70
     0
 10
0.0
 20
0.0
 30
0.0
  3
block 165
  1

  0
POLYLINE
  5
522
330
51E
100
AcDbEntity
  8
0
 62
     7
420
 16777215
370
    18
100
AcDb2dPolyline
 66
     1
 10
0.0
 20
0.0
 30
0.0
  0
VERTEX
  5
523
330
522
100
AcDbEntity
  8
0
 62
     7
420
 16777215
370
    18
100
AcDbVertex
100
AcDb2dVertex
 10
171.2138325643085
 20
133.4072176826036
 30
0.0
  0
VERTEX
  5
524
330
522
100
AcDbEntity
  8
0
 62
     7
420
 16777215
370
    18
100
AcDbVertex
100
AcDb2dVertex
 10
174.2138325643092
 20
132.6033701126042
 30
0.0
  0
SEQEND
  5
525
330
522
100
AcDbEntity
  8
0
 62
     7
420
 16777215
370
    18
  0
ENDBLK
  5
521
330
51E
100
AcDbEntity
  8
0
100
AcDbBlockEnd
  0
BLOCK
  5
528
330
526
100
AcDbEntity
  8
0
100
AcDbBlockBegin
  2
block 166
 70
     0
 10
0.0
 20
0.0
 30
0.0
  3
block 166
  1

  0
POLYLINE
  5
52A
330
526
100
AcDbEntity
  8
0
 62
     7
420
 16777215
370
    18
100
AcDb2dPolyline
 66
     1
 10
0.0
 20
0.0
 30
0.0
  0
VERTEX
  5
52B
330
52A
100
AcDbEntity
  8
0
 62
     7
420
 16777215
370
    18
100
AcDbVertex
100
AcDb2dVertex
 10
174.2138325643092
 20
132.6033701126042
 30
0.0
  0
VERTEX
  5
52C
330
52A
100
AcDbEntity
  8
0
 62
     7
420
 16777215
370
    18
100
AcDbVertex
100
AcDb2dVertex
 10
171.2138325643085
 20
131.7995225426036
 30
0.0
  0
SEQEND
  5
52D
330
52A
100
AcDbEntity
  8
0
 62
     7
420
 16777215
370
    18
  0
ENDBLK
  5
529
330
526
100
AcDbEntity
  8
0
100
AcDbBlockEnd
  0
BLOCK
  5
530
330
52E
100
AcDbEntity
  8
0
100
AcDbBlockBegin
  2
block 167
 70
     0
 10
0.0
 20
0.0
 30
0.0
  3
block 167
  1

  0
POLYLINE
  5
532
330
52E
100
AcDbEntity
  8
0
 62
     7
420
 16777215
370
    18
100
AcDb2dPolyline
 66
     1
 10
0.0
 20
0.0
 30
0.0
  0
VERTEX
  5
533
330
532
100
AcDbEntity
  8
0
 62
     7
420
 16777215
370
    18
100
AcDbVertex
100
AcDb2dVertex
 10
174.2138325643092
 20
132.6033701126042
 30
0.0
  0
VERTEX
  5
534
330
532
100
AcDbEntity
  8
0
 62
     7
420
 16777215
370
    18
100
AcDbVertex
100
AcDb2dVertex
 10
171.2138325643085
 20
132.6033701126042
 30
0.0
  0
SEQEND
  5
535
330
532
100
AcDbEntity
  8
0
 62
     7
420
 16777215
370
    18
  0
ENDBLK
  5
531
330
52E
100
AcDbEntity
  8
0
100
AcDbBlockEnd
  0
BLOCK
  5
538
330
536
100
AcDbEntity
  8
0
100
AcDbBlockBegin
  2
block 168
 70
     0
 10
0.0
 20
0.0
 30
0.0
  3
block 168
  1

  0
POLYLINE
  5
53A
330
536
100
AcDbEntity
  8
0
 62
     7
420
 16777215
370
    18
100
AcDb2dPolyline
 66
     1
 10
0.0
 20
0.0
 30
0.0
  0
VERTEX
  5
53B
330
53A
100
AcDbEntity
  8
0
 62
     7
420
 16777215
370
    18
100
AcDbVertex
100
AcDb2dVertex
 10
86.8638325643082
 20
131.7995225426036
 30
0.0
  0
VERTEX
  5
53C
330
53A
100
AcDbEntity
  8
0
 62
     7
420
 16777215
370
    18
100
AcDbVertex
100
AcDb2dVertex
 10
83.8638325643081
 20
132.6033701126042
 30
0.0
  0
SEQEND
  5
53D
330
53A
100
AcDbEntity
  8
0
 62
     7
420
 16777215
370
    18
  0
ENDBLK
  5
539
330
536
100
AcDbEntity
  8
0
100
AcDbBlockEnd
  0
BLOCK
  5
540
330
53E
100
AcDbEntity
  8
0
100
AcDbBlockBegin
  2
block 169
 70
     0
 10
0.0
 20
0.0
 30
0.0
  3
block 169
  1

  0
POLYLINE
  5
542
330
53E
100
AcDbEntity
  8
0
 62
     7
420
 16777215
370
    18
100
AcDb2dPolyline
 66
     1
 10
0.0
 20
0.0
 30
0.0
  0
VERTEX
  5
543
330
542
100
AcDbEntity
  8
0
 62
     7
420
 16777215
370
    18
100
AcDbVertex
100
AcDb2dVertex
 10
83.8638325643081
 20
132.6033701126042
 30
0.0
  0
VERTEX
  5
544
330
542
100
AcDbEntity
  8
0
 62
     7
420
 16777215
370
    18
100
AcDbVertex
100
AcDb2dVertex
 10
86.8638325643082
 20
133.4072176826036
 30
0.0
  0
SEQEND
  5
545
330
542
100
AcDbEntity
  8
0
 62
     7
420
 16777215
370
    18
  0
ENDBLK
  5
541
330
53E
100
AcDbEntity
  8
0
100
AcDbBlockEnd
  0
BLOCK
  5
548
330
546
100
AcDbEntity
  8
0
100
AcDbBlockBegin
  2
block 170
 70
     0
 10
0.0
 20
0.0
 30
0.0
  3
block 170
  1

  0
POLYLINE
  5
54A
330
546
100
AcDbEntity
  8
0
 62
     7
420
 16777215
370
    18
100
AcDb2dPolyline
 66
     1
 10
0.0
 20
0.0
 30
0.0
  0
VERTEX
  5
54B
330
54A
100
AcDbEntity
  8
0
 62
     7
420
 16777215
370
    18
100
AcDbVertex
100
AcDb2dVertex
 10
83.8638325643081
 20
132.6033701126042
 30
0.0
  0
VERTEX
  5
54C
330
54A
100
AcDbEntity
  8
0
 62
     7
420
 16777215
370
    18
100
AcDbVertex
100
AcDb2dVertex
 10
86.8638325643082
 20
132.6033701126042
 30
0.0
  0
SEQEND
  5
54D
330
54A
100
AcDbEntity
  8
0
 62
     7
420
 16777215
370
    18
  0
ENDBLK
  5
549
330
546
100
AcDbEntity
  8
0
100
AcDbBlockEnd
  0
BLOCK
  5
550
330
54E
100
AcDbEntity
  8
0
100
AcDbBlockBegin
  2
block 171
 70
     0
 10
0.0
 20
0.0
 30
0.0
  3
block 171
  1

  0
POLYLINE
  5
552
330
54E
100
AcDbEntity
  8
0
 62
     7
420
 16777215
370
    18
100
AcDb2dPolyline
 66
     1
 10
0.0
 20
0.0
 30
0.0
  0
VERTEX
  5
553
330
552
100
AcDbEntity
  8
0
 62
     7
420
 16777215
370
    18
100
AcDbVertex
100
AcDb2dVertex
 10
112.8638325643078
 20
141.7995225426039
 30
0.0
  0
VERTEX
  5
554
330
552
100
AcDbEntity
  8
0
 62
     7
420
 16777215
370
    18
100
AcDbVertex
100
AcDb2dVertex
 10
109.8638325643077
 20
142.603370112604
 30
0.0
  0
SEQEND
  5
555
330
552
100
AcDbEntity
  8
0
 62
     7
420
 16777215
370
    18
  0
ENDBLK
  5
551
330
54E
100
AcDbEntity
  8
0
100
AcDbBlockEnd
  0
BLOCK
  5
558
330
556
100
AcDbEntity
  8
0
100
AcDbBlockBegin
  2
block 172
 70
     0
 10
0.0
 20
0.0
 30
0.0
  3
block 172
  1

  0
POLYLINE
  5
55A
330
556
100
AcDbEntity
  8
0
 62
     7
420
 16777215
370
    18
100
AcDb2dPolyline
 66
     1
 10
0.0
 20
0.0
 30
0.0
  0
VERTEX
  5
55B
330
55A
100
AcDbEntity
  8
0
 62
     7
420
 16777215
370
    18
100
AcDbVertex
100
AcDb2dVertex
 10
109.8638325643077
 20
142.603370112604
 30
0.0
  0
VERTEX
  5
55C
330
55A
100
AcDbEntity
  8
0
 62
     7
420
 16777215
370
    18
100
AcDbVertex
100
AcDb2dVertex
 10
112.8638325643078
 20
143.407217682604
 30
0.0
  0
SEQEND
  5
55D
330
55A
100
AcDbEntity
  8
0
 62
     7
420
 16777215
370
    18
  0
ENDBLK
  5
559
330
556
100
AcDbEntity
  8
0
100
AcDbBlockEnd
  0
BLOCK
  5
560
330
55E
100
AcDbEntity
  8
0
100
AcDbBlockBegin
  2
block 173
 70
     0
 10
0.0
 20
0.0
 30
0.0
  3
block 173
  1

  0
POLYLINE
  5
562
330
55E
100
AcDbEntity
  8
0
 62
     7
420
 16777215
370
    18
100
AcDb2dPolyline
 66
     1
 10
0.0
 20
0.0
 30
0.0
  0
VERTEX
  5
563
330
562
100
AcDbEntity
  8
0
 62
     7
420
 16777215
370
    18
100
AcDbVertex
100
AcDb2dVertex
 10
109.8638325643077
 20
142.603370112604
 30
0.0
  0
VERTEX
  5
564
330
562
100
AcDbEntity
  8
0
 62
     7
420
 16777215
370
    18
100
AcDbVertex
100
AcDb2dVertex
 10
112.8638325643078
 20
142.603370112604
 30
0.0
  0
SEQEND
  5
565
330
562
100
AcDbEntity
  8
0
 62
     7
420
 16777215
370
    18
  0
ENDBLK
  5
561
330
55E
100
AcDbEntity
  8
0
100
AcDbBlockEnd
  0
BLOCK
  5
568
330
566
100
AcDbEntity
  8
0
100
AcDbBlockBegin
  2
block 174
 70
     0
 10
0.0
 20
0.0
 30
0.0
  3
block 174
  1

  0
POLYLINE
  5
56A
330
566
100
AcDbEntity
  8
0
 62
     7
420
 16777215
370
    18
100
AcDb2dPolyline
 66
     1
 10
0.0
 20
0.0
 30
0.0
  0
VERTEX
  5
56B
330
56A
100
AcDbEntity
  8
0
 62
     7
420
 16777215
370
    18
100
AcDbVertex
100
AcDb2dVertex
 10
171.2138325643085
 20
143.407217682604
 30
0.0
  0
VERTEX
  5
56C
330
56A
100
AcDbEntity
  8
0
 62
     7
420
 16777215
370
    18
100
AcDbVertex
100
AcDb2dVertex
 10
174.2138325643092
 20
142.603370112604
 30
0.0
  0
SEQEND
  5
56D
330
56A
100
AcDbEntity
  8
0
 62
     7
420
 16777215
370
    18
  0
ENDBLK
  5
569
330
566
100
AcDbEntity
  8
0
100
AcDbBlockEnd
  0
BLOCK
  5
570
330
56E
100
AcDbEntity
  8
0
100
AcDbBlockBegin
  2
block 175
 70
     0
 10
0.0
 20
0.0
 30
0.0
  3
block 175
  1

  0
POLYLINE
  5
572
330
56E
100
AcDbEntity
  8
0
 62
     7
420
 16777215
370
    18
100
AcDb2dPolyline
 66
     1
 10
0.0
 20
0.0
 30
0.0
  0
VERTEX
  5
573
330
572
100
AcDbEntity
  8
0
 62
     7
420
 16777215
370
    18
100
AcDbVertex
100
AcDb2dVertex
 10
174.2138325643092
 20
142.603370112604
 30
0.0
  0
VERTEX
  5
574
330
572
100
AcDbEntity
  8
0
 62
     7
420
 16777215
370
    18
100
AcDbVertex
100
AcDb2dVertex
 10
171.2138325643085
 20
141.7995225426039
 30
0.0
  0
SEQEND
  5
575
330
572
100
AcDbEntity
  8
0
 62
     7
420
 16777215
370
    18
  0
ENDBLK
  5
571
330
56E
100
AcDbEntity
  8
0
100
AcDbBlockEnd
  0
BLOCK
  5
578
330
576
100
AcDbEntity
  8
0
100
AcDbBlockBegin
  2
block 176
 70
     0
 10
0.0
 20
0.0
 30
0.0
  3
block 176
  1

  0
POLYLINE
  5
57A
330
576
100
AcDbEntity
  8
0
 62
     7
420
 16777215
370
    18
100
AcDb2dPolyline
 66
     1
 10
0.0
 20
0.0
 30
0.0
  0
VERTEX
  5
57B
330
57A
100
AcDbEntity
  8
0
 62
     7
420
 16777215
370
    18
100
AcDbVertex
100
AcDb2dVertex
 10
174.2138325643092
 20
142.603370112604
 30
0.0
  0
VERTEX
  5
57C
330
57A
100
AcDbEntity
  8
0
 62
     7
420
 16777215
370
    18
100
AcDbVertex
100
AcDb2dVertex
 10
171.2138325643085
 20
142.603370112604
 30
0.0
  0
SEQEND
  5
57D
330
57A
100
AcDbEntity
  8
0
 62
     7
420
 16777215
370
    18
  0
ENDBLK
  5
579
330
576
100
AcDbEntity
  8
0
100
AcDbBlockEnd
  0
BLOCK
  5
580
330
57E
100
AcDbEntity
  8
0
100
AcDbBlockBegin
  2
block 177
 70
     0
 10
0.0
 20
0.0
 30
0.0
  3
block 177
  1

  0
POLYLINE
  5
582
330
57E
100
AcDbEntity
  8
0
 62
     7
420
 16777215
370
    18
100
AcDb2dPolyline
 66
     1
 10
0.0
 20
0.0
 30
0.0
  0
VERTEX
  5
583
330
582
100
AcDbEntity
  8
0
 62
     7
420
 16777215
370
    18
100
AcDbVertex
100
AcDb2dVertex
 10
188.2877545593608
 20
190.6147154290776
 30
0.0
  0
VERTEX
  5
584
330
582
100
AcDbEntity
  8
0
 62
     7
420
 16777215
370
    18
100
AcDbVertex
100
AcDb2dVertex
 10
189.0916021293602
 20
193.6147154290778
 30
0.0
  0
SEQEND
  5
585
330
582
100
AcDbEntity
  8
0
 62
     7
420
 16777215
370
    18
  0
ENDBLK
  5
581
330
57E
100
AcDbEntity
  8
0
100
AcDbBlockEnd
  0
BLOCK
  5
588
330
586
100
AcDbEntity
  8
0
100
AcDbBlockBegin
  2
block 178
 70
     0
 10
0.0
 20
0.0
 30
0.0
  3
block 178
  1

  0
POLYLINE
  5
58A
330
586
100
AcDbEntity
  8
0
 62
     7
420
 16777215
370
    18
100
AcDb2dPolyline
 66
     1
 10
0.0
 20
0.0
 30
0.0
  0
VERTEX
  5
58B
330
58A
100
AcDbEntity
  8
0
 62
     7
420
 16777215
370
    18
100
AcDbVertex
100
AcDb2dVertex
 10
189.0916021293602
 20
193.6147154290778
 30
0.0
  0
VERTEX
  5
58C
330
58A
100
AcDbEntity
  8
0
 62
     7
420
 16777215
370
    18
100
AcDbVertex
100
AcDb2dVertex
 10
189.8954496993596
 20
190.6147154290776
 30
0.0
  0
SEQEND
  5
58D
330
58A
100
AcDbEntity
  8
0
 62
     7
420
 16777215
370
    18
  0
ENDBLK
  5
589
330
586
100
AcDbEntity
  8
0
100
AcDbBlockEnd
  0
BLOCK
  5
590
330
58E
100
AcDbEntity
  8
0
100
AcDbBlockBegin
  2
block 179
 70
     0
 10
0.0
 20
0.0
 30
0.0
  3
block 179
  1

  0
POLYLINE
  5
592
330
58E
100
AcDbEntity
  8
0
 62
     7
420
 16777215
370
    18
100
AcDb2dPolyline
 66
     1
 10
0.0
 20
0.0
 30
0.0
  0
VERTEX
  5
593
330
592
100
AcDbEntity
  8
0
 62
     7
420
 16777215
370
    18
100
AcDbVertex
100
AcDb2dVertex
 10
189.0916021293602
 20
193.6147154290778
 30
0.0
  0
VERTEX
  5
594
330
592
100
AcDbEntity
  8
0
 62
     7
420
 16777215
370
    18
100
AcDbVertex
100
AcDb2dVertex
 10
189.0916021293602
 20
190.6147154290776
 30
0.0
  0
SEQEND
  5
595
330
592
100
AcDbEntity
  8
0
 62
     7
420
 16777215
370
    18
  0
ENDBLK
  5
591
330
58E
100
AcDbEntity
  8
0
100
AcDbBlockEnd
  0
BLOCK
  5
598
330
596
100
AcDbEntity
  8
0
100
AcDbBlockBegin
  2
block 180
 70
     0
 10
0.0
 20
0.0
 30
0.0
  3
block 180
  1

  0
POLYLINE
  5
59A
330
596
100
AcDbEntity
  8
0
 62
     7
420
 16777215
370
    18
100
AcDb2dPolyline
 66
     1
 10
0.0
 20
0.0
 30
0.0
  0
VERTEX
  5
59B
330
59A
100
AcDbEntity
  8
0
 62
     7
420
 16777215
370
    18
100
AcDbVertex
100
AcDb2dVertex
 10
189.8954496993596
 20
164.6147154290777
 30
0.0
  0
VERTEX
  5
59C
330
59A
100
AcDbEntity
  8
0
 62
     7
420
 16777215
370
    18
100
AcDbVertex
100
AcDb2dVertex
 10
189.0916021293602
 20
161.6147154290776
 30
0.0
  0
SEQEND
  5
59D
330
59A
100
AcDbEntity
  8
0
 62
     7
420
 16777215
370
    18
  0
ENDBLK
  5
599
330
596
100
AcDbEntity
  8
0
100
AcDbBlockEnd
  0
BLOCK
  5
5A0
330
59E
100
AcDbEntity
  8
0
100
AcDbBlockBegin
  2
block 181
 70
     0
 10
0.0
 20
0.0
 30
0.0
  3
block 181
  1

  0
POLYLINE
  5
5A2
330
59E
100
AcDbEntity
  8
0
 62
     7
420
 16777215
370
    18
100
AcDb2dPolyline
 66
     1
 10
0.0
 20
0.0
 30
0.0
  0
VERTEX
  5
5A3
330
5A2
100
AcDbEntity
  8
0
 62
     7
420
 16777215
370
    18
100
AcDbVertex
100
AcDb2dVertex
 10
189.0916021293602
 20
161.6147154290776
 30
0.0
  0
VERTEX
  5
5A4
330
5A2
100
AcDbEntity
  8
0
 62
     7
420
 16777215
370
    18
100
AcDbVertex
100
AcDb2dVertex
 10
188.2877545593602
 20
164.6147154290777
 30
0.0
  0
SEQEND
  5
5A5
330
5A2
100
AcDbEntity
  8
0
 62
     7
420
 16777215
370
    18
  0
ENDBLK
  5
5A1
330
59E
100
AcDbEntity
  8
0
100
AcDbBlockEnd
  0
BLOCK
  5
5A8
330
5A6
100
AcDbEntity
  8
0
100
AcDbBlockBegin
  2
block 182
 70
     0
 10
0.0
 20
0.0
 30
0.0
  3
block 182
  1

  0
POLYLINE
  5
5AA
330
5A6
100
AcDbEntity
  8
0
 62
     7
420
 16777215
370
    18
100
AcDb2dPolyline
 66
     1
 10
0.0
 20
0.0
 30
0.0
  0
VERTEX
  5
5AB
330
5AA
100
AcDbEntity
  8
0
 62
     7
420
 16777215
370
    18
100
AcDbVertex
100
AcDb2dVertex
 10
189.0916021293602
 20
161.6147154290776
 30
0.0
  0
VERTEX
  5
5AC
330
5AA
100
AcDbEntity
  8
0
 62
     7
420
 16777215
370
    18
100
AcDbVertex
100
AcDb2dVertex
 10
189.0916021293602
 20
164.6147154290777
 30
0.0
  0
SEQEND
  5
5AD
330
5AA
100
AcDbEntity
  8
0
 62
     7
420
 16777215
370
    18
  0
ENDBLK
  5
5A9
330
5A6
100
AcDbEntity
  8
0
100
AcDbBlockEnd
  0
BLOCK
  5
5B0
330
5AE
100
AcDbEntity
  8
0
100
AcDbBlockBegin
  2
block 183
 70
     0
 10
0.0
 20
0.0
 30
0.0
  3
block 183
  1

  0
POLYLINE
  5
5B2
330
5AE
100
AcDbEntity
  8
0
 62
     7
420
 16777215
370
    18
100
AcDb2dPolyline
 66
     1
 10
0.0
 20
0.0
 30
0.0
  0
VERTEX
  5
5B3
330
5B2
100
AcDbEntity
  8
0
 62
     7
420
 16777215
370
    18
100
AcDbVertex
100
AcDb2dVertex
 10
54.86383256430835
 20
131.7995225426036
 30
0.0
  0
VERTEX
  5
5B4
330
5B2
100
AcDbEntity
  8
0
 62
     7
420
 16777215
370
    18
100
AcDbVertex
100
AcDb2dVertex
 10
51.86383256430825
 20
132.6033701126042
 30
0.0
  0
SEQEND
  5
5B5
330
5B2
100
AcDbEntity
  8
0
 62
     7
420
 16777215
370
    18
  0
ENDBLK
  5
5B1
330
5AE
100
AcDbEntity
  8
0
100
AcDbBlockEnd
  0
BLOCK
  5
5B8
330
5B6
100
AcDbEntity
  8
0
100
AcDbBlockBegin
  2
block 184
 70
     0
 10
0.0
 20
0.0
 30
0.0
  3
block 184
  1

  0
POLYLINE
  5
5BA
330
5B6
100
AcDbEntity
  8
0
 62
     7
420
 16777215
370
    18
100
AcDb2dPolyline
 66
     1
 10
0.0
 20
0.0
 30
0.0
  0
VERTEX
  5
5BB
330
5BA
100
AcDbEntity
  8
0
 62
     7
420
 16777215
370
    18
100
AcDbVertex
100
AcDb2dVertex
 10
51.86383256430825
 20
132.6033701126042
 30
0.0
  0
VERTEX
  5
5BC
330
5BA
100
AcDbEntity
  8
0
 62
     7
420
 16777215
370
    18
100
AcDbVertex
100
AcDb2dVertex
 10
54.86383256430835
 20
133.4072176826036
 30
0.0
  0
SEQEND
  5
5BD
330
5BA
100
AcDbEntity
  8
0
 62
     7
420
 16777215
370
    18
  0
ENDBLK
  5
5B9
330
5B6
100
AcDbEntity
  8
0
100
AcDbBlockEnd
  0
BLOCK
  5
5C0
330
5BE
100
AcDbEntity
  8
0
100
AcDbBlockBegin
  2
block 185
 70
     0
 10
0.0
 20
0.0
 30
0.0
  3
block 185
  1

  0
POLYLINE
  5
5C2
330
5BE
100
AcDbEntity
  8
0
 62
     7
420
 16777215
370
    18
100
AcDb2dPolyline
 66
     1
 10
0.0
 20
0.0
 30
0.0
  0
VERTEX
  5
5C3
330
5C2
100
AcDbEntity
  8
0
 62
     7
420
 16777215
370
    18
100
AcDbVertex
100
AcDb2dVertex
 10
51.86383256430825
 20
132.6033701126042
 30
0.0
  0
VERTEX
  5
5C4
330
5C2
100
AcDbEntity
  8
0
 62
     7
420
 16777215
370
    18
100
AcDbVertex
100
AcDb2dVertex
 10
54.86383256430835
 20
132.6033701126042
 30
0.0
  0
SEQEND
  5
5C5
330
5C2
100
AcDbEntity
  8
0
 62
     7
420
 16777215
370
    18
  0
ENDBLK
  5
5C1
330
5BE
100
AcDbEntity
  8
0
100
AcDbBlockEnd
  0
BLOCK
  5
5C8
330
5C6
100
AcDbEntity
  8
0
100
AcDbBlockBegin
  2
block 186
 70
     0
 10
0.0
 20
0.0
 30
0.0
  3
block 186
  1

  0
POLYLINE
  5
5CA
330
5C6
100
AcDbEntity
  8
0
 62
     7
420
 16777215
370
    18
100
AcDb2dPolyline
 66
     1
 10
0.0
 20
0.0
 30
0.0
  0
VERTEX
  5
5CB
330
5CA
100
AcDbEntity
  8
0
 62
     7
420
 16777215
370
    18
100
AcDbVertex
100
AcDb2dVertex
 10
80.86383256430831
 20
133.4072176826036
 30
0.0
  0
VERTEX
  5
5CC
330
5CA
100
AcDbEntity
  8
0
 62
     7
420
 16777215
370
    18
100
AcDbVertex
100
AcDb2dVertex
 10
83.8638325643081
 20
132.6033701126042
 30
0.0
  0
SEQEND
  5
5CD
330
5CA
100
AcDbEntity
  8
0
 62
     7
420
 16777215
370
    18
  0
ENDBLK
  5
5C9
330
5C6
100
AcDbEntity
  8
0
100
AcDbBlockEnd
  0
BLOCK
  5
5D0
330
5CE
100
AcDbEntity
  8
0
100
AcDbBlockBegin
  2
block 187
 70
     0
 10
0.0
 20
0.0
 30
0.0
  3
block 187
  1

  0
POLYLINE
  5
5D2
330
5CE
100
AcDbEntity
  8
0
 62
     7
420
 16777215
370
    18
100
AcDb2dPolyline
 66
     1
 10
0.0
 20
0.0
 30
0.0
  0
VERTEX
  5
5D3
330
5D2
100
AcDbEntity
  8
0
 62
     7
420
 16777215
370
    18
100
AcDbVertex
100
AcDb2dVertex
 10
83.8638325643081
 20
132.6033701126042
 30
0.0
  0
VERTEX
  5
5D4
330
5D2
100
AcDbEntity
  8
0
 62
     7
420
 16777215
370
    18
100
AcDbVertex
100
AcDb2dVertex
 10
80.86383256430831
 20
131.7995225426036
 30
0.0
  0
SEQEND
  5
5D5
330
5D2
100
AcDbEntity
  8
0
 62
     7
420
 16777215
370
    18
  0
ENDBLK
  5
5D1
330
5CE
100
AcDbEntity
  8
0
100
AcDbBlockEnd
  0
BLOCK
  5
5D8
330
5D6
100
AcDbEntity
  8
0
100
AcDbBlockBegin
  2
block 188
 70
     0
 10
0.0
 20
0.0
 30
0.0
  3
block 188
  1

  0
POLYLINE
  5
5DA
330
5D6
100
AcDbEntity
  8
0
 62
     7
420
 16777215
370
    18
100
AcDb2dPolyline
 66
     1
 10
0.0
 20
0.0
 30
0.0
  0
VERTEX
  5
5DB
330
5DA
100
AcDbEntity
  8
0
 62
     7
420
 16777215
370
    18
100
AcDbVertex
100
AcDb2dVertex
 10
83.8638325643081
 20
132.6033701126042
 30
0.0
  0
VERTEX
  5
5DC
330
5DA
100
AcDbEntity
  8
0
 62
     7
420
 16777215
370
    18
100
AcDbVertex
100
AcDb2dVertex
 10
80.86383256430831
 20
132.6033701126042
 30
0.0
  0
SEQEND
  5
5DD
330
5DA
100
AcDbEntity
  8
0
 62
     7
420
 16777215
370
    18
  0
ENDBLK
  5
5D9
330
5D6
100
AcDbEntity
  8
0
100
AcDbBlockEnd
  0
BLOCK
  5
5E0
330
5DE
100
AcDbEntity
  8
0
100
AcDbBlockBegin
  2
block 189
 70
     0
 10
0.0
 20
0.0
 30
0.0
  3
block 189
  1

  0
POLYLINE
  5
5E2
330
5DE
100
AcDbEntity
  8
0
 62
     7
420
 16777215
370
    18
100
AcDb2dPolyline
 66
     1
 10
0.0
 20
0.0
 30
0.0
  0
VERTEX
  5
5E3
330
5E2
100
AcDbEntity
  8
0
 62
     7
420
 16777215
370
    18
100
AcDbVertex
100
AcDb2dVertex
 10
54.86383256430835
 20
121.7995225426032
 30
0.0
  0
VERTEX
  5
5E4
330
5E2
100
AcDbEntity
  8
0
 62
     7
420
 16777215
370
    18
100
AcDbVertex
100
AcDb2dVertex
 10
51.86383256430825
 20
122.6033701126039
 30
0.0
  0
SEQEND
  5
5E5
330
5E2
100
AcDbEntity
  8
0
 62
     7
420
 16777215
370
    18
  0
ENDBLK
  5
5E1
330
5DE
100
AcDbEntity
  8
0
100
AcDbBlockEnd
  0
BLOCK
  5
5E8
330
5E6
100
AcDbEntity
  8
0
100
AcDbBlockBegin
  2
block 190
 70
     0
 10
0.0
 20
0.0
 30
0.0
  3
block 190
  1

  0
POLYLINE
  5
5EA
330
5E6
100
AcDbEntity
  8
0
 62
     7
420
 16777215
370
    18
100
AcDb2dPolyline
 66
     1
 10
0.0
 20
0.0
 30
0.0
  0
VERTEX
  5
5EB
330
5EA
100
AcDbEntity
  8
0
 62
     7
420
 16777215
370
    18
100
AcDbVertex
100
AcDb2dVertex
 10
51.86383256430825
 20
122.6033701126039
 30
0.0
  0
VERTEX
  5
5EC
330
5EA
100
AcDbEntity
  8
0
 62
     7
420
 16777215
370
    18
100
AcDbVertex
100
AcDb2dVertex
 10
54.86383256430835
 20
123.4072176826032
 30
0.0
  0
SEQEND
  5
5ED
330
5EA
100
AcDbEntity
  8
0
 62
     7
420
 16777215
370
    18
  0
ENDBLK
  5
5E9
330
5E6
100
AcDbEntity
  8
0
100
AcDbBlockEnd
  0
BLOCK
  5
5F0
330
5EE
100
AcDbEntity
  8
0
100
AcDbBlockBegin
  2
block 191
 70
     0
 10
0.0
 20
0.0
 30
0.0
  3
block 191
  1

  0
POLYLINE
  5
5F2
330
5EE
100
AcDbEntity
  8
0
 62
     7
420
 16777215
370
    18
100
AcDb2dPolyline
 66
     1
 10
0.0
 20
0.0
 30
0.0
  0
VERTEX
  5
5F3
330
5F2
100
AcDbEntity
  8
0
 62
     7
420
 16777215
370
    18
100
AcDbVertex
100
AcDb2dVertex
 10
51.86383256430825
 20
122.6033701126039
 30
0.0
  0
VERTEX
  5
5F4
330
5F2
100
AcDbEntity
  8
0
 62
     7
420
 16777215
370
    18
100
AcDbVertex
100
AcDb2dVertex
 10
54.86383256430835
 20
122.6033701126039
 30
0.0
  0
SEQEND
  5
5F5
330
5F2
100
AcDbEntity
  8
0
 62
     7
420
 16777215
370
    18
  0
ENDBLK
  5
5F1
330
5EE
100
AcDbEntity
  8
0
100
AcDbBlockEnd
  0
BLOCK
  5
5F8
330
5F6
100
AcDbEntity
  8
0
100
AcDbBlockBegin
  2
block 192
 70
     0
 10
0.0
 20
0.0
 30
0.0
  3
block 192
  1

  0
POLYLINE
  5
5FA
330
5F6
100
AcDbEntity
  8
0
 62
     7
420
 16777215
370
    18
100
AcDb2dPolyline
 66
     1
 10
0.0
 20
0.0
 30
0.0
  0
VERTEX
  5
5FB
330
5FA
100
AcDbEntity
  8
0
 62
     7
420
 16777215
370
    18
100
AcDbVertex
100
AcDb2dVertex
 10
171.2138325643085
 20
123.4072176826032
 30
0.0
  0
VERTEX
  5
5FC
330
5FA
100
AcDbEntity
  8
0
 62
     7
420
 16777215
370
    18
100
AcDbVertex
100
AcDb2dVertex
 10
174.2138325643092
 20
122.6033701126039
 30
0.0
  0
SEQEND
  5
5FD
330
5FA
100
AcDbEntity
  8
0
 62
     7
420
 16777215
370
    18
  0
ENDBLK
  5
5F9
330
5F6
100
AcDbEntity
  8
0
100
AcDbBlockEnd
  0
BLOCK
  5
600
330
5FE
100
AcDbEntity
  8
0
100
AcDbBlockBegin
  2
block 193
 70
     0
 10
0.0
 20
0.0
 30
0.0
  3
block 193
  1

  0
POLYLINE
  5
602
330
5FE
100
AcDbEntity
  8
0
 62
     7
420
 16777215
370
    18
100
AcDb2dPolyline
 66
     1
 10
0.0
 20
0.0
 30
0.0
  0
VERTEX
  5
603
330
602
100
AcDbEntity
  8
0
 62
     7
420
 16777215
370
    18
100
AcDbVertex
100
AcDb2dVertex
 10
174.2138325643092
 20
122.6033701126039
 30
0.0
  0
VERTEX
  5
604
330
602
100
AcDbEntity
  8
0
 62
     7
420
 16777215
370
    18
100
AcDbVertex
100
AcDb2dVertex
 10
171.2138325643085
 20
121.7995225426032
 30
0.0
  0
SEQEND
  5
605
330
602
100
AcDbEntity
  8
0
 62
     7
420
 16777215
370
    18
  0
ENDBLK
  5
601
330
5FE
100
AcDbEntity
  8
0
100
AcDbBlockEnd
  0
BLOCK
  5
608
330
606
100
AcDbEntity
  8
0
100
AcDbBlockBegin
  2
block 194
 70
     0
 10
0.0
 20
0.0
 30
0.0
  3
block 194
  1

  0
POLYLINE
  5
60A
330
606
100
AcDbEntity
  8
0
 62
     7
420
 16777215
370
    18
100
AcDb2dPolyline
 66
     1
 10
0.0
 20
0.0
 30
0.0
  0
VERTEX
  5
60B
330
60A
100
AcDbEntity
  8
0
 62
     7
420
 16777215
370
    18
100
AcDbVertex
100
AcDb2dVertex
 10
174.2138325643092
 20
122.6033701126039
 30
0.0
  0
VERTEX
  5
60C
330
60A
100
AcDbEntity
  8
0
 62
     7
420
 16777215
370
    18
100
AcDbVertex
100
AcDb2dVertex
 10
171.2138325643085
 20
122.6033701126039
 30
0.0
  0
SEQEND
  5
60D
330
60A
100
AcDbEntity
  8
0
 62
     7
420
 16777215
370
    18
  0
ENDBLK
  5
609
330
606
100
AcDbEntity
  8
0
100
AcDbBlockEnd
  0
BLOCK
  5
610
330
60E
100
AcDbEntity
  8
0
100
AcDbBlockBegin
  2
block 195
 70
     0
 10
0.0
 20
0.0
 30
0.0
  3
block 195
  1

  0
POLYLINE
  5
612
330
60E
100
AcDbEntity
  8
0
 62
     7
420
 16777215
370
    18
100
AcDb2dPolyline
 66
     1
 10
0.0
 20
0.0
 30
0.0
  0
VERTEX
  5
613
330
612
100
AcDbEntity
  8
0
 62
     7
420
 16777215
370
    18
100
AcDbVertex
100
AcDb2dVertex
 10
38.05998499430874
 20
206.1033711226029
 30
0.0
  0
VERTEX
  5
614
330
612
100
AcDbEntity
  8
0
 62
     7
420
 16777215
370
    18
100
AcDbVertex
100
AcDb2dVertex
 10
38.8638325643081
 20
209.1033711226031
 30
0.0
  0
SEQEND
  5
615
330
612
100
AcDbEntity
  8
0
 62
     7
420
 16777215
370
    18
  0
ENDBLK
  5
611
330
60E
100
AcDbEntity
  8
0
100
AcDbBlockEnd
  0
BLOCK
  5
618
330
616
100
AcDbEntity
  8
0
100
AcDbBlockBegin
  2
block 196
 70
     0
 10
0.0
 20
0.0
 30
0.0
  3
block 196
  1

  0
POLYLINE
  5
61A
330
616
100
AcDbEntity
  8
0
 62
     7
420
 16777215
370
    18
100
AcDb2dPolyline
 66
     1
 10
0.0
 20
0.0
 30
0.0
  0
VERTEX
  5
61B
330
61A
100
AcDbEntity
  8
0
 62
     7
420
 16777215
370
    18
100
AcDbVertex
100
AcDb2dVertex
 10
38.8638325643081
 20
209.1033711226031
 30
0.0
  0
VERTEX
  5
61C
330
61A
100
AcDbEntity
  8
0
 62
     7
420
 16777215
370
    18
100
AcDbVertex
100
AcDb2dVertex
 10
39.66768013430779
 20
206.1033711226029
 30
0.0
  0
SEQEND
  5
61D
330
61A
100
AcDbEntity
  8
0
 62
     7
420
 16777215
370
    18
  0
ENDBLK
  5
619
330
616
100
AcDbEntity
  8
0
100
AcDbBlockEnd
  0
BLOCK
  5
620
330
61E
100
AcDbEntity
  8
0
100
AcDbBlockBegin
  2
block 197
 70
     0
 10
0.0
 20
0.0
 30
0.0
  3
block 197
  1

  0
POLYLINE
  5
622
330
61E
100
AcDbEntity
  8
0
 62
     7
420
 16777215
370
    18
100
AcDb2dPolyline
 66
     1
 10
0.0
 20
0.0
 30
0.0
  0
VERTEX
  5
623
330
622
100
AcDbEntity
  8
0
 62
     7
420
 16777215
370
    18
100
AcDbVertex
100
AcDb2dVertex
 10
38.8638325643081
 20
209.1033711226031
 30
0.0
  0
VERTEX
  5
624
330
622
100
AcDbEntity
  8
0
 62
     7
420
 16777215
370
    18
100
AcDbVertex
100
AcDb2dVertex
 10
38.8638325643081
 20
206.1033711226029
 30
0.0
  0
SEQEND
  5
625
330
622
100
AcDbEntity
  8
0
 62
     7
420
 16777215
370
    18
  0
ENDBLK
  5
621
330
61E
100
AcDbEntity
  8
0
100
AcDbBlockEnd
  0
BLOCK
  5
628
330
626
100
AcDbEntity
  8
0
100
AcDbBlockBegin
  2
block 198
 70
     0
 10
0.0
 20
0.0
 30
0.0
  3
block 198
  1

  0
POLYLINE
  5
62A
330
626
100
AcDbEntity
  8
0
 62
     7
420
 16777215
370
    18
100
AcDb2dPolyline
 66
     1
 10
0.0
 20
0.0
 30
0.0
  0
VERTEX
  5
62B
330
62A
100
AcDbEntity
  8
0
 62
     7
420
 16777215
370
    18
100
AcDbVertex
100
AcDb2dVertex
 10
39.66768013430779
 20
149.1033711226032
 30
0.0
  0
VERTEX
  5
62C
330
62A
100
AcDbEntity
  8
0
 62
     7
420
 16777215
370
    18
100
AcDbVertex
100
AcDb2dVertex
 10
38.8638325643081
 20
146.1033711226034
 30
0.0
  0
SEQEND
  5
62D
330
62A
100
AcDbEntity
  8
0
 62
     7
420
 16777215
370
    18
  0
ENDBLK
  5
629
330
626
100
AcDbEntity
  8
0
100
AcDbBlockEnd
  0
BLOCK
  5
630
330
62E
100
AcDbEntity
  8
0
100
AcDbBlockBegin
  2
block 199
 70
     0
 10
0.0
 20
0.0
 30
0.0
  3
block 199
  1

  0
POLYLINE
  5
632
330
62E
100
AcDbEntity
  8
0
 62
     7
420
 16777215
370
    18
100
AcDb2dPolyline
 66
     1
 10
0.0
 20
0.0
 30
0.0
  0
VERTEX
  5
633
330
632
100
AcDbEntity
  8
0
 62
     7
420
 16777215
370
    18
100
AcDbVertex
100
AcDb2dVertex
 10
38.8638325643081
 20
146.1033711226034
 30
0.0
  0
VERTEX
  5
634
330
632
100
AcDbEntity
  8
0
 62
     7
420
 16777215
370
    18
100
AcDbVertex
100
AcDb2dVertex
 10
38.05998499430874
 20
149.1033711226032
 30
0.0
  0
SEQEND
  5
635
330
632
100
AcDbEntity
  8
0
 62
     7
420
 16777215
370
    18
  0
ENDBLK
  5
631
330
62E
100
AcDbEntity
  8
0
100
AcDbBlockEnd
  0
BLOCK
  5
638
330
636
100
AcDbEntity
  8
0
100
AcDbBlockBegin
  2
block 200
 70
     0
 10
0.0
 20
0.0
 30
0.0
  3
block 200
  1

  0
POLYLINE
  5
63A
330
636
100
AcDbEntity
  8
0
 62
     7
420
 16777215
370
    18
100
AcDb2dPolyline
 66
     1
 10
0.0
 20
0.0
 30
0.0
  0
VERTEX
  5
63B
330
63A
100
AcDbEntity
  8
0
 62
     7
420
 16777215
370
    18
100
AcDbVertex
100
AcDb2dVertex
 10
38.8638325643081
 20
146.1033711226034
 30
0.0
  0
VERTEX
  5
63C
330
63A
100
AcDbEntity
  8
0
 62
     7
420
 16777215
370
    18
100
AcDbVertex
100
AcDb2dVertex
 10
38.8638325643081
 20
149.1033711226032
 30
0.0
  0
SEQEND
  5
63D
330
63A
100
AcDbEntity
  8
0
 62
     7
420
 16777215
370
    18
  0
ENDBLK
  5
639
330
636
100
AcDbEntity
  8
0
100
AcDbBlockEnd
  0
BLOCK
  5
640
330
63E
100
AcDbEntity
  8
0
100
AcDbBlockBegin
  2
block 201
 70
     0
 10
0.0
 20
0.0
 30
0.0
  3
block 201
  1

  0
POLYLINE
  5
642
330
63E
100
AcDbEntity
  8
0
 62
     7
420
 16777215
370
    18
100
AcDb2dPolyline
 66
     1
 10
0.0
 20
0.0
 30
0.0
  0
VERTEX
  5
643
330
642
100
AcDbEntity
  8
0
 62
     7
420
 16777215
370
    18
100
AcDbVertex
100
AcDb2dVertex
 10
164.113832564313
 20
218.3958743861262
 30
0.0
  0
VERTEX
  5
644
330
642
100
AcDbEntity
  8
0
 62
     7
420
 16777215
370
    18
100
AcDbVertex
100
AcDb2dVertex
 10
167.1138325643131
 20
217.5920268161265
 30
0.0
  0
SEQEND
  5
645
330
642
100
AcDbEntity
  8
0
 62
     7
420
 16777215
370
    18
  0
ENDBLK
  5
641
330
63E
100
AcDbEntity
  8
0
100
AcDbBlockEnd
  0
BLOCK
  5
648
330
646
100
AcDbEntity
  8
0
100
AcDbBlockBegin
  2
block 202
 70
     0
 10
0.0
 20
0.0
 30
0.0
  3
block 202
  1

  0
POLYLINE
  5
64A
330
646
100
AcDbEntity
  8
0
 62
     7
420
 16777215
370
    18
100
AcDb2dPolyline
 66
     1
 10
0.0
 20
0.0
 30
0.0
  0
VERTEX
  5
64B
330
64A
100
AcDbEntity
  8
0
 62
     7
420
 16777215
370
    18
100
AcDbVertex
100
AcDb2dVertex
 10
167.1138325643131
 20
217.5920268161265
 30
0.0
  0
VERTEX
  5
64C
330
64A
100
AcDbEntity
  8
0
 62
     7
420
 16777215
370
    18
100
AcDbVertex
100
AcDb2dVertex
 10
164.113832564313
 20
216.7881792461271
 30
0.0
  0
SEQEND
  5
64D
330
64A
100
AcDbEntity
  8
0
 62
     7
420
 16777215
370
    18
  0
ENDBLK
  5
649
330
646
100
AcDbEntity
  8
0
100
AcDbBlockEnd
  0
BLOCK
  5
650
330
64E
100
AcDbEntity
  8
0
100
AcDbBlockBegin
  2
block 203
 70
     0
 10
0.0
 20
0.0
 30
0.0
  3
block 203
  1

  0
POLYLINE
  5
652
330
64E
100
AcDbEntity
  8
0
 62
     7
420
 16777215
370
    18
100
AcDb2dPolyline
 66
     1
 10
0.0
 20
0.0
 30
0.0
  0
VERTEX
  5
653
330
652
100
AcDbEntity
  8
0
 62
     7
420
 16777215
370
    18
100
AcDbVertex
100
AcDb2dVertex
 10
167.1138325643131
 20
217.5920268161265
 30
0.0
  0
VERTEX
  5
654
330
652
100
AcDbEntity
  8
0
 62
     7
420
 16777215
370
    18
100
AcDbVertex
100
AcDb2dVertex
 10
164.113832564313
 20
217.5920268161265
 30
0.0
  0
SEQEND
  5
655
330
652
100
AcDbEntity
  8
0
 62
     7
420
 16777215
370
    18
  0
ENDBLK
  5
651
330
64E
100
AcDbEntity
  8
0
100
AcDbBlockEnd
  0
BLOCK
  5
658
330
656
100
AcDbEntity
  8
0
100
AcDbBlockBegin
  2
block 204
 70
     0
 10
0.0
 20
0.0
 30
0.0
  3
block 204
  1

  0
POLYLINE
  5
65A
330
656
100
AcDbEntity
  8
0
 62
     7
420
 16777215
370
    18
100
AcDb2dPolyline
 66
     1
 10
0.0
 20
0.0
 30
0.0
  0
VERTEX
  5
65B
330
65A
100
AcDbEntity
  8
0
 62
     7
420
 16777215
370
    18
100
AcDbVertex
100
AcDb2dVertex
 10
86.8638325643082
 20
216.7881792461271
 30
0.0
  0
VERTEX
  5
65C
330
65A
100
AcDbEntity
  8
0
 62
     7
420
 16777215
370
    18
100
AcDbVertex
100
AcDb2dVertex
 10
83.8638325643081
 20
217.5920268161265
 30
0.0
  0
SEQEND
  5
65D
330
65A
100
AcDbEntity
  8
0
 62
     7
420
 16777215
370
    18
  0
ENDBLK
  5
659
330
656
100
AcDbEntity
  8
0
100
AcDbBlockEnd
  0
BLOCK
  5
660
330
65E
100
AcDbEntity
  8
0
100
AcDbBlockBegin
  2
block 205
 70
     0
 10
0.0
 20
0.0
 30
0.0
  3
block 205
  1

  0
POLYLINE
  5
662
330
65E
100
AcDbEntity
  8
0
 62
     7
420
 16777215
370
    18
100
AcDb2dPolyline
 66
     1
 10
0.0
 20
0.0
 30
0.0
  0
VERTEX
  5
663
330
662
100
AcDbEntity
  8
0
 62
     7
420
 16777215
370
    18
100
AcDbVertex
100
AcDb2dVertex
 10
83.8638325643081
 20
217.5920268161265
 30
0.0
  0
VERTEX
  5
664
330
662
100
AcDbEntity
  8
0
 62
     7
420
 16777215
370
    18
100
AcDbVertex
100
AcDb2dVertex
 10
86.8638325643082
 20
218.3958743861262
 30
0.0
  0
SEQEND
  5
665
330
662
100
AcDbEntity
  8
0
 62
     7
420
 16777215
370
    18
  0
ENDBLK
  5
661
330
65E
100
AcDbEntity
  8
0
100
AcDbBlockEnd
  0
BLOCK
  5
668
330
666
100
AcDbEntity
  8
0
100
AcDbBlockBegin
  2
block 206
 70
     0
 10
0.0
 20
0.0
 30
0.0
  3
block 206
  1

  0
POLYLINE
  5
66A
330
666
100
AcDbEntity
  8
0
 62
     7
420
 16777215
370
    18
100
AcDb2dPolyline
 66
     1
 10
0.0
 20
0.0
 30
0.0
  0
VERTEX
  5
66B
330
66A
100
AcDbEntity
  8
0
 62
     7
420
 16777215
370
    18
100
AcDbVertex
100
AcDb2dVertex
 10
83.8638325643081
 20
217.5920268161265
 30
0.0
  0
VERTEX
  5
66C
330
66A
100
AcDbEntity
  8
0
 62
     7
420
 16777215
370
    18
100
AcDbVertex
100
AcDb2dVertex
 10
86.8638325643082
 20
217.5920268161265
 30
0.0
  0
SEQEND
  5
66D
330
66A
100
AcDbEntity
  8
0
 62
     7
420
 16777215
370
    18
  0
ENDBLK
  5
669
330
666
100
AcDbEntity
  8
0
100
AcDbBlockEnd
  0
BLOCK
  5
670
330
66E
100
AcDbEntity
  8
0
100
AcDbBlockBegin
  2
block 207
 70
     0
 10
0.0
 20
0.0
 30
0.0
  3
block 207
  1

  0
POLYLINE
  5
672
330
66E
100
AcDbEntity
  8
0
 62
     7
420
 16777215
370
    18
100
AcDb2dPolyline
 66
     1
 10
0.0
 20
0.0
 30
0.0
  0
VERTEX
  5
673
330
672
100
AcDbEntity
  8
0
 62
     7
420
 16777215
370
    18
100
AcDbVertex
100
AcDb2dVertex
 10
177.213832564308
 20
216.7881792461271
 30
0.0
  0
VERTEX
  5
674
330
672
100
AcDbEntity
  8
0
 62
     7
420
 16777215
370
    18
100
AcDbVertex
100
AcDb2dVertex
 10
174.2138325643092
 20
217.5920268161265
 30
0.0
  0
SEQEND
  5
675
330
672
100
AcDbEntity
  8
0
 62
     7
420
 16777215
370
    18
  0
ENDBLK
  5
671
330
66E
100
AcDbEntity
  8
0
100
AcDbBlockEnd
  0
BLOCK
  5
678
330
676
100
AcDbEntity
  8
0
100
AcDbBlockBegin
  2
block 208
 70
     0
 10
0.0
 20
0.0
 30
0.0
  3
block 208
  1

  0
POLYLINE
  5
67A
330
676
100
AcDbEntity
  8
0
 62
     7
420
 16777215
370
    18
100
AcDb2dPolyline
 66
     1
 10
0.0
 20
0.0
 30
0.0
  0
VERTEX
  5
67B
330
67A
100
AcDbEntity
  8
0
 62
     7
420
 16777215
370
    18
100
AcDbVertex
100
AcDb2dVertex
 10
174.2138325643092
 20
217.5920268161265
 30
0.0
  0
VERTEX
  5
67C
330
67A
100
AcDbEntity
  8
0
 62
     7
420
 16777215
370
    18
100
AcDbVertex
100
AcDb2dVertex
 10
177.213832564308
 20
218.3958743861262
 30
0.0
  0
SEQEND
  5
67D
330
67A
100
AcDbEntity
  8
0
 62
     7
420
 16777215
370
    18
  0
ENDBLK
  5
679
330
676
100
AcDbEntity
  8
0
100
AcDbBlockEnd
  0
BLOCK
  5
680
330
67E
100
AcDbEntity
  8
0
100
AcDbBlockBegin
  2
block 209
 70
     0
 10
0.0
 20
0.0
 30
0.0
  3
block 209
  1

  0
POLYLINE
  5
682
330
67E
100
AcDbEntity
  8
0
 62
     7
420
 16777215
370
    18
100
AcDb2dPolyline
 66
     1
 10
0.0
 20
0.0
 30
0.0
  0
VERTEX
  5
683
330
682
100
AcDbEntity
  8
0
 62
     7
420
 16777215
370
    18
100
AcDbVertex
100
AcDb2dVertex
 10
174.2138325643092
 20
217.5920268161265
 30
0.0
  0
VERTEX
  5
684
330
682
100
AcDbEntity
  8
0
 62
     7
420
 16777215
370
    18
100
AcDbVertex
100
AcDb2dVertex
 10
177.213832564308
 20
217.5920268161265
 30
0.0
  0
SEQEND
  5
685
330
682
100
AcDbEntity
  8
0
 62
     7
420
 16777215
370
    18
  0
ENDBLK
  5
681
330
67E
100
AcDbEntity
  8
0
100
AcDbBlockEnd
  0
BLOCK
  5
688
330
686
100
AcDbEntity
  8
0
100
AcDbBlockBegin
  2
block 210
 70
     0
 10
0.0
 20
0.0
 30
0.0
  3
block 210
  1

  0
POLYLINE
  5
68A
330
686
100
AcDbEntity
  8
0
 62
     7
420
 16777215
370
    18
100
AcDb2dPolyline
 66
     1
 10
0.0
 20
0.0
 30
0.0
  0
VERTEX
  5
68B
330
68A
100
AcDbEntity
  8
0
 62
     7
420
 16777215
370
    18
100
AcDbVertex
100
AcDb2dVertex
 10
164.113832564313
 20
218.3958743861262
 30
0.0
  0
VERTEX
  5
68C
330
68A
100
AcDbEntity
  8
0
 62
     7
420
 16777215
370
    18
100
AcDbVertex
100
AcDb2dVertex
 10
167.1138325643131
 20
217.5920268161265
 30
0.0
  0
SEQEND
  5
68D
330
68A
100
AcDbEntity
  8
0
 62
     7
420
 16777215
370
    18
  0
ENDBLK
  5
689
330
686
100
AcDbEntity
  8
0
100
AcDbBlockEnd
  0
BLOCK
  5
690
330
68E
100
AcDbEntity
  8
0
100
AcDbBlockBegin
  2
block 211
 70
     0
 10
0.0
 20
0.0
 30
0.0
  3
block 211
  1

  0
POLYLINE
  5
692
330
68E
100
AcDbEntity
  8
0
 62
     7
420
 16777215
370
    18
100
AcDb2dPolyline
 66
     1
 10
0.0
 20
0.0
 30
0.0
  0
VERTEX
  5
693
330
692
100
AcDbEntity
  8
0
 62
     7
420
 16777215
370
    18
100
AcDbVertex
100
AcDb2dVertex
 10
167.1138325643131
 20
217.5920268161265
 30
0.0
  0
VERTEX
  5
694
330
692
100
AcDbEntity
  8
0
 62
     7
420
 16777215
370
    18
100
AcDbVertex
100
AcDb2dVertex
 10
164.113832564313
 20
216.7881792461271
 30
0.0
  0
SEQEND
  5
695
330
692
100
AcDbEntity
  8
0
 62
     7
420
 16777215
370
    18
  0
ENDBLK
  5
691
330
68E
100
AcDbEntity
  8
0
100
AcDbBlockEnd
  0
BLOCK
  5
698
330
696
100
AcDbEntity
  8
0
100
AcDbBlockBegin
  2
block 212
 70
     0
 10
0.0
 20
0.0
 30
0.0
  3
block 212
  1

  0
POLYLINE
  5
69A
330
696
100
AcDbEntity
  8
0
 62
     7
420
 16777215
370
    18
100
AcDb2dPolyline
 66
     1
 10
0.0
 20
0.0
 30
0.0
  0
VERTEX
  5
69B
330
69A
100
AcDbEntity
  8
0
 62
     7
420
 16777215
370
    18
100
AcDbVertex
100
AcDb2dVertex
 10
167.1138325643131
 20
217.5920268161265
 30
0.0
  0
VERTEX
  5
69C
330
69A
100
AcDbEntity
  8
0
 62
     7
420
 16777215
370
    18
100
AcDbVertex
100
AcDb2dVertex
 10
164.113832564313
 20
217.5920268161265
 30
0.0
  0
SEQEND
  5
69D
330
69A
100
AcDbEntity
  8
0
 62
     7
420
 16777215
370
    18
  0
ENDBLK
  5
699
330
696
100
AcDbEntity
  8
0
100
AcDbBlockEnd
  0
BLOCK
  5
6A1
330
69F
100
AcDbEntity
  8
0
100
AcDbBlockBegin
  2
block 213
 70
     0
 10
0.0
 20
0.0
 30
0.0
  3
block 213
  1

  0
SPLINE
  5
6A3
330
69F
100
AcDbEntity
  8
AM_1
 62
     4
420
    65535
370
    25
100
AcDbSpline
210
0.0
220
0.0
230
1.0
 70
    11
 71
     3
 72
    17
 73
    13
 74
     0
 42
0.0000000001
 43
0.0000000001
 12
1.0
 22
0.0
 32
0.0
 13
1.0
 23
0.0
 33
0.0
 40
0.0
 40
0.0
 40
0.0
 40
0.0
 40
1.0
 40
1.0
 40
1.0
 40
2.0
 40
2.0
 40
2.0
 40
3.0
 40
3.0
 40
3.0
 40
4.0
 40
4.0
 40
4.0
 40
4.0
 10
82.36383256430804
 20
177.6033711226029
 30
0.0
 10
82.36383256430804
 20
178.4317982473497
 30
0.0
 10
83.0354054395623
 20
179.1033711226029
 30
0.0
 10
83.8638325643081
 20
179.1033711226029
 30
0.0
 10
84.69225968905388
 20
179.1033711226029
 30
0.0
 10
85.36383256430814
 20
178.4317982473497
 30
0.0
 10
85.36383256430814
 20
177.6033711226029
 30
0.0
 10
85.36383256430814
 20
176.7749439978571
 30
0.0
 10
84.69225968905388
 20
176.1033711226029
 30
0.0
 10
83.8638325643081
 20
176.1033711226029
 30
0.0
 10
83.0354054395623
 20
176.1033711226029
 30
0.0
 10
82.36383256430804
 20
176.7749439978571
 30
0.0
 10
82.36383256430804
 20
177.6033711226029
 30
0.0
  0
ENDBLK
  5
6A2
330
69F
100
AcDbEntity
  8
0
100
AcDbBlockEnd
  0
BLOCK
  5
6A6
330
6A4
100
AcDbEntity
  8
0
100
AcDbBlockBegin
  2
block 214
 70
     0
 10
0.0
 20
0.0
 30
0.0
  3
block 214
  1

  0
POLYLINE
  5
6A8
330
6A4
100
AcDbEntity
  8
AM_1
 62
     4
420
    65535
370
    25
100
AcDb2dPolyline
 66
     1
 10
0.0
 20
0.0
 30
0.0
  0
VERTEX
  5
6A9
330
6A8
100
AcDbEntity
  8
AM_1
 62
     4
420
    65535
370
    25
100
AcDbVertex
100
AcDb2dVertex
 10
83.8638325643081
 20
179.1033711226029
 30
0.0
  0
VERTEX
  5
6AA
330
6A8
100
AcDbEntity
  8
AM_1
 62
     4
420
    65535
370
    25
100
AcDbVertex
100
AcDb2dVertex
 10
83.8638325643081
 20
176.1033711226029
 30
0.0
  0
SEQEND
  5
6AB
330
6A8
100
AcDbEntity
  8
AM_1
 62
     4
420
    65535
370
    25
  0
ENDBLK
  5
6A7
330
6A4
100
AcDbEntity
  8
0
100
AcDbBlockEnd
  0
BLOCK
  5
6AE
330
6AC
100
AcDbEntity
  8
0
100
AcDbBlockBegin
  2
block 215
 70
     0
 10
0.0
 20
0.0
 30
0.0
  3
block 215
  1

  0
POLYLINE
  5
6B0
330
6AC
100
AcDbEntity
  8
AM_1
 62
     4
420
    65535
370
    25
100
AcDb2dPolyline
 66
     1
 10
0.0
 20
0.0
 30
0.0
  0
VERTEX
  5
6B1
330
6B0
100
AcDbEntity
  8
AM_1
 62
     4
420
    65535
370
    25
100
AcDbVertex
100
AcDb2dVertex
 10
85.36383256430814
 20
177.6033711226029
 30
0.0
  0
VERTEX
  5
6B2
330
6B0
100
AcDbEntity
  8
AM_1
 62
     4
420
    65535
370
    25
100
AcDbVertex
100
AcDb2dVertex
 10
82.36383256430835
 20
177.6033711226029
 30
0.0
  0
SEQEND
  5
6B3
330
6B0
100
AcDbEntity
  8
AM_1
 62
     4
420
    65535
370
    25
  0
ENDBLK
  5
6AF
330
6AC
100
AcDbEntity
  8
0
100
AcDbBlockEnd
  0
BLOCK
  5
6B6
330
6B4
100
AcDbEntity
  8
0
100
AcDbBlockBegin
  2
block 216
 70
     0
 10
0.0
 20
0.0
 30
0.0
  3
block 216
  1

  0
SPLINE
  5
6B8
330
6B4
100
AcDbEntity
  8
AM_1
370
     0
100
AcDbSpline
210
0.0
220
0.0
230
1.0
 70
    11
 71
     3
 72
    14
 73
    10
 74
     0
 42
0.0000000001
 43
0.0000000001
 12
1.0
 22
0.0
 32
0.0
 13
1.0
 23
0.0
 33
0.0
 40
0.0
 40
0.0
 40
0.0
 40
0.0
 40
1.0
 40
1.0
 40
1.0
 40
2.0
 40
2.0
 40
2.0
 40
3.0
 40
3.0
 40
3.0
 40
3.0
 10
83.8638325643081
 20
176.1033711226029
 30
0.0
 10
83.8638325643081
 20
176.1033711226029
 30
0.0
 10
83.8638325643081
 20
177.6033711226029
 30
0.0
 10
83.8638325643081
 20
177.6033711226029
 30
0.0
 10
83.8638325643081
 20
177.6033711226029
 30
0.0
 10
82.36383256430804
 20
177.6033711226029
 30
0.0
 10
82.36383256430804
 20
177.6033711226029
 30
0.0
 10
82.36383256430804
 20
176.7749439978571
 30
0.0
 10
83.03540543956166
 20
176.1033711226029
 30
0.0
 10
83.8638325643081
 20
176.1033711226029
 30
0.0
  0
ENDBLK
  5
6B7
330
6B4
100
AcDbEntity
  8
0
100
AcDbBlockEnd
  0
BLOCK
  5
6BB
330
6B9
100
AcDbEntity
  8
0
100
AcDbBlockBegin
  2
block 217
 70
     0
 10
0.0
 20
0.0
 30
0.0
  3
block 217
  1

  0
SPLINE
  5
6BD
330
6B9
100
AcDbEntity
  8
AM_1
370
     0
100
AcDbSpline
210
0.0
220
0.0
230
1.0
 70
    11
 71
     3
 72
    14
 73
    10
 74
     0
 42
0.0000000001
 43
0.0000000001
 12
1.0
 22
0.0
 32
0.0
 13
1.0
 23
0.0
 33
0.0
 40
0.0
 40
0.0
 40
0.0
 40
0.0
 40
1.0
 40
1.0
 40
1.0
 40
2.0
 40
2.0
 40
2.0
 40
3.0
 40
3.0
 40
3.0
 40
3.0
 10
83.8638325643081
 20
176.1033711226032
 30
0.0
 10
83.8638325643081
 20
176.1033711226032
 30
0.0
 10
83.8638325643081
 20
177.6033711226032
 30
0.0
 10
83.8638325643081
 20
177.6033711226032
 30
0.0
 10
83.8638325643081
 20
177.6033711226032
 30
0.0
 10
82.36383256430804
 20
177.6033711226032
 30
0.0
 10
82.36383256430804
 20
177.6033711226032
 30
0.0
 10
82.36383256430804
 20
176.7749439978571
 30
0.0
 10
83.03540543956166
 20
176.1033711226032
 30
0.0
 10
83.8638325643081
 20
176.1033711226032
 30
0.0
  0
ENDBLK
  5
6BC
330
6B9
100
AcDbEntity
  8
0
100
AcDbBlockEnd
  0
BLOCK
  5
6C0
330
6BE
100
AcDbEntity
  8
0
100
AcDbBlockBegin
  2
block 218
 70
     0
 10
0.0
 20
0.0
 30
0.0
  3
block 218
  1

  0
SPLINE
  5
6C2
330
6BE
100
AcDbEntity
  8
AM_1
370
     0
100
AcDbSpline
210
0.0
220
0.0
230
1.0
 70
    11
 71
     3
 72
    14
 73
    10
 74
     0
 42
0.0000000001
 43
0.0000000001
 12
1.0
 22
0.0
 32
0.0
 13
1.0
 23
0.0
 33
0.0
 40
0.0
 40
0.0
 40
0.0
 40
0.0
 40
1.0
 40
1.0
 40
1.0
 40
2.0
 40
2.0
 40
2.0
 40
3.0
 40
3.0
 40
3.0
 40
3.0
 10
83.86383256430841
 20
176.1033711226038
 30
0.0
 10
83.86383256430841
 20
176.1033711226038
 30
0.0
 10
83.86383256430841
 20
177.6033711226038
 30
0.0
 10
83.86383256430841
 20
177.6033711226038
 30
0.0
 10
83.86383256430841
 20
177.6033711226038
 30
0.0
 10
82.36383256430771
 20
177.6033711226038
 30
0.0
 10
82.36383256430771
 20
177.6033711226038
 30
0.0
 10
82.36383256430771
 20
176.7749439978571
 30
0.0
 10
83.03540543956198
 20
176.1033711226038
 30
0.0
 10
83.86383256430841
 20
176.1033711226038
 30
0.0
  0
HATCH
  5
6C3
330
6BE
100
AcDbEntity
  8
AM_1
 62
    18
420
        0
100
AcDbHatch
 10
0.0
 20
0.0
 30
0.0
210
0.0
220
0.0
230
1.0
  2
AI_USER_DEFINED_HATCH
 70
     0
 71
     0
 91
        1
 92
        1
 93
        1
 72
     4
 94
        3
 73
     0
 74
     1
 95
       14
 96
       10
 40
0.0
 40
0.0
 40
0.0
 40
0.0
 40
1.0
 40
1.0
 40
1.0
 40
2.0
 40
2.0
 40
2.0
 40
3.0
 40
3.0
 40
3.0
 40
3.0
 10
83.86383256430841
 20
176.1033711226038
 10
83.86383256430841
 20
176.1033711226038
 10
83.86383256430841
 20
177.6033711226038
 10
83.86383256430841
 20
177.6033711226038
 10
83.86383256430841
 20
177.6033711226038
 10
82.36383256430771
 20
177.6033711226038
 10
82.36383256430771
 20
177.6033711226038
 10
82.36383256430771
 20
176.7749439978571
 10
83.03540543956198
 20
176.1033711226038
 10
83.86383256430841
 20
176.1033711226038
 97
        0
 97
        0
 75
     0
 76
     0
 52
45.0
 41
10.0
 77
     0
 78
     1
 53
45.0
 43
0.0
 44
0.0
 45
-7.071067811865475
 46
7.071067811865476
 79
     0
 98
        0
  0
ENDBLK
  5
6C1
330
6BE
100
AcDbEntity
  8
0
100
AcDbBlockEnd
  0
BLOCK
  5
6C6
330
6C4
100
AcDbEntity
  8
0
100
AcDbBlockBegin
  2
block 219
 70
     0
 10
0.0
 20
0.0
 30
0.0
  3
block 219
  1

  0
SPLINE
  5
6C8
330
6C4
100
AcDbEntity
  8
AM_1
370
     0
100
AcDbSpline
210
0.0
220
0.0
230
1.0
 70
    11
 71
     3
 72
    14
 73
    10
 74
     0
 42
0.0000000001
 43
0.0000000001
 12
1.0
 22
0.0
 32
0.0
 13
1.0
 23
0.0
 33
0.0
 40
0.0
 40
0.0
 40
0.0
 40
0.0
 40
1.0
 40
1.0
 40
1.0
 40
2.0
 40
2.0
 40
2.0
 40
3.0
 40
3.0
 40
3.0
 40
3.0
 10
83.8638325643081
 20
177.6033711226029
 30
0.0
 10
83.8638325643081
 20
177.6033711226029
 30
0.0
 10
85.36383256430814
 20
177.6033711226029
 30
0.0
 10
85.36383256430814
 20
177.6033711226029
 30
0.0
 10
85.36383256430814
 20
178.4317982473497
 30
0.0
 10
84.69225968905485
 20
179.1033711226029
 30
0.0
 10
83.8638325643081
 20
179.1033711226029
 30
0.0
 10
83.8638325643081
 20
179.1033711226029
 30
0.0
 10
83.8638325643081
 20
177.6033711226029
 30
0.0
 10
83.8638325643081
 20
177.6033711226029
 30
0.0
  0
ENDBLK
  5
6C7
330
6C4
100
AcDbEntity
  8
0
100
AcDbBlockEnd
  0
BLOCK
  5
6CB
330
6C9
100
AcDbEntity
  8
0
100
AcDbBlockBegin
  2
block 220
 70
     0
 10
0.0
 20
0.0
 30
0.0
  3
block 220
  1

  0
SPLINE
  5
6CD
330
6C9
100
AcDbEntity
  8
AM_1
370
     0
100
AcDbSpline
210
0.0
220
0.0
230
1.0
 70
    11
 71
     3
 72
    14
 73
    10
 74
     0
 42
0.0000000001
 43
0.0000000001
 12
1.0
 22
0.0
 32
0.0
 13
1.0
 23
0.0
 33
0.0
 40
0.0
 40
0.0
 40
0.0
 40
0.0
 40
1.0
 40
1.0
 40
1.0
 40
2.0
 40
2.0
 40
2.0
 40
3.0
 40
3.0
 40
3.0
 40
3.0
 10
83.8638325643081
 20
177.6033711226032
 30
0.0
 10
83.8638325643081
 20
177.6033711226032
 30
0.0
 10
85.36383256430814
 20
177.6033711226032
 30
0.0
 10
85.36383256430814
 20
177.6033711226032
 30
0.0
 10
85.36383256430814
 20
178.4317982473497
 30
0.0
 10
84.69225968905485
 20
179.1033711226029
 30
0.0
 10
83.8638325643081
 20
179.1033711226029
 30
0.0
 10
83.8638325643081
 20
179.1033711226029
 30
0.0
 10
83.8638325643081
 20
177.6033711226032
 30
0.0
 10
83.8638325643081
 20
177.6033711226032
 30
0.0
  0
ENDBLK
  5
6CC
330
6C9
100
AcDbEntity
  8
0
100
AcDbBlockEnd
  0
BLOCK
  5
6D0
330
6CE
100
AcDbEntity
  8
0
100
AcDbBlockBegin
  2
block 221
 70
     0
 10
0.0
 20
0.0
 30
0.0
  3
block 221
  1

  0
SPLINE
  5
6D2
330
6CE
100
AcDbEntity
  8
AM_1
370
     0
100
AcDbSpline
210
0.0
220
0.0
230
1.0
 70
    11
 71
     3
 72
    14
 73
    10
 74
     0
 42
0.0000000001
 43
0.0000000001
 12
1.0
 22
0.0
 32
0.0
 13
1.0
 23
0.0
 33
0.0
 40
0.0
 40
0.0
 40
0.0
 40
0.0
 40
1.0
 40
1.0
 40
1.0
 40
2.0
 40
2.0
 40
2.0
 40
3.0
 40
3.0
 40
3.0
 40
3.0
 10
83.86383256430841
 20
177.6033711226038
 30
0.0
 10
83.86383256430841
 20
177.6033711226038
 30
0.0
 10
85.36383256430847
 20
177.6033711226038
 30
0.0
 10
85.36383256430847
 20
177.6033711226038
 30
0.0
 10
85.36383256430847
 20
178.4317982473506
 30
0.0
 10
84.69225968905516
 20
179.1033711226039
 30
0.0
 10
83.86383256430841
 20
179.1033711226039
 30
0.0
 10
83.86383256430841
 20
179.1033711226039
 30
0.0
 10
83.86383256430841
 20
177.6033711226038
 30
0.0
 10
83.86383256430841
 20
177.6033711226038
 30
0.0
  0
HATCH
  5
6D3
330
6CE
100
AcDbEntity
  8
AM_1
 62
    18
420
        0
100
AcDbHatch
 10
0.0
 20
0.0
 30
0.0
210
0.0
220
0.0
230
1.0
  2
AI_USER_DEFINED_HATCH
 70
     0
 71
     0
 91
        1
 92
        1
 93
        1
 72
     4
 94
        3
 73
     0
 74
     1
 95
       14
 96
       10
 40
0.0
 40
0.0
 40
0.0
 40
0.0
 40
1.0
 40
1.0
 40
1.0
 40
2.0
 40
2.0
 40
2.0
 40
3.0
 40
3.0
 40
3.0
 40
3.0
 10
83.86383256430841
 20
177.6033711226038
 10
83.86383256430841
 20
177.6033711226038
 10
85.36383256430847
 20
177.6033711226038
 10
85.36383256430847
 20
177.6033711226038
 10
85.36383256430847
 20
178.4317982473506
 10
84.69225968905516
 20
179.1033711226039
 10
83.86383256430841
 20
179.1033711226039
 10
83.86383256430841
 20
179.1033711226039
 10
83.86383256430841
 20
177.6033711226038
 10
83.86383256430841
 20
177.6033711226038
 97
        0
 97
        0
 75
     0
 76
     0
 52
45.0
 41
10.0
 77
     0
 78
     1
 53
45.0
 43
0.0
 44
0.0
 45
-7.071067811865475
 46
7.071067811865476
 79
     0
 98
        0
  0
ENDBLK
  5
6D1
330
6CE
100
AcDbEntity
  8
0
100
AcDbBlockEnd
  0
BLOCK
  5
6D6
330
6D4
100
AcDbEntity
  8
0
100
AcDbBlockBegin
  2
block 222
 70
     0
 10
0.0
 20
0.0
 30
0.0
  3
block 222
  1

  0
SPLINE
  5
6D8
330
6D4
100
AcDbEntity
  8
AM_1
 62
     4
420
    65535
370
    25
100
AcDbSpline
210
0.0
220
0.0
230
1.0
 70
    11
 71
     3
 72
    17
 73
    13
 74
     0
 42
0.0000000001
 43
0.0000000001
 12
1.0
 22
0.0
 32
0.0
 13
1.0
 23
0.0
 33
0.0
 40
0.0
 40
0.0
 40
0.0
 40
0.0
 40
1.0
 40
1.0
 40
1.0
 40
2.0
 40
2.0
 40
2.0
 40
3.0
 40
3.0
 40
3.0
 40
4.0
 40
4.0
 40
4.0
 40
4.0
 10
165.6138325643108
 20
177.6033711226013
 30
0.0
 10
165.6138325643108
 20
178.4317982473471
 30
0.0
 10
166.2854054395638
 20
179.1033711226013
 30
0.0
 10
167.1138325643099
 20
179.1033711226013
 30
0.0
 10
167.9422596890573
 20
179.1033711226013
 30
0.0
 10
168.6138325643096
 20
178.4317982473471
 30
0.0
 10
168.6138325643096
 20
177.6033711226013
 30
0.0
 10
168.6138325643096
 20
176.7749439978545
 30
0.0
 10
167.9422596890573
 20
176.1033711226012
 30
0.0
 10
167.1138325643099
 20
176.1033711226012
 30
0.0
 10
166.2854054395638
 20
176.1033711226012
 30
0.0
 10
165.6138325643108
 20
176.7749439978545
 30
0.0
 10
165.6138325643108
 20
177.6033711226013
 30
0.0
  0
ENDBLK
  5
6D7
330
6D4
100
AcDbEntity
  8
0
100
AcDbBlockEnd
  0
BLOCK
  5
6DB
330
6D9
100
AcDbEntity
  8
0
100
AcDbBlockBegin
  2
block 223
 70
     0
 10
0.0
 20
0.0
 30
0.0
  3
block 223
  1

  0
POLYLINE
  5
6DD
330
6D9
100
AcDbEntity
  8
AM_1
 62
     4
420
    65535
370
    25
100
AcDb2dPolyline
 66
     1
 10
0.0
 20
0.0
 30
0.0
  0
VERTEX
  5
6DE
330
6DD
100
AcDbEntity
  8
AM_1
 62
     4
420
    65535
370
    25
100
AcDbVertex
100
AcDb2dVertex
 10
167.1138325643099
 20
179.1033711226013
 30
0.0
  0
VERTEX
  5
6DF
330
6DD
100
AcDbEntity
  8
AM_1
 62
     4
420
    65535
370
    25
100
AcDbVertex
100
AcDb2dVertex
 10
167.1138325643099
 20
176.1033711226012
 30
0.0
  0
SEQEND
  5
6E0
330
6DD
100
AcDbEntity
  8
AM_1
 62
     4
420
    65535
370
    25
  0
ENDBLK
  5
6DC
330
6D9
100
AcDbEntity
  8
0
100
AcDbBlockEnd
  0
BLOCK
  5
6E3
330
6E1
100
AcDbEntity
  8
0
100
AcDbBlockBegin
  2
block 224
 70
     0
 10
0.0
 20
0.0
 30
0.0
  3
block 224
  1

  0
POLYLINE
  5
6E5
330
6E1
100
AcDbEntity
  8
AM_1
 62
     4
420
    65535
370
    25
100
AcDb2dPolyline
 66
     1
 10
0.0
 20
0.0
 30
0.0
  0
VERTEX
  5
6E6
330
6E5
100
AcDbEntity
  8
AM_1
 62
     4
420
    65535
370
    25
100
AcDbVertex
100
AcDb2dVertex
 10
168.7138325643106
 20
177.6033711226013
 30
0.0
  0
VERTEX
  5
6E7
330
6E5
100
AcDbEntity
  8
AM_1
 62
     4
420
    65535
370
    25
100
AcDbVertex
100
AcDb2dVertex
 10
165.6138325643108
 20
177.6033711226013
 30
0.0
  0
SEQEND
  5
6E8
330
6E5
100
AcDbEntity
  8
AM_1
 62
     4
420
    65535
370
    25
  0
ENDBLK
  5
6E4
330
6E1
100
AcDbEntity
  8
0
100
AcDbBlockEnd
  0
BLOCK
  5
6EB
330
6E9
100
AcDbEntity
  8
0
100
AcDbBlockBegin
  2
block 225
 70
     0
 10
0.0
 20
0.0
 30
0.0
  3
block 225
  1

  0
SPLINE
  5
6ED
330
6E9
100
AcDbEntity
  8
AM_1
370
     0
100
AcDbSpline
210
0.0
220
0.0
230
1.0
 70
    11
 71
     3
 72
    14
 73
    10
 74
     0
 42
0.0000000001
 43
0.0000000001
 12
1.0
 22
0.0
 32
0.0
 13
1.0
 23
0.0
 33
0.0
 40
0.0
 40
0.0
 40
0.0
 40
0.0
 40
1.0
 40
1.0
 40
1.0
 40
2.0
 40
2.0
 40
2.0
 40
3.0
 40
3.0
 40
3.0
 40
3.0
 10
167.1138325643099
 20
176.1033711226012
 30
0.0
 10
167.1138325643099
 20
176.1033711226012
 30
0.0
 10
167.1138325643099
 20
177.6033711226013
 30
0.0
 10
167.1138325643099
 20
177.6033711226013
 30
0.0
 10
167.1138325643099
 20
177.6033711226013
 30
0.0
 10
165.6138325643108
 20
177.6033711226013
 30
0.0
 10
165.6138325643108
 20
177.6033711226013
 30
0.0
 10
165.6138325643108
 20
176.7749439978545
 30
0.0
 10
166.2854054395638
 20
176.1033711226012
 30
0.0
 10
167.1138325643099
 20
176.1033711226012
 30
0.0
  0
ENDBLK
  5
6EC
330
6E9
100
AcDbEntity
  8
0
100
AcDbBlockEnd
  0
BLOCK
  5
6F0
330
6EE
100
AcDbEntity
  8
0
100
AcDbBlockBegin
  2
block 226
 70
     0
 10
0.0
 20
0.0
 30
0.0
  3
block 226
  1

  0
SPLINE
  5
6F2
330
6EE
100
AcDbEntity
  8
AM_1
370
     0
100
AcDbSpline
210
0.0
220
0.0
230
1.0
 70
    11
 71
     3
 72
    14
 73
    10
 74
     0
 42
0.0000000001
 43
0.0000000001
 12
1.0
 22
0.0
 32
0.0
 13
1.0
 23
0.0
 33
0.0
 40
0.0
 40
0.0
 40
0.0
 40
0.0
 40
1.0
 40
1.0
 40
1.0
 40
2.0
 40
2.0
 40
2.0
 40
3.0
 40
3.0
 40
3.0
 40
3.0
 10
167.1138325643099
 20
176.1033711226012
 30
0.0
 10
167.1138325643099
 20
176.1033711226012
 30
0.0
 10
167.1138325643099
 20
177.6033711226013
 30
0.0
 10
167.1138325643099
 20
177.6033711226013
 30
0.0
 10
167.1138325643099
 20
177.6033711226013
 30
0.0
 10
165.6138325643108
 20
177.6033711226013
 30
0.0
 10
165.6138325643108
 20
177.6033711226013
 30
0.0
 10
165.6138325643108
 20
176.7749439978545
 30
0.0
 10
166.2854054395638
 20
176.1033711226012
 30
0.0
 10
167.1138325643099
 20
176.1033711226012
 30
0.0
  0
ENDBLK
  5
6F1
330
6EE
100
AcDbEntity
  8
0
100
AcDbBlockEnd
  0
BLOCK
  5
6F5
330
6F3
100
AcDbEntity
  8
0
100
AcDbBlockBegin
  2
block 227
 70
     0
 10
0.0
 20
0.0
 30
0.0
  3
block 227
  1

  0
SPLINE
  5
6F7
330
6F3
100
AcDbEntity
  8
AM_1
370
     0
100
AcDbSpline
210
0.0
220
0.0
230
1.0
 70
    11
 71
     3
 72
    14
 73
    10
 74
     0
 42
0.0000000001
 43
0.0000000001
 12
1.0
 22
0.0
 32
0.0
 13
1.0
 23
0.0
 33
0.0
 40
0.0
 40
0.0
 40
0.0
 40
0.0
 40
1.0
 40
1.0
 40
1.0
 40
2.0
 40
2.0
 40
2.0
 40
3.0
 40
3.0
 40
3.0
 40
3.0
 10
167.1138325643105
 20
176.1033711226022
 30
0.0
 10
167.1138325643105
 20
176.1033711226022
 30
0.0
 10
167.1138325643105
 20
177.6033711226023
 30
0.0
 10
167.1138325643105
 20
177.6033711226023
 30
0.0
 10
167.1138325643105
 20
177.6033711226023
 30
0.0
 10
165.6138325643102
 20
177.6033711226023
 30
0.0
 10
165.6138325643102
 20
177.6033711226023
 30
0.0
 10
165.6138325643102
 20
176.7749439978555
 30
0.0
 10
166.2854054395638
 20
176.1033711226022
 30
0.0
 10
167.1138325643105
 20
176.1033711226022
 30
0.0
  0
HATCH
  5
6F8
330
6F3
100
AcDbEntity
  8
AM_1
 62
    18
420
        0
100
AcDbHatch
 10
0.0
 20
0.0
 30
0.0
210
0.0
220
0.0
230
1.0
  2
AI_USER_DEFINED_HATCH
 70
     0
 71
     0
 91
        1
 92
        1
 93
        1
 72
     4
 94
        3
 73
     0
 74
     1
 95
       14
 96
       10
 40
0.0
 40
0.0
 40
0.0
 40
0.0
 40
1.0
 40
1.0
 40
1.0
 40
2.0
 40
2.0
 40
2.0
 40
3.0
 40
3.0
 40
3.0
 40
3.0
 10
167.1138325643105
 20
176.1033711226022
 10
167.1138325643105
 20
176.1033711226022
 10
167.1138325643105
 20
177.6033711226023
 10
167.1138325643105
 20
177.6033711226023
 10
167.1138325643105
 20
177.6033711226023
 10
165.6138325643102
 20
177.6033711226023
 10
165.6138325643102
 20
177.6033711226023
 10
165.6138325643102
 20
176.7749439978555
 10
166.2854054395638
 20
176.1033711226022
 10
167.1138325643105
 20
176.1033711226022
 97
        0
 97
        0
 75
     0
 76
     0
 52
45.0
 41
10.0
 77
     0
 78
     1
 53
45.0
 43
0.0
 44
0.0
 45
-7.071067811865475
 46
7.071067811865476
 79
     0
 98
        0
  0
ENDBLK
  5
6F6
330
6F3
100
AcDbEntity
  8
0
100
AcDbBlockEnd
  0
BLOCK
  5
6FB
330
6F9
100
AcDbEntity
  8
0
100
AcDbBlockBegin
  2
block 228
 70
     0
 10
0.0
 20
0.0
 30
0.0
  3
block 228
  1

  0
SPLINE
  5
6FD
330
6F9
100
AcDbEntity
  8
AM_1
370
     0
100
AcDbSpline
210
0.0
220
0.0
230
1.0
 70
    11
 71
     3
 72
    14
 73
    10
 74
     0
 42
0.0000000001
 43
0.0000000001
 12
1.0
 22
0.0
 32
0.0
 13
1.0
 23
0.0
 33
0.0
 40
0.0
 40
0.0
 40
0.0
 40
0.0
 40
1.0
 40
1.0
 40
1.0
 40
2.0
 40
2.0
 40
2.0
 40
3.0
 40
3.0
 40
3.0
 40
3.0
 10
167.1138325643099
 20
177.6033711226013
 30
0.0
 10
167.1138325643099
 20
177.6033711226013
 30
0.0
 10
168.6138325643096
 20
177.6033711226013
 30
0.0
 10
168.6138325643096
 20
177.6033711226013
 30
0.0
 10
168.6138325643096
 20
178.4317982473471
 30
0.0
 10
167.9422596890573
 20
179.1033711226013
 30
0.0
 10
167.1138325643099
 20
179.1033711226013
 30
0.0
 10
167.1138325643099
 20
179.1033711226013
 30
0.0
 10
167.1138325643099
 20
177.6033711226013
 30
0.0
 10
167.1138325643099
 20
177.6033711226013
 30
0.0
  0
ENDBLK
  5
6FC
330
6F9
100
AcDbEntity
  8
0
100
AcDbBlockEnd
  0
BLOCK
  5
700
330
6FE
100
AcDbEntity
  8
0
100
AcDbBlockBegin
  2
block 229
 70
     0
 10
0.0
 20
0.0
 30
0.0
  3
block 229
  1

  0
SPLINE
  5
702
330
6FE
100
AcDbEntity
  8
AM_1
370
     0
100
AcDbSpline
210
0.0
220
0.0
230
1.0
 70
    11
 71
     3
 72
    14
 73
    10
 74
     0
 42
0.0000000001
 43
0.0000000001
 12
1.0
 22
0.0
 32
0.0
 13
1.0
 23
0.0
 33
0.0
 40
0.0
 40
0.0
 40
0.0
 40
0.0
 40
1.0
 40
1.0
 40
1.0
 40
2.0
 40
2.0
 40
2.0
 40
3.0
 40
3.0
 40
3.0
 40
3.0
 10
167.1138325643099
 20
177.6033711226013
 30
0.0
 10
167.1138325643099
 20
177.6033711226013
 30
0.0
 10
168.6138325643096
 20
177.6033711226013
 30
0.0
 10
168.6138325643096
 20
177.6033711226013
 30
0.0
 10
168.6138325643096
 20
178.4317982473471
 30
0.0
 10
167.9422596890573
 20
179.1033711226013
 30
0.0
 10
167.1138325643099
 20
179.1033711226013
 30
0.0
 10
167.1138325643099
 20
179.1033711226013
 30
0.0
 10
167.1138325643099
 20
177.6033711226013
 30
0.0
 10
167.1138325643099
 20
177.6033711226013
 30
0.0
  0
ENDBLK
  5
701
330
6FE
100
AcDbEntity
  8
0
100
AcDbBlockEnd
  0
BLOCK
  5
705
330
703
100
AcDbEntity
  8
0
100
AcDbBlockBegin
  2
block 230
 70
     0
 10
0.0
 20
0.0
 30
0.0
  3
block 230
  1

  0
SPLINE
  5
707
330
703
100
AcDbEntity
  8
AM_1
370
     0
100
AcDbSpline
210
0.0
220
0.0
230
1.0
 70
    11
 71
     3
 72
    14
 73
    10
 74
     0
 42
0.0000000001
 43
0.0000000001
 12
1.0
 22
0.0
 32
0.0
 13
1.0
 23
0.0
 33
0.0
 40
0.0
 40
0.0
 40
0.0
 40
0.0
 40
1.0
 40
1.0
 40
1.0
 40
2.0
 40
2.0
 40
2.0
 40
3.0
 40
3.0
 40
3.0
 40
3.0
 10
167.1138325643105
 20
177.6033711226023
 30
0.0
 10
167.1138325643105
 20
177.6033711226023
 30
0.0
 10
168.6138325643103
 20
177.6033711226023
 30
0.0
 10
168.6138325643103
 20
177.6033711226023
 30
0.0
 10
168.6138325643103
 20
178.4317982473471
 30
0.0
 10
167.9422596890573
 20
179.103371122602
 30
0.0
 10
167.1138325643105
 20
179.103371122602
 30
0.0
 10
167.1138325643105
 20
179.103371122602
 30
0.0
 10
167.1138325643105
 20
177.6033711226023
 30
0.0
 10
167.1138325643105
 20
177.6033711226023
 30
0.0
  0
HATCH
  5
708
330
703
100
AcDbEntity
  8
AM_1
 62
    18
420
        0
100
AcDbHatch
 10
0.0
 20
0.0
 30
0.0
210
0.0
220
0.0
230
1.0
  2
AI_USER_DEFINED_HATCH
 70
     0
 71
     0
 91
        1
 92
        1
 93
        1
 72
     4
 94
        3
 73
     0
 74
     1
 95
       14
 96
       10
 40
0.0
 40
0.0
 40
0.0
 40
0.0
 40
1.0
 40
1.0
 40
1.0
 40
2.0
 40
2.0
 40
2.0
 40
3.0
 40
3.0
 40
3.0
 40
3.0
 10
167.1138325643105
 20
177.6033711226023
 10
167.1138325643105
 20
177.6033711226023
 10
168.6138325643103
 20
177.6033711226023
 10
168.6138325643103
 20
177.6033711226023
 10
168.6138325643103
 20
178.4317982473471
 10
167.9422596890573
 20
179.103371122602
 10
167.1138325643105
 20
179.103371122602
 10
167.1138325643105
 20
179.103371122602
 10
167.1138325643105
 20
177.6033711226023
 10
167.1138325643105
 20
177.6033711226023
 97
        0
 97
        0
 75
     0
 76
     0
 52
45.0
 41
10.0
 77
     0
 78
     1
 53
45.0
 43
0.0
 44
0.0
 45
-7.071067811865475
 46
7.071067811865476
 79
     0
 98
        0
  0
ENDBLK
  5
706
330
703
100
AcDbEntity
  8
0
100
AcDbBlockEnd
  0
BLOCK
  5
70C
330
70A
100
AcDbEntity
  8
0
100
AcDbBlockBegin
  2
block 231
 70
     0
 10
0.0
 20
0.0
 30
0.0
  3
block 231
  1

  0
POLYLINE
  5
70E
330
70A
100
AcDbEntity
  8
Defpoints
370
     0
100
AcDb2dPolyline
 66
     1
 10
0.0
 20
0.0
 30
0.0
  0
VERTEX
  5
70F
330
70E
100
AcDbEntity
  8
Defpoints
370
     0
100
AcDbVertex
100
AcDb2dVertex
 10
174.2138325643092
 20
164.2528127816965
 30
0.0
  0
VERTEX
  5
7B6
330
70E
100
AcDbEntity
  8
0
100
AcDbVertex
100
AcDb2dVertex
 10
174.2138325643092
 20
164.2528127816965
 30
0.0
  0
SEQEND
  5
710
330
70E
100
AcDbEntity
  8
Defpoints
370
     0
  0
ENDBLK
  5
70D
330
70A
100
AcDbEntity
  8
0
100
AcDbBlockEnd
  0
BLOCK
  5
713
330
711
100
AcDbEntity
  8
0
100
AcDbBlockBegin
  2
block 232
 70
     0
 10
0.0
 20
0.0
 30
0.0
  3
block 232
  1

  0
POLYLINE
  5
715
330
711
100
AcDbEntity
  8
Defpoints
370
     0
100
AcDb2dPolyline
 66
     1
 10
0.0
 20
0.0
 30
0.0
  0
VERTEX
  5
716
330
715
100
AcDbEntity
  8
Defpoints
370
     0
100
AcDbVertex
100
AcDb2dVertex
 10
83.8638325643081
 20
146.1033711226034
 30
0.0
  0
VERTEX
  5
7B7
330
715
100
AcDbEntity
  8
0
100
AcDbVertex
100
AcDb2dVertex
 10
83.8638325643081
 20
146.1033711226034
 30
0.0
  0
SEQEND
  5
717
330
715
100
AcDbEntity
  8
Defpoints
370
     0
  0
ENDBLK
  5
714
330
711
100
AcDbEntity
  8
0
100
AcDbBlockEnd
  0
BLOCK
  5
71A
330
718
100
AcDbEntity
  8
0
100
AcDbBlockBegin
  2
block 233
 70
     0
 10
0.0
 20
0.0
 30
0.0
  3
block 233
  1

  0
POLYLINE
  5
71C
330
718
100
AcDbEntity
  8
Defpoints
370
     0
100
AcDb2dPolyline
 66
     1
 10
0.0
 20
0.0
 30
0.0
  0
VERTEX
  5
71D
330
71C
100
AcDbEntity
  8
Defpoints
370
     0
100
AcDbVertex
100
AcDb2dVertex
 10
83.8638325643081
 20
132.6033701126042
 30
0.0
  0
VERTEX
  5
7B8
330
71C
100
AcDbEntity
  8
0
100
AcDbVertex
100
AcDb2dVertex
 10
83.8638325643081
 20
132.6033701126042
 30
0.0
  0
SEQEND
  5
71E
330
71C
100
AcDbEntity
  8
Defpoints
370
     0
  0
ENDBLK
  5
71B
330
718
100
AcDbEntity
  8
0
100
AcDbBlockEnd
  0
BLOCK
  5
721
330
71F
100
AcDbEntity
  8
0
100
AcDbBlockBegin
  2
block 234
 70
     0
 10
0.0
 20
0.0
 30
0.0
  3
block 234
  1

  0
POLYLINE
  5
723
330
71F
100
AcDbEntity
  8
Defpoints
370
     0
100
AcDb2dPolyline
 66
     1
 10
0.0
 20
0.0
 30
0.0
  0
VERTEX
  5
724
330
723
100
AcDbEntity
  8
Defpoints
370
     0
100
AcDbVertex
100
AcDb2dVertex
 10
109.8638325643077
 20
146.1033711226034
 30
0.0
  0
VERTEX
  5
7B9
330
723
100
AcDbEntity
  8
0
100
AcDbVertex
100
AcDb2dVertex
 10
109.8638325643077
 20
146.1033711226034
 30
0.0
  0
SEQEND
  5
725
330
723
100
AcDbEntity
  8
Defpoints
370
     0
  0
ENDBLK
  5
722
330
71F
100
AcDbEntity
  8
0
100
AcDbBlockEnd
  0
BLOCK
  5
728
330
726
100
AcDbEntity
  8
0
100
AcDbBlockBegin
  2
block 235
 70
     0
 10
0.0
 20
0.0
 30
0.0
  3
block 235
  1

  0
POLYLINE
  5
72A
330
726
100
AcDbEntity
  8
Defpoints
370
     0
100
AcDb2dPolyline
 66
     1
 10
0.0
 20
0.0
 30
0.0
  0
VERTEX
  5
72B
330
72A
100
AcDbEntity
  8
Defpoints
370
     0
100
AcDbVertex
100
AcDb2dVertex
 10
174.2138325643092
 20
164.2528127816965
 30
0.0
  0
VERTEX
  5
7BA
330
72A
100
AcDbEntity
  8
0
100
AcDbVertex
100
AcDb2dVertex
 10
174.2138325643092
 20
164.2528127816965
 30
0.0
  0
SEQEND
  5
72C
330
72A
100
AcDbEntity
  8
Defpoints
370
     0
  0
ENDBLK
  5
729
330
726
100
AcDbEntity
  8
0
100
AcDbBlockEnd
  0
BLOCK
  5
72F
330
72D
100
AcDbEntity
  8
0
100
AcDbBlockBegin
  2
block 236
 70
     0
 10
0.0
 20
0.0
 30
0.0
  3
block 236
  1

  0
POLYLINE
  5
731
330
72D
100
AcDbEntity
  8
Defpoints
370
     0
100
AcDb2dPolyline
 66
     1
 10
0.0
 20
0.0
 30
0.0
  0
VERTEX
  5
732
330
731
100
AcDbEntity
  8
Defpoints
370
     0
100
AcDbVertex
100
AcDb2dVertex
 10
174.2138325643092
 20
142.603370112604
 30
0.0
  0
VERTEX
  5
7BB
330
731
100
AcDbEntity
  8
0
100
AcDbVertex
100
AcDb2dVertex
 10
174.2138325643092
 20
142.603370112604
 30
0.0
  0
SEQEND
  5
733
330
731
100
AcDbEntity
  8
Defpoints
370
     0
  0
ENDBLK
  5
730
330
72D
100
AcDbEntity
  8
0
100
AcDbBlockEnd
  0
BLOCK
  5
736
330
734
100
AcDbEntity
  8
0
100
AcDbBlockBegin
  2
block 237
 70
     0
 10
0.0
 20
0.0
 30
0.0
  3
block 237
  1

  0
POLYLINE
  5
738
330
734
100
AcDbEntity
  8
Defpoints
370
     0
100
AcDb2dPolyline
 66
     1
 10
0.0
 20
0.0
 30
0.0
  0
VERTEX
  5
739
330
738
100
AcDbEntity
  8
Defpoints
370
     0
100
AcDbVertex
100
AcDb2dVertex
 10
168.7138325643074
 20
193.6147154290778
 30
0.0
  0
VERTEX
  5
7BC
330
738
100
AcDbEntity
  8
0
100
AcDbVertex
100
AcDb2dVertex
 10
168.7138325643074
 20
193.6147154290778
 30
0.0
  0
SEQEND
  5
73A
330
738
100
AcDbEntity
  8
Defpoints
370
     0
  0
ENDBLK
  5
737
330
734
100
AcDbEntity
  8
0
100
AcDbBlockEnd
  0
BLOCK
  5
73D
330
73B
100
AcDbEntity
  8
0
100
AcDbBlockBegin
  2
block 238
 70
     0
 10
0.0
 20
0.0
 30
0.0
  3
block 238
  1

  0
POLYLINE
  5
73F
330
73B
100
AcDbEntity
  8
Defpoints
370
     0
100
AcDb2dPolyline
 66
     1
 10
0.0
 20
0.0
 30
0.0
  0
VERTEX
  5
740
330
73F
100
AcDbEntity
  8
Defpoints
370
     0
100
AcDbVertex
100
AcDb2dVertex
 10
168.7138325643093
 20
161.6147154290776
 30
0.0
  0
VERTEX
  5
7BD
330
73F
100
AcDbEntity
  8
0
100
AcDbVertex
100
AcDb2dVertex
 10
168.7138325643093
 20
161.6147154290776
 30
0.0
  0
SEQEND
  5
741
330
73F
100
AcDbEntity
  8
Defpoints
370
     0
  0
ENDBLK
  5
73E
330
73B
100
AcDbEntity
  8
0
100
AcDbBlockEnd
  0
BLOCK
  5
744
330
742
100
AcDbEntity
  8
0
100
AcDbBlockBegin
  2
block 239
 70
     0
 10
0.0
 20
0.0
 30
0.0
  3
block 239
  1

  0
POLYLINE
  5
746
330
742
100
AcDbEntity
  8
Defpoints
370
     0
100
AcDb2dPolyline
 66
     1
 10
0.0
 20
0.0
 30
0.0
  0
VERTEX
  5
747
330
746
100
AcDbEntity
  8
Defpoints
370
     0
100
AcDbVertex
100
AcDb2dVertex
 10
189.0916021293602
 20
161.6147154290776
 30
0.0
  0
VERTEX
  5
7BE
330
746
100
AcDbEntity
  8
0
100
AcDbVertex
100
AcDb2dVertex
 10
189.0916021293602
 20
161.6147154290776
 30
0.0
  0
SEQEND
  5
748
330
746
100
AcDbEntity
  8
Defpoints
370
     0
  0
ENDBLK
  5
745
330
742
100
AcDbEntity
  8
0
100
AcDbBlockEnd
  0
BLOCK
  5
74B
330
749
100
AcDbEntity
  8
0
100
AcDbBlockBegin
  2
block 240
 70
     0
 10
0.0
 20
0.0
 30
0.0
  3
block 240
  1

  0
POLYLINE
  5
74D
330
749
100
AcDbEntity
  8
Defpoints
370
     0
100
AcDb2dPolyline
 66
     1
 10
0.0
 20
0.0
 30
0.0
  0
VERTEX
  5
74E
330
74D
100
AcDbEntity
  8
Defpoints
370
     0
100
AcDbVertex
100
AcDb2dVertex
 10
51.86383256430825
 20
156.0298701862731
 30
0.0
  0
VERTEX
  5
7BF
330
74D
100
AcDbEntity
  8
0
100
AcDbVertex
100
AcDb2dVertex
 10
51.86383256430825
 20
156.0298701862731
 30
0.0
  0
SEQEND
  5
74F
330
74D
100
AcDbEntity
  8
Defpoints
370
     0
  0
ENDBLK
  5
74C
330
749
100
AcDbEntity
  8
0
100
AcDbBlockEnd
  0
BLOCK
  5
752
330
750
100
AcDbEntity
  8
0
100
AcDbBlockBegin
  2
block 241
 70
     0
 10
0.0
 20
0.0
 30
0.0
  3
block 241
  1

  0
POLYLINE
  5
754
330
750
100
AcDbEntity
  8
Defpoints
370
     0
100
AcDb2dPolyline
 66
     1
 10
0.0
 20
0.0
 30
0.0
  0
VERTEX
  5
755
330
754
100
AcDbEntity
  8
Defpoints
370
     0
100
AcDbVertex
100
AcDb2dVertex
 10
83.8638325643081
 20
146.1033711226034
 30
0.0
  0
VERTEX
  5
7C0
330
754
100
AcDbEntity
  8
0
100
AcDbVertex
100
AcDb2dVertex
 10
83.8638325643081
 20
146.1033711226034
 30
0.0
  0
SEQEND
  5
756
330
754
100
AcDbEntity
  8
Defpoints
370
     0
  0
ENDBLK
  5
753
330
750
100
AcDbEntity
  8
0
100
AcDbBlockEnd
  0
BLOCK
  5
759
330
757
100
AcDbEntity
  8
0
100
AcDbBlockBegin
  2
block 242
 70
     0
 10
0.0
 20
0.0
 30
0.0
  3
block 242
  1

  0
POLYLINE
  5
75B
330
757
100
AcDbEntity
  8
Defpoints
370
     0
100
AcDb2dPolyline
 66
     1
 10
0.0
 20
0.0
 30
0.0
  0
VERTEX
  5
75C
330
75B
100
AcDbEntity
  8
Defpoints
370
     0
100
AcDbVertex
100
AcDb2dVertex
 10
83.8638325643081
 20
132.6033701126042
 30
0.0
  0
VERTEX
  5
7C1
330
75B
100
AcDbEntity
  8
0
100
AcDbVertex
100
AcDb2dVertex
 10
83.8638325643081
 20
132.6033701126042
 30
0.0
  0
SEQEND
  5
75D
330
75B
100
AcDbEntity
  8
Defpoints
370
     0
  0
ENDBLK
  5
75A
330
757
100
AcDbEntity
  8
0
100
AcDbBlockEnd
  0
BLOCK
  5
760
330
75E
100
AcDbEntity
  8
0
100
AcDbBlockBegin
  2
block 243
 70
     0
 10
0.0
 20
0.0
 30
0.0
  3
block 243
  1

  0
POLYLINE
  5
762
330
75E
100
AcDbEntity
  8
Defpoints
370
     0
100
AcDb2dPolyline
 66
     1
 10
0.0
 20
0.0
 30
0.0
  0
VERTEX
  5
763
330
762
100
AcDbEntity
  8
Defpoints
370
     0
100
AcDbVertex
100
AcDb2dVertex
 10
51.86383256430825
 20
156.0298701862731
 30
0.0
  0
VERTEX
  5
7C2
330
762
100
AcDbEntity
  8
0
100
AcDbVertex
100
AcDb2dVertex
 10
51.86383256430825
 20
156.0298701862731
 30
0.0
  0
SEQEND
  5
764
330
762
100
AcDbEntity
  8
Defpoints
370
     0
  0
ENDBLK
  5
761
330
75E
100
AcDbEntity
  8
0
100
AcDbBlockEnd
  0
BLOCK
  5
767
330
765
100
AcDbEntity
  8
0
100
AcDbBlockBegin
  2
block 244
 70
     0
 10
0.0
 20
0.0
 30
0.0
  3
block 244
  1

  0
POLYLINE
  5
769
330
765
100
AcDbEntity
  8
Defpoints
370
     0
100
AcDb2dPolyline
 66
     1
 10
0.0
 20
0.0
 30
0.0
  0
VERTEX
  5
76A
330
769
100
AcDbEntity
  8
Defpoints
370
     0
100
AcDbVertex
100
AcDb2dVertex
 10
174.2138325643092
 20
164.2528127816965
 30
0.0
  0
VERTEX
  5
7C3
330
769
100
AcDbEntity
  8
0
100
AcDbVertex
100
AcDb2dVertex
 10
174.2138325643092
 20
164.2528127816965
 30
0.0
  0
SEQEND
  5
76B
330
769
100
AcDbEntity
  8
Defpoints
370
     0
  0
ENDBLK
  5
768
330
765
100
AcDbEntity
  8
0
100
AcDbBlockEnd
  0
BLOCK
  5
76E
330
76C
100
AcDbEntity
  8
0
100
AcDbBlockBegin
  2
block 245
 70
     0
 10
0.0
 20
0.0
 30
0.0
  3
block 245
  1

  0
POLYLINE
  5
770
330
76C
100
AcDbEntity
  8
Defpoints
370
     0
100
AcDb2dPolyline
 66
     1
 10
0.0
 20
0.0
 30
0.0
  0
VERTEX
  5
771
330
770
100
AcDbEntity
  8
Defpoints
370
     0
100
AcDbVertex
100
AcDb2dVertex
 10
174.2138325643092
 20
122.6033701126039
 30
0.0
  0
VERTEX
  5
7C4
330
770
100
AcDbEntity
  8
0
100
AcDbVertex
100
AcDb2dVertex
 10
174.2138325643092
 20
122.6033701126039
 30
0.0
  0
SEQEND
  5
772
330
770
100
AcDbEntity
  8
Defpoints
370
     0
  0
ENDBLK
  5
76F
330
76C
100
AcDbEntity
  8
0
100
AcDbBlockEnd
  0
BLOCK
  5
775
330
773
100
AcDbEntity
  8
0
100
AcDbBlockBegin
  2
block 246
 70
     0
 10
0.0
 20
0.0
 30
0.0
  3
block 246
  1

  0
POLYLINE
  5
777
330
773
100
AcDbEntity
  8
Defpoints
370
     0
100
AcDb2dPolyline
 66
     1
 10
0.0
 20
0.0
 30
0.0
  0
VERTEX
  5
778
330
777
100
AcDbEntity
  8
Defpoints
370
     0
100
AcDbVertex
100
AcDb2dVertex
 10
83.8638325643081
 20
209.1033711226031
 30
0.0
  0
VERTEX
  5
7C5
330
777
100
AcDbEntity
  8
0
100
AcDbVertex
100
AcDb2dVertex
 10
83.8638325643081
 20
209.1033711226031
 30
0.0
  0
SEQEND
  5
779
330
777
100
AcDbEntity
  8
Defpoints
370
     0
  0
ENDBLK
  5
776
330
773
100
AcDbEntity
  8
0
100
AcDbBlockEnd
  0
BLOCK
  5
77C
330
77A
100
AcDbEntity
  8
0
100
AcDbBlockBegin
  2
block 247
 70
     0
 10
0.0
 20
0.0
 30
0.0
  3
block 247
  1

  0
POLYLINE
  5
77E
330
77A
100
AcDbEntity
  8
Defpoints
370
     0
100
AcDb2dPolyline
 66
     1
 10
0.0
 20
0.0
 30
0.0
  0
VERTEX
  5
77F
330
77E
100
AcDbEntity
  8
Defpoints
370
     0
100
AcDbVertex
100
AcDb2dVertex
 10
83.8638325643081
 20
146.1033711226034
 30
0.0
  0
VERTEX
  5
7C6
330
77E
100
AcDbEntity
  8
0
100
AcDbVertex
100
AcDb2dVertex
 10
83.8638325643081
 20
146.1033711226034
 30
0.0
  0
SEQEND
  5
780
330
77E
100
AcDbEntity
  8
Defpoints
370
     0
  0
ENDBLK
  5
77D
330
77A
100
AcDbEntity
  8
0
100
AcDbBlockEnd
  0
BLOCK
  5
783
330
781
100
AcDbEntity
  8
0
100
AcDbBlockBegin
  2
block 248
 70
     0
 10
0.0
 20
0.0
 30
0.0
  3
block 248
  1

  0
POLYLINE
  5
785
330
781
100
AcDbEntity
  8
Defpoints
370
     0
100
AcDb2dPolyline
 66
     1
 10
0.0
 20
0.0
 30
0.0
  0
VERTEX
  5
786
330
785
100
AcDbEntity
  8
Defpoints
370
     0
100
AcDbVertex
100
AcDb2dVertex
 10
38.8638325643081
 20
146.1033711226034
 30
0.0
  0
VERTEX
  5
7C7
330
785
100
AcDbEntity
  8
0
100
AcDbVertex
100
AcDb2dVertex
 10
38.8638325643081
 20
146.1033711226034
 30
0.0
  0
SEQEND
  5
787
330
785
100
AcDbEntity
  8
Defpoints
370
     0
  0
ENDBLK
  5
784
330
781
100
AcDbEntity
  8
0
100
AcDbBlockEnd
  0
BLOCK
  5
78A
330
788
100
AcDbEntity
  8
0
100
AcDbBlockBegin
  2
block 249
 70
     0
 10
0.0
 20
0.0
 30
0.0
  3
block 249
  1

  0
POLYLINE
  5
78C
330
788
100
AcDbEntity
  8
Defpoints
370
     0
100
AcDb2dPolyline
 66
     1
 10
0.0
 20
0.0
 30
0.0
  0
VERTEX
  5
78D
330
78C
100
AcDbEntity
  8
Defpoints
370
     0
100
AcDbVertex
100
AcDb2dVertex
 10
167.1138325643131
 20
187.6033711225984
 30
0.0
  0
VERTEX
  5
7C8
330
78C
100
AcDbEntity
  8
0
100
AcDbVertex
100
AcDb2dVertex
 10
167.1138325643131
 20
187.6033711225984
 30
0.0
  0
SEQEND
  5
78E
330
78C
100
AcDbEntity
  8
Defpoints
370
     0
  0
ENDBLK
  5
78B
330
788
100
AcDbEntity
  8
0
100
AcDbBlockEnd
  0
BLOCK
  5
791
330
78F
100
AcDbEntity
  8
0
100
AcDbBlockBegin
  2
block 250
 70
     0
 10
0.0
 20
0.0
 30
0.0
  3
block 250
  1

  0
POLYLINE
  5
793
330
78F
100
AcDbEntity
  8
Defpoints
370
     0
100
AcDb2dPolyline
 66
     1
 10
0.0
 20
0.0
 30
0.0
  0
VERTEX
  5
794
330
793
100
AcDbEntity
  8
Defpoints
370
     0
100
AcDbVertex
100
AcDb2dVertex
 10
83.8638325643081
 20
209.1033711226031
 30
0.0
  0
VERTEX
  5
7C9
330
793
100
AcDbEntity
  8
0
100
AcDbVertex
100
AcDb2dVertex
 10
83.8638325643081
 20
209.1033711226031
 30
0.0
  0
SEQEND
  5
795
330
793
100
AcDbEntity
  8
Defpoints
370
     0
  0
ENDBLK
  5
792
330
78F
100
AcDbEntity
  8
0
100
AcDbBlockEnd
  0
BLOCK
  5
798
330
796
100
AcDbEntity
  8
0
100
AcDbBlockBegin
  2
block 251
 70
     0
 10
0.0
 20
0.0
 30
0.0
  3
block 251
  1

  0
POLYLINE
  5
79A
330
796
100
AcDbEntity
  8
Defpoints
370
     0
100
AcDb2dPolyline
 66
     1
 10
0.0
 20
0.0
 30
0.0
  0
VERTEX
  5
79B
330
79A
100
AcDbEntity
  8
Defpoints
370
     0
100
AcDbVertex
100
AcDb2dVertex
 10
83.8638325643081
 20
217.5920268161265
 30
0.0
  0
VERTEX
  5
7CA
330
79A
100
AcDbEntity
  8
0
100
AcDbVertex
100
AcDb2dVertex
 10
83.8638325643081
 20
217.5920268161265
 30
0.0
  0
SEQEND
  5
79C
330
79A
100
AcDbEntity
  8
Defpoints
370
     0
  0
ENDBLK
  5
799
330
796
100
AcDbEntity
  8
0
100
AcDbBlockEnd
  0
BLOCK
  5
79F
330
79D
100
AcDbEntity
  8
0
100
AcDbBlockBegin
  2
block 252
 70
     0
 10
0.0
 20
0.0
 30
0.0
  3
block 252
  1

  0
POLYLINE
  5
7A1
330
79D
100
AcDbEntity
  8
Defpoints
370
     0
100
AcDb2dPolyline
 66
     1
 10
0.0
 20
0.0
 30
0.0
  0
VERTEX
  5
7A2
330
7A1
100
AcDbEntity
  8
Defpoints
370
     0
100
AcDbVertex
100
AcDb2dVertex
 10
174.2138325643092
 20
190.9766180764595
 30
0.0
  0
VERTEX
  5
7CB
330
7A1
100
AcDbEntity
  8
0
100
AcDbVertex
100
AcDb2dVertex
 10
174.2138325643092
 20
190.9766180764595
 30
0.0
  0
SEQEND
  5
7A3
330
7A1
100
AcDbEntity
  8
Defpoints
370
     0
  0
ENDBLK
  5
7A0
330
79D
100
AcDbEntity
  8
0
100
AcDbBlockEnd
  0
BLOCK
  5
7A6
330
7A4
100
AcDbEntity
  8
0
100
AcDbBlockBegin
  2
block 253
 70
     0
 10
0.0
 20
0.0
 30
0.0
  3
block 253
  1

  0
POLYLINE
  5
7A8
330
7A4
100
AcDbEntity
  8
Defpoints
370
     0
100
AcDb2dPolyline
 66
     1
 10
0.0
 20
0.0
 30
0.0
  0
VERTEX
  5
7A9
330
7A8
100
AcDbEntity
  8
Defpoints
370
     0
100
AcDbVertex
100
AcDb2dVertex
 10
167.1138325643131
 20
187.6033711225984
 30
0.0
  0
VERTEX
  5
7CC
330
7A8
100
AcDbEntity
  8
0
100
AcDbVertex
100
AcDb2dVertex
 10
167.1138325643131
 20
187.6033711225984
 30
0.0
  0
SEQEND
  5
7AA
330
7A8
100
AcDbEntity
  8
Defpoints
370
     0
  0
ENDBLK
  5
7A7
330
7A4
100
AcDbEntity
  8
0
100
AcDbBlockEnd
  0
BLOCK
  5
7AD
330
7AB
100
AcDbEntity
  8
0
100
AcDbBlockBegin
  2
block 254
 70
     0
 10
0.0
 20
0.0
 30
0.0
  3
block 254
  1

  0
POLYLINE
  5
7AF
330
7AB
100
AcDbEntity
  8
Defpoints
370
     0
100
AcDb2dPolyline
 66
     1
 10
0.0
 20
0.0
 30
0.0
  0
VERTEX
  5
7B0
330
7AF
100
AcDbEntity
  8
Defpoints
370
     0
100
AcDbVertex
100
AcDb2dVertex
 10
167.1138325643131
 20
217.5920268161265
 30
0.0
  0
VERTEX
  5
7CD
330
7AF
100
AcDbEntity
  8
0
100
AcDbVertex
100
AcDb2dVertex
 10
167.1138325643131
 20
217.5920268161265
 30
0.0
  0
SEQEND
  5
7B1
330
7AF
100
AcDbEntity
  8
Defpoints
370
     0
  0
ENDBLK
  5
7AE
330
7AB
100
AcDbEntity
  8
0
100
AcDbBlockEnd
  0
ENDSEC
  0
SECTION
  2
ENTITIES
  0
INSERT
  5
42
330
1F
100
AcDbEntity
  8
AM_2
100
AcDbBlockReference
  2
block 2
 10
0.0
 20
0.0
 30
0.0
  0
INSERT
  5
4B
330
1F
100
AcDbEntity
  8
AM_0
100
AcDbBlockReference
  2
block 3
 10
0.0
 20
0.0
 30
0.0
  0
INSERT
  5
53
330
1F
100
AcDbEntity
  8
AM_0
100
AcDbBlockReference
  2
block 4
 10
0.0
 20
0.0
 30
0.0
  0
INSERT
  5
5B
330
1F
100
AcDbEntity
  8
AM_0
100
AcDbBlockReference
  2
block 5
 10
0.0
 20
0.0
 30
0.0
  0
INSERT
  5
63
330
1F
100
AcDbEntity
  8
AM_0
100
AcDbBlockReference
  2
block 6
 10
0.0
 20
0.0
 30
0.0
  0
INSERT
  5
6B
330
1F
100
AcDbEntity
  8
AM_0
100
AcDbBlockReference
  2
block 7
 10
0.0
 20
0.0
 30
0.0
  0
INSERT
  5
73
330
1F
100
AcDbEntity
  8
AM_0
100
AcDbBlockReference
  2
block 8
 10
0.0
 20
0.0
 30
0.0
  0
INSERT
  5
7B
330
1F
100
AcDbEntity
  8
AM_0
100
AcDbBlockReference
  2
block 9
 10
0.0
 20
0.0
 30
0.0
  0
INSERT
  5
83
330
1F
100
AcDbEntity
  8
AM_0
100
AcDbBlockReference
  2
block 10
 10
0.0
 20
0.0
 30
0.0
  0
INSERT
  5
8B
330
1F
100
AcDbEntity
  8
AM_0
100
AcDbBlockReference
  2
block 11
 10
0.0
 20
0.0
 30
0.0
  0
INSERT
  5
93
330
1F
100
AcDbEntity
  8
AM_0
100
AcDbBlockReference
  2
block 12
 10
0.0
 20
0.0
 30
0.0
  0
INSERT
  5
9B
330
1F
100
AcDbEntity
  8
AM_0
100
AcDbBlockReference
  2
block 13
 10
0.0
 20
0.0
 30
0.0
  0
INSERT
  5
A3
330
1F
100
AcDbEntity
  8
AM_0
100
AcDbBlockReference
  2
block 14
 10
0.0
 20
0.0
 30
0.0
  0
INSERT
  5
AB
330
1F
100
AcDbEntity
  8
AM_0
100
AcDbBlockReference
  2
block 15
 10
0.0
 20
0.0
 30
0.0
  0
INSERT
  5
B3
330
1F
100
AcDbEntity
  8
AM_0
100
AcDbBlockReference
  2
block 16
 10
0.0
 20
0.0
 30
0.0
  0
INSERT
  5
B8
330
1F
100
AcDbEntity
  8
AM_0
100
AcDbBlockReference
  2
block 17
 10
0.0
 20
0.0
 30
0.0
  0
INSERT
  5
C0
330
1F
100
AcDbEntity
  8
AM_0
100
AcDbBlockReference
  2
block 18
 10
0.0
 20
0.0
 30
0.0
  0
INSERT
  5
C8
330
1F
100
AcDbEntity
  8
AM_0
100
AcDbBlockReference
  2
block 19
 10
0.0
 20
0.0
 30
0.0
  0
INSERT
  5
D0
330
1F
100
AcDbEntity
  8
AM_0
100
AcDbBlockReference
  2
block 20
 10
0.0
 20
0.0
 30
0.0
  0
INSERT
  5
D8
330
1F
100
AcDbEntity
  8
AM_0
100
AcDbBlockReference
  2
block 21
 10
0.0
 20
0.0
 30
0.0
  0
INSERT
  5
E0
330
1F
100
AcDbEntity
  8
AM_0
100
AcDbBlockReference
  2
block 22
 10
0.0
 20
0.0
 30
0.0
  0
INSERT
  5
E8
330
1F
100
AcDbEntity
  8
AM_0
100
AcDbBlockReference
  2
block 23
 10
0.0
 20
0.0
 30
0.0
  0
INSERT
  5
ED
330
1F
100
AcDbEntity
  8
AM_0
100
AcDbBlockReference
  2
block 24
 10
0.0
 20
0.0
 30
0.0
  0
INSERT
  5
F2
330
1F
100
AcDbEntity
  8
AM_0
100
AcDbBlockReference
  2
block 25
 10
0.0
 20
0.0
 30
0.0
  0
INSERT
  5
F7
330
1F
100
AcDbEntity
  8
AM_0
100
AcDbBlockReference
  2
block 26
 10
0.0
 20
0.0
 30
0.0
  0
INSERT
  5
FF
330
1F
100
AcDbEntity
  8
AM_0
100
AcDbBlockReference
  2
block 27
 10
0.0
 20
0.0
 30
0.0
  0
INSERT
  5
107
330
1F
100
AcDbEntity
  8
AM_0
100
AcDbBlockReference
  2
block 28
 10
0.0
 20
0.0
 30
0.0
  0
INSERT
  5
10F
330
1F
100
AcDbEntity
  8
AM_0
100
AcDbBlockReference
  2
block 29
 10
0.0
 20
0.0
 30
0.0
  0
INSERT
  5
117
330
1F
100
AcDbEntity
  8
AM_0
100
AcDbBlockReference
  2
block 30
 10
0.0
 20
0.0
 30
0.0
  0
INSERT
  5
11F
330
1F
100
AcDbEntity
  8
AM_0
100
AcDbBlockReference
  2
block 31
 10
0.0
 20
0.0
 30
0.0
  0
INSERT
  5
127
330
1F
100
AcDbEntity
  8
AM_0
100
AcDbBlockReference
  2
block 32
 10
0.0
 20
0.0
 30
0.0
  0
INSERT
  5
12F
330
1F
100
AcDbEntity
  8
AM_0
100
AcDbBlockReference
  2
block 33
 10
0.0
 20
0.0
 30
0.0
  0
INSERT
  5
137
330
1F
100
AcDbEntity
  8
AM_0
100
AcDbBlockReference
  2
block 34
 10
0.0
 20
0.0
 30
0.0
  0
INSERT
  5
13F
330
1F
100
AcDbEntity
  8
AM_0
100
AcDbBlockReference
  2
block 35
 10
0.0
 20
0.0
 30
0.0
  0
INSERT
  5
147
330
1F
100
AcDbEntity
  8
AM_0
100
AcDbBlockReference
  2
block 36
 10
0.0
 20
0.0
 30
0.0
  0
INSERT
  5
14F
330
1F
100
AcDbEntity
  8
AM_0
100
AcDbBlockReference
  2
block 37
 10
0.0
 20
0.0
 30
0.0
  0
INSERT
  5
154
330
1F
100
AcDbEntity
  8
AM_0
100
AcDbBlockReference
  2
block 38
 10
0.0
 20
0.0
 30
0.0
  0
INSERT
  5
15C
330
1F
100
AcDbEntity
  8
AM_0
100
AcDbBlockReference
  2
block 39
 10
0.0
 20
0.0
 30
0.0
  0
INSERT
  5
164
330
1F
100
AcDbEntity
  8
AM_0
100
AcDbBlockReference
  2
block 40
 10
0.0
 20
0.0
 30
0.0
  0
INSERT
  5
169
330
1F
100
AcDbEntity
  8
AM_0
100
AcDbBlockReference
  2
block 41
 10
0.0
 20
0.0
 30
0.0
  0
INSERT
  5
171
330
1F
100
AcDbEntity
  8
AM_0
100
AcDbBlockReference
  2
block 42
 10
0.0
 20
0.0
 30
0.0
  0
INSERT
  5
179
330
1F
100
AcDbEntity
  8
AM_0
100
AcDbBlockReference
  2
block 43
 10
0.0
 20
0.0
 30
0.0
  0
INSERT
  5
181
330
1F
100
AcDbEntity
  8
AM_0
100
AcDbBlockReference
  2
block 44
 10
0.0
 20
0.0
 30
0.0
  0
INSERT
  5
189
330
1F
100
AcDbEntity
  8
AM_0
100
AcDbBlockReference
  2
block 45
 10
0.0
 20
0.0
 30
0.0
  0
INSERT
  5
191
330
1F
100
AcDbEntity
  8
AM_0
100
AcDbBlockReference
  2
block 46
 10
0.0
 20
0.0
 30
0.0
  0
INSERT
  5
199
330
1F
100
AcDbEntity
  8
AM_0
100
AcDbBlockReference
  2
block 47
 10
0.0
 20
0.0
 30
0.0
  0
INSERT
  5
1A1
330
1F
100
AcDbEntity
  8
AM_0
100
AcDbBlockReference
  2
block 48
 10
0.0
 20
0.0
 30
0.0
  0
INSERT
  5
1A6
330
1F
100
AcDbEntity
  8
AM_0
100
AcDbBlockReference
  2
block 49
 10
0.0
 20
0.0
 30
0.0
  0
INSERT
  5
1AE
330
1F
100
AcDbEntity
  8
AM_0
100
AcDbBlockReference
  2
block 50
 10
0.0
 20
0.0
 30
0.0
  0
INSERT
  5
1B6
330
1F
100
AcDbEntity
  8
AM_0
100
AcDbBlockReference
  2
block 51
 10
0.0
 20
0.0
 30
0.0
  0
INSERT
  5
1BE
330
1F
100
AcDbEntity
  8
AM_0
100
AcDbBlockReference
  2
block 52
 10
0.0
 20
0.0
 30
0.0
  0
INSERT
  5
1C6
330
1F
100
AcDbEntity
  8
AM_0
100
AcDbBlockReference
  2
block 53
 10
0.0
 20
0.0
 30
0.0
  0
INSERT
  5
1CE
330
1F
100
AcDbEntity
  8
AM_0
100
AcDbBlockReference
  2
block 54
 10
0.0
 20
0.0
 30
0.0
  0
INSERT
  5
1D6
330
1F
100
AcDbEntity
  8
AM_0
100
AcDbBlockReference
  2
block 55
 10
0.0
 20
0.0
 30
0.0
  0
INSERT
  5
1DB
330
1F
100
AcDbEntity
  8
AM_0
100
AcDbBlockReference
  2
block 56
 10
0.0
 20
0.0
 30
0.0
  0
INSERT
  5
1E3
330
1F
100
AcDbEntity
  8
AM_0
100
AcDbBlockReference
  2
block 57
 10
0.0
 20
0.0
 30
0.0
  0
INSERT
  5
1EB
330
1F
100
AcDbEntity
  8
AM_0
100
AcDbBlockReference
  2
block 58
 10
0.0
 20
0.0
 30
0.0
  0
INSERT
  5
1F3
330
1F
100
AcDbEntity
  8
AM_0
100
AcDbBlockReference
  2
block 59
 10
0.0
 20
0.0
 30
0.0
  0
INSERT
  5
1FB
330
1F
100
AcDbEntity
  8
AM_0
100
AcDbBlockReference
  2
block 60
 10
0.0
 20
0.0
 30
0.0
  0
INSERT
  5
203
330
1F
100
AcDbEntity
  8
AM_0
100
AcDbBlockReference
  2
block 61
 10
0.0
 20
0.0
 30
0.0
  0
INSERT
  5
208
330
1F
100
AcDbEntity
  8
AM_0
100
AcDbBlockReference
  2
block 62
 10
0.0
 20
0.0
 30
0.0
  0
INSERT
  5
20D
330
1F
100
AcDbEntity
  8
AM_0
100
AcDbBlockReference
  2
block 63
 10
0.0
 20
0.0
 30
0.0
  0
INSERT
  5
215
330
1F
100
AcDbEntity
  8
AM_0
100
AcDbBlockReference
  2
block 64
 10
0.0
 20
0.0
 30
0.0
  0
INSERT
  5
21D
330
1F
100
AcDbEntity
  8
AM_0
100
AcDbBlockReference
  2
block 65
 10
0.0
 20
0.0
 30
0.0
  0
INSERT
  5
225
330
1F
100
AcDbEntity
  8
AM_0
100
AcDbBlockReference
  2
block 66
 10
0.0
 20
0.0
 30
0.0
  0
INSERT
  5
22D
330
1F
100
AcDbEntity
  8
AM_0
100
AcDbBlockReference
  2
block 67
 10
0.0
 20
0.0
 30
0.0
  0
INSERT
  5
235
330
1F
100
AcDbEntity
  8
AM_0
100
AcDbBlockReference
  2
block 68
 10
0.0
 20
0.0
 30
0.0
  0
INSERT
  5
23D
330
1F
100
AcDbEntity
  8
AM_0
100
AcDbBlockReference
  2
block 69
 10
0.0
 20
0.0
 30
0.0
  0
INSERT
  5
245
330
1F
100
AcDbEntity
  8
AM_0
100
AcDbBlockReference
  2
block 70
 10
0.0
 20
0.0
 30
0.0
  0
INSERT
  5
24D
330
1F
100
AcDbEntity
  8
AM_0
100
AcDbBlockReference
  2
block 71
 10
0.0
 20
0.0
 30
0.0
  0
INSERT
  5
255
330
1F
100
AcDbEntity
  8
AM_0
100
AcDbBlockReference
  2
block 72
 10
0.0
 20
0.0
 30
0.0
  0
INSERT
  5
25D
330
1F
100
AcDbEntity
  8
AM_0
100
AcDbBlockReference
  2
block 73
 10
0.0
 20
0.0
 30
0.0
  0
INSERT
  5
265
330
1F
100
AcDbEntity
  8
AM_0
100
AcDbBlockReference
  2
block 74
 10
0.0
 20
0.0
 30
0.0
  0
INSERT
  5
26A
330
1F
100
AcDbEntity
  8
AM_0
100
AcDbBlockReference
  2
block 75
 10
0.0
 20
0.0
 30
0.0
  0
INSERT
  5
272
330
1F
100
AcDbEntity
  8
AM_0
100
AcDbBlockReference
  2
block 76
 10
0.0
 20
0.0
 30
0.0
  0
INSERT
  5
27A
330
1F
100
AcDbEntity
  8
AM_0
100
AcDbBlockReference
  2
block 77
 10
0.0
 20
0.0
 30
0.0
  0
INSERT
  5
27F
330
1F
100
AcDbEntity
  8
AM_0
100
AcDbBlockReference
  2
block 78
 10
0.0
 20
0.0
 30
0.0
  0
INSERT
  5
287
330
1F
100
AcDbEntity
  8
AM_0
100
AcDbBlockReference
  2
block 79
 10
0.0
 20
0.0
 30
0.0
  0
INSERT
  5
28C
330
1F
100
AcDbEntity
  8
AM_0
100
AcDbBlockReference
  2
block 80
 10
0.0
 20
0.0
 30
0.0
  0
INSERT
  5
291
330
1F
100
AcDbEntity
  8
AM_0
100
AcDbBlockReference
  2
block 81
 10
0.0
 20
0.0
 30
0.0
  0
INSERT
  5
296
330
1F
100
AcDbEntity
  8
AM_0
100
AcDbBlockReference
  2
block 82
 10
0.0
 20
0.0
 30
0.0
  0
INSERT
  5
29B
330
1F
100
AcDbEntity
  8
AM_0
100
AcDbBlockReference
  2
block 83
 10
0.0
 20
0.0
 30
0.0
  0
INSERT
  5
2A3
330
1F
100
AcDbEntity
  8
AM_0
100
AcDbBlockReference
  2
block 84
 10
0.0
 20
0.0
 30
0.0
  0
INSERT
  5
2A8
330
1F
100
AcDbEntity
  8
AM_0
100
AcDbBlockReference
  2
block 85
 10
0.0
 20
0.0
 30
0.0
  0
INSERT
  5
2B0
330
1F
100
AcDbEntity
  8
AM_0
100
AcDbBlockReference
  2
block 86
 10
0.0
 20
0.0
 30
0.0
  0
INSERT
  5
2B5
330
1F
100
AcDbEntity
  8
AM_0
100
AcDbBlockReference
  2
block 87
 10
0.0
 20
0.0
 30
0.0
  0
INSERT
  5
2BD
330
1F
100
AcDbEntity
  8
AM_0
100
AcDbBlockReference
  2
block 88
 10
0.0
 20
0.0
 30
0.0
  0
INSERT
  5
2C5
330
1F
100
AcDbEntity
  8
AM_0
100
AcDbBlockReference
  2
block 89
 10
0.0
 20
0.0
 30
0.0
  0
INSERT
  5
2CD
330
1F
100
AcDbEntity
  8
AM_0
100
AcDbBlockReference
  2
block 90
 10
0.0
 20
0.0
 30
0.0
  0
INSERT
  5
2D5
330
1F
100
AcDbEntity
  8
AM_0
100
AcDbBlockReference
  2
block 91
 10
0.0
 20
0.0
 30
0.0
  0
INSERT
  5
2DD
330
1F
100
AcDbEntity
  8
AM_0
100
AcDbBlockReference
  2
block 92
 10
0.0
 20
0.0
 30
0.0
  0
INSERT
  5
2E5
330
1F
100
AcDbEntity
  8
AM_0
100
AcDbBlockReference
  2
block 93
 10
0.0
 20
0.0
 30
0.0
  0
INSERT
  5
2ED
330
1F
100
AcDbEntity
  8
AM_6
100
AcDbBlockReference
  2
block 94
 10
0.0
 20
0.0
 30
0.0
  0
INSERT
  5
2F2
330
1F
100
AcDbEntity
  8
AM_6
100
AcDbBlockReference
  2
block 95
 10
0.0
 20
0.0
 30
0.0
  0
INSERT
  5
2F7
330
1F
100
AcDbEntity
  8
AM_6
100
AcDbBlockReference
  2
block 96
 10
0.0
 20
0.0
 30
0.0
  0
INSERT
  5
2FF
330
1F
100
AcDbEntity
  8
AM_6
100
AcDbBlockReference
  2
block 97
 10
0.0
 20
0.0
 30
0.0
  0
INSERT
  5
307
330
1F
100
AcDbEntity
  8
AM_6
100
AcDbBlockReference
  2
block 98
 10
0.0
 20
0.0
 30
0.0
  0
INSERT
  5
30F
330
1F
100
AcDbEntity
  8
AM_6
100
AcDbBlockReference
  2
block 99
 10
0.0
 20
0.0
 30
0.0
  0
INSERT
  5
314
330
1F
100
AcDbEntity
  8
AM_6
100
AcDbBlockReference
  2
block 100
 10
0.0
 20
0.0
 30
0.0
  0
INSERT
  5
31C
330
1F
100
AcDbEntity
  8
AM_6
100
AcDbBlockReference
  2
block 101
 10
0.0
 20
0.0
 30
0.0
  0
INSERT
  5
324
330
1F
100
AcDbEntity
  8
AM_6
100
AcDbBlockReference
  2
block 102
 10
0.0
 20
0.0
 30
0.0
  0
INSERT
  5
32C
330
1F
100
AcDbEntity
  8
AM_6
100
AcDbBlockReference
  2
block 103
 10
0.0
 20
0.0
 30
0.0
  0
INSERT
  5
331
330
1F
100
AcDbEntity
  8
AM_6
100
AcDbBlockReference
  2
block 104
 10
0.0
 20
0.0
 30
0.0
  0
INSERT
  5
339
330
1F
100
AcDbEntity
  8
AM_6
100
AcDbBlockReference
  2
block 105
 10
0.0
 20
0.0
 30
0.0
  0
INSERT
  5
341
330
1F
100
AcDbEntity
  8
AM_6
100
AcDbBlockReference
  2
block 106
 10
0.0
 20
0.0
 30
0.0
  0
INSERT
  5
349
330
1F
100
AcDbEntity
  8
AM_6
100
AcDbBlockReference
  2
block 107
 10
0.0
 20
0.0
 30
0.0
  0
INSERT
  5
34E
330
1F
100
AcDbEntity
  8
AM_6
100
AcDbBlockReference
  2
block 108
 10
0.0
 20
0.0
 30
0.0
  0
INSERT
  5
356
330
1F
100
AcDbEntity
  8
AM_6
100
AcDbBlockReference
  2
block 109
 10
0.0
 20
0.0
 30
0.0
  0
INSERT
  5
35E
330
1F
100
AcDbEntity
  8
AM_6
100
AcDbBlockReference
  2
block 110
 10
0.0
 20
0.0
 30
0.0
  0
INSERT
  5
366
330
1F
100
AcDbEntity
  8
AM_6
100
AcDbBlockReference
  2
block 111
 10
0.0
 20
0.0
 30
0.0
  0
INSERT
  5
36B
330
1F
100
AcDbEntity
  8
AM_6
100
AcDbBlockReference
  2
block 112
 10
0.0
 20
0.0
 30
0.0
  0
INSERT
  5
373
330
1F
100
AcDbEntity
  8
AM_6
100
AcDbBlockReference
  2
block 113
 10
0.0
 20
0.0
 30
0.0
  0
INSERT
  5
37B
330
1F
100
AcDbEntity
  8
AM_6
100
AcDbBlockReference
  2
block 114
 10
0.0
 20
0.0
 30
0.0
  0
INSERT
  5
383
330
1F
100
AcDbEntity
  8
AM_6
100
AcDbBlockReference
  2
block 115
 10
0.0
 20
0.0
 30
0.0
  0
INSERT
  5
388
330
1F
100
AcDbEntity
  8
AM_6
100
AcDbBlockReference
  2
block 116
 10
0.0
 20
0.0
 30
0.0
  0
INSERT
  5
390
330
1F
100
AcDbEntity
  8
AM_6
100
AcDbBlockReference
  2
block 117
 10
0.0
 20
0.0
 30
0.0
  0
INSERT
  5
398
330
1F
100
AcDbEntity
  8
AM_6
100
AcDbBlockReference
  2
block 118
 10
0.0
 20
0.0
 30
0.0
  0
INSERT
  5
3A0
330
1F
100
AcDbEntity
  8
AM_6
100
AcDbBlockReference
  2
block 119
 10
0.0
 20
0.0
 30
0.0
  0
INSERT
  5
3A5
330
1F
100
AcDbEntity
  8
AM_6
100
AcDbBlockReference
  2
block 120
 10
0.0
 20
0.0
 30
0.0
  0
INSERT
  5
3AD
330
1F
100
AcDbEntity
  8
AM_6
100
AcDbBlockReference
  2
block 121
 10
0.0
 20
0.0
 30
0.0
  0
INSERT
  5
3B5
330
1F
100
AcDbEntity
  8
AM_6
100
AcDbBlockReference
  2
block 122
 10
0.0
 20
0.0
 30
0.0
  0
INSERT
  5
3BF
330
1F
100
AcDbEntity
  8
AM_6
100
AcDbBlockReference
  2
block 123
 10
0.0
 20
0.0
 30
0.0
  0
INSERT
  5
3C9
330
1F
100
AcDbEntity
  8
AM_6
100
AcDbBlockReference
  2
block 124
 10
0.0
 20
0.0
 30
0.0
  0
INSERT
  5
3D5
330
1F
100
AcDbEntity
  8
AM_6
100
AcDbBlockReference
  2
block 125
 10
0.0
 20
0.0
 30
0.0
  0
INSERT
  5
3DA
330
1F
100
AcDbEntity
  8
AM_6
100
AcDbBlockReference
  2
block 126
 10
0.0
 20
0.0
 30
0.0
  0
INSERT
  5
3E2
330
1F
100
AcDbEntity
  8
AM_6
100
AcDbBlockReference
  2
block 127
 10
0.0
 20
0.0
 30
0.0
  0
INSERT
  5
3EA
330
1F
100
AcDbEntity
  8
AM_6
100
AcDbBlockReference
  2
block 128
 10
0.0
 20
0.0
 30
0.0
  0
INSERT
  5
3F4
330
1F
100
AcDbEntity
  8
AM_6
100
AcDbBlockReference
  2
block 129
 10
0.0
 20
0.0
 30
0.0
  0
INSERT
  5
3FE
330
1F
100
AcDbEntity
  8
AM_6
100
AcDbBlockReference
  2
block 130
 10
0.0
 20
0.0
 30
0.0
  0
INSERT
  5
40A
330
1F
100
AcDbEntity
  8
AM_6
100
AcDbBlockReference
  2
block 131
 10
0.0
 20
0.0
 30
0.0
  0
INSERT
  5
40F
330
1F
100
AcDbEntity
  8
AM_6
100
AcDbBlockReference
  2
block 132
 10
0.0
 20
0.0
 30
0.0
  0
INSERT
  5
417
330
1F
100
AcDbEntity
  8
AM_6
100
AcDbBlockReference
  2
block 133
 10
0.0
 20
0.0
 30
0.0
  0
INSERT
  5
41F
330
1F
100
AcDbEntity
  8
AM_6
100
AcDbBlockReference
  2
block 134
 10
0.0
 20
0.0
 30
0.0
  0
INSERT
  5
427
330
1F
100
AcDbEntity
  8
AM_6
100
AcDbBlockReference
  2
block 135
 10
0.0
 20
0.0
 30
0.0
  0
INSERT
  5
42C
330
1F
100
AcDbEntity
  8
AM_6
100
AcDbBlockReference
  2
block 136
 10
0.0
 20
0.0
 30
0.0
  0
INSERT
  5
434
330
1F
100
AcDbEntity
  8
AM_6
100
AcDbBlockReference
  2
block 137
 10
0.0
 20
0.0
 30
0.0
  0
INSERT
  5
43C
330
1F
100
AcDbEntity
  8
AM_6
100
AcDbBlockReference
  2
block 138
 10
0.0
 20
0.0
 30
0.0
  0
INSERT
  5
444
330
1F
100
AcDbEntity
  8
AM_6
100
AcDbBlockReference
  2
block 139
 10
0.0
 20
0.0
 30
0.0
  0
INSERT
  5
44C
330
1F
100
AcDbEntity
  8
AM_6
100
AcDbBlockReference
  2
block 140
 10
0.0
 20
0.0
 30
0.0
  0
INSERT
  5
454
330
1F
100
AcDbEntity
  8
AM_6
100
AcDbBlockReference
  2
block 141
 10
0.0
 20
0.0
 30
0.0
  0
INSERT
  5
459
330
1F
100
AcDbEntity
  8
AM_6
100
AcDbBlockReference
  2
block 142
 10
0.0
 20
0.0
 30
0.0
  0
INSERT
  5
461
330
1F
100
AcDbEntity
  8
AM_6
100
AcDbBlockReference
  2
block 143
 10
0.0
 20
0.0
 30
0.0
  0
INSERT
  5
469
330
1F
100
AcDbEntity
  8
AM_6
100
AcDbBlockReference
  2
block 144
 10
0.0
 20
0.0
 30
0.0
  0
INSERT
  5
473
330
1F
100
AcDbEntity
  8
AM_6
100
AcDbBlockReference
  2
block 145
 10
0.0
 20
0.0
 30
0.0
  0
INSERT
  5
47D
330
1F
100
AcDbEntity
  8
AM_6
100
AcDbBlockReference
  2
block 146
 10
0.0
 20
0.0
 30
0.0
  0
INSERT
  5
489
330
1F
100
AcDbEntity
  8
AM_6
100
AcDbBlockReference
  2
block 147
 10
0.0
 20
0.0
 30
0.0
  0
INSERT
  5
48F
330
1F
100
AcDbEntity
  8
AM_7
100
AcDbBlockReference
  2
block 148
 10
0.0
 20
0.0
 30
0.0
  0
INSERT
  5
498
330
1F
100
AcDbEntity
  8
AM_7
100
AcDbBlockReference
  2
block 149
 10
0.0
 20
0.0
 30
0.0
  0
INSERT
  5
4A2
330
1F
100
AcDbEntity
  8
AM_3
100
AcDbBlockReference
  2
block 150
 10
0.0
 20
0.0
 30
0.0
  0
INSERT
  5
4AB
330
1F
100
AcDbEntity
  8
AM_3
100
AcDbBlockReference
  2
block 151
 10
0.0
 20
0.0
 30
0.0
  0
INSERT
  5
4B1
330
1F
100
AcDbEntity
  8
AM_3
100
AcDbBlockReference
  2
block 152
 10
0.0
 20
0.0
 30
0.0
  0
INSERT
  5
4B9
330
1F
100
AcDbEntity
  8
AM_3
100
AcDbBlockReference
  2
block 153
 10
0.0
 20
0.0
 30
0.0
  0
INSERT
  5
4BF
330
1F
100
AcDbEntity
  8
AM_3
100
AcDbBlockReference
  2
block 154
 10
0.0
 20
0.0
 30
0.0
  0
INSERT
  5
4C7
330
1F
100
AcDbEntity
  8
AM_3
100
AcDbBlockReference
  2
block 155
 10
0.0
 20
0.0
 30
0.0
  0
INSERT
  5
4D0
330
1F
100
AcDbEntity
  8
AM_3
100
AcDbBlockReference
  2
block 156
 10
0.0
 20
0.0
 30
0.0
  0
INSERT
  5
4D9
330
1F
100
AcDbEntity
  8
AM_3
100
AcDbBlockReference
  2
block 157
 10
0.0
 20
0.0
 30
0.0
  0
INSERT
  5
4E2
330
1F
100
AcDbEntity
  8
AM_3
100
AcDbBlockReference
  2
block 158
 10
0.0
 20
0.0
 30
0.0
  0
INSERT
  5
4EB
330
1F
100
AcDbEntity
  8
AM_3
100
AcDbBlockReference
  2
block 159
 10
0.0
 20
0.0
 30
0.0
  0
INSERT
  5
4F4
330
1F
100
AcDbEntity
  8
AM_3
100
AcDbBlockReference
  2
block 160
 10
0.0
 20
0.0
 30
0.0
  0
INSERT
  5
4FD
330
1F
100
AcDbEntity
  8
AM_3
100
AcDbBlockReference
  2
block 161
 10
0.0
 20
0.0
 30
0.0
  0
INSERT
  5
506
330
1F
100
AcDbEntity
  8
AM_3
100
AcDbBlockReference
  2
block 162
 10
0.0
 20
0.0
 30
0.0
  0
INSERT
  5
50F
330
1F
100
AcDbEntity
  8
AM_3
100
AcDbBlockReference
  2
block 163
 10
0.0
 20
0.0
 30
0.0
  0
INSERT
  5
518
330
1F
100
AcDbEntity
  8
0
100
AcDbBlockReference
  2
block 164
 10
0.0
 20
0.0
 30
0.0
  0
INSERT
  5
51F
330
1F
100
AcDbEntity
  8
0
100
AcDbBlockReference
  2
block 165
 10
0.0
 20
0.0
 30
0.0
  0
INSERT
  5
527
330
1F
100
AcDbEntity
  8
0
100
AcDbBlockReference
  2
block 166
 10
0.0
 20
0.0
 30
0.0
  0
INSERT
  5
52F
330
1F
100
AcDbEntity
  8
0
100
AcDbBlockReference
  2
block 167
 10
0.0
 20
0.0
 30
0.0
  0
INSERT
  5
537
330
1F
100
AcDbEntity
  8
0
100
AcDbBlockReference
  2
block 168
 10
0.0
 20
0.0
 30
0.0
  0
INSERT
  5
53F
330
1F
100
AcDbEntity
  8
0
100
AcDbBlockReference
  2
block 169
 10
0.0
 20
0.0
 30
0.0
  0
INSERT
  5
547
330
1F
100
AcDbEntity
  8
0
100
AcDbBlockReference
  2
block 170
 10
0.0
 20
0.0
 30
0.0
  0
INSERT
  5
54F
330
1F
100
AcDbEntity
  8
0
100
AcDbBlockReference
  2
block 171
 10
0.0
 20
0.0
 30
0.0
  0
INSERT
  5
557
330
1F
100
AcDbEntity
  8
0
100
AcDbBlockReference
  2
block 172
 10
0.0
 20
0.0
 30
0.0
  0
INSERT
  5
55F
330
1F
100
AcDbEntity
  8
0
100
AcDbBlockReference
  2
block 173
 10
0.0
 20
0.0
 30
0.0
  0
INSERT
  5
567
330
1F
100
AcDbEntity
  8
0
100
AcDbBlockReference
  2
block 174
 10
0.0
 20
0.0
 30
0.0
  0
INSERT
  5
56F
330
1F
100
AcDbEntity
  8
0
100
AcDbBlockReference
  2
block 175
 10
0.0
 20
0.0
 30
0.0
  0
INSERT
  5
577
330
1F
100
AcDbEntity
  8
0
100
AcDbBlockReference
  2
block 176
 10
0.0
 20
0.0
 30
0.0
  0
INSERT
  5
57F
330
1F
100
AcDbEntity
  8
0
100
AcDbBlockReference
  2
block 177
 10
0.0
 20
0.0
 30
0.0
  0
INSERT
  5
587
330
1F
100
AcDbEntity
  8
0
100
AcDbBlockReference
  2
block 178
 10
0.0
 20
0.0
 30
0.0
  0
INSERT
  5
58F
330
1F
100
AcDbEntity
  8
0
100
AcDbBlockReference
  2
block 179
 10
0.0
 20
0.0
 30
0.0
  0
INSERT
  5
597
330
1F
100
AcDbEntity
  8
0
100
AcDbBlockReference
  2
block 180
 10
0.0
 20
0.0
 30
0.0
  0
INSERT
  5
59F
330
1F
100
AcDbEntity
  8
0
100
AcDbBlockReference
  2
block 181
 10
0.0
 20
0.0
 30
0.0
  0
INSERT
  5
5A7
330
1F
100
AcDbEntity
  8
0
100
AcDbBlockReference
  2
block 182
 10
0.0
 20
0.0
 30
0.0
  0
INSERT
  5
5AF
330
1F
100
AcDbEntity
  8
0
100
AcDbBlockReference
  2
block 183
 10
0.0
 20
0.0
 30
0.0
  0
INSERT
  5
5B7
330
1F
100
AcDbEntity
  8
0
100
AcDbBlockReference
  2
block 184
 10
0.0
 20
0.0
 30
0.0
  0
INSERT
  5
5BF
330
1F
100
AcDbEntity
  8
0
100
AcDbBlockReference
  2
block 185
 10
0.0
 20
0.0
 30
0.0
  0
INSERT
  5
5C7
330
1F
100
AcDbEntity
  8
0
100
AcDbBlockReference
  2
block 186
 10
0.0
 20
0.0
 30
0.0
  0
INSERT
  5
5CF
330
1F
100
AcDbEntity
  8
0
100
AcDbBlockReference
  2
block 187
 10
0.0
 20
0.0
 30
0.0
  0
INSERT
  5
5D7
330
1F
100
AcDbEntity
  8
0
100
AcDbBlockReference
  2
block 188
 10
0.0
 20
0.0
 30
0.0
  0
INSERT
  5
5DF
330
1F
100
AcDbEntity
  8
0
100
AcDbBlockReference
  2
block 189
 10
0.0
 20
0.0
 30
0.0
  0
INSERT
  5
5E7
330
1F
100
AcDbEntity
  8
0
100
AcDbBlockReference
  2
block 190
 10
0.0
 20
0.0
 30
0.0
  0
INSERT
  5
5EF
330
1F
100
AcDbEntity
  8
0
100
AcDbBlockReference
  2
block 191
 10
0.0
 20
0.0
 30
0.0
  0
INSERT
  5
5F7
330
1F
100
AcDbEntity
  8
0
100
AcDbBlockReference
  2
block 192
 10
0.0
 20
0.0
 30
0.0
  0
INSERT
  5
5FF
330
1F
100
AcDbEntity
  8
0
100
AcDbBlockReference
  2
block 193
 10
0.0
 20
0.0
 30
0.0
  0
INSERT
  5
607
330
1F
100
AcDbEntity
  8
0
100
AcDbBlockReference
  2
block 194
 10
0.0
 20
0.0
 30
0.0
  0
INSERT
  5
60F
330
1F
100
AcDbEntity
  8
0
100
AcDbBlockReference
  2
block 195
 10
0.0
 20
0.0
 30
0.0
  0
INSERT
  5
617
330
1F
100
AcDbEntity
  8
0
100
AcDbBlockReference
  2
block 196
 10
0.0
 20
0.0
 30
0.0
  0
INSERT
  5
61F
330
1F
100
AcDbEntity
  8
0
100
AcDbBlockReference
  2
block 197
 10
0.0
 20
0.0
 30
0.0
  0
INSERT
  5
627
330
1F
100
AcDbEntity
  8
0
100
AcDbBlockReference
  2
block 198
 10
0.0
 20
0.0
 30
0.0
  0
INSERT
  5
62F
330
1F
100
AcDbEntity
  8
0
100
AcDbBlockReference
  2
block 199
 10
0.0
 20
0.0
 30
0.0
  0
INSERT
  5
637
330
1F
100
AcDbEntity
  8
0
100
AcDbBlockReference
  2
block 200
 10
0.0
 20
0.0
 30
0.0
  0
INSERT
  5
63F
330
1F
100
AcDbEntity
  8
0
100
AcDbBlockReference
  2
block 201
 10
0.0
 20
0.0
 30
0.0
  0
INSERT
  5
647
330
1F
100
AcDbEntity
  8
0
100
AcDbBlockReference
  2
block 202
 10
0.0
 20
0.0
 30
0.0
  0
INSERT
  5
64F
330
1F
100
AcDbEntity
  8
0
100
AcDbBlockReference
  2
block 203
 10
0.0
 20
0.0
 30
0.0
  0
INSERT
  5
657
330
1F
100
AcDbEntity
  8
0
100
AcDbBlockReference
  2
block 204
 10
0.0
 20
0.0
 30
0.0
  0
INSERT
  5
65F
330
1F
100
AcDbEntity
  8
0
100
AcDbBlockReference
  2
block 205
 10
0.0
 20
0.0
 30
0.0
  0
INSERT
  5
667
330
1F
100
AcDbEntity
  8
0
100
AcDbBlockReference
  2
block 206
 10
0.0
 20
0.0
 30
0.0
  0
INSERT
  5
66F
330
1F
100
AcDbEntity
  8
0
100
AcDbBlockReference
  2
block 207
 10
0.0
 20
0.0
 30
0.0
  0
INSERT
  5
677
330
1F
100
AcDbEntity
  8
0
100
AcDbBlockReference
  2
block 208
 10
0.0
 20
0.0
 30
0.0
  0
INSERT
  5
67F
330
1F
100
AcDbEntity
  8
0
100
AcDbBlockReference
  2
block 209
 10
0.0
 20
0.0
 30
0.0
  0
INSERT
  5
687
330
1F
100
AcDbEntity
  8
0
100
AcDbBlockReference
  2
block 210
 10
0.0
 20
0.0
 30
0.0
  0
INSERT
  5
68F
330
1F
100
AcDbEntity
  8
0
100
AcDbBlockReference
  2
block 211
 10
0.0
 20
0.0
 30
0.0
  0
INSERT
  5
697
330
1F
100
AcDbEntity
  8
0
100
AcDbBlockReference
  2
block 212
 10
0.0
 20
0.0
 30
0.0
  0
INSERT
  5
6A0
330
1F
100
AcDbEntity
  8
AM_1
100
AcDbBlockReference
  2
block 213
 10
0.0
 20
0.0
 30
0.0
  0
INSERT
  5
6A5
330
1F
100
AcDbEntity
  8
AM_1
100
AcDbBlockReference
  2
block 214
 10
0.0
 20
0.0
 30
0.0
  0
INSERT
  5
6AD
330
1F
100
AcDbEntity
  8
AM_1
100
AcDbBlockReference
  2
block 215
 10
0.0
 20
0.0
 30
0.0
  0
INSERT
  5
6B5
330
1F
100
AcDbEntity
  8
AM_1
100
AcDbBlockReference
  2
block 216
 10
0.0
 20
0.0
 30
0.0
  0
INSERT
  5
6BA
330
1F
100
AcDbEntity
  8
AM_1
100
AcDbBlockReference
  2
block 217
 10
0.0
 20
0.0
 30
0.0
  0
INSERT
  5
6BF
330
1F
100
AcDbEntity
  8
AM_1
100
AcDbBlockReference
  2
block 218
 10
0.0
 20
0.0
 30
0.0
  0
INSERT
  5
6C5
330
1F
100
AcDbEntity
  8
AM_1
100
AcDbBlockReference
  2
block 219
 10
0.0
 20
0.0
 30
0.0
  0
INSERT
  5
6CA
330
1F
100
AcDbEntity
  8
AM_1
100
AcDbBlockReference
  2
block 220
 10
0.0
 20
0.0
 30
0.0
  0
INSERT
  5
6CF
330
1F
100
AcDbEntity
  8
AM_1
100
AcDbBlockReference
  2
block 221
 10
0.0
 20
0.0
 30
0.0
  0
INSERT
  5
6D5
330
1F
100
AcDbEntity
  8
AM_1
100
AcDbBlockReference
  2
block 222
 10
0.0
 20
0.0
 30
0.0
  0
INSERT
  5
6DA
330
1F
100
AcDbEntity
  8
AM_1
100
AcDbBlockReference
  2
block 223
 10
0.0
 20
0.0
 30
0.0
  0
INSERT
  5
6E2
330
1F
100
AcDbEntity
  8
AM_1
100
AcDbBlockReference
  2
block 224
 10
0.0
 20
0.0
 30
0.0
  0
INSERT
  5
6EA
330
1F
100
AcDbEntity
  8
AM_1
100
AcDbBlockReference
  2
block 225
 10
0.0
 20
0.0
 30
0.0
  0
INSERT
  5
6EF
330
1F
100
AcDbEntity
  8
AM_1
100
AcDbBlockReference
  2
block 226
 10
0.0
 20
0.0
 30
0.0
  0
INSERT
  5
6F4
330
1F
100
AcDbEntity
  8
AM_1
100
AcDbBlockReference
  2
block 227
 10
0.0
 20
0.0
 30
0.0
  0
INSERT
  5
6FA
330
1F
100
AcDbEntity
  8
AM_1
100
AcDbBlockReference
  2
block 228
 10
0.0
 20
0.0
 30
0.0
  0
INSERT
  5
6FF
330
1F
100
AcDbEntity
  8
AM_1
100
AcDbBlockReference
  2
block 229
 10
0.0
 20
0.0
 30
0.0
  0
INSERT
  5
704
330
1F
100
AcDbEntity
  8
AM_1
100
AcDbBlockReference
  2
block 230
 10
0.0
 20
0.0
 30
0.0
  0
INSERT
  5
70B
330
1F
100
AcDbEntity
  8
Defpoints
100
AcDbBlockReference
  2
block 231
 10
0.0
 20
0.0
 30
0.0
  0
INSERT
  5
712
330
1F
100
AcDbEntity
  8
Defpoints
100
AcDbBlockReference
  2
block 232
 10
0.0
 20
0.0
 30
0.0
  0
INSERT
  5
719
330
1F
100
AcDbEntity
  8
Defpoints
100
AcDbBlockReference
  2
block 233
 10
0.0
 20
0.0
 30
0.0
  0
INSERT
  5
720
330
1F
100
AcDbEntity
  8
Defpoints
100
AcDbBlockReference
  2
block 234
 10
0.0
 20
0.0
 30
0.0
  0
INSERT
  5
727
330
1F
100
AcDbEntity
  8
Defpoints
100
AcDbBlockReference
  2
block 235
 10
0.0
 20
0.0
 30
0.0
  0
INSERT
  5
72E
330
1F
100
AcDbEntity
  8
Defpoints
100
AcDbBlockReference
  2
block 236
 10
0.0
 20
0.0
 30
0.0
  0
INSERT
  5
735
330
1F
100
AcDbEntity
  8
Defpoints
100
AcDbBlockReference
  2
block 237
 10
0.0
 20
0.0
 30
0.0
  0
INSERT
  5
73C
330
1F
100
AcDbEntity
  8
Defpoints
100
AcDbBlockReference
  2
block 238
 10
0.0
 20
0.0
 30
0.0
  0
INSERT
  5
743
330
1F
100
AcDbEntity
  8
Defpoints
100
AcDbBlockReference
  2
block 239
 10
0.0
 20
0.0
 30
0.0
  0
INSERT
  5
74A
330
1F
100
AcDbEntity
  8
Defpoints
100
AcDbBlockReference
  2
block 240
 10
0.0
 20
0.0
 30
0.0
  0
INSERT
  5
751
330
1F
100
AcDbEntity
  8
Defpoints
100
AcDbBlockReference
  2
block 241
 10
0.0
 20
0.0
 30
0.0
  0
INSERT
  5
758
330
1F
100
AcDbEntity
  8
Defpoints
100
AcDbBlockReference
  2
block 242
 10
0.0
 20
0.0
 30
0.0
  0
INSERT
  5
75F
330
1F
100
AcDbEntity
  8
Defpoints
100
AcDbBlockReference
  2
block 243
 10
0.0
 20
0.0
 30
0.0
  0
INSERT
  5
766
330
1F
100
AcDbEntity
  8
Defpoints
100
AcDbBlockReference
  2
block 244
 10
0.0
 20
0.0
 30
0.0
  0
INSERT
  5
76D
330
1F
100
AcDbEntity
  8
Defpoints
100
AcDbBlockReference
  2
block 245
 10
0.0
 20
0.0
 30
0.0
  0
INSERT
  5
774
330
1F
100
AcDbEntity
  8
Defpoints
100
AcDbBlockReference
  2
block 246
 10
0.0
 20
0.0
 30
0.0
  0
INSERT
  5
77B
330
1F
100
AcDbEntity
  8
Defpoints
100
AcDbBlockReference
  2
block 247
 10
0.0
 20
0.0
 30
0.0
  0
INSERT
  5
782
330
1F
100
AcDbEntity
  8
Defpoints
100
AcDbBlockReference
  2
block 248
 10
0.0
 20
0.0
 30
0.0
  0
INSERT
  5
789
330
1F
100
AcDbEntity
  8
Defpoints
100
AcDbBlockReference
  2
block 249
 10
0.0
 20
0.0
 30
0.0
  0
INSERT
  5
790
330
1F
100
AcDbEntity
  8
Defpoints
100
AcDbBlockReference
  2
block 250
 10
0.0
 20
0.0
 30
0.0
  0
INSERT
  5
797
330
1F
100
AcDbEntity
  8
Defpoints
100
AcDbBlockReference
  2
block 251
 10
0.0
 20
0.0
 30
0.0
  0
INSERT
  5
79E
330
1F
100
AcDbEntity
  8
Defpoints
100
AcDbBlockReference
  2
block 252
 10
0.0
 20
0.0
 30
0.0
  0
INSERT
  5
7A5
330
1F
100
AcDbEntity
  8
Defpoints
100
AcDbBlockReference
  2
block 253
 10
0.0
 20
0.0
 30
0.0
  0
INSERT
  5
7AC
330
1F
100
AcDbEntity
  8
Defpoints
100
AcDbBlockReference
  2
block 254
 10
0.0
 20
0.0
 30
0.0
  0
ENDSEC
  0
SECTION
  2
OBJECTS
  0
DICTIONARY
  5
C
330
0
100
AcDbDictionary
281
     1
  3
ACAD_GROUP
350
D
  3
ACAD_LAYOUT
350
1A
  3
ACAD_MATERIAL
350
3B
  3
ACAD_MLEADERSTYLE
350
7CF
  3
ACAD_MLINESTYLE
350
17
  3
ACAD_PLOTSETTINGS
350
19
  3
ACAD_PLOTSTYLENAME
350
E
  3
ACAD_TABLESTYLE
350
7CE
  3
ACAD_VISUALSTYLE
350
2A
  0
SUN
  5
3F
330
29
100
AcDbSun
 90
        1
290
     0
 63
     7
421
 16777215
 40
1.0
291
     1
 91
  2455826
 92
 54000000
292
     0
 70
     2
 71
   256
280
     1
  0
DICTIONARY
  5
D
102
{ACAD_REACTORS
330
C
102
}
330
C
100
AcDbDictionary
281
     1
  0
DICTIONARY
  5
1A
102
{ACAD_REACTORS
330
C
102
}
330
C
100
AcDbDictionary
281
     1
  3
Layout1
350
1E
  3
Layout2
350
26
  3
Model
350
22
  0
DICTIONARY
  5
3B
102
{ACAD_REACTORS
330
C
102
}
330
C
100
AcDbDictionary
281
     1
  3
ByBlock
350
3D
  3
ByLayer
350
3C
  3
Global
350
3E
  0
DICTIONARY
  5
7CF
102
{ACAD_REACTORS
330
C
102
}
330
C
100
AcDbDictionary
281
     1
  0
DICTIONARY
  5
17
102
{ACAD_REACTORS
330
C
102
}
330
C
100
AcDbDictionary
281
     1
  3
Standard
350
18
  0
DICTIONARY
  5
19
102
{ACAD_REACTORS
330
C
102
}
330
C
100
AcDbDictionary
281
     1
  0
ACDBDICTIONARYWDFLT
  5
E
102
{ACAD_REACTORS
330
C
102
}
330
C
100
AcDbDictionary
281
     1
  3
Normal
350
F
100
AcDbDictionaryWithDefault
340
F
  0
DICTIONARY
  5
7CE
102
{ACAD_REACTORS
330
C
102
}
330
C
100
AcDbDictionary
281
     1
  0
DICTIONARY
  5
2A
102
{ACAD_REACTORS
330
C
102
}
330
C
100
AcDbDictionary
281
     1
  3
2dWireframe
350
2F
  3
3D Hidden
350
31
  3
3dWireframe
350
30
  3
Basic
350
32
  3
Brighten
350
36
  3
ColorChange
350
3A
  3
Conceptual
350
34
  3
Dim
350
35
  3
Facepattern
350
39
  3
Flat
350
2B
  3
FlatWithEdges
350
2C
  3
Gouraud
350
2D
  3
GouraudWithEdges
350
2E
  3
Linepattern
350
38
  3
Realistic
350
33
  3
Thicken
350
37
  0
LAYOUT
  5
1E
102
{ACAD_REACTORS
330
1A
102
}
330
1A
100
AcDbPlotSettings
  1

  2
none_device
  4

  6

 40
0.0
 41
0.0
 42
0.0
 43
0.0
 44
0.0
 45
0.0
 46
0.0
 47
0.0
 48
0.0
 49
0.0
140
0.0
141
0.0
142
1.0
143
1.0
 70
   688
 72
     0
 73
     0
 74
     5
  7

 75
    16
 76
     0
 77
     2
 78
   300
147
1.0
148
0.0
149
0.0
100
AcDbLayout
  1
Layout1
 70
     1
 71
     1
 10
0.0
 20
0.0
 11
12.0
 21
9.0
 12
0.0
 22
0.0
 32
0.0
 14
1.000000000000000E+20
 24
1.000000000000000E+20
 34
1.000000000000000E+20
 15
-1.000000000000000E+20
 25
-1.000000000000000E+20
 35
-1.000000000000000E+20
146
0.0
 13
0.0
 23
0.0
 33
0.0
 16
1.0
 26
0.0
 36
0.0
 17
0.0
 27
1.0
 37
0.0
 76
     0
330
1B
  0
LAYOUT
  5
26
102
{ACAD_REACTORS
330
1A
102
}
330
1A
100
AcDbPlotSettings
  1

  2
none_device
  4

  6

 40
0.0
 41
0.0
 42
0.0
 43
0.0
 44
0.0
 45
0.0
 46
0.0
 47
0.0
 48
0.0
 49
0.0
140
0.0
141
0.0
142
1.0
143
1.0
 70
   688
 72
     0
 73
     0
 74
     5
  7

 75
    16
 76
     0
 77
     2
 78
   300
147
1.0
148
0.0
149
0.0
100
AcDbLayout
  1
Layout2
 70
     1
 71
     2
 10
0.0
 20
0.0
 11
0.0
 21
0.0
 12
0.0
 22
0.0
 32
0.0
 14
0.0
 24
0.0
 34
0.0
 15
0.0
 25
0.0
 35
0.0
146
0.0
 13
0.0
 23
0.0
 33
0.0
 16
1.0
 26
0.0
 36
0.0
 17
0.0
 27
1.0
 37
0.0
 76
     0
330
23
  0
LAYOUT
  5
22
102
{ACAD_REACTORS
330
1A
102
}
330
1A
100
AcDbPlotSettings
  1

  2
none_device
  4

  6

 40
0.0
 41
0.0
 42
0.0
 43
0.0
 44
0.0
 45
0.0
 46
0.0
 47
0.0
 48
0.0
 49
0.0
140
0.0
141
0.0
142
1.0
143
1.0
 70
  1712
 72
     0
 73
     0
 74
     0
  7

 75
     0
 76
     0
 77
     2
 78
   300
147
1.0
148
0.0
149
0.0
100
AcDbLayout
  1
Model
 70
     1
 71
     0
 10
0.0
 20
0.0
 11
12.0
 21
9.0
 12
0.0
 22
0.0
 32
0.0
 14
1.000000000000000E+20
 24
1.000000000000000E+20
 34
1.000000000000000E+20
 15
-1.000000000000000E+20
 25
-1.000000000000000E+20
 35
-1.000000000000000E+20
146
0.0
 13
0.0
 23
0.0
 33
0.0
 16
1.0
 26
0.0
 36
0.0
 17
0.0
 27
1.0
 37
0.0
 76
     0
330
1F
331
29
  0
MATERIAL
  5
3D
102
{ACAD_REACTORS
330
3B
102
}
330
3B
100
AcDbMaterial
  1
ByBlock
 72
     1
 94
      127
  0
MATERIAL
  5
3C
102
{ACAD_REACTORS
330
3B
102
}
330
3B
100
AcDbMaterial
  1
ByLayer
 72
     1
 94
      127
  0
MATERIAL
  5
3E
102
{ACAD_REACTORS
330
3B
102
}
330
3B
100
AcDbMaterial
  1
Global
 72
     1
 94
      127
  0
MLINESTYLE
  5
18
102
{ACAD_REACTORS
330
17
102
}
330
17
100
AcDbMlineStyle
  2
Standard
 70
     0
  3

 62
   256
 51
90.0
 52
90.0
 71
     2
 49
0.5
 62
   256
  6
BYLAYER
 49
-0.5
 62
   256
  6
BYLAYER
  0
ACDBPLACEHOLDER
  5
F
102
{ACAD_REACTORS
330
E
102
}
330
E
  0
VISUALSTYLE
  5
2F
102
{ACAD_REACTORS
330
2A
102
}
330
2A
100
AcDbVisualStyle
  2
2dWireframe
 70
     4
177
     2
291
     0
 71
     0
176
     1
 72
     2
176
     1
 73
     0
176
     1
 90
        0
176
     1
 40
-0.6
176
     1
 41
-30.0
176
     1
 62
     5
 63
     7
421
 16777215
176
     1
 74
     1
176
     1
 91
        4
176
     1
 64
     7
176
     1
 65
   257
176
     1
 75
     1
176
     1
175
     1
176
     1
 42
1.0
176
     1
 92
        0
176
     1
 66
   257
176
     1
 43
1.0
176
     1
 76
     1
176
     1
 77
     6
176
     1
 78
     2
176
     1
 67
     7
176
     1
 79
     5
176
     1
170
     0
176
     1
171
     0
176
     1
290
     0
176
     1
 93
        1
176
     1
 44
0.0
176
     1
173
     0
176
     1
  0
VISUALSTYLE
  5
31
102
{ACAD_REACTORS
330
2A
102
}
330
2A
100
AcDbVisualStyle
  2
3D Hidden
 70
     6
177
     2
291
     0
 71
     1
176
     1
 72
     2
176
     1
 73
     2
176
     1
 90
        0
176
     1
 40
-0.6
176
     1
 41
-30.0
176
     1
 62
     5
 63
     7
421
 16777215
176
     1
 74
     2
176
     1
 91
        2
176
     1
 64
     7
176
     1
 65
   257
176
     1
 75
     2
176
     1
175
     1
176
     1
 42
40.0
176
     1
 92
        0
176
     1
 66
   257
176
     1
 43
1.0
176
     1
 76
     1
176
     1
 77
     6
176
     1
 78
     2
176
     1
 67
     7
176
     1
 79
     3
176
     1
170
     0
176
     1
171
     0
176
     1
290
     0
176
     1
 93
        1
176
     1
 44
0.0
176
     1
173
     0
176
     1
  0
VISUALSTYLE
  5
30
102
{ACAD_REACTORS
330
2A
102
}
330
2A
100
AcDbVisualStyle
  2
3dWireframe
 70
     5
177
     2
291
     0
 71
     0
176
     1
 72
     2
176
     1
 73
     0
176
     1
 90
        0
176
     1
 40
-0.6
176
     1
 41
-30.0
176
     1
 62
     5
 63
     7
421
 16777215
176
     1
 74
     1
176
     1
 91
        4
176
     1
 64
     7
176
     1
 65
   257
176
     1
 75
     1
176
     1
175
     1
176
     1
 42
1.0
176
     1
 92
        0
176
     1
 66
   257
176
     1
 43
1.0
176
     1
 76
     1
176
     1
 77
     6
176
     1
 78
     2
176
     1
 67
     7
176
     1
 79
     5
176
     1
170
     0
176
     1
171
     0
176
     1
290
     0
176
     1
 93
        1
176
     1
 44
0.0
176
     1
173
     0
176
     1
  0
VISUALSTYLE
  5
32
102
{ACAD_REACTORS
330
2A
102
}
330
2A
100
AcDbVisualStyle
  2
Basic
 70
     7
177
     2
291
     1
 71
     1
176
     1
 72
     0
176
     1
 73
     1
176
     1
 90
        0
176
     1
 40
-0.6
176
     1
 41
-30.0
176
     1
 62
     5
 63
     7
421
 16777215
176
     1
 74
     0
176
     1
 91
        4
176
     1
 64
     7
176
     1
 65
   257
176
     1
 75
     1
176
     1
175
     1
176
     1
 42
1.0
176
     1
 92
        8
176
     1
 66
     7
176
     1
 43
1.0
176
     1
 76
     1
176
     1
 77
     6
176
     1
 78
     2
176
     1
 67
     7
176
     1
 79
     5
176
     1
170
     0
176
     1
171
     0
176
     1
290
     0
176
     1
 93
        1
176
     1
 44
0.0
176
     1
173
     0
176
     1
  0
VISUALSTYLE
  5
36
102
{ACAD_REACTORS
330
2A
102
}
330
2A
100
AcDbVisualStyle
  2
Brighten
 70
    12
177
     2
291
     1
 71
     2
176
     1
 72
     2
176
     1
 73
     0
176
     1
 90
        0
176
     1
 40
-0.6
176
     1
 41
-30.0
176
     1
 62
     5
 63
     7
421
 16777215
176
     1
 74
     1
176
     1
 91
        4
176
     1
 64
     7
176
     1
 65
   257
176
     1
 75
     1
176
     1
175
     1
176
     1
 42
1.0
176
     1
 92
        8
176
     1
 66
     7
176
     1
 43
1.0
176
     1
 76
     1
176
     1
 77
     6
176
     1
 78
     2
176
     1
 67
     7
176
     1
 79
     5
176
     1
170
     0
176
     1
171
     0
176
     1
290
     0
176
     1
 93
        1
176
     1
 44
50.0
176
     1
173
     0
176
     1
  0
VISUALSTYLE
  5
3A
102
{ACAD_REACTORS
330
2A
102
}
330
2A
100
AcDbVisualStyle
  2
ColorChange
 70
    16
177
     2
291
     1
 71
     2
176
     1
 72
     2
176
     1
 73
     3
176
     1
 90
        0
176
     1
 40
-0.6
176
     1
 41
-30.0
176
     1
 62
     5
 63
     8
421
  8421504
176
     1
 74
     1
176
     1
 91
        4
176
     1
 64
     7
176
     1
 65
   257
176
     1
 75
     1
176
     1
175
     1
176
     1
 42
1.0
176
     1
 92
        8
176
     1
 66
     8
424
  8421504
176
     1
 43
1.0
176
     1
 76
     1
176
     1
 77
     6
176
     1
 78
     2
176
     1
 67
     7
176
     1
 79
     5
176
     1
170
     0
176
     1
171
     0
176
     1
290
     0
176
     1
 93
        1
176
     1
 44
0.0
176
     1
173
     0
176
     1
  0
VISUALSTYLE
  5
34
102
{ACAD_REACTORS
330
2A
102
}
330
2A
100
AcDbVisualStyle
  2
Conceptual
 70
     9
177
     2
291
     0
 71
     3
176
     1
 72
     2
176
     1
 73
     0
176
     1
 90
        0
176
     1
 40
-0.6
176
     1
 41
-30.0
176
     1
 62
     5
 63
     7
421
 16777215
176
     1
 74
     2
176
     1
 91
        2
176
     1
 64
     7
176
     1
 65
   257
176
     1
 75
     1
176
     1
175
     1
176
     1
 42
40.0
176
     1
 92
        8
176
     1
 66
     7
176
     1
 43
1.0
176
     1
 76
     1
176
     1
 77
     6
176
     1
 78
     2
176
     1
 67
     7
176
     1
 79
     3
176
     1
170
     0
176
     1
171
     0
176
     1
290
     0
176
     1
 93
        1
176
     1
 44
0.0
176
     1
173
     0
176
     1
  0
VISUALSTYLE
  5
35
102
{ACAD_REACTORS
330
2A
102
}
330
2A
100
AcDbVisualStyle
  2
Dim
 70
    11
177
     2
291
     1
 71
     2
176
     1
 72
     2
176
     1
 73
     0
176
     1
 90
        0
176
     1
 40
-0.6
176
     1
 41
-30.0
176
     1
 62
     5
 63
     7
421
 16777215
176
     1
 74
     1
176
     1
 91
        4
176
     1
 64
     7
176
     1
 65
   257
176
     1
 75
     1
176
     1
175
     1
176
     1
 42
1.0
176
     1
 92
        8
176
     1
 66
     7
176
     1
 43
1.0
176
     1
 76
     1
176
     1
 77
     6
176
     1
 78
     2
176
     1
 67
     7
176
     1
 79
     5
176
     1
170
     0
176
     1
171
     0
176
     1
290
     0
176
     1
 93
        1
176
     1
 44
-50.0
176
     1
173
     0
176
     1
  0
VISUALSTYLE
  5
39
102
{ACAD_REACTORS
330
2A
102
}
330
2A
100
AcDbVisualStyle
  2
Facepattern
 70
    15
177
     2
291
     1
 71
     2
176
     1
 72
     2
176
     1
 73
     0
176
     1
 90
        0
176
     1
 40
-0.6
176
     1
 41
-30.0
176
     1
 62
     5
 63
     7
421
 16777215
176
     1
 74
     1
176
     1
 91
        4
176
     1
 64
     7
176
     1
 65
   257
176
     1
 75
     1
176
     1
175
     1
176
     1
 42
1.0
176
     1
 92
        8
176
     1
 66
     7
176
     1
 43
1.0
176
     1
 76
     1
176
     1
 77
     6
176
     1
 78
     2
176
     1
 67
     7
176
     1
 79
     5
176
     1
170
     0
176
     1
171
     0
176
     1
290
     0
176
     1
 93
        1
176
     1
 44
0.0
176
     1
173
     0
176
     1
  0
VISUALSTYLE
  5
2B
102
{ACAD_REACTORS
330
2A
102
}
330
2A
100
AcDbVisualStyle
  2
Flat
 70
     0
177
     2
291
     1
 71
     2
176
     1
 72
     1
176
     1
 73
     1
176
     1
 90
        2
176
     1
 40
-0.6
176
     1
 41
30.0
176
     1
 62
     5
 63
     7
421
 16777215
176
     1
 74
     0
176
     1
 91
        4
176
     1
 64
     7
176
     1
 65
   257
176
     1
 75
     1
176
     1
175
     1
176
     1
 42
1.0
176
     1
 92
        8
176
     1
 66
     7
176
     1
 43
1.0
176
     1
 76
     1
176
     1
 77
     6
176
     1
 78
     2
176
     1
 67
     7
176
     1
 79
     5
176
     1
170
     0
176
     1
171
     0
176
     1
290
     0
176
     1
 93
       13
176
     1
 44
0.0
176
     1
173
     0
176
     1
  0
VISUALSTYLE
  5
2C
102
{ACAD_REACTORS
330
2A
102
}
330
2A
100
AcDbVisualStyle
  2
FlatWithEdges
 70
     1
177
     2
291
     1
 71
     2
176
     1
 72
     1
176
     1
 73
     1
176
     1
 90
        2
176
     1
 40
-0.6
176
     1
 41
30.0
176
     1
 62
     5
 63
     7
421
 16777215
176
     1
 74
     1
176
     1
 91
        4
176
     1
 64
     7
176
     1
 65
   257
176
     1
 75
     1
176
     1
175
     1
176
     1
 42
1.0
176
     1
 92
        0
176
     1
 66
   257
176
     1
 43
1.0
176
     1
 76
     1
176
     1
 77
     6
176
     1
 78
     2
176
     1
 67
     7
176
     1
 79
     5
176
     1
170
     0
176
     1
171
     0
176
     1
290
     0
176
     1
 93
       13
176
     1
 44
0.0
176
     1
173
     0
176
     1
  0
VISUALSTYLE
  5
2D
102
{ACAD_REACTORS
330
2A
102
}
330
2A
100
AcDbVisualStyle
  2
Gouraud
 70
     2
177
     2
291
     1
 71
     2
176
     1
 72
     2
176
     1
 73
     1
176
     1
 90
        2
176
     1
 40
-0.6
176
     1
 41
30.0
176
     1
 62
     5
 63
     7
421
 16777215
176
     1
 74
     0
176
     1
 91
        4
176
     1
 64
     7
176
     1
 65
   257
176
     1
 75
     1
176
     1
175
     1
176
     1
 42
1.0
176
     1
 92
        0
176
     1
 66
     7
176
     1
 43
1.0
176
     1
 76
     1
176
     1
 77
     6
176
     1
 78
     2
176
     1
 67
     7
176
     1
 79
     5
176
     1
170
     0
176
     1
171
     0
176
     1
290
     0
176
     1
 93
       13
176
     1
 44
0.0
176
     1
173
     0
176
     1
  0
VISUALSTYLE
  5
2E
102
{ACAD_REACTORS
330
2A
102
}
330
2A
100
AcDbVisualStyle
  2
GouraudWithEdges
 70
     3
177
     2
291
     1
 71
     2
176
     1
 72
     2
176
     1
 73
     1
176
     1
 90
        2
176
     1
 40
-0.6
176
     1
 41
30.0
176
     1
 62
     5
 63
     7
421
 16777215
176
     1
 74
     1
176
     1
 91
        4
176
     1
 64
     7
176
     1
 65
   257
176
     1
 75
     1
176
     1
175
     1
176
     1
 42
1.0
176
     1
 92
        0
176
     1
 66
   257
176
     1
 43
1.0
176
     1
 76
     1
176
     1
 77
     6
176
     1
 78
     2
176
     1
 67
     7
176
     1
 79
     5
176
     1
170
     0
176
     1
171
     0
176
     1
290
     0
176
     1
 93
       13
176
     1
 44
0.0
176
     1
173
     0
176
     1
  0
VISUALSTYLE
  5
38
102
{ACAD_REACTORS
330
2A
102
}
330
2A
100
AcDbVisualStyle
  2
Linepattern
 70
    14
177
     2
291
     1
 71
     2
176
     1
 72
     2
176
     1
 73
     0
176
     1
 90
        0
176
     1
 40
-0.6
176
     1
 41
-30.0
176
     1
 62
     5
 63
     7
421
 16777215
176
     1
 74
     1
176
     1
 91
        4
176
     1
 64
     7
176
     1
 65
   257
176
     1
 75
     7
176
     1
175
     7
176
     1
 42
1.0
176
     1
 92
        8
176
     1
 66
     7
176
     1
 43
1.0
176
     1
 76
     1
176
     1
 77
     6
176
     1
 78
     2
176
     1
 67
     7
176
     1
 79
     5
176
     1
170
     0
176
     1
171
     0
176
     1
290
     0
176
     1
 93
        1
176
     1
 44
0.0
176
     1
173
     0
176
     1
  0
VISUALSTYLE
  5
33
102
{ACAD_REACTORS
330
2A
102
}
330
2A
100
AcDbVisualStyle
  2
Realistic
 70
     8
177
     2
291
     0
 71
     2
176
     1
 72
     2
176
     1
 73
     0
176
     1
 90
        0
176
     1
 40
-0.6
176
     1
 41
-30.0
176
     1
 62
     5
 63
     7
421
 16777215
176
     1
 74
     1
176
     1
 91
        0
176
     1
 64
     7
176
     1
 65
   257
176
     1
 75
     1
176
     1
175
     1
176
     1
 42
1.0
176
     1
 92
        8
176
     1
 66
     8
424
  7895160
176
     1
 43
1.0
176
     1
 76
     1
176
     1
 77
     6
176
     1
 78
     2
176
     1
 67
     7
176
     1
 79
     5
176
     1
170
     0
176
     1
171
     0
176
     1
290
     0
176
     1
 93
       13
176
     1
 44
0.0
176
     1
173
     0
176
     1
  0
VISUALSTYLE
  5
37
102
{ACAD_REACTORS
330
2A
102
}
330
2A
100
AcDbVisualStyle
  2
Thicken
 70
    13
177
     2
291
     1
 71
     2
176
     1
 72
     2
176
     1
 73
     0
176
     1
 90
        0
176
     1
 40
-0.6
176
     1
 41
-30.0
176
     1
 62
     5
 63
     7
421
 16777215
176
     1
 74
     1
176
     1
 91
        4
176
     1
 64
     7
176
     1
 65
   257
176
     1
 75
     1
176
     1
175
     1
176
     1
 42
1.0
176
     1
 92
       12
176
     1
 66
     7
176
     1
 43
1.0
176
     1
 76
     1
176
     1
 77
     6
176
     1
 78
     2
176
     1
 67
     7
176
     1
 79
     5
176
     1
170
     0
176
     1
171
     0
176
     1
290
     0
176
     1
 93
        1
176
     1
 44
0.0
176
     1
173
     0
176
     1
  0
ENDSEC
  0
EOF
