  0
SECTION
  2
HEADER
  9
$ACADVER
  1
AC1015
  9
$ACADMAINTVER
 70
     6
  9
$DWGCODEPAGE
  3
ANSI_1252
  9
$INSBASE
 10
0.0
 20
0.0
 30
0.0
  9
$EXTMIN
 10
0.0
 20
0.0
 30
0.0
  9
$EXTMAX
 10
25.0
 20
35.0
 30
0.0
  9
$LIMMIN
 10
0.0
 20
0.0
  9
$LIMMAX
 10
420.0
 20
297.0
  9
$ORTHOMODE
 70
     0
  9
$REGENMODE
 70
     1
  9
$FILLMODE
 70
     1
  9
$QTEXTMODE
 70
     0
  9
$MIRRTEXT
 70
     1
  9
$LTSCALE
 40
4.8
  9
$ATTMODE
 70
     1
  9
$TEXTSIZE
 40
2.5
  9
$TRACEWID
 40
1.0
  9
$TEXTSTYLE
  7
Standard
  9
$CLAYER
  8
0
  9
$CELTYPE
  6
ByLayer
  9
$CECOLOR
 62
   256
  9
$CELTSCALE
 40
1.0
  9
$DISPSILH
 70
     0
  9
$DIMSCALE
 40
1.0
  9
$DIMASZ
 40
2.5
  9
$DIMEXO
 40
0.625
  9
$DIMDLI
 40
3.75
  9
$DIMRND
 40
0.0
  9
$DIMDLE
 40
0.0
  9
$DIMEXE
 40
1.25
  9
$DIMTP
 40
0.0
  9
$DIMTM
 40
0.0
  9
$DIMTXT
 40
2.5
  9
$DIMCEN
 40
2.5
  9
$DIMTSZ
 40
0.0
  9
$DIMTOL
 70
     0
  9
$DIMLIM
 70
     0
  9
$DIMTIH
 70
     0
  9
$DIMTOH
 70
     0
  9
$DIMSE1
 70
     0
  9
$DIMSE2
 70
     0
  9
$DIMTAD
 70
     1
  9
$DIMZIN
 70
     8
  9
$DIMBLK
  1

  9
$DIMASO
 70
     1
  9
$DIMSHO
 70
     1
  9
$DIMPOST
  1

  9
$DIMAPOST
  1

  9
$DIMALT
 70
     0
  9
$DIMALTD
 70
     3
  9
$DIMALTF
 40
0.03937007874016
  9
$DIMLFAC
 40
1.0
  9
$DIMTOFL
 70
     1
  9
$DIMTVP
 40
0.0
  9
$DIMTIX
 70
     0
  9
$DIMSOXD
 70
     0
  9
$DIMSAH
 70
     0
  9
$DIMBLK1
  1

  9
$DIMBLK2
  1

  9
$DIMSTYLE
  2
ISO-25
  9
$DIMCLRD
 70
     0
  9
$DIMCLRE
 70
     0
  9
$DIMCLRT
 70
     0
  9
$DIMTFAC
 40
1.0
  9
$DIMGAP
 40
0.625
  9
$DIMJUST
 70
     0
  9
$DIMSD1
 70
     0
  9
$DIMSD2
 70
     0
  9
$DIMTOLJ
 70
     0
  9
$DIMTZIN
 70
     8
  9
$DIMALTZ
 70
     0
  9
$DIMALTTZ
 70
     0
  9
$DIMUPT
 70
     0
  9
$DIMDEC
 70
     2
  9
$DIMTDEC
 70
     2
  9
$DIMALTU
 70
     2
  9
$DIMALTTD
 70
     3
  9
$DIMTXSTY
  7
Standard
  9
$DIMAUNIT
 70
     0
  9
$DIMADEC
 70
     0
  9
$DIMALTRND
 40
0.0
  9
$DIMAZIN
 70
     0
  9
$DIMDSEP
 70
    44
  9
$DIMATFIT
 70
     3
  9
$DIMFRAC
 70
     0
  9
$DIMLDRBLK
  1

  9
$DIMLUNIT
 70
     2
  9
$DIMLWD
 70
    -2
  9
$DIMLWE
 70
    -2
  9
$DIMTMOVE
 70
     0
  9
$LUNITS
 70
     2
  9
$LUPREC
 70
     4
  9
$SKETCHINC
 40
1.0
  9
$FILLETRAD
 40
10.0
  9
$AUNITS
 70
     0
  9
$AUPREC
 70
     0
  9
$MENU
  1
.
  9
$ELEVATION
 40
0.0
  9
$PELEVATION
 40
0.0
  9
$THICKNESS
 40
0.0
  9
$LIMCHECK
 70
     0
  9
$CHAMFERA
 40
10.0
  9
$CHAMFERB
 40
10.0
  9
$CHAMFERC
 40
20.0
  9
$CHAMFERD
 40
0.0
  9
$SKPOLY
 70
     0
  9
$TDCREATE
 40
2457250.108333333
  9
$TDUCREATE
 40
2457250.025
  9
$TDUPDATE
 40
2457250.111805555
  9
$TDUUPDATE
 40
2457250.028472222
  9
$TDINDWG
 40
0.0000000116
  9
$TDUSRTIMER
 40
0.0000000116
  9
$USRTIMER
 70
     1
  9
$ANGBASE
 50
0.0
  9
$ANGDIR
 70
     0
  9
$PDMODE
 70
     0
  9
$PDSIZE
 40
0.0
  9
$PLINEWID
 40
0.0
  9
$SPLFRAME
 70
     0
  9
$SPLINETYPE
 70
     6
  9
$SPLINESEGS
 70
     8
  9
$HANDSEED
  5
D04
  9
$SURFTAB1
 70
     6
  9
$SURFTAB2
 70
     6
  9
$SURFTYPE
 70
     6
  9
$SURFU
 70
     6
  9
$SURFV
 70
     6
  9
$UCSBASE
  2

  9
$UCSNAME
  2

  9
$UCSORG
 10
0.0
 20
0.0
 30
0.0
  9
$UCSXDIR
 10
1.0
 20
0.0
 30
0.0
  9
$UCSYDIR
 10
0.0
 20
1.0
 30
0.0
  9
$UCSORTHOREF
  2

  9
$UCSORTHOVIEW
 70
     0
  9
$UCSORGTOP
 10
0.0
 20
0.0
 30
0.0
  9
$UCSORGBOTTOM
 10
0.0
 20
0.0
 30
0.0
  9
$UCSORGLEFT
 10
0.0
 20
0.0
 30
0.0
  9
$UCSORGRIGHT
 10
0.0
 20
0.0
 30
0.0
  9
$UCSORGFRONT
 10
0.0
 20
0.0
 30
0.0
  9
$UCSORGBACK
 10
0.0
 20
0.0
 30
0.0
  9
$PUCSBASE
  2

  9
$PUCSNAME
  2

  9
$PUCSORG
 10
0.0
 20
0.0
 30
0.0
  9
$PUCSXDIR
 10
1.0
 20
0.0
 30
0.0
  9
$PUCSYDIR
 10
0.0
 20
1.0
 30
0.0
  9
$PUCSORTHOREF
  2

  9
$PUCSORTHOVIEW
 70
     0
  9
$PUCSORGTOP
 10
0.0
 20
0.0
 30
0.0
  9
$PUCSORGBOTTOM
 10
0.0
 20
0.0
 30
0.0
  9
$PUCSORGLEFT
 10
0.0
 20
0.0
 30
0.0
  9
$PUCSORGRIGHT
 10
0.0
 20
0.0
 30
0.0
  9
$PUCSORGFRONT
 10
0.0
 20
0.0
 30
0.0
  9
$PUCSORGBACK
 10
0.0
 20
0.0
 30
0.0
  9
$USERI1
 70
     0
  9
$USERI2
 70
     0
  9
$USERI3
 70
     0
  9
$USERI4
 70
     0
  9
$USERI5
 70
     0
  9
$USERR1
 40
0.0
  9
$USERR2
 40
0.0
  9
$USERR3
 40
0.0
  9
$USERR4
 40
0.0
  9
$USERR5
 40
0.0
  9
$WORLDVIEW
 70
     1
  9
$SHADEDGE
 70
     3
  9
$SHADEDIF
 70
    70
  9
$TILEMODE
 70
     1
  9
$MAXACTVP
 70
    64
  9
$PINSBASE
 10
0.0
 20
0.0
 30
0.0
  9
$PLIMCHECK
 70
     0
  9
$PEXTMIN
 10
1.000000000000000E+20
 20
1.000000000000000E+20
 30
1.000000000000000E+20
  9
$PEXTMAX
 10
-1.000000000000000E+20
 20
-1.000000000000000E+20
 30
-1.000000000000000E+20
  9
$PLIMMIN
 10
0.0
 20
0.0
  9
$PLIMMAX
 10
420.0
 20
297.0
  9
$UNITMODE
 70
     0
  9
$VISRETAIN
 70
     1
  9
$PLINEGEN
 70
     0
  9
$PSLTSCALE
 70
     1
  9
$TREEDEPTH
 70
  3020
  9
$CMLSTYLE
  2
Standard
  9
$CMLJUST
 70
     0
  9
$CMLSCALE
 40
20.0
  9
$PROXYGRAPHICS
 70
     1
  9
$MEASUREMENT
 70
     1
  9
$CELWEIGHT
370
    -1
  9
$ENDCAPS
280
     0
  9
$JOINSTYLE
280
     0
  9
$LWDISPLAY
290
     0
  9
$INSUNITS
 70
     4
  9
$HYPERLINKBASE
  1

  9
$STYLESHEET
  1

  9
$XEDIT
290
     1
  9
$CEPSNTYPE
380
     0
  9
$PSTYLEMODE
290
     1
  9
$FINGERPRINTGUID
  2
{C81FD8B3-2469-4441-8D8A-DF360FDAC39F}
  9
$VERSIONGUID
  2
{FAEB1C32-E019-11D5-929B-00C0DF256EC4}
  9
$EXTNAMES
290
     1
  9
$PSVPSCALE
 40
0.0
  9
$OLESTARTUP
290
     0
  0
ENDSEC
  0
SECTION
  2
CLASSES
  0
CLASS
  1
ACDBDICTIONARYWDFLT
  2
AcDbDictionaryWithDefault
  3
ObjectDBX Classes
 90
        0
280
     0
281
     0
  0
CLASS
  1
VISUALSTYLE
  2
AcDbVisualStyle
  3
ObjectDBX Classes
 90
     4095
280
     0
281
     0
  0
CLASS
  1
MATERIAL
  2
AcDbMaterial
  3
ObjectDBX Classes
 90
     1153
280
     0
281
     0
  0
CLASS
  1
SCALE
  2
AcDbScale
  3
ObjectDBX Classes
 90
     1153
280
     0
281
     0
  0
CLASS
  1
DICTIONARYVAR
  2
AcDbDictionaryVar
  3
ObjectDBX Classes
 90
        0
280
     0
281
     0
  0
CLASS
  1
ACDBPLACEHOLDER
  2
AcDbPlaceHolder
  3
ObjectDBX Classes
 90
        0
280
     0
281
     0
  0
CLASS
  1
LAYOUT
  2
AcDbLayout
  3
ObjectDBX Classes
 90
        0
280
     0
281
     0
  0
ENDSEC
  0
SECTION
  2
TABLES
  0
TABLE
  2
VPORT
  5
8
330
0
100
AcDbSymbolTable
 70
     1
  0
VPORT
  5
29
330
8
100
AcDbSymbolTableRecord
100
AcDbViewportTableRecord
  2
*Active
 70
     0
 10
0.0
 20
0.0
 11
1.0
 21
1.0
 12
11.26
 22
4.5
 13
0.0
 23
0.0
 14
10.0
 24
10.0
 15
10.0
 25
10.0
 16
0.0
 26
0.0
 36
1.0
 17
0.0
 27
0.0
 37
0.0
 40
9.0
 41
2.503333333333333
 42
50.0
 43
0.0
 44
0.0
 50
0.0
 51
0.0
 71
     0
 72
   100
 73
     1
 74
     3
 75
     0
 76
     0
 77
     0
 78
     0
281
     0
 65
     1
110
0.0
120
0.0
130
0.0
111
1.0
121
0.0
131
0.0
112
0.0
122
1.0
132
0.0
 79
     0
146
0.0
  0
ENDTAB
  0
TABLE
  2
LTYPE
  5
5
330
0
100
AcDbSymbolTable
 70
     8
  0
LTYPE
  5
14
330
5
100
AcDbSymbolTableRecord
100
AcDbLinetypeTableRecord
  2
ByBlock
 70
     0
  3

 72
    65
 73
     0
 40
0.0
  0
LTYPE
  5
15
330
5
100
AcDbSymbolTableRecord
100
AcDbLinetypeTableRecord
  2
ByLayer
 70
     0
  3

 72
    65
 73
     0
 40
0.0
  0
LTYPE
  5
16
330
5
100
AcDbSymbolTableRecord
100
AcDbLinetypeTableRecord
  2
Continuous
 70
     0
  3
Solid line
 72
    65
 73
     0
 40
0.0
  0
LTYPE
  5
412
330
5
100
AcDbSymbolTableRecord
100
AcDbLinetypeTableRecord
  2
SK1
 70
     0
  3
THICK
 72
    65
 73
     0
 40
0.0
  0
LTYPE
  5
419
330
5
100
AcDbSymbolTableRecord
100
AcDbLinetypeTableRecord
  2
NOCUT
 70
     0
  3
THICK
 72
    65
 73
     0
 40
0.0
  0
LTYPE
  5
41E
330
5
100
AcDbSymbolTableRecord
100
AcDbLinetypeTableRecord
  2
SK2
 70
     0
  3
THIN
 72
    65
 73
     0
 40
0.0
  0
LTYPE
  5
4CA
330
5
100
AcDbSymbolTableRecord
100
AcDbLinetypeTableRecord
  2
L2
 70
     0
  3
THIN
 72
    65
 73
     0
 40
0.0
  0
LTYPE
  5
617
330
5
100
AcDbSymbolTableRecord
100
AcDbLinetypeTableRecord
  2
LONGDASH_DASH
 70
     0
  3
THIN_DASHDOT
 72
    65
 73
     4
 40
0.85
 49
0.4
 74
     0
 49
-0.2
 74
     0
 49
0.05
 74
     0
 49
-0.2
 74
     0
  0
LTYPE
  5
65D
330
5
100
AcDbSymbolTableRecord
100
AcDbLinetypeTableRecord
  2
ls1
 70
     0
  3
THIN
 72
    65
 73
     0
 40
0.0
  0
LTYPE
  5
667
330
5
100
AcDbSymbolTableRecord
100
AcDbLinetypeTableRecord
  2
INFTOTAL
 70
     0
  3
THIN
 72
    65
 73
     0
 40
0.0
  0
ENDTAB
  0
TABLE
  2
LAYER
  5
2
330
0
100
AcDbSymbolTable
 70
    11
  0
LAYER
  5
10
330
2
100
AcDbSymbolTableRecord
100
AcDbLayerTableRecord
  2
0
 70
     0
 62
     7
  6
Continuous
370
    -3
390
F
  0
LAYER
  5
44
330
2
100
AcDbSymbolTableRecord
100
AcDbLayerTableRecord
  2
1
 70
     0
 62
4
  6
CONTINUOUS
370
50
370
    -3
390
F
  0
LAYER
  5
411
330
2
100
AcDbSymbolTableRecord
100
AcDbLayerTableRecord
  2
SK1
 70
     0
 62
4
  6
CONTINUOUS
370
50
370
    -3
390
F
  0
LAYER
  5
418
330
2
100
AcDbSymbolTableRecord
100
AcDbLayerTableRecord
  2
NOCUT
 70
     0
 62
7
  6
CONTINUOUS
370
25
370
    -3
390
F
  0
LAYER
  5
41D
330
2
100
AcDbSymbolTableRecord
100
AcDbLayerTableRecord
  2
SK2
 70
     0
 62
7
  6
CONTINUOUS
370
25
370
    -3
390
F
  0
LAYER
  5
4C9
330
2
100
AcDbSymbolTableRecord
100
AcDbLayerTableRecord
  2
2
 70
     0
 62
7
  6
CONTINUOUS
370
25
370
    -3
390
F
  0
LAYER
  5
618
330
2
100
AcDbSymbolTableRecord
100
AcDbLayerTableRecord
  2
4
 70
     0
 62
2
  6
LONGDASH_DASH
370
25
370
    -3
390
F
  0
LAYER
  5
61A
330
2
100
AcDbSymbolTableRecord
100
AcDbLayerTableRecord
  2
SK4
 70
     0
 62
2
  6
LONGDASH_DASH
370
25
370
    -3
390
F
  0
LAYER
  5
65C
330
2
100
AcDbSymbolTableRecord
100
AcDbLayerTableRecord
  2
CUT
 70
     0
 62
1
  6
CONTINUOUS
370
25
370
    -3
390
F
  0
LAYER
  5
666
330
2
100
AcDbSymbolTableRecord
100
AcDbLayerTableRecord
  2
INFTOTAL
 70
     0
 62
9
  6
CONTINUOUS
370
18
370
    -3
390
F
  0
LAYER
  5
66C
330
2
100
AcDbSymbolTableRecord
100
AcDbLayerTableRecord
  2
SK6
 70
     0
 62
5
  6
CONTINUOUS
370
25
370
    -3
390
F
  0
ENDTAB
  0
TABLE
  2
STYLE
  5
3
330
0
100
AcDbSymbolTable
 70
     1
  0
STYLE
  5
11
330
3
100
AcDbSymbolTableRecord
100
AcDbTextStyleTableRecord
  2
Standard
 70
     0
 40
0.0
 41
1.0
 50
0.0
 71
     0
 42
2.5
  3
Monospac821 BT
  4

  0
ENDTAB
  0
TABLE
  2
VIEW
  5
6
330
0
100
AcDbSymbolTable
 70
     0
  0
ENDTAB
  0
TABLE
  2
UCS
  5
7
330
0
100
AcDbSymbolTable
 70
     0
  0
ENDTAB
  0
TABLE
  2
APPID
  5
9
330
0
100
AcDbSymbolTable
 70
     2
  0
APPID
  5
12
330
9
100
AcDbSymbolTableRecord
100
AcDbRegAppTableRecord
  2
ACAD
 70
     0
  0
APPID
  5
3F
330
9
100
AcDbSymbolTableRecord
100
AcDbRegAppTableRecord
  2
ccLab
 70
     0
  0
ENDTAB
  0
TABLE
  2
DIMSTYLE
  5
A
330
0
100
AcDbSymbolTable
 70
     1
100
AcDbDimStyleTable
  0
DIMSTYLE
105
27
330
A
100
AcDbSymbolTableRecord
100
AcDbDimStyleTableRecord
  2
ISO-25
 70
     0
 41
2.5
 42
0.625
 43
3.75
 44
1.25
 73
     0
 74
     0
 77
     1
 78
     8
140
2.5
141
2.5
143
0.03937007874016
147
0.625
171
     3
172
     1
271
     2
272
     2
274
     3
278
    44
283
     0
284
     8
340
11
  0
ENDTAB
  0
TABLE
  2
BLOCK_RECORD
  5
1
330
0
100
AcDbSymbolTable
 70
     2
  0
BLOCK_RECORD
  5
1F
330
1
100
AcDbSymbolTableRecord
100
AcDbBlockTableRecord
  2
*Model_Space
340
22
  0
BLOCK_RECORD
  5
1B
330
1
100
AcDbSymbolTableRecord
100
AcDbBlockTableRecord
  2
*Paper_Space
340
1E
  0
BLOCK_RECORD
  5
23
330
1
100
AcDbSymbolTableRecord
100
AcDbBlockTableRecord
  2
*Paper_Space0
340
26
  0
ENDTAB
  0
ENDSEC
  0
SECTION
  2
BLOCKS
  0
BLOCK
  5
20
330
1F
100
AcDbEntity
  8
0
100
AcDbBlockBegin
  2
*Model_Space
 70
     0
 10
0.0
 20
0.0
 30
0.0
  3
*Model_Space
  1

  0
ENDBLK
  5
21
330
1F
100
AcDbEntity
  8
0
100
AcDbBlockEnd
  0
BLOCK
  5
1C
330
1B
100
AcDbEntity
 67
     1
  8
0
100
AcDbBlockBegin
  2
*Paper_Space
 70
     0
 10
0.0
 20
0.0
 30
0.0
  3
*Paper_Space
  1

  0
ENDBLK
  5
1D
330
1B
100
AcDbEntity
 67
     1
  8
0
100
AcDbBlockEnd
  0
BLOCK
  5
24
330
23
100
AcDbEntity
  8
0
100
AcDbBlockBegin
  2
*Paper_Space0
 70
     0
 10
0.0
 20
0.0
 30
0.0
  3
*Paper_Space0
  1

  0
ENDBLK
  5
25
330
23
100
AcDbEntity
  8
0
100
AcDbBlockEnd
  0
ENDSEC
  0
SECTION
  2
ENTITIES
  0
LINE
  5
6A6
330
1F
100
AcDbEntity
  8
1
  6
CONTINUOUS
370
50
 62
4
100
AcDbLine
 10
95.52821399999999
 20
1.561175
 30
0.0
 11
95.52598599999999
 21
1.630609
 31
0.0
  0
LINE
  5
6A7
330
1F
100
AcDbEntity
  8
1
  6
CONTINUOUS
370
50
 62
4
100
AcDbLine
 10
1.753183
 20
3.216505
 30
0.0
 11
1.746948
 21
3.306289
 31
0.0
  0
LINE
  5
6A8
330
1F
100
AcDbEntity
  8
1
  6
CONTINUOUS
370
50
 62
4
100
AcDbLine
 10
1.767297
 20
3.126575
 30
0.0
 11
1.753183
 21
3.216505
 31
0.0
  0
LINE
  5
6A9
330
1F
100
AcDbEntity
  8
1
  6
CONTINUOUS
370
50
 62
4
100
AcDbLine
 10
95.52598599999999
 20
1.630609
 30
0.0
 11
95.512321
 21
1.695241
 31
0.0
  0
LINE
  5
6AA
330
1F
100
AcDbEntity
  8
1
  6
CONTINUOUS
370
50
 62
4
100
AcDbLine
 10
1.788779
 20
3.036708
 30
0.0
 11
1.767297
 21
3.126575
 31
0.0
  0
LINE
  5
6AB
330
1F
100
AcDbEntity
  8
1
  6
CONTINUOUS
370
50
 62
4
100
AcDbLine
 10
1.817123
 20
2.947063
 30
0.0
 11
1.788779
 21
3.036708
 31
0.0
  0
LINE
  5
6AC
330
1F
100
AcDbEntity
  8
1
  6
CONTINUOUS
370
50
 62
4
100
AcDbLine
 10
95.512321
 20
1.695241
 30
0.0
 11
95.488731
 21
1.764059
 31
0.0
  0
LINE
  5
6AD
330
1F
100
AcDbEntity
  8
1
  6
CONTINUOUS
370
50
 62
4
100
AcDbLine
 10
1.85182
 20
2.857799
 30
0.0
 11
1.817123
 21
2.947063
 31
0.0
  0
LINE
  5
6AE
330
1F
100
AcDbEntity
  8
1
  6
CONTINUOUS
370
50
 62
4
100
AcDbLine
 10
93.334747
 20
4.145959
 30
0.0
 11
93.22906499999999
 21
4.39784
 31
0.0
  0
LINE
  5
6AF
330
1F
100
AcDbEntity
  8
1
  6
CONTINUOUS
370
50
 62
4
100
AcDbLine
 10
93.443169
 20
3.895382
 30
0.0
 11
93.334747
 21
4.145959
 31
0.0
  0
LINE
  5
6B0
330
1F
100
AcDbEntity
  8
1
  6
CONTINUOUS
370
50
 62
4
100
AcDbLine
 10
93.554451
 20
3.647182
 30
0.0
 11
93.443169
 21
3.895382
 31
0.0
  0
LINE
  5
6B1
330
1F
100
AcDbEntity
  8
1
  6
CONTINUOUS
370
50
 62
4
100
AcDbLine
 10
95.488731
 20
1.764059
 30
0.0
 11
95.455772
 21
1.837403
 31
0.0
  0
LINE
  5
6B2
330
1F
100
AcDbEntity
  8
1
  6
CONTINUOUS
370
50
 62
4
100
AcDbLine
 10
1.892365
 20
2.769075
 30
0.0
 11
1.85182
 21
2.857799
 31
0.0
  0
LINE
  5
6B3
330
1F
100
AcDbEntity
  8
1
  6
CONTINUOUS
370
50
 62
4
100
AcDbLine
 10
93.66871599999999
 20
3.402433
 30
0.0
 11
93.554451
 21
3.647182
 31
0.0
  0
LINE
  5
6B4
330
1F
100
AcDbEntity
  8
1
  6
CONTINUOUS
370
50
 62
4
100
AcDbLine
 10
93.786079
 20
3.162227
 30
0.0
 11
93.66871599999999
 21
3.402433
 31
0.0
  0
LINE
  5
6B5
330
1F
100
AcDbEntity
  8
1
  6
CONTINUOUS
370
50
 62
4
100
AcDbLine
 10
93.90647899999999
 20
2.928279
 30
0.0
 11
93.786079
 21
3.162227
 31
0.0
  0
LINE
  5
6B6
330
1F
100
AcDbEntity
  8
1
  6
CONTINUOUS
370
50
 62
4
100
AcDbLine
 10
1.93827
 20
2.681008
 30
0.0
 11
1.892365
 21
2.769075
 31
0.0
  0
LINE
  5
6B7
330
1F
100
AcDbEntity
  8
1
  6
CONTINUOUS
370
50
 62
4
100
AcDbLine
 10
95.455772
 20
1.837403
 30
0.0
 11
95.414085
 21
1.914887
 31
0.0
  0
LINE
  5
6B8
330
1F
100
AcDbEntity
  8
1
  6
CONTINUOUS
370
50
 62
4
100
AcDbLine
 10
94.02978499999999
 20
2.702573
 30
0.0
 11
93.90647899999999
 21
2.928279
 31
0.0
  0
LINE
  5
6B9
330
1F
100
AcDbEntity
  8
1
  6
CONTINUOUS
370
50
 62
4
100
AcDbLine
 10
96.51999699999999
 20
0.0
 30
0.0
 11
95.414642
 21
1.914538
 31
0.0
  0
LINE
  5
6BA
330
1F
100
AcDbEntity
  8
1
  6
CONTINUOUS
370
50
 62
4
100
AcDbLine
 10
1.989104
 20
2.593661
 30
0.0
 11
1.93827
 21
2.681008
 31
0.0
  0
LINE
  5
6BB
330
1F
100
AcDbEntity
  8
1
  6
CONTINUOUS
370
50
 62
4
100
AcDbLine
 10
94.155907
 20
2.486998
 30
0.0
 11
94.02978499999999
 21
2.702573
 31
0.0
  0
LINE
  5
6BC
330
1F
100
AcDbEntity
  8
1
  6
CONTINUOUS
370
50
 62
4
100
AcDbLine
 10
95.414085
 20
1.914887
 30
0.0
 11
95.366631
 21
1.992562
 31
0.0
  0
LINE
  5
6BD
330
1F
100
AcDbEntity
  8
1
  6
CONTINUOUS
370
50
 62
4
100
AcDbLine
 10
94.28475999999999
 20
2.283444
 30
0.0
 11
94.155907
 21
2.486998
 31
0.0
  0
LINE
  5
6BE
330
1F
100
AcDbEntity
  8
1
  6
CONTINUOUS
370
50
 62
4
100
AcDbLine
 10
2.044424
 20
2.507158
 30
0.0
 11
1.989104
 21
2.593661
 31
0.0
  0
LINE
  5
6BF
330
1F
100
AcDbEntity
  8
1
  6
CONTINUOUS
370
50
 62
4
100
AcDbLine
 10
95.366631
 20
1.992562
 30
0.0
 11
95.31233999999999
 21
2.073332
 31
0.0
  0
LINE
  5
6C0
330
1F
100
AcDbEntity
  8
1
  6
CONTINUOUS
370
50
 62
4
100
AcDbLine
 10
94.41622199999999
 20
2.093905
 30
0.0
 11
94.28475999999999
 21
2.283444
 31
0.0
  0
LINE
  5
6C1
330
1F
100
AcDbEntity
  8
1
  6
CONTINUOUS
370
50
 62
4
100
AcDbLine
 10
2.103787
 20
2.421626
 30
0.0
 11
2.044424
 21
2.507158
 31
0.0
  0
LINE
  5
6C2
330
1F
100
AcDbEntity
  8
1
  6
CONTINUOUS
370
50
 62
4
100
AcDbLine
 10
95.31233999999999
 20
2.073332
 30
0.0
 11
95.251785
 21
2.156859
 31
0.0
  0
LINE
  5
6C3
330
1F
100
AcDbEntity
  8
1
  6
CONTINUOUS
370
50
 62
4
100
AcDbLine
 10
2.166748
 20
2.337193
 30
0.0
 11
2.103787
 21
2.421626
 31
0.0
  0
LINE
  5
6C4
330
1F
100
AcDbEntity
  8
1
  6
CONTINUOUS
370
50
 62
4
100
AcDbLine
 10
95.251785
 20
2.156859
 30
0.0
 11
95.185493
 21
2.242937
 31
0.0
  0
LINE
  5
6C5
330
1F
100
AcDbEntity
  8
1
  6
CONTINUOUS
370
50
 62
4
100
AcDbLine
 10
94.54972099999999
 20
1.921098
 30
0.0
 11
94.41622199999999
 21
2.093905
 31
0.0
  0
LINE
  5
6C6
330
1F
100
AcDbEntity
  8
1
  6
CONTINUOUS
370
50
 62
4
100
AcDbLine
 10
2.232863
 20
2.253985
 30
0.0
 11
2.166748
 21
2.337193
 31
0.0
  0
LINE
  5
6C7
330
1F
100
AcDbEntity
  8
1
  6
CONTINUOUS
370
50
 62
4
100
AcDbLine
 10
95.185493
 20
2.242937
 30
0.0
 11
95.11419699999999
 21
2.331313
 31
0.0
  0
LINE
  5
6C8
330
1F
100
AcDbEntity
  8
1
  6
CONTINUOUS
370
50
 62
4
100
AcDbLine
 10
95.11419699999999
 20
2.331313
 30
0.0
 11
95.039093
 21
2.421042
 31
0.0
  0
LINE
  5
6C9
330
1F
100
AcDbEntity
  8
1
  6
CONTINUOUS
370
50
 62
4
100
AcDbLine
 10
2.30169
 20
2.172129
 30
0.0
 11
2.232863
 21
2.253985
 31
0.0
  0
LINE
  5
6CA
330
1F
100
AcDbEntity
  8
1
  6
CONTINUOUS
370
50
 62
4
100
AcDbLine
 10
95.039093
 20
2.421042
 30
0.0
 11
94.961395
 21
2.511149
 31
0.0
  0
LINE
  5
6CB
330
1F
100
AcDbEntity
  8
1
  6
CONTINUOUS
370
50
 62
4
100
AcDbLine
 10
94.684494
 20
1.767599
 30
0.0
 11
94.54972099999999
 21
1.921098
 31
0.0
  0
LINE
  5
6CC
330
1F
100
AcDbEntity
  8
1
  6
CONTINUOUS
370
50
 62
4
100
AcDbLine
 10
94.961395
 20
2.511149
 30
0.0
 11
94.88233199999999
 21
2.600655
 31
0.0
  0
LINE
  5
6CD
330
1F
100
AcDbEntity
  8
1
  6
CONTINUOUS
370
50
 62
4
100
AcDbLine
 10
2.372784
 20
2.091753
 30
0.0
 11
2.30169
 21
2.172129
 31
0.0
  0
LINE
  5
6CE
330
1F
100
AcDbEntity
  8
1
  6
CONTINUOUS
370
50
 62
4
100
AcDbLine
 10
94.88233199999999
 20
2.600655
 30
0.0
 11
94.803108
 21
2.688585
 31
0.0
  0
LINE
  5
6CF
330
1F
100
AcDbEntity
  8
1
  6
CONTINUOUS
370
50
 62
4
100
AcDbLine
 10
94.803108
 20
2.688585
 30
0.0
 11
94.724937
 21
2.77396
 31
0.0
  0
LINE
  5
6D0
330
1F
100
AcDbEntity
  8
1
  6
CONTINUOUS
370
50
 62
4
100
AcDbLine
 10
2.445702
 20
2.012983
 30
0.0
 11
2.372784
 21
2.091753
 31
0.0
  0
LINE
  5
6D1
330
1F
100
AcDbEntity
  8
1
  6
CONTINUOUS
370
50
 62
4
100
AcDbLine
 10
94.724937
 20
2.77396
 30
0.0
 11
94.649048
 21
2.855804
 31
0.0
  0
LINE
  5
6D2
330
1F
100
AcDbEntity
  8
1
  6
CONTINUOUS
370
50
 62
4
100
AcDbLine
 10
94.649048
 20
2.855804
 30
0.0
 11
94.576653
 21
2.933141
 31
0.0
  0
LINE
  5
6D3
330
1F
100
AcDbEntity
  8
1
  6
CONTINUOUS
370
50
 62
4
100
AcDbLine
 10
94.576653
 20
2.933141
 30
0.0
 11
94.50896499999999
 21
3.004993
 31
0.0
  0
LINE
  5
6D4
330
1F
100
AcDbEntity
  8
1
  6
CONTINUOUS
370
50
 62
4
100
AcDbLine
 10
94.50896499999999
 20
3.004993
 30
0.0
 11
94.447205
 21
3.070383
 31
0.0
  0
LINE
  5
6D5
330
1F
100
AcDbEntity
  8
1
  6
CONTINUOUS
370
50
 62
4
100
AcDbLine
 10
2.52
 20
1.935946
 30
0.0
 11
2.445702
 21
2.012983
 31
0.0
  0
LINE
  5
6D6
330
1F
100
AcDbEntity
  8
1
  6
CONTINUOUS
370
50
 62
4
100
AcDbLine
 10
11.834086
 20
1.975074
 30
0.0
 11
11.1384
 21
2.687006
 31
0.0
  0
LINE
  5
6D7
330
1F
100
AcDbEntity
  8
1
  6
CONTINUOUS
370
50
 62
4
100
AcDbLine
 10
94.447205
 20
3.070383
 30
0.0
 11
94.27825899999999
 21
3.242593
 31
0.0
  0
LINE
  5
6D8
330
1F
100
AcDbEntity
  8
1
  6
CONTINUOUS
370
50
 62
4
100
AcDbLine
 10
11.492763
 20
-3.985159
 30
0.0
 11
11.1384
 21
-3.632092
 31
0.0
  0
LINE
  5
6D9
330
1F
100
AcDbEntity
  8
1
  6
CONTINUOUS
370
50
 62
4
100
AcDbLine
 10
80.079712
 20
0.0
 30
0.0
 11
79.802216
 21
0.272019
 31
0.0
  0
LINE
  5
6DA
330
1F
100
AcDbEntity
  8
1
  6
CONTINUOUS
370
50
 62
4
100
AcDbLine
 10
43.853004
 20
-0.318301
 30
0.0
 11
43.52824
 21
0.0
 31
0.0
  0
LINE
  5
6DB
330
1F
100
AcDbEntity
  8
1
  6
CONTINUOUS
370
50
 62
4
100
AcDbLine
 10
25.251875
 20
0.0
 30
0.0
 11
24.871378
 21
0.372882
 31
0.0
  0
LINE
  5
6DC
330
1F
100
AcDbEntity
  8
1
  6
CONTINUOUS
370
50
 62
4
100
AcDbLine
 10
52.239365
 20
-0.06736
 30
0.0
 11
52.170628
 21
0.0
 31
0.0
  0
LINE
  5
6DD
330
1F
100
AcDbEntity
  8
1
  6
CONTINUOUS
370
50
 62
4
100
AcDbLine
 10
70.515434
 20
-0.067444
 30
0.0
 11
70.446609
 21
0.0
 31
0.0
  0
LINE
  5
6DE
330
1F
100
AcDbEntity
  8
1
  6
CONTINUOUS
370
50
 62
4
100
AcDbLine
 10
52.308105
 20
-0.134716
 30
0.0
 11
52.239365
 21
-0.06736
 31
0.0
  0
LINE
  5
6DF
330
1F
100
AcDbEntity
  8
1
  6
CONTINUOUS
370
50
 62
4
100
AcDbLine
 10
33.963364
 20
-0.067403
 30
0.0
 11
33.894569
 21
0.0
 31
0.0
  0
LINE
  5
6E0
330
1F
100
AcDbEntity
  8
1
  6
CONTINUOUS
370
50
 62
4
100
AcDbLine
 10
33.894569
 20
0.0
 30
0.0
 11
33.609154
 21
0.279608
 31
0.0
  0
LINE
  5
6E1
330
1F
100
AcDbEntity
  8
1
  6
CONTINUOUS
370
50
 62
4
100
AcDbLine
 10
52.376846
 20
-0.202057
 30
0.0
 11
52.308105
 21
-0.134716
 31
0.0
  0
LINE
  5
6E2
330
1F
100
AcDbEntity
  8
1
  6
CONTINUOUS
370
50
 62
4
100
AcDbLine
 10
88.791344
 20
-0.067452
 30
0.0
 11
88.722488
 21
0.0
 31
0.0
  0
LINE
  5
6E3
330
1F
100
AcDbEntity
  8
1
  6
CONTINUOUS
370
50
 62
4
100
AcDbLine
 10
34.032154
 20
-0.134789
 30
0.0
 11
33.963364
 21
-0.067403
 31
0.0
  0
LINE
  5
6E4
330
1F
100
AcDbEntity
  8
1
  6
CONTINUOUS
370
50
 62
4
100
AcDbLine
 10
70.584267
 20
-0.134871
 30
0.0
 11
70.515434
 21
-0.067444
 31
0.0
  0
LINE
  5
6E5
330
1F
100
AcDbEntity
  8
1
  6
CONTINUOUS
370
50
 62
4
100
AcDbLine
 10
88.722488
 20
0.0
 30
0.0
 11
88.436897
 21
0.279752
 31
0.0
  0
LINE
  5
6E6
330
1F
100
AcDbEntity
  8
1
  6
CONTINUOUS
370
50
 62
4
100
AcDbLine
 10
88.860207
 20
-0.134906
 30
0.0
 11
88.791344
 21
-0.067452
 31
0.0
  0
LINE
  5
6E7
330
1F
100
AcDbEntity
  8
1
  6
CONTINUOUS
370
50
 62
4
100
AcDbLine
 10
25.577009
 20
-0.318474
 30
0.0
 11
25.251875
 21
0.0
 31
0.0
  0
LINE
  5
6E8
330
1F
100
AcDbEntity
  8
1
  6
CONTINUOUS
370
50
 62
4
100
AcDbLine
 10
15.756428
 20
-0.134654
 30
0.0
 11
15.687673
 21
-0.067312
 31
0.0
  0
LINE
  5
6E9
330
1F
100
AcDbEntity
  8
1
  6
CONTINUOUS
370
50
 62
4
100
AcDbLine
 10
52.170628
 20
0.0
 30
0.0
 11
51.884975
 21
0.279781
 31
0.0
  0
LINE
  5
6EA
330
1F
100
AcDbEntity
  8
1
  6
CONTINUOUS
370
50
 62
4
100
AcDbLine
 10
34.100929
 20
-0.202141
 30
0.0
 11
34.032154
 21
-0.134789
 31
0.0
  0
LINE
  5
6EB
330
1F
100
AcDbEntity
  8
1
  6
CONTINUOUS
370
50
 62
4
100
AcDbLine
 10
15.618901
 20
0.0
 30
0.0
 11
15.383085
 21
0.230932
 31
0.0
  0
LINE
  5
6EC
330
1F
100
AcDbEntity
  8
1
  6
CONTINUOUS
370
50
 62
4
100
AcDbLine
 10
52.44558
 20
-0.269365
 30
0.0
 11
52.376846
 21
-0.202057
 31
0.0
  0
LINE
  5
6ED
330
1F
100
AcDbEntity
  8
1
  6
CONTINUOUS
370
50
 62
4
100
AcDbLine
 10
15.825194
 20
-0.201993
 30
0.0
 11
15.756428
 21
-0.134654
 31
0.0
  0
LINE
  5
6EE
330
1F
100
AcDbEntity
  8
1
  6
CONTINUOUS
370
50
 62
4
100
AcDbLine
 10
43.52824
 20
0.0
 30
0.0
 11
43.251152
 21
0.271326
 31
0.0
  0
LINE
  5
6EF
330
1F
100
AcDbEntity
  8
1
  6
CONTINUOUS
370
50
 62
4
100
AcDbLine
 10
88.92907699999999
 20
-0.202343
 30
0.0
 11
88.860207
 21
-0.134906
 31
0.0
  0
LINE
  5
6F0
330
1F
100
AcDbEntity
  8
1
  6
CONTINUOUS
370
50
 62
4
100
AcDbLine
 10
70.653114
 20
-0.202285
 30
0.0
 11
70.584267
 21
-0.134871
 31
0.0
  0
LINE
  5
6F1
330
1F
100
AcDbEntity
  8
1
  6
CONTINUOUS
370
50
 62
4
100
AcDbLine
 10
70.446609
 20
0.0
 30
0.0
 11
70.161041
 21
0.279612
 31
0.0
  0
LINE
  5
6F2
330
1F
100
AcDbEntity
  8
1
  6
CONTINUOUS
370
50
 62
4
100
AcDbLine
 10
70.721954
 20
-0.269681
 30
0.0
 11
70.653114
 21
-0.202285
 31
0.0
  0
LINE
  5
6F3
330
1F
100
AcDbEntity
  8
1
  6
CONTINUOUS
370
50
 62
4
100
AcDbLine
 10
15.893975
 20
-0.269324
 30
0.0
 11
15.825194
 21
-0.201993
 31
0.0
  0
LINE
  5
6F4
330
1F
100
AcDbEntity
  8
1
  6
CONTINUOUS
370
50
 62
4
100
AcDbLine
 10
34.169693
 20
-0.269451
 30
0.0
 11
34.100929
 21
-0.202141
 31
0.0
  0
LINE
  5
6F5
330
1F
100
AcDbEntity
  8
1
  6
CONTINUOUS
370
50
 62
4
100
AcDbLine
 10
88.99794
 20
-0.269746
 30
0.0
 11
88.92907699999999
 21
-0.202343
 31
0.0
  0
LINE
  5
6F6
330
1F
100
AcDbEntity
  8
1
  6
CONTINUOUS
370
50
 62
4
100
AcDbLine
 10
15.687673
 20
-0.067312
 30
0.0
 11
15.618901
 21
0.0
 31
0.0
  0
LINE
  5
6F7
330
1F
100
AcDbEntity
  8
1
  6
CONTINUOUS
370
50
 62
4
100
AcDbLine
 10
80.45918999999999
 20
-0.371402
 30
0.0
 11
80.079712
 21
0.0
 31
0.0
  0
LINE
  5
6F8
330
1F
100
AcDbEntity
  8
1
  6
CONTINUOUS
370
50
 62
4
100
AcDbLine
 10
61.803951
 20
0.0
 30
0.0
 11
61.519814
 21
0.278083
 31
0.0
  0
LINE
  5
6F9
330
1F
100
AcDbEntity
  8
1
  6
CONTINUOUS
370
50
 62
4
100
AcDbLine
 10
52.514317
 20
-0.336631
 30
0.0
 11
52.44558
 21
-0.269365
 31
0.0
  0
LINE
  5
6FA
330
1F
100
AcDbEntity
  8
1
  6
CONTINUOUS
370
50
 62
4
100
AcDbLine
 10
62.129242
 20
-0.318281
 30
0.0
 11
61.803951
 21
0.0
 31
0.0
  0
LINE
  5
6FB
330
1F
100
AcDbEntity
  8
1
  6
CONTINUOUS
370
50
 62
4
100
AcDbLine
 10
15.962773
 20
-0.336638
 30
0.0
 11
15.893975
 21
-0.269324
 31
0.0
  0
LINE
  5
6FC
330
1F
100
AcDbEntity
  8
1
  6
CONTINUOUS
370
50
 62
4
100
AcDbLine
 10
70.79081
 20
-0.33705
 30
0.0
 11
70.721954
 21
-0.269681
 31
0.0
  0
LINE
  5
6FD
330
1F
100
AcDbEntity
  8
1
  6
CONTINUOUS
370
50
 62
4
100
AcDbLine
 10
34.238445
 20
-0.336713
 30
0.0
 11
34.169693
 21
-0.269451
 31
0.0
  0
LINE
  5
6FE
330
1F
100
AcDbEntity
  8
1
  6
CONTINUOUS
370
50
 62
4
100
AcDbLine
 10
89.066803
 20
-0.337107
 30
0.0
 11
88.99794
 21
-0.269746
 31
0.0
  0
LINE
  5
6FF
330
1F
100
AcDbEntity
  8
1
  6
CONTINUOUS
370
50
 62
4
100
AcDbLine
 10
79.802216
 20
0.272019
 30
0.0
 11
79.524551
 21
0.54357
 31
0.0
  0
LINE
  5
700
330
1F
100
AcDbEntity
  8
1
  6
CONTINUOUS
370
50
 62
4
100
AcDbLine
 10
52.583057
 20
-0.40385
 30
0.0
 11
52.514317
 21
-0.336631
 31
0.0
  0
LINE
  5
701
330
1F
100
AcDbEntity
  8
1
  6
CONTINUOUS
370
50
 62
4
100
AcDbLine
 10
70.859673
 20
-0.404386
 30
0.0
 11
70.79081
 21
-0.33705
 31
0.0
  0
LINE
  5
702
330
1F
100
AcDbEntity
  8
1
  6
CONTINUOUS
370
50
 62
4
100
AcDbLine
 10
16.031588
 20
-0.403926
 30
0.0
 11
15.962773
 21
-0.336638
 31
0.0
  0
LINE
  5
703
330
1F
100
AcDbEntity
  8
1
  6
CONTINUOUS
370
50
 62
4
100
AcDbLine
 10
61.519814
 20
0.278083
 30
0.0
 11
61.236118
 21
0.555439
 31
0.0
  0
LINE
  5
704
330
1F
100
AcDbEntity
  8
1
  6
CONTINUOUS
370
50
 62
4
100
AcDbLine
 10
89.13565799999999
 20
-0.404421
 30
0.0
 11
89.066803
 21
-0.337107
 31
0.0
  0
LINE
  5
705
330
1F
100
AcDbEntity
  8
1
  6
CONTINUOUS
370
50
 62
4
100
AcDbLine
 10
34.307194
 20
-0.403919
 30
0.0
 11
34.238445
 21
-0.336713
 31
0.0
  0
LINE
  5
706
330
1F
100
AcDbEntity
  8
1
  6
CONTINUOUS
370
50
 62
4
100
AcDbLine
 10
88.436897
 20
0.279752
 30
0.0
 11
88.151253
 21
0.5588919999999999
 31
0.0
  0
LINE
  5
707
330
1F
100
AcDbEntity
  8
1
  6
CONTINUOUS
370
50
 62
4
100
AcDbLine
 10
15.383085
 20
0.230932
 30
0.0
 11
15.147222
 21
0.461416
 31
0.0
  0
LINE
  5
708
330
1F
100
AcDbEntity
  8
1
  6
CONTINUOUS
370
50
 62
4
100
AcDbLine
 10
33.609154
 20
0.279608
 30
0.0
 11
33.323738
 21
0.558515
 31
0.0
  0
LINE
  5
709
330
1F
100
AcDbEntity
  8
1
  6
CONTINUOUS
370
50
 62
4
100
AcDbLine
 10
70.161041
 20
0.279612
 30
0.0
 11
69.875404
 21
0.55869
 31
0.0
  0
LINE
  5
70A
330
1F
100
AcDbEntity
  8
1
  6
CONTINUOUS
370
50
 62
4
100
AcDbLine
 10
62.453968
 20
-0.635521
 30
0.0
 11
62.129242
 21
-0.318281
 31
0.0
  0
LINE
  5
70B
330
1F
100
AcDbEntity
  8
1
  6
CONTINUOUS
370
50
 62
4
100
AcDbLine
 10
51.884975
 20
0.279781
 30
0.0
 11
51.599312
 21
0.558835
 31
0.0
  0
LINE
  5
70C
330
1F
100
AcDbEntity
  8
1
  6
CONTINUOUS
370
50
 62
4
100
AcDbLine
 10
44.177761
 20
-0.635537
 30
0.0
 11
43.853004
 21
-0.318301
 31
0.0
  0
LINE
  5
70D
330
1F
100
AcDbEntity
  8
1
  6
CONTINUOUS
370
50
 62
4
100
AcDbLine
 10
43.251152
 20
0.271326
 30
0.0
 11
42.973927
 21
0.541955
 31
0.0
  0
LINE
  5
70E
330
1F
100
AcDbEntity
  8
1
  6
CONTINUOUS
370
50
 62
4
100
AcDbLine
 10
16.313175
 20
-0.6786679999999999
 30
0.0
 11
16.031588
 21
-0.403926
 31
0.0
  0
LINE
  5
70F
330
1F
100
AcDbEntity
  8
1
  6
CONTINUOUS
370
50
 62
4
100
AcDbLine
 10
89.37649499999999
 20
-0.6393749999999999
 30
0.0
 11
89.13565799999999
 21
-0.404421
 31
0.0
  0
LINE
  5
710
330
1F
100
AcDbEntity
  8
1
  6
CONTINUOUS
370
50
 62
4
100
AcDbLine
 10
71.141106
 20
-0.678906
 30
0.0
 11
70.859673
 21
-0.404386
 31
0.0
  0
LINE
  5
711
330
1F
100
AcDbEntity
  8
1
  6
CONTINUOUS
370
50
 62
4
100
AcDbLine
 10
25.90242
 20
-0.6358429999999999
 30
0.0
 11
25.577009
 21
-0.318474
 31
0.0
  0
LINE
  5
712
330
1F
100
AcDbEntity
  8
1
  6
CONTINUOUS
370
50
 62
4
100
AcDbLine
 10
52.864517
 20
-0.6783359999999999
 30
0.0
 11
52.583057
 21
-0.40385
 31
0.0
  0
LINE
  5
713
330
1F
100
AcDbEntity
  8
1
  6
CONTINUOUS
370
50
 62
4
100
AcDbLine
 10
34.588493
 20
-0.678238
 30
0.0
 11
34.307194
 21
-0.403919
 31
0.0
  0
LINE
  5
714
330
1F
100
AcDbEntity
  8
1
  6
CONTINUOUS
370
50
 62
4
100
AcDbLine
 10
24.871378
 20
0.372882
 30
0.0
 11
24.490402
 21
0.744126
 31
0.0
  0
LINE
  5
715
330
1F
100
AcDbEntity
  8
1
  6
CONTINUOUS
370
50
 62
4
100
AcDbLine
 10
80.83856999999999
 20
-0.740988
 30
0.0
 11
80.45918999999999
 21
-0.371402
 31
0.0
  0
LINE
  5
716
330
1F
100
AcDbEntity
  8
1
  6
CONTINUOUS
370
50
 62
4
100
AcDbLine
 10
15.147222
 20
0.461416
 30
0.0
 11
14.911235
 21
0.6911919999999999
 31
0.0
  0
LINE
  5
717
330
1F
100
AcDbEntity
  8
1
  6
CONTINUOUS
370
50
 62
4
100
AcDbLine
 10
94.819763
 20
1.635913
 30
0.0
 11
94.684494
 21
1.767599
 31
0.0
  0
LINE
  5
718
330
1F
100
AcDbEntity
  8
1
  6
CONTINUOUS
370
50
 62
4
100
AcDbLine
 10
61.236118
 20
0.555439
 30
0.0
 11
60.952503
 21
0.831492
 31
0.0
  0
LINE
  5
719
330
1F
100
AcDbEntity
  8
1
  6
CONTINUOUS
370
50
 62
4
100
AcDbLine
 10
69.875404
 20
0.55869
 30
0.0
 11
69.58979
 21
0.836459
 31
0.0
  0
LINE
  5
71A
330
1F
100
AcDbEntity
  8
1
  6
CONTINUOUS
370
50
 62
4
100
AcDbLine
 10
42.973927
 20
0.541955
 30
0.0
 11
42.696808
 21
0.811442
 31
0.0
  0
LINE
  5
71B
330
1F
100
AcDbEntity
  8
1
  6
CONTINUOUS
370
50
 62
4
100
AcDbLine
 10
88.151253
 20
0.5588919999999999
 30
0.0
 11
87.86567699999999
 21
0.836553
 31
0.0
  0
LINE
  5
71C
330
1F
100
AcDbEntity
  8
1
  6
CONTINUOUS
370
50
 62
4
100
AcDbLine
 10
79.524551
 20
0.54357
 30
0.0
 11
79.246567
 21
0.813843
 31
0.0
  0
LINE
  5
71D
330
1F
100
AcDbEntity
  8
1
  6
CONTINUOUS
370
50
 62
4
100
AcDbLine
 10
33.323738
 20
0.558515
 30
0.0
 11
33.03828
 21
0.8360489999999999
 31
0.0
  0
LINE
  5
71E
330
1F
100
AcDbEntity
  8
1
  6
CONTINUOUS
370
50
 62
4
100
AcDbLine
 10
51.599312
 20
0.558835
 30
0.0
 11
51.313641
 21
0.836553
 31
0.0
  0
LINE
  5
71F
330
1F
100
AcDbEntity
  8
1
  6
CONTINUOUS
370
50
 62
4
100
AcDbLine
 10
89.61728699999999
 20
-0.873223
 30
0.0
 11
89.37649499999999
 21
-0.6393749999999999
 31
0.0
  0
LINE
  5
720
330
1F
100
AcDbEntity
  8
1
  6
CONTINUOUS
370
50
 62
4
100
AcDbLine
 10
62.77874
 20
-0.950855
 30
0.0
 11
62.453968
 21
-0.635521
 31
0.0
  0
LINE
  5
721
330
1F
100
AcDbEntity
  8
1
  6
CONTINUOUS
370
50
 62
4
100
AcDbLine
 10
16.594658
 20
-0.9517639999999999
 30
0.0
 11
16.313175
 21
-0.6786679999999999
 31
0.0
  0
LINE
  5
722
330
1F
100
AcDbEntity
  8
1
  6
CONTINUOUS
370
50
 62
4
100
AcDbLine
 10
26.227707
 20
-0.951322
 30
0.0
 11
25.90242
 21
-0.6358429999999999
 31
0.0
  0
LINE
  5
723
330
1F
100
AcDbEntity
  8
1
  6
CONTINUOUS
370
50
 62
4
100
AcDbLine
 10
71.422478
 20
-0.9517439999999999
 30
0.0
 11
71.141106
 21
-0.678906
 31
0.0
  0
LINE
  5
724
330
1F
100
AcDbEntity
  8
1
  6
CONTINUOUS
370
50
 62
4
100
AcDbLine
 10
34.869823
 20
-0.951025
 30
0.0
 11
34.588493
 21
-0.678238
 31
0.0
  0
LINE
  5
725
330
1F
100
AcDbEntity
  8
1
  6
CONTINUOUS
370
50
 62
4
100
AcDbLine
 10
53.145836
 20
-0.951075
 30
0.0
 11
52.864517
 21
-0.6783359999999999
 31
0.0
  0
LINE
  5
726
330
1F
100
AcDbEntity
  8
1
  6
CONTINUOUS
370
50
 62
4
100
AcDbLine
 10
44.503078
 20
-0.950858
 30
0.0
 11
44.177761
 21
-0.635537
 31
0.0
  0
LINE
  5
727
330
1F
100
AcDbEntity
  8
1
  6
CONTINUOUS
370
50
 62
4
100
AcDbLine
 10
14.911235
 20
0.6911919999999999
 30
0.0
 11
14.675022
 21
0.919975
 31
0.0
  0
LINE
  5
728
330
1F
100
AcDbEntity
  8
1
  6
CONTINUOUS
370
50
 62
4
100
AcDbLine
 10
81.21739199999999
 20
-1.107478
 30
0.0
 11
80.83856999999999
 21
-0.740988
 31
0.0
  0
LINE
  5
729
330
1F
100
AcDbEntity
  8
1
  6
CONTINUOUS
370
50
 62
4
100
AcDbLine
 10
42.696808
 20
0.811442
 30
0.0
 11
42.420025
 21
1.079083
 31
0.0
  0
LINE
  5
72A
330
1F
100
AcDbEntity
  8
1
  6
CONTINUOUS
370
50
 62
4
100
AcDbLine
 10
24.490402
 20
0.744126
 30
0.0
 11
24.109486
 21
1.112036
 31
0.0
  0
LINE
  5
72B
330
1F
100
AcDbEntity
  8
1
  6
CONTINUOUS
370
50
 62
4
100
AcDbLine
 10
60.952503
 20
0.831492
 30
0.0
 11
60.668549
 21
1.105685
 31
0.0
  0
LINE
  5
72C
330
1F
100
AcDbEntity
  8
1
  6
CONTINUOUS
370
50
 62
4
100
AcDbLine
 10
51.313641
 20
0.836553
 30
0.0
 11
51.028008
 21
1.112318
 31
0.0
  0
LINE
  5
72D
330
1F
100
AcDbEntity
  8
1
  6
CONTINUOUS
370
50
 62
4
100
AcDbLine
 10
69.58979
 20
0.836459
 30
0.0
 11
69.304329
 21
1.112009
 31
0.0
  0
LINE
  5
72E
330
1F
100
AcDbEntity
  8
1
  6
CONTINUOUS
370
50
 62
4
100
AcDbLine
 10
79.246567
 20
0.813843
 30
0.0
 11
78.96850599999999
 21
1.082202
 31
0.0
  0
LINE
  5
72F
330
1F
100
AcDbEntity
  8
1
  6
CONTINUOUS
370
50
 62
4
100
AcDbLine
 10
87.86567699999999
 20
0.836553
 30
0.0
 11
87.580139
 21
1.112128
 31
0.0
  0
LINE
  5
730
330
1F
100
AcDbEntity
  8
1
  6
CONTINUOUS
370
50
 62
4
100
AcDbLine
 10
33.03828
 20
0.8360489999999999
 30
0.0
 11
32.752838
 21
1.111526
 31
0.0
  0
LINE
  5
731
330
1F
100
AcDbEntity
  8
1
  6
CONTINUOUS
370
50
 62
4
100
AcDbLine
 10
89.857941
 20
-1.105459
 30
0.0
 11
89.61728699999999
 21
-0.873223
 31
0.0
  0
LINE
  5
732
330
1F
100
AcDbEntity
  8
1
  6
CONTINUOUS
370
50
 62
4
100
AcDbLine
 10
14.675022
 20
0.919975
 30
0.0
 11
14.438601
 21
1.147431
 31
0.0
  0
LINE
  5
733
330
1F
100
AcDbEntity
  8
1
  6
CONTINUOUS
370
50
 62
4
100
AcDbLine
 10
16.876322
 20
-1.222723
 30
0.0
 11
16.594658
 21
-0.9517639999999999
 31
0.0
  0
LINE
  5
734
330
1F
100
AcDbEntity
  8
1
  6
CONTINUOUS
370
50
 62
4
100
AcDbLine
 10
35.151291
 20
-1.22178
 30
0.0
 11
34.869823
 21
-0.951025
 31
0.0
  0
LINE
  5
735
330
1F
100
AcDbEntity
  8
1
  6
CONTINUOUS
370
50
 62
4
100
AcDbLine
 10
26.552559
 20
-1.263771
 30
0.0
 11
26.227707
 21
-0.951322
 31
0.0
  0
LINE
  5
736
330
1F
100
AcDbEntity
  8
1
  6
CONTINUOUS
370
50
 62
4
100
AcDbLine
 10
53.427128
 20
-1.221584
 30
0.0
 11
53.145836
 21
-0.951075
 31
0.0
  0
LINE
  5
737
330
1F
100
AcDbEntity
  8
1
  6
CONTINUOUS
370
50
 62
4
100
AcDbLine
 10
71.703964
 20
-1.222416
 30
0.0
 11
71.422478
 21
-0.9517439999999999
 31
0.0
  0
LINE
  5
738
330
1F
100
AcDbEntity
  8
1
  6
CONTINUOUS
370
50
 62
4
100
AcDbLine
 10
63.10398499999999
 20
-1.263295
 30
0.0
 11
62.77874
 21
-0.950855
 31
0.0
  0
LINE
  5
739
330
1F
100
AcDbEntity
  8
1
  6
CONTINUOUS
370
50
 62
4
100
AcDbLine
 10
44.828331
 20
-1.263236
 30
0.0
 11
44.503078
 21
-0.950858
 31
0.0
  0
LINE
  5
73A
330
1F
100
AcDbEntity
  8
1
  6
CONTINUOUS
370
50
 62
4
100
AcDbLine
 10
42.420025
 20
1.079083
 30
0.0
 11
42.143387
 21
1.344103
 31
0.0
  0
LINE
  5
73B
330
1F
100
AcDbEntity
  8
1
  6
CONTINUOUS
370
50
 62
4
100
AcDbLine
 10
78.96850599999999
 20
1.082202
 30
0.0
 11
78.69062799999999
 21
1.348192
 31
0.0
  0
LINE
  5
73C
330
1F
100
AcDbEntity
  8
1
  6
CONTINUOUS
370
50
 62
4
100
AcDbLine
 10
90.098602
 20
-1.335781
 30
0.0
 11
89.857941
 21
-1.105459
 31
0.0
  0
LINE
  5
73D
330
1F
100
AcDbEntity
  8
1
  6
CONTINUOUS
370
50
 62
4
100
AcDbLine
 10
14.438601
 20
1.147431
 30
0.0
 11
14.202461
 21
1.373249
 31
0.0
  0
LINE
  5
73E
330
1F
100
AcDbEntity
  8
1
  6
CONTINUOUS
370
50
 62
4
100
AcDbLine
 10
51.028008
 20
1.112318
 30
0.0
 11
50.742489
 21
1.385271
 31
0.0
  0
LINE
  5
73F
330
1F
100
AcDbEntity
  8
1
  6
CONTINUOUS
370
50
 62
4
100
AcDbLine
 10
32.752838
 20
1.111526
 30
0.0
 11
32.467392
 21
1.384398
 31
0.0
  0
LINE
  5
740
330
1F
100
AcDbEntity
  8
1
  6
CONTINUOUS
370
50
 62
4
100
AcDbLine
 10
87.580139
 20
1.112128
 30
0.0
 11
87.294533
 21
1.385118
 31
0.0
  0
LINE
  5
741
330
1F
100
AcDbEntity
  8
1
  6
CONTINUOUS
370
50
 62
4
100
AcDbLine
 10
69.304329
 20
1.112009
 30
0.0
 11
69.018906
 21
1.384819
 31
0.0
  0
LINE
  5
742
330
1F
100
AcDbEntity
  8
1
  6
CONTINUOUS
370
50
 62
4
100
AcDbLine
 10
60.668549
 20
1.105685
 30
0.0
 11
60.384369
 21
1.377163
 31
0.0
  0
LINE
  5
743
330
1F
100
AcDbEntity
  8
1
  6
CONTINUOUS
370
50
 62
4
100
AcDbLine
 10
24.109486
 20
1.112036
 30
0.0
 11
23.729044
 21
1.475273
 31
0.0
  0
LINE
  5
744
330
1F
100
AcDbEntity
  8
1
  6
CONTINUOUS
370
50
 62
4
100
AcDbLine
 10
81.596672
 20
-1.469508
 30
0.0
 11
81.21739199999999
 21
-1.107478
 31
0.0
  0
LINE
  5
745
330
1F
100
AcDbEntity
  8
1
  6
CONTINUOUS
370
50
 62
4
100
AcDbLine
 10
53.708523
 20
-1.489386
 30
0.0
 11
53.427128
 21
-1.221584
 31
0.0
  0
LINE
  5
746
330
1F
100
AcDbEntity
  8
1
  6
CONTINUOUS
370
50
 62
4
100
AcDbLine
 10
17.157997
 20
-1.490765
 30
0.0
 11
16.876322
 21
-1.222723
 31
0.0
  0
LINE
  5
747
330
1F
100
AcDbEntity
  8
1
  6
CONTINUOUS
370
50
 62
4
100
AcDbLine
 10
35.432842
 20
-1.489696
 30
0.0
 11
35.151291
 21
-1.22178
 31
0.0
  0
LINE
  5
748
330
1F
100
AcDbEntity
  8
1
  6
CONTINUOUS
370
50
 62
4
100
AcDbLine
 10
71.98539699999999
 20
-1.490194
 30
0.0
 11
71.703964
 21
-1.222416
 31
0.0
  0
LINE
  5
749
330
1F
100
AcDbEntity
  8
1
  6
CONTINUOUS
370
50
 62
4
100
AcDbLine
 10
45.153057
 20
-1.571609
 30
0.0
 11
44.828331
 21
-1.263236
 31
0.0
  0
LINE
  5
74A
330
1F
100
AcDbEntity
  8
1
  6
CONTINUOUS
370
50
 62
4
100
AcDbLine
 10
26.877405
 20
-1.572145
 30
0.0
 11
26.552559
 21
-1.263771
 31
0.0
  0
LINE
  5
74B
330
1F
100
AcDbEntity
  8
1
  6
CONTINUOUS
370
50
 62
4
100
AcDbLine
 10
14.202461
 20
1.373249
 30
0.0
 11
13.966819
 21
1.596897
 31
0.0
  0
LINE
  5
74C
330
1F
100
AcDbEntity
  8
1
  6
CONTINUOUS
370
50
 62
4
100
AcDbLine
 10
2.845042
 20
1.627516
 30
0.0
 11
2.52
 21
1.936009
 31
0.0
  0
LINE
  5
74D
330
1F
100
AcDbEntity
  8
1
  6
CONTINUOUS
370
50
 62
4
100
AcDbLine
 10
63.429333
 20
-1.57174
 30
0.0
 11
63.10398499999999
 21
-1.263295
 31
0.0
  0
LINE
  5
74E
330
1F
100
AcDbEntity
  8
1
  6
CONTINUOUS
370
50
 62
4
100
AcDbLine
 10
90.339378
 20
-1.563893
 30
0.0
 11
90.098602
 21
-1.335781
 31
0.0
  0
LINE
  5
74F
330
1F
100
AcDbEntity
  8
1
  6
CONTINUOUS
370
50
 62
4
100
AcDbLine
 10
78.69062799999999
 20
1.348192
 30
0.0
 11
78.41310899999999
 21
1.611005
 31
0.0
  0
LINE
  5
750
330
1F
100
AcDbEntity
  8
1
  6
CONTINUOUS
370
50
 62
4
100
AcDbLine
 10
42.143387
 20
1.344103
 30
0.0
 11
41.866428
 21
1.606048
 31
0.0
  0
LINE
  5
751
330
1F
100
AcDbEntity
  8
1
  6
CONTINUOUS
370
50
 62
4
100
AcDbLine
 10
32.467392
 20
1.384398
 30
0.0
 11
32.182014
 21
1.653926
 31
0.0
  0
LINE
  5
752
330
1F
100
AcDbEntity
  8
1
  6
CONTINUOUS
370
50
 62
4
100
AcDbLine
 10
87.294533
 20
1.385118
 30
0.0
 11
87.008888
 21
1.654879
 31
0.0
  0
LINE
  5
753
330
1F
100
AcDbEntity
  8
1
  6
CONTINUOUS
370
50
 62
4
100
AcDbLine
 10
50.742489
 20
1.385271
 30
0.0
 11
50.457069
 21
1.654747
 31
0.0
  0
LINE
  5
754
330
1F
100
AcDbEntity
  8
1
  6
CONTINUOUS
370
50
 62
4
100
AcDbLine
 10
69.018906
 20
1.384819
 30
0.0
 11
68.73337599999999
 21
1.654392
 31
0.0
  0
LINE
  5
755
330
1F
100
AcDbEntity
  8
1
  6
CONTINUOUS
370
50
 62
4
100
AcDbLine
 10
60.384369
 20
1.377163
 30
0.0
 11
60.10023099999999
 21
1.645402
 31
0.0
  0
LINE
  5
756
330
1F
100
AcDbEntity
  8
1
  6
CONTINUOUS
370
50
 62
4
100
AcDbLine
 10
53.990028
 20
-1.753817
 30
0.0
 11
53.708523
 21
-1.489386
 31
0.0
  0
LINE
  5
757
330
1F
100
AcDbEntity
  8
1
  6
CONTINUOUS
370
50
 62
4
100
AcDbLine
 10
72.26675399999999
 20
-1.754467
 30
0.0
 11
71.98539699999999
 21
-1.490194
 31
0.0
  0
LINE
  5
758
330
1F
100
AcDbEntity
  8
1
  6
CONTINUOUS
370
50
 62
4
100
AcDbLine
 10
17.439642
 20
-1.755283
 30
0.0
 11
17.157997
 21
-1.490765
 31
0.0
  0
LINE
  5
759
330
1F
100
AcDbEntity
  8
1
  6
CONTINUOUS
370
50
 62
4
100
AcDbLine
 10
35.714386
 20
-1.754058
 30
0.0
 11
35.432842
 21
-1.489696
 31
0.0
  0
LINE
  5
75A
330
1F
100
AcDbEntity
  8
1
  6
CONTINUOUS
370
50
 62
4
100
AcDbLine
 10
94.27825899999999
 20
3.242593
 30
0.0
 11
94.11039
 21
3.400158
 31
0.0
  0
LINE
  5
75B
330
1F
100
AcDbEntity
  8
1
  6
CONTINUOUS
370
50
 62
4
100
AcDbLine
 10
13.966819
 20
1.596897
 30
0.0
 11
13.731433
 21
1.817773
 31
0.0
  0
LINE
  5
75C
330
1F
100
AcDbEntity
  8
1
  6
CONTINUOUS
370
50
 62
4
100
AcDbLine
 10
23.729044
 20
1.475273
 30
0.0
 11
23.348188
 21
1.832382
 31
0.0
  0
LINE
  5
75D
330
1F
100
AcDbEntity
  8
1
  6
CONTINUOUS
370
50
 62
4
100
AcDbLine
 10
81.97627299999999
 20
-1.825153
 30
0.0
 11
81.596672
 21
-1.469508
 31
0.0
  0
LINE
  5
75E
330
1F
100
AcDbEntity
  8
1
  6
CONTINUOUS
370
50
 62
4
100
AcDbLine
 10
90.580215
 20
-1.789373
 30
0.0
 11
90.339378
 21
-1.563893
 31
0.0
  0
LINE
  5
75F
330
1F
100
AcDbEntity
  8
1
  6
CONTINUOUS
370
50
 62
4
100
AcDbLine
 10
45.477905
 20
-1.875168
 30
0.0
 11
45.153057
 21
-1.571609
 31
0.0
  0
LINE
  5
760
330
1F
100
AcDbEntity
  8
1
  6
CONTINUOUS
370
50
 62
4
100
AcDbLine
 10
63.754414
 20
-1.875424
 30
0.0
 11
63.429333
 21
-1.57174
 31
0.0
  0
LINE
  5
761
330
1F
100
AcDbEntity
  8
1
  6
CONTINUOUS
370
50
 62
4
100
AcDbLine
 10
78.41310899999999
 20
1.611005
 30
0.0
 11
78.135612
 21
1.870053
 31
0.0
  0
LINE
  5
762
330
1F
100
AcDbEntity
  8
1
  6
CONTINUOUS
370
50
 62
4
100
AcDbLine
 10
27.202732
 20
-1.875575
 30
0.0
 11
26.877405
 21
-1.572145
 31
0.0
  0
LINE
  5
763
330
1F
100
AcDbEntity
  8
1
  6
CONTINUOUS
370
50
 62
4
100
AcDbLine
 10
41.866428
 20
1.606048
 30
0.0
 11
41.589314
 21
1.864335
 31
0.0
  0
LINE
  5
764
330
1F
100
AcDbEntity
  8
1
  6
CONTINUOUS
370
50
 62
4
100
AcDbLine
 10
60.10023099999999
 20
1.645402
 30
0.0
 11
59.816395
 21
1.909793
 31
0.0
  0
LINE
  5
765
330
1F
100
AcDbEntity
  8
1
  6
CONTINUOUS
370
50
 62
4
100
AcDbLine
 10
32.182014
 20
1.653926
 30
0.0
 11
31.896713
 21
1.919357
 31
0.0
  0
LINE
  5
766
330
1F
100
AcDbEntity
  8
1
  6
CONTINUOUS
370
50
 62
4
100
AcDbLine
 10
68.73337599999999
 20
1.654392
 30
0.0
 11
68.447723
 21
1.920146
 31
0.0
  0
LINE
  5
767
330
1F
100
AcDbEntity
  8
1
  6
CONTINUOUS
370
50
 62
4
100
AcDbLine
 10
87.008888
 20
1.654879
 30
0.0
 11
86.723412
 21
1.92046
 31
0.0
  0
LINE
  5
768
330
1F
100
AcDbEntity
  8
1
  6
CONTINUOUS
370
50
 62
4
100
AcDbLine
 10
50.457069
 20
1.654747
 30
0.0
 11
50.171616
 21
1.920258
 31
0.0
  0
LINE
  5
769
330
1F
100
AcDbEntity
  8
1
  6
CONTINUOUS
370
50
 62
4
100
AcDbLine
 10
72.548203
 20
-2.014754
 30
0.0
 11
72.26675399999999
 21
-1.754467
 31
0.0
  0
LINE
  5
76A
330
1F
100
AcDbEntity
  8
1
  6
CONTINUOUS
370
50
 62
4
100
AcDbLine
 10
17.72138
 20
-2.015784
 30
0.0
 11
17.439642
 21
-1.755283
 31
0.0
  0
LINE
  5
76B
330
1F
100
AcDbEntity
  8
1
  6
CONTINUOUS
370
50
 62
4
100
AcDbLine
 10
35.99594099999999
 20
-2.014355
 30
0.0
 11
35.714386
 21
-1.754058
 31
0.0
  0
LINE
  5
76C
330
1F
100
AcDbEntity
  8
1
  6
CONTINUOUS
370
50
 62
4
100
AcDbLine
 10
54.271561
 20
-2.014081
 30
0.0
 11
53.990028
 21
-1.753817
 31
0.0
  0
LINE
  5
76D
330
1F
100
AcDbEntity
  8
1
  6
CONTINUOUS
370
50
 62
4
100
AcDbLine
 10
13.731433
 20
1.817773
 30
0.0
 11
13.495488
 21
2.035705
 31
0.0
  0
LINE
  5
76E
330
1F
100
AcDbEntity
  8
1
  6
CONTINUOUS
370
50
 62
4
100
AcDbLine
 10
90.820976
 20
-2.011753
 30
0.0
 11
90.580215
 21
-1.789373
 31
0.0
  0
LINE
  5
76F
330
1F
100
AcDbEntity
  8
1
  6
CONTINUOUS
370
50
 62
4
100
AcDbLine
 10
41.589314
 20
1.864335
 30
0.0
 11
41.312618
 21
2.118391
 31
0.0
  0
LINE
  5
770
330
1F
100
AcDbEntity
  8
1
  6
CONTINUOUS
370
50
 62
4
100
AcDbLine
 10
82.35556799999999
 20
-2.173143
 30
0.0
 11
81.97627299999999
 21
-1.825153
 31
0.0
  0
LINE
  5
771
330
1F
100
AcDbEntity
  8
1
  6
CONTINUOUS
370
50
 62
4
100
AcDbLine
 10
78.135612
 20
1.870053
 30
0.0
 11
77.857704
 21
2.124858
 31
0.0
  0
LINE
  5
772
330
1F
100
AcDbEntity
  8
1
  6
CONTINUOUS
370
50
 62
4
100
AcDbLine
 10
64.07914699999999
 20
-2.173051
 30
0.0
 11
63.754414
 21
-1.875424
 31
0.0
  0
LINE
  5
773
330
1F
100
AcDbEntity
  8
1
  6
CONTINUOUS
370
50
 62
4
100
AcDbLine
 10
23.348188
 20
1.832382
 30
0.0
 11
22.967094
 21
2.181473
 31
0.0
  0
LINE
  5
774
330
1F
100
AcDbEntity
  8
1
  6
CONTINUOUS
370
50
 62
4
100
AcDbLine
 10
59.816395
 20
1.909793
 30
0.0
 11
59.532799
 21
2.169443
 31
0.0
  0
LINE
  5
775
330
1F
100
AcDbEntity
  8
1
  6
CONTINUOUS
370
50
 62
4
100
AcDbLine
 10
27.527624
 20
-2.172993
 30
0.0
 11
27.202732
 21
-1.875575
 31
0.0
  0
LINE
  5
776
330
1F
100
AcDbEntity
  8
1
  6
CONTINUOUS
370
50
 62
4
100
AcDbLine
 10
45.803207
 20
-2.172913
 30
0.0
 11
45.477905
 21
-1.875168
 31
0.0
  0
LINE
  5
777
330
1F
100
AcDbEntity
  8
1
  6
CONTINUOUS
370
50
 62
4
100
AcDbLine
 10
68.447723
 20
1.920146
 30
0.0
 11
68.162094
 21
2.18129
 31
0.0
  0
LINE
  5
778
330
1F
100
AcDbEntity
  8
1
  6
CONTINUOUS
370
50
 62
4
100
AcDbLine
 10
50.171616
 20
1.920258
 30
0.0
 11
49.88600899999999
 21
2.181308
 31
0.0
  0
LINE
  5
779
330
1F
100
AcDbEntity
  8
1
  6
CONTINUOUS
370
50
 62
4
100
AcDbLine
 10
31.896713
 20
1.919357
 30
0.0
 11
31.611328
 21
2.1802
 31
0.0
  0
LINE
  5
77A
330
1F
100
AcDbEntity
  8
1
  6
CONTINUOUS
370
50
 62
4
100
AcDbLine
 10
86.723412
 20
1.92046
 30
0.0
 11
86.43800399999999
 21
2.18132
 31
0.0
  0
LINE
  5
77B
330
1F
100
AcDbEntity
  8
1
  6
CONTINUOUS
370
50
 62
4
100
AcDbLine
 10
91.06175999999999
 20
-2.230747
 30
0.0
 11
90.820976
 21
-2.011753
 31
0.0
  0
LINE
  5
77C
330
1F
100
AcDbEntity
  8
1
  6
CONTINUOUS
370
50
 62
4
100
AcDbLine
 10
36.277458
 20
-2.269964
 30
0.0
 11
35.99594099999999
 21
-2.014355
 31
0.0
  0
LINE
  5
77D
330
1F
100
AcDbEntity
  8
1
  6
CONTINUOUS
370
50
 62
4
100
AcDbLine
 10
72.829674
 20
-2.270277
 30
0.0
 11
72.548203
 21
-2.014754
 31
0.0
  0
LINE
  5
77E
330
1F
100
AcDbEntity
  8
1
  6
CONTINUOUS
370
50
 62
4
100
AcDbLine
 10
54.553089
 20
-2.269621
 30
0.0
 11
54.271561
 21
-2.014081
 31
0.0
  0
LINE
  5
77F
330
1F
100
AcDbEntity
  8
1
  6
CONTINUOUS
370
50
 62
4
100
AcDbLine
 10
18.00316
 20
-2.271544
 30
0.0
 11
17.72138
 21
-2.015784
 31
0.0
  0
LINE
  5
780
330
1F
100
AcDbEntity
  8
1
  6
CONTINUOUS
370
50
 62
4
100
AcDbLine
 10
13.495488
 20
2.035705
 30
0.0
 11
13.258924
 21
2.250145
 31
0.0
  0
LINE
  5
781
330
1F
100
AcDbEntity
  8
1
  6
CONTINUOUS
370
50
 62
4
100
AcDbLine
 10
41.312618
 20
2.118391
 30
0.0
 11
41.035969
 21
2.367769
 31
0.0
  0
LINE
  5
782
330
1F
100
AcDbEntity
  8
1
  6
CONTINUOUS
370
50
 62
4
100
AcDbLine
 10
77.857704
 20
2.124858
 30
0.0
 11
77.57983399999999
 21
2.374722
 31
0.0
  0
LINE
  5
783
330
1F
100
AcDbEntity
  8
1
  6
CONTINUOUS
370
50
 62
4
100
AcDbLine
 10
27.813198
 20
-2.429162
 30
0.0
 11
27.527624
 21
-2.172993
 31
0.0
  0
LINE
  5
784
330
1F
100
AcDbEntity
  8
1
  6
CONTINUOUS
370
50
 62
4
100
AcDbLine
 10
59.532799
 20
2.169443
 30
0.0
 11
59.248959
 21
2.423862
 31
0.0
  0
LINE
  5
785
330
1F
100
AcDbEntity
  8
1
  6
CONTINUOUS
370
50
 62
4
100
AcDbLine
 10
64.364143
 20
-2.428463
 30
0.0
 11
64.07914699999999
 21
-2.173051
 31
0.0
  0
LINE
  5
786
330
1F
100
AcDbEntity
  8
1
  6
CONTINUOUS
370
50
 62
4
100
AcDbLine
 10
49.88600899999999
 20
2.181308
 30
0.0
 11
49.600407
 21
2.437174
 31
0.0
  0
LINE
  5
787
330
1F
100
AcDbEntity
  8
1
  6
CONTINUOUS
370
50
 62
4
100
AcDbLine
 10
68.162094
 20
2.18129
 30
0.0
 11
67.876434
 21
2.437149
 31
0.0
  0
LINE
  5
788
330
1F
100
AcDbEntity
  8
1
  6
CONTINUOUS
370
50
 62
4
100
AcDbLine
 10
31.611328
 20
2.1802
 30
0.0
 11
31.325939
 21
2.43581
 31
0.0
  0
LINE
  5
789
330
1F
100
AcDbEntity
  8
1
  6
CONTINUOUS
370
50
 62
4
100
AcDbLine
 10
86.43800399999999
 20
2.18132
 30
0.0
 11
86.152519
 21
2.436988
 31
0.0
  0
LINE
  5
78A
330
1F
100
AcDbEntity
  8
1
  6
CONTINUOUS
370
50
 62
4
100
AcDbLine
 10
46.091629
 20
-2.431178
 30
0.0
 11
45.803207
 21
-2.172913
 31
0.0
  0
LINE
  5
78B
330
1F
100
AcDbEntity
  8
1
  6
CONTINUOUS
370
50
 62
4
100
AcDbLine
 10
91.302589
 20
-2.445964
 30
0.0
 11
91.06175999999999
 21
-2.230747
 31
0.0
  0
LINE
  5
78C
330
1F
100
AcDbEntity
  8
1
  6
CONTINUOUS
370
50
 62
4
100
AcDbLine
 10
82.758789
 20
-2.533166
 30
0.0
 11
82.35556799999999
 21
-2.173143
 31
0.0
  0
LINE
  5
78D
330
1F
100
AcDbEntity
  8
1
  6
CONTINUOUS
370
50
 62
4
100
AcDbLine
 10
22.967094
 20
2.181473
 30
0.0
 11
22.586363
 21
2.521271
 31
0.0
  0
LINE
  5
78E
330
1F
100
AcDbEntity
  8
1
  6
CONTINUOUS
370
50
 62
4
100
AcDbLine
 10
36.558979
 20
-2.520281
 30
0.0
 11
36.277458
 21
-2.269964
 31
0.0
  0
LINE
  5
78F
330
1F
100
AcDbEntity
  8
1
  6
CONTINUOUS
370
50
 62
4
100
AcDbLine
 10
54.834606
 20
-2.519898
 30
0.0
 11
54.553089
 21
-2.269621
 31
0.0
  0
LINE
  5
790
330
1F
100
AcDbEntity
  8
1
  6
CONTINUOUS
370
50
 62
4
100
AcDbLine
 10
73.111053
 20
-2.520366
 30
0.0
 11
72.829674
 21
-2.270277
 31
0.0
  0
LINE
  5
791
330
1F
100
AcDbEntity
  8
1
  6
CONTINUOUS
370
50
 62
4
100
AcDbLine
 10
18.284853
 20
-2.521851
 30
0.0
 11
18.00316
 21
-2.271544
 31
0.0
  0
LINE
  5
792
330
1F
100
AcDbEntity
  8
1
  6
CONTINUOUS
370
50
 62
4
100
AcDbLine
 10
13.258924
 20
2.250145
 30
0.0
 11
13.023036
 21
2.459621
 31
0.0
  0
LINE
  5
793
330
1F
100
AcDbEntity
  8
1
  6
CONTINUOUS
370
50
 62
4
100
AcDbLine
 10
41.035969
 20
2.367769
 30
0.0
 11
40.759022
 21
2.611918
 31
0.0
  0
LINE
  5
794
330
1F
100
AcDbEntity
  8
1
  6
CONTINUOUS
370
50
 62
4
100
AcDbLine
 10
77.57983399999999
 20
2.374722
 30
0.0
 11
77.302368
 21
2.61917
 31
0.0
  0
LINE
  5
795
330
1F
100
AcDbEntity
  8
1
  6
CONTINUOUS
370
50
 62
4
100
AcDbLine
 10
28.099016
 20
-2.679641
 30
0.0
 11
27.813198
 21
-2.429162
 31
0.0
  0
LINE
  5
796
330
1F
100
AcDbEntity
  8
1
  6
CONTINUOUS
370
50
 62
4
100
AcDbLine
 10
91.543427
 20
-2.656933
 30
0.0
 11
91.302589
 21
-2.445964
 31
0.0
  0
LINE
  5
797
330
1F
100
AcDbEntity
  8
1
  6
CONTINUOUS
370
50
 62
4
100
AcDbLine
 10
46.379852
 20
-2.683604
 30
0.0
 11
46.091629
 21
-2.431178
 31
0.0
  0
LINE
  5
798
330
1F
100
AcDbEntity
  8
1
  6
CONTINUOUS
370
50
 62
4
100
AcDbLine
 10
31.325939
 20
2.43581
 30
0.0
 11
31.040665
 21
2.685509
 31
0.0
  0
LINE
  5
799
330
1F
100
AcDbEntity
  8
1
  6
CONTINUOUS
370
50
 62
4
100
AcDbLine
 10
49.600407
 20
2.437174
 30
0.0
 11
49.314796
 21
2.68714
 31
0.0
  0
LINE
  5
79A
330
1F
100
AcDbEntity
  8
1
  6
CONTINUOUS
370
50
 62
4
100
AcDbLine
 10
59.248959
 20
2.423862
 30
0.0
 11
58.964752
 21
2.672579
 31
0.0
  0
LINE
  5
79B
330
1F
100
AcDbEntity
  8
1
  6
CONTINUOUS
370
50
 62
4
100
AcDbLine
 10
86.152519
 20
2.436988
 30
0.0
 11
85.86688199999999
 21
2.686951
 31
0.0
  0
LINE
  5
79C
330
1F
100
AcDbEntity
  8
1
  6
CONTINUOUS
370
50
 62
4
100
AcDbLine
 10
67.876434
 20
2.437149
 30
0.0
 11
67.59078199999999
 21
2.687074
 31
0.0
  0
LINE
  5
79D
330
1F
100
AcDbEntity
  8
1
  6
CONTINUOUS
370
50
 62
4
100
AcDbLine
 10
64.64954399999999
 20
-2.678094
 30
0.0
 11
64.364143
 21
-2.428463
 31
0.0
  0
LINE
  5
79E
330
1F
100
AcDbEntity
  8
1
  6
CONTINUOUS
370
50
 62
4
100
AcDbLine
 10
55.116096
 20
-2.764302
 30
0.0
 11
54.834606
 21
-2.519898
 31
0.0
  0
LINE
  5
79F
330
1F
100
AcDbEntity
  8
1
  6
CONTINUOUS
370
50
 62
4
100
AcDbLine
 10
13.023036
 20
2.459621
 30
0.0
 11
12.787308
 21
2.664261
 31
0.0
  0
LINE
  5
7A0
330
1F
100
AcDbEntity
  8
1
  6
CONTINUOUS
370
50
 62
4
100
AcDbLine
 10
36.840496
 20
-2.764621
 30
0.0
 11
36.558979
 21
-2.520281
 31
0.0
  0
LINE
  5
7A1
330
1F
100
AcDbEntity
  8
1
  6
CONTINUOUS
370
50
 62
4
100
AcDbLine
 10
73.392433
 20
-2.764581
 30
0.0
 11
73.111053
 21
-2.520366
 31
0.0
  0
LINE
  5
7A2
330
1F
100
AcDbEntity
  8
1
  6
CONTINUOUS
370
50
 62
4
100
AcDbLine
 10
18.566469
 20
-2.766194
 30
0.0
 11
18.284853
 21
-2.521851
 31
0.0
  0
LINE
  5
7A3
330
1F
100
AcDbEntity
  8
1
  6
CONTINUOUS
370
50
 62
4
100
AcDbLine
 10
22.586363
 20
2.521271
 30
0.0
 11
22.206053
 21
2.85013
 31
0.0
  0
LINE
  5
7A4
330
1F
100
AcDbEntity
  8
1
  6
CONTINUOUS
370
50
 62
4
100
AcDbLine
 10
83.162613
 20
-2.88105
 30
0.0
 11
82.758789
 21
-2.533166
 31
0.0
  0
LINE
  5
7A5
330
1F
100
AcDbEntity
  8
1
  6
CONTINUOUS
370
50
 62
4
100
AcDbLine
 10
77.302368
 20
2.61917
 30
0.0
 11
77.02490999999999
 21
2.85778
 31
0.0
  0
LINE
  5
7A6
330
1F
100
AcDbEntity
  8
1
  6
CONTINUOUS
370
50
 62
4
100
AcDbLine
 10
40.759022
 20
2.611918
 30
0.0
 11
40.481873
 21
2.85003
 31
0.0
  0
LINE
  5
7A7
330
1F
100
AcDbEntity
  8
1
  6
CONTINUOUS
370
50
 62
4
100
AcDbLine
 10
91.78416399999999
 20
-2.863263
 30
0.0
 11
91.543427
 21
-2.656933
 31
0.0
  0
LINE
  5
7A8
330
1F
100
AcDbEntity
  8
1
  6
CONTINUOUS
370
50
 62
4
100
AcDbLine
 10
94.11039
 20
3.400158
 30
0.0
 11
93.943703
 21
3.542785
 31
0.0
  0
LINE
  5
7A9
330
1F
100
AcDbEntity
  8
1
  6
CONTINUOUS
370
50
 62
4
100
AcDbLine
 10
12.787308
 20
2.664261
 30
0.0
 11
12.552132
 21
2.865127
 31
0.0
  0
LINE
  5
7AA
330
1F
100
AcDbEntity
  8
1
  6
CONTINUOUS
370
50
 62
4
100
AcDbLine
 10
58.964752
 20
2.672579
 30
0.0
 11
58.680946
 21
2.914946
 31
0.0
  0
LINE
  5
7AB
330
1F
100
AcDbEntity
  8
1
  6
CONTINUOUS
370
50
 62
4
100
AcDbLine
 10
46.667759
 20
-2.929307
 30
0.0
 11
46.379852
 21
-2.683604
 31
0.0
  0
LINE
  5
7AC
330
1F
100
AcDbEntity
  8
1
  6
CONTINUOUS
370
50
 62
4
100
AcDbLine
 10
64.934547
 20
-2.921306
 30
0.0
 11
64.64954399999999
 21
-2.678094
 31
0.0
  0
LINE
  5
7AD
330
1F
100
AcDbEntity
  8
1
  6
CONTINUOUS
370
50
 62
4
100
AcDbLine
 10
31.040665
 20
2.685509
 30
0.0
 11
30.755301
 21
2.92884
 31
0.0
  0
LINE
  5
7AE
330
1F
100
AcDbEntity
  8
1
  6
CONTINUOUS
370
50
 62
4
100
AcDbLine
 10
85.86688199999999
 20
2.686951
 30
0.0
 11
85.581276
 21
2.93047
 31
0.0
  0
LINE
  5
7AF
330
1F
100
AcDbEntity
  8
1
  6
CONTINUOUS
370
50
 62
4
100
AcDbLine
 10
28.385147
 20
-2.923584
 30
0.0
 11
28.099016
 21
-2.679641
 31
0.0
  0
LINE
  5
7B0
330
1F
100
AcDbEntity
  8
1
  6
CONTINUOUS
370
50
 62
4
100
AcDbLine
 10
49.314796
 20
2.68714
 30
0.0
 11
49.029144
 21
2.930602
 31
0.0
  0
LINE
  5
7B1
330
1F
100
AcDbEntity
  8
1
  6
CONTINUOUS
370
50
 62
4
100
AcDbLine
 10
67.59078199999999
 20
2.687074
 30
0.0
 11
67.305099
 21
2.930549
 31
0.0
  0
LINE
  5
7B2
330
1F
100
AcDbEntity
  8
1
  6
CONTINUOUS
370
50
 62
4
100
AcDbLine
 10
3.191322
 20
1.333826
 30
0.0
 11
2.845042
 21
1.627516
 31
0.0
  0
LINE
  5
7B3
330
1F
100
AcDbEntity
  8
1
  6
CONTINUOUS
370
50
 62
4
100
AcDbLine
 10
12.552132
 20
2.865127
 30
0.0
 11
12.319844
 21
3.061976
 31
0.0
  0
LINE
  5
7B4
330
1F
100
AcDbEntity
  8
1
  6
CONTINUOUS
370
50
 62
4
100
AcDbLine
 10
73.673912
 20
-3.002467
 30
0.0
 11
73.392433
 21
-2.764581
 31
0.0
  0
LINE
  5
7B5
330
1F
100
AcDbEntity
  8
1
  6
CONTINUOUS
370
50
 62
4
100
AcDbLine
 10
55.397606
 20
-3.002208
 30
0.0
 11
55.116096
 21
-2.764302
 31
0.0
  0
LINE
  5
7B6
330
1F
100
AcDbEntity
  8
1
  6
CONTINUOUS
370
50
 62
4
100
AcDbLine
 10
37.121849
 20
-3.002339
 30
0.0
 11
36.840496
 21
-2.764621
 31
0.0
  0
LINE
  5
7B7
330
1F
100
AcDbEntity
  8
1
  6
CONTINUOUS
370
50
 62
4
100
AcDbLine
 10
18.848125
 20
-3.004143
 30
0.0
 11
18.566469
 21
-2.766194
 31
0.0
  0
LINE
  5
7B8
330
1F
100
AcDbEntity
  8
1
  6
CONTINUOUS
370
50
 62
4
100
AcDbLine
 10
92.024895
 20
-3.064687
 30
0.0
 11
91.78416399999999
 21
-2.863263
 31
0.0
  0
LINE
  5
7B9
330
1F
100
AcDbEntity
  8
1
  6
CONTINUOUS
370
50
 62
4
100
AcDbLine
 10
40.481873
 20
2.85003
 30
0.0
 11
40.204746
 21
3.081689
 31
0.0
  0
LINE
  5
7BA
330
1F
100
AcDbEntity
  8
1
  6
CONTINUOUS
370
50
 62
4
100
AcDbLine
 10
77.02490999999999
 20
2.85778
 30
0.0
 11
76.747147
 21
3.089942
 31
0.0
  0
LINE
  5
7BB
330
1F
100
AcDbEntity
  8
1
  6
CONTINUOUS
370
50
 62
4
100
AcDbLine
 10
12.319844
 20
3.061976
 30
0.0
 11
12.088371
 21
3.255356
 31
0.0
  0
LINE
  5
7BC
330
1F
100
AcDbEntity
  8
1
  6
CONTINUOUS
370
50
 62
4
100
AcDbLine
 10
22.206053
 20
2.85013
 30
0.0
 11
21.825161
 21
3.166848
 31
0.0
  0
LINE
  5
7BD
330
1F
100
AcDbEntity
  8
1
  6
CONTINUOUS
370
50
 62
4
100
AcDbLine
 10
58.680946
 20
2.914946
 30
0.0
 11
58.39724
 21
3.150464
 31
0.0
  0
LINE
  5
7BE
330
1F
100
AcDbEntity
  8
1
  6
CONTINUOUS
370
50
 62
4
100
AcDbLine
 10
65.219398
 20
-3.157586
 30
0.0
 11
64.934547
 21
-2.921306
 31
0.0
  0
LINE
  5
7BF
330
1F
100
AcDbEntity
  8
1
  6
CONTINUOUS
370
50
 62
4
100
AcDbLine
 10
46.955727
 20
-3.167706
 30
0.0
 11
46.667759
 21
-2.929307
 31
0.0
  0
LINE
  5
7C0
330
1F
100
AcDbEntity
  8
1
  6
CONTINUOUS
370
50
 62
4
100
AcDbLine
 10
67.305099
 20
2.930549
 30
0.0
 11
67.01947
 21
3.16701
 31
0.0
  0
LINE
  5
7C1
330
1F
100
AcDbEntity
  8
1
  6
CONTINUOUS
370
50
 62
4
100
AcDbLine
 10
30.755301
 20
2.92884
 30
0.0
 11
30.469927
 21
3.165075
 31
0.0
  0
LINE
  5
7C2
330
1F
100
AcDbEntity
  8
1
  6
CONTINUOUS
370
50
 62
4
100
AcDbLine
 10
85.581276
 20
2.93047
 30
0.0
 11
85.29568499999999
 21
3.166858
 31
0.0
  0
LINE
  5
7C3
330
1F
100
AcDbEntity
  8
1
  6
CONTINUOUS
370
50
 62
4
100
AcDbLine
 10
28.671316
 20
-3.160434
 30
0.0
 11
28.385147
 21
-2.923584
 31
0.0
  0
LINE
  5
7C4
330
1F
100
AcDbEntity
  8
1
  6
CONTINUOUS
370
50
 62
4
100
AcDbLine
 10
49.029144
 20
2.930602
 30
0.0
 11
48.743511
 21
3.166969
 31
0.0
  0
LINE
  5
7C5
330
1F
100
AcDbEntity
  8
1
  6
CONTINUOUS
370
50
 62
4
100
AcDbLine
 10
83.56652799999999
 20
-3.215131
 30
0.0
 11
83.162613
 21
-2.88105
 31
0.0
  0
LINE
  5
7C6
330
1F
100
AcDbEntity
  8
1
  6
CONTINUOUS
370
50
 62
4
100
AcDbLine
 10
73.955376
 20
-3.23333
 30
0.0
 11
73.673912
 21
-3.002467
 31
0.0
  0
LINE
  5
7C7
330
1F
100
AcDbEntity
  8
1
  6
CONTINUOUS
370
50
 62
4
100
AcDbLine
 10
19.129854
 20
-3.235184
 30
0.0
 11
18.848125
 21
-3.004143
 31
0.0
  0
LINE
  5
7C8
330
1F
100
AcDbEntity
  8
1
  6
CONTINUOUS
370
50
 62
4
100
AcDbLine
 10
37.40316
 20
-3.233014
 30
0.0
 11
37.121849
 21
-3.002339
 31
0.0
  0
LINE
  5
7C9
330
1F
100
AcDbEntity
  8
1
  6
CONTINUOUS
370
50
 62
4
100
AcDbLine
 10
55.678997
 20
-3.232944
 30
0.0
 11
55.397606
 21
-3.002208
 31
0.0
  0
LINE
  5
7CA
330
1F
100
AcDbEntity
  8
1
  6
CONTINUOUS
370
50
 62
4
100
AcDbLine
 10
92.265686
 20
-3.260945
 30
0.0
 11
92.024895
 21
-3.064687
 31
0.0
  0
LINE
  5
7CB
330
1F
100
AcDbEntity
  8
1
  6
CONTINUOUS
370
50
 62
4
100
AcDbLine
 10
40.204746
 20
3.081689
 30
0.0
 11
39.92791
 21
3.306399
 31
0.0
  0
LINE
  5
7CC
330
1F
100
AcDbEntity
  8
1
  6
CONTINUOUS
370
50
 62
4
100
AcDbLine
 10
76.747147
 20
3.089942
 30
0.0
 11
76.46923799999999
 21
3.314951
 31
0.0
  0
LINE
  5
7CD
330
1F
100
AcDbEntity
  8
1
  6
CONTINUOUS
370
50
 62
4
100
AcDbLine
 10
12.088371
 20
3.255356
 30
0.0
 11
11.856465
 21
3.44304
 31
0.0
  0
LINE
  5
7CE
330
1F
100
AcDbEntity
  8
1
  6
CONTINUOUS
370
50
 62
4
100
AcDbLine
 10
58.39724
 20
3.150464
 30
0.0
 11
58.113235
 21
3.378618
 31
0.0
  0
LINE
  5
7CF
330
1F
100
AcDbEntity
  8
1
  6
CONTINUOUS
370
50
 62
4
100
AcDbLine
 10
65.50457
 20
-3.386428
 30
0.0
 11
65.219398
 21
-3.157586
 31
0.0
  0
LINE
  5
7D0
330
1F
100
AcDbEntity
  8
1
  6
CONTINUOUS
370
50
 62
4
100
AcDbLine
 10
28.957253
 20
-3.389729
 30
0.0
 11
28.671316
 21
-3.160434
 31
0.0
  0
LINE
  5
7D1
330
1F
100
AcDbEntity
  8
1
  6
CONTINUOUS
370
50
 62
4
100
AcDbLine
 10
67.01947
 20
3.16701
 30
0.0
 11
66.733932
 21
3.395748
 31
0.0
  0
LINE
  5
7D2
330
1F
100
AcDbEntity
  8
1
  6
CONTINUOUS
370
50
 62
4
100
AcDbLine
 10
30.469927
 20
3.165075
 30
0.0
 11
30.184603
 21
3.393627
 31
0.0
  0
LINE
  5
7D3
330
1F
100
AcDbEntity
  8
1
  6
CONTINUOUS
370
50
 62
4
100
AcDbLine
 10
48.743511
 20
3.166969
 30
0.0
 11
48.457874
 21
3.395762
 31
0.0
  0
LINE
  5
7D4
330
1F
100
AcDbEntity
  8
1
  6
CONTINUOUS
370
50
 62
4
100
AcDbLine
 10
85.29568499999999
 20
3.166858
 30
0.0
 11
85.01017
 21
3.395512
 31
0.0
  0
LINE
  5
7D5
330
1F
100
AcDbEntity
  8
1
  6
CONTINUOUS
370
50
 62
4
100
AcDbLine
 10
47.244022
 20
-3.398265
 30
0.0
 11
46.955727
 21
-3.167706
 31
0.0
  0
LINE
  5
7D6
330
1F
100
AcDbEntity
  8
1
  6
CONTINUOUS
370
50
 62
4
100
AcDbLine
 10
94.952766
 20
1.529955
 30
0.0
 11
94.819763
 21
1.635913
 31
0.0
  0
LINE
  5
7D7
330
1F
100
AcDbEntity
  8
1
  6
CONTINUOUS
370
50
 62
4
100
AcDbLine
 10
21.825161
 20
3.166848
 30
0.0
 11
21.444216
 21
3.469963
 31
0.0
  0
LINE
  5
7D8
330
1F
100
AcDbEntity
  8
1
  6
CONTINUOUS
370
50
 62
4
100
AcDbLine
 10
37.684555
 20
-3.456235
 30
0.0
 11
37.40316
 21
-3.233014
 31
0.0
  0
LINE
  5
7D9
330
1F
100
AcDbEntity
  8
1
  6
CONTINUOUS
370
50
 62
4
100
AcDbLine
 10
55.9603
 20
-3.456053
 30
0.0
 11
55.678997
 21
-3.232944
 31
0.0
  0
LINE
  5
7DA
330
1F
100
AcDbEntity
  8
1
  6
CONTINUOUS
370
50
 62
4
100
AcDbLine
 10
74.236847
 20
-3.456564
 30
0.0
 11
73.955376
 21
-3.23333
 31
0.0
  0
LINE
  5
7DB
330
1F
100
AcDbEntity
  8
1
  6
CONTINUOUS
370
50
 62
4
100
AcDbLine
 10
19.411604
 20
-3.458607
 30
0.0
 11
19.129854
 21
-3.235184
 31
0.0
  0
LINE
  5
7DC
330
1F
100
AcDbEntity
  8
1
  6
CONTINUOUS
370
50
 62
4
100
AcDbLine
 10
92.5065
 20
-3.451661
 30
0.0
 11
92.265686
 21
-3.260945
 31
0.0
  0
LINE
  5
7DD
330
1F
100
AcDbEntity
  8
1
  6
CONTINUOUS
370
50
 62
4
100
AcDbLine
 10
83.96979499999999
 20
-3.533686
 30
0.0
 11
83.56652799999999
 21
-3.215131
 31
0.0
  0
LINE
  5
7DE
330
1F
100
AcDbEntity
  8
1
  6
CONTINUOUS
370
50
 62
4
100
AcDbLine
 10
39.92791
 20
3.306399
 30
0.0
 11
39.651344
 21
3.523516
 31
0.0
  0
LINE
  5
7DF
330
1F
100
AcDbEntity
  8
1
  6
CONTINUOUS
370
50
 62
4
100
AcDbLine
 10
76.46923799999999
 20
3.314951
 30
0.0
 11
76.191383
 21
3.532431
 31
0.0
  0
LINE
  5
7E0
330
1F
100
AcDbEntity
  8
1
  6
CONTINUOUS
370
50
 62
4
100
AcDbLine
 10
3.550045
 20
1.053805
 30
0.0
 11
3.191322
 21
1.333826
 31
0.0
  0
LINE
  5
7E1
330
1F
100
AcDbEntity
  8
1
  6
CONTINUOUS
370
50
 62
4
100
AcDbLine
 10
58.113235
 20
3.378618
 30
0.0
 11
57.828999
 21
3.598615
 31
0.0
  0
LINE
  5
7E2
330
1F
100
AcDbEntity
  8
1
  6
CONTINUOUS
370
50
 62
4
100
AcDbLine
 10
29.242857
 20
-3.610731
 30
0.0
 11
28.957253
 21
-3.389729
 31
0.0
  0
LINE
  5
7E3
330
1F
100
AcDbEntity
  8
1
  6
CONTINUOUS
370
50
 62
4
100
AcDbLine
 10
65.789993
 20
-3.607039
 30
0.0
 11
65.50457
 21
-3.386428
 31
0.0
  0
LINE
  5
7E4
330
1F
100
AcDbEntity
  8
1
  6
CONTINUOUS
370
50
 62
4
100
AcDbLine
 10
30.184603
 20
3.393627
 30
0.0
 11
29.899239
 21
3.614083
 31
0.0
  0
LINE
  5
7E5
330
1F
100
AcDbEntity
  8
1
  6
CONTINUOUS
370
50
 62
4
100
AcDbLine
 10
48.457874
 20
3.395762
 30
0.0
 11
48.172321
 21
3.616339
 31
0.0
  0
LINE
  5
7E6
330
1F
100
AcDbEntity
  8
1
  6
CONTINUOUS
370
50
 62
4
100
AcDbLine
 10
66.733932
 20
3.395748
 30
0.0
 11
66.44839499999999
 21
3.616264
 31
0.0
  0
LINE
  5
7E7
330
1F
100
AcDbEntity
  8
1
  6
CONTINUOUS
370
50
 62
4
100
AcDbLine
 10
85.01017
 20
3.395512
 30
0.0
 11
84.724625
 21
3.616021
 31
0.0
  0
LINE
  5
7E8
330
1F
100
AcDbEntity
  8
1
  6
CONTINUOUS
370
50
 62
4
100
AcDbLine
 10
47.531956
 20
-3.620458
 30
0.0
 11
47.244022
 21
-3.398265
 31
0.0
  0
LINE
  5
7E9
330
1F
100
AcDbEntity
  8
1
  6
CONTINUOUS
370
50
 62
4
100
AcDbLine
 10
11.856465
 20
3.44304
 30
0.0
 11
11.622154
 21
3.623612
 31
0.0
  0
LINE
  5
7EA
330
1F
100
AcDbEntity
  8
1
  6
CONTINUOUS
370
50
 62
4
100
AcDbLine
 10
93.943703
 20
3.542785
 30
0.0
 11
93.778069
 21
3.670353
 31
0.0
  0
LINE
  5
7EB
330
1F
100
AcDbEntity
  8
1
  6
CONTINUOUS
370
50
 62
4
100
AcDbLine
 10
11.88461
 20
-4.28675
 30
0.0
 11
11.492763
 21
-3.985159
 31
0.0
  0
LINE
  5
7EC
330
1F
100
AcDbEntity
  8
1
  6
CONTINUOUS
370
50
 62
4
100
AcDbLine
 10
92.747337
 20
-3.636438
 30
0.0
 11
92.5065
 21
-3.451661
 31
0.0
  0
LINE
  5
7ED
330
1F
100
AcDbEntity
  8
1
  6
CONTINUOUS
370
50
 62
4
100
AcDbLine
 10
37.966099
 20
-3.671498
 30
0.0
 11
37.684555
 21
-3.456235
 31
0.0
  0
LINE
  5
7EE
330
1F
100
AcDbEntity
  8
1
  6
CONTINUOUS
370
50
 62
4
100
AcDbLine
 10
56.241646
 20
-3.671141
 30
0.0
 11
55.9603
 21
-3.456053
 31
0.0
  0
LINE
  5
7EF
330
1F
100
AcDbEntity
  8
1
  6
CONTINUOUS
370
50
 62
4
100
AcDbLine
 10
74.518143
 20
-3.671575
 30
0.0
 11
74.236847
 21
-3.456564
 31
0.0
  0
LINE
  5
7F0
330
1F
100
AcDbEntity
  8
1
  6
CONTINUOUS
370
50
 62
4
100
AcDbLine
 10
19.693232
 20
-3.673786
 30
0.0
 11
19.411604
 21
-3.458607
 31
0.0
  0
LINE
  5
7F1
330
1F
100
AcDbEntity
  8
1
  6
CONTINUOUS
370
50
 62
4
100
AcDbLine
 10
21.444216
 20
3.469963
 30
0.0
 11
21.063929
 21
3.758169
 31
0.0
  0
LINE
  5
7F2
330
1F
100
AcDbEntity
  8
1
  6
CONTINUOUS
370
50
 62
4
100
AcDbLine
 10
39.651344
 20
3.523516
 30
0.0
 11
39.374615
 21
3.732661
 31
0.0
  0
LINE
  5
7F3
330
1F
100
AcDbEntity
  8
1
  6
CONTINUOUS
370
50
 62
4
100
AcDbLine
 10
76.191383
 20
3.532431
 30
0.0
 11
75.913872
 21
3.741855
 31
0.0
  0
LINE
  5
7F4
330
1F
100
AcDbEntity
  8
1
  6
CONTINUOUS
370
50
 62
4
100
AcDbLine
 10
84.37353499999999
 20
-3.835361
 30
0.0
 11
83.96979499999999
 21
-3.533686
 31
0.0
  0
LINE
  5
7F5
330
1F
100
AcDbEntity
  8
1
  6
CONTINUOUS
370
50
 62
4
100
AcDbLine
 10
57.828999
 20
3.598615
 30
0.0
 11
57.544777
 21
3.810038
 31
0.0
  0
LINE
  5
7F6
330
1F
100
AcDbEntity
  8
1
  6
CONTINUOUS
370
50
 62
4
100
AcDbLine
 10
29.528555
 20
-3.822994
 30
0.0
 11
29.242857
 21
-3.610731
 31
0.0
  0
LINE
  5
7F7
330
1F
100
AcDbEntity
  8
1
  6
CONTINUOUS
370
50
 62
4
100
AcDbLine
 10
66.075417
 20
-3.818981
 30
0.0
 11
65.789993
 21
-3.607039
 31
0.0
  0
LINE
  5
7F8
330
1F
100
AcDbEntity
  8
1
  6
CONTINUOUS
370
50
 62
4
100
AcDbLine
 10
29.899239
 20
3.614083
 30
0.0
 11
29.613874
 21
3.825899
 31
0.0
  0
LINE
  5
7F9
330
1F
100
AcDbEntity
  8
1
  6
CONTINUOUS
370
50
 62
4
100
AcDbLine
 10
84.724625
 20
3.616021
 30
0.0
 11
84.438988
 21
3.827943
 31
0.0
  0
LINE
  5
7FA
330
1F
100
AcDbEntity
  8
1
  6
CONTINUOUS
370
50
 62
4
100
AcDbLine
 10
48.172321
 20
3.616339
 30
0.0
 11
47.886902
 21
3.828058
 31
0.0
  0
LINE
  5
7FB
330
1F
100
AcDbEntity
  8
1
  6
CONTINUOUS
370
50
 62
4
100
AcDbLine
 10
47.819679
 20
-3.833861
 30
0.0
 11
47.531956
 21
-3.620458
 31
0.0
  0
LINE
  5
7FC
330
1F
100
AcDbEntity
  8
1
  6
CONTINUOUS
370
50
 62
4
100
AcDbLine
 10
66.44839499999999
 20
3.616264
 30
0.0
 11
66.16274299999999
 21
3.828129
 31
0.0
  0
LINE
  5
7FD
330
1F
100
AcDbEntity
  8
1
  6
CONTINUOUS
370
50
 62
4
100
AcDbLine
 10
92.98822799999999
 20
-3.814982
 30
0.0
 11
92.747337
 21
-3.636438
 31
0.0
  0
LINE
  5
7FE
330
1F
100
AcDbEntity
  8
1
  6
CONTINUOUS
370
50
 62
4
100
AcDbLine
 10
56.523129
 20
-3.877785
 30
0.0
 11
56.241646
 21
-3.671141
 31
0.0
  0
LINE
  5
7FF
330
1F
100
AcDbEntity
  8
1
  6
CONTINUOUS
370
50
 62
4
100
AcDbLine
 10
74.79939999999999
 20
-3.87799
 30
0.0
 11
74.518143
 21
-3.671575
 31
0.0
  0
LINE
  5
800
330
1F
100
AcDbEntity
  8
1
  6
CONTINUOUS
370
50
 62
4
100
AcDbLine
 10
38.247581
 20
-3.878057
 30
0.0
 11
37.966099
 21
-3.671498
 31
0.0
  0
LINE
  5
801
330
1F
100
AcDbEntity
  8
1
  6
CONTINUOUS
370
50
 62
4
100
AcDbLine
 10
19.974808
 20
-3.880319
 30
0.0
 11
19.693232
 21
-3.673786
 31
0.0
  0
LINE
  5
802
330
1F
100
AcDbEntity
  8
1
  6
CONTINUOUS
370
50
 62
4
100
AcDbLine
 10
3.924571
 20
0.779341
 30
0.0
 11
3.550045
 21
1.053805
 31
0.0
  0
LINE
  5
803
330
1F
100
AcDbEntity
  8
1
  6
CONTINUOUS
370
50
 62
4
100
AcDbLine
 10
75.913872
 20
3.741855
 30
0.0
 11
75.636551
 21
3.942682
 31
0.0
  0
LINE
  5
804
330
1F
100
AcDbEntity
  8
1
  6
CONTINUOUS
370
50
 62
4
100
AcDbLine
 10
39.374615
 20
3.732661
 30
0.0
 11
39.097446
 21
3.933375
 31
0.0
  0
LINE
  5
805
330
1F
100
AcDbEntity
  8
1
  6
CONTINUOUS
370
50
 62
4
100
AcDbLine
 10
11.622154
 20
3.623612
 30
0.0
 11
11.38175
 21
3.797226
 31
0.0
  0
LINE
  5
806
330
1F
100
AcDbEntity
  8
1
  6
CONTINUOUS
370
50
 62
4
100
AcDbLine
 10
21.063929
 20
3.758169
 30
0.0
 11
20.683332
 21
4.030425
 31
0.0
  0
LINE
  5
807
330
1F
100
AcDbEntity
  8
1
  6
CONTINUOUS
370
50
 62
4
100
AcDbLine
 10
93.229103
 20
-3.986995
 30
0.0
 11
92.98822799999999
 21
-3.814982
 31
0.0
  0
LINE
  5
808
330
1F
100
AcDbEntity
  8
1
  6
CONTINUOUS
370
50
 62
4
100
AcDbLine
 10
57.544777
 20
3.810038
 30
0.0
 11
57.26085999999999
 21
4.012416
 31
0.0
  0
LINE
  5
809
330
1F
100
AcDbEntity
  8
1
  6
CONTINUOUS
370
50
 62
4
100
AcDbLine
 10
66.360542
 20
-4.021793
 30
0.0
 11
66.075417
 21
-3.818981
 31
0.0
  0
LINE
  5
80A
330
1F
100
AcDbEntity
  8
1
  6
CONTINUOUS
370
50
 62
4
100
AcDbLine
 10
29.613874
 20
3.825899
 30
0.0
 11
29.328684
 21
4.028356
 31
0.0
  0
LINE
  5
80B
330
1F
100
AcDbEntity
  8
1
  6
CONTINUOUS
370
50
 62
4
100
AcDbLine
 10
84.438988
 20
3.827943
 30
0.0
 11
84.15344999999999
 21
4.030584
 31
0.0
  0
LINE
  5
80C
330
1F
100
AcDbEntity
  8
1
  6
CONTINUOUS
370
50
 62
4
100
AcDbLine
 10
29.814724
 20
-4.026073
 30
0.0
 11
29.528555
 21
-3.822994
 31
0.0
  0
LINE
  5
80D
330
1F
100
AcDbEntity
  8
1
  6
CONTINUOUS
370
50
 62
4
100
AcDbLine
 10
66.16274299999999
 20
3.828129
 30
0.0
 11
65.87718199999999
 21
4.030737
 31
0.0
  0
LINE
  5
80E
330
1F
100
AcDbEntity
  8
1
  6
CONTINUOUS
370
50
 62
4
100
AcDbLine
 10
47.886902
 20
3.828058
 30
0.0
 11
47.601494
 21
4.030538
 31
0.0
  0
LINE
  5
80F
330
1F
100
AcDbEntity
  8
1
  6
CONTINUOUS
370
50
 62
4
100
AcDbLine
 10
48.107254
 20
-4.037749
 30
0.0
 11
47.819679
 21
-3.833861
 31
0.0
  0
LINE
  5
810
330
1F
100
AcDbEntity
  8
1
  6
CONTINUOUS
370
50
 62
4
100
AcDbLine
 10
75.080765
 20
-4.075438
 30
0.0
 11
74.79939999999999
 21
-3.87799
 31
0.0
  0
LINE
  5
811
330
1F
100
AcDbEntity
  8
1
  6
CONTINUOUS
370
50
 62
4
100
AcDbLine
 10
56.80468
 20
-4.075345
 30
0.0
 11
56.523129
 21
-3.877785
 31
0.0
  0
LINE
  5
812
330
1F
100
AcDbEntity
  8
1
  6
CONTINUOUS
370
50
 62
4
100
AcDbLine
 10
38.529018
 20
-4.075495
 30
0.0
 11
38.247581
 21
-3.878057
 31
0.0
  0
LINE
  5
813
330
1F
100
AcDbEntity
  8
1
  6
CONTINUOUS
370
50
 62
4
100
AcDbLine
 10
20.256454
 20
-4.077839
 30
0.0
 11
19.974808
 21
-3.880319
 31
0.0
  0
LINE
  5
814
330
1F
100
AcDbEntity
  8
1
  6
CONTINUOUS
370
50
 62
4
100
AcDbLine
 10
84.77761799999999
 20
-4.118532
 30
0.0
 11
84.37353499999999
 21
-3.835361
 31
0.0
  0
LINE
  5
815
330
1F
100
AcDbEntity
  8
1
  6
CONTINUOUS
370
50
 62
4
100
AcDbLine
 10
4.308532
 20
0.511483
 30
0.0
 11
3.924571
 21
0.779341
 31
0.0
  0
LINE
  5
816
330
1F
100
AcDbEntity
  8
1
  6
CONTINUOUS
370
50
 62
4
100
AcDbLine
 10
39.097446
 20
3.933375
 30
0.0
 11
38.82037
 21
4.125196
 31
0.0
  0
LINE
  5
817
330
1F
100
AcDbEntity
  8
1
  6
CONTINUOUS
370
50
 62
4
100
AcDbLine
 10
75.636551
 20
3.942682
 30
0.0
 11
75.358986
 21
4.134567
 31
0.0
  0
LINE
  5
818
330
1F
100
AcDbEntity
  8
1
  6
CONTINUOUS
370
50
 62
4
100
AcDbLine
 10
93.778069
 20
3.670353
 30
0.0
 11
93.613373
 21
3.782744
 31
0.0
  0
LINE
  5
819
330
1F
100
AcDbEntity
  8
1
  6
CONTINUOUS
370
50
 62
4
100
AcDbLine
 10
57.26085999999999
 20
4.012416
 30
0.0
 11
56.977219
 21
4.205137
 31
0.0
  0
LINE
  5
81A
330
1F
100
AcDbEntity
  8
1
  6
CONTINUOUS
370
50
 62
4
100
AcDbLine
 10
66.645393
 20
-4.214845
 30
0.0
 11
66.360542
 21
-4.021793
 31
0.0
  0
LINE
  5
81B
330
1F
100
AcDbEntity
  8
1
  6
CONTINUOUS
370
50
 62
4
100
AcDbLine
 10
11.38175
 20
3.797226
 30
0.0
 11
11.1384
 21
3.961877
 31
0.0
  0
LINE
  5
81C
330
1F
100
AcDbEntity
  8
1
  6
CONTINUOUS
370
50
 62
4
100
AcDbLine
 10
29.328684
 20
4.028356
 30
0.0
 11
29.043537
 21
4.221081
 31
0.0
  0
LINE
  5
81D
330
1F
100
AcDbEntity
  8
1
  6
CONTINUOUS
370
50
 62
4
100
AcDbLine
 10
30.10091
 20
-4.219463
 30
0.0
 11
29.814724
 21
-4.026073
 31
0.0
  0
LINE
  5
81E
330
1F
100
AcDbEntity
  8
1
  6
CONTINUOUS
370
50
 62
4
100
AcDbLine
 10
65.87718199999999
 20
4.030737
 30
0.0
 11
65.591606
 21
4.223676999999999
 31
0.0
  0
LINE
  5
81F
330
1F
100
AcDbEntity
  8
1
  6
CONTINUOUS
370
50
 62
4
100
AcDbLine
 10
84.15344999999999
 20
4.030584
 30
0.0
 11
83.867935
 21
4.223460999999999
 31
0.0
  0
LINE
  5
820
330
1F
100
AcDbEntity
  8
1
  6
CONTINUOUS
370
50
 62
4
100
AcDbLine
 10
47.601494
 20
4.030538
 30
0.0
 11
47.315964
 21
4.223405
 31
0.0
  0
LINE
  5
821
330
1F
100
AcDbEntity
  8
1
  6
CONTINUOUS
370
50
 62
4
100
AcDbLine
 10
48.395138
 20
-4.231754
 30
0.0
 11
48.107254
 21
-4.037749
 31
0.0
  0
LINE
  5
822
330
1F
100
AcDbEntity
  8
1
  6
CONTINUOUS
370
50
 62
4
100
AcDbLine
 10
4.695183
 20
0.251587
 30
0.0
 11
4.308532
 21
0.511483
 31
0.0
  0
LINE
  5
823
330
1F
100
AcDbEntity
  8
1
  6
CONTINUOUS
370
50
 62
4
100
AcDbLine
 10
20.683332
 20
4.030425
 30
0.0
 11
20.302307
 21
4.285358
 31
0.0
  0
LINE
  5
824
330
1F
100
AcDbEntity
  8
1
  6
CONTINUOUS
370
50
 62
4
100
AcDbLine
 10
75.362274
 20
-4.263458
 30
0.0
 11
75.080765
 21
-4.075438
 31
0.0
  0
LINE
  5
825
330
1F
100
AcDbEntity
  8
1
  6
CONTINUOUS
370
50
 62
4
100
AcDbLine
 10
38.810509
 20
-4.263462
 30
0.0
 11
38.529018
 21
-4.075495
 31
0.0
  0
LINE
  5
826
330
1F
100
AcDbEntity
  8
1
  6
CONTINUOUS
370
50
 62
4
100
AcDbLine
 10
57.086216
 20
-4.263320999999999
 30
0.0
 11
56.80468
 21
-4.075345
 31
0.0
  0
LINE
  5
827
330
1F
100
AcDbEntity
  8
1
  6
CONTINUOUS
370
50
 62
4
100
AcDbLine
 10
20.538216
 20
-4.265908
 30
0.0
 11
20.256454
 21
-4.077839
 31
0.0
  0
LINE
  5
828
330
1F
100
AcDbEntity
  8
1
  6
CONTINUOUS
370
50
 62
4
100
AcDbLine
 10
38.82037
 20
4.125196
 30
0.0
 11
38.54372
 21
4.307632
 31
0.0
  0
LINE
  5
829
330
1F
100
AcDbEntity
  8
1
  6
CONTINUOUS
370
50
 62
4
100
AcDbLine
 10
75.358986
 20
4.134567
 30
0.0
 11
75.081024
 21
4.317024
 31
0.0
  0
LINE
  5
82A
330
1F
100
AcDbEntity
  8
1
  6
CONTINUOUS
370
50
 62
4
100
AcDbLine
 10
5.079445
 20
0.0
 30
0.0
 11
4.695183
 21
0.251587
 31
0.0
  0
LINE
  5
82B
330
1F
100
AcDbEntity
  8
1
  6
CONTINUOUS
370
50
 62
4
100
AcDbLine
 10
85.181343
 20
-4.38199
 30
0.0
 11
84.77761799999999
 21
-4.118532
 31
0.0
  0
LINE
  5
82C
330
1F
100
AcDbEntity
  8
1
  6
CONTINUOUS
370
50
 62
4
100
AcDbLine
 10
56.977219
 20
4.205137
 30
0.0
 11
56.69339
 21
4.387849
 31
0.0
  0
LINE
  5
82D
330
1F
100
AcDbEntity
  8
1
  6
CONTINUOUS
370
50
 62
4
100
AcDbLine
 10
66.930435
 20
-4.397781
 30
0.0
 11
66.645393
 21
-4.214845
 31
0.0
  0
LINE
  5
82E
330
1F
100
AcDbEntity
  8
1
  6
CONTINUOUS
370
50
 62
4
100
AcDbLine
 10
30.386799
 20
-4.402737999999999
 30
0.0
 11
30.10091
 21
-4.219463
 31
0.0
  0
LINE
  5
82F
330
1F
100
AcDbEntity
  8
1
  6
CONTINUOUS
370
50
 62
4
100
AcDbLine
 10
5.639927
 20
-0.359166
 30
0.0
 11
5.079445
 21
0.0
 31
0.0
  0
LINE
  5
830
330
1F
100
AcDbEntity
  8
1
  6
CONTINUOUS
370
50
 62
4
100
AcDbLine
 10
29.043537
 20
4.221081
 30
0.0
 11
28.758291
 21
4.403726
 31
0.0
  0
LINE
  5
831
330
1F
100
AcDbEntity
  8
1
  6
CONTINUOUS
370
50
 62
4
100
AcDbLine
 10
47.315964
 20
4.223405
 30
0.0
 11
47.030369
 21
4.406191
 31
0.0
  0
LINE
  5
832
330
1F
100
AcDbEntity
  8
1
  6
CONTINUOUS
370
50
 62
4
100
AcDbLine
 10
65.591606
 20
4.223676999999999
 30
0.0
 11
65.30602999999999
 21
4.406416
 31
0.0
  0
LINE
  5
833
330
1F
100
AcDbEntity
  8
1
  6
CONTINUOUS
370
50
 62
4
100
AcDbLine
 10
83.867935
 20
4.223460999999999
 30
0.0
 11
83.582298
 21
4.406213
 31
0.0
  0
LINE
  5
834
330
1F
100
AcDbEntity
  8
1
  6
CONTINUOUS
370
50
 62
4
100
AcDbLine
 10
48.683231
 20
-4.415368
 30
0.0
 11
48.395138
 21
-4.231754
 31
0.0
  0
LINE
  5
835
330
1F
100
AcDbEntity
  8
1
  6
CONTINUOUS
370
50
 62
4
100
AcDbLine
 10
39.092022
 20
-4.4415
 30
0.0
 11
38.810509
 21
-4.263462
 31
0.0
  0
LINE
  5
836
330
1F
100
AcDbEntity
  8
1
  6
CONTINUOUS
370
50
 62
4
100
AcDbLine
 10
57.367771
 20
-4.441352
 30
0.0
 11
57.086216
 21
-4.263320999999999
 31
0.0
  0
LINE
  5
837
330
1F
100
AcDbEntity
  8
1
  6
CONTINUOUS
370
50
 62
4
100
AcDbLine
 10
75.64372999999999
 20
-4.441407
 30
0.0
 11
75.362274
 21
-4.263458
 31
0.0
  0
LINE
  5
838
330
1F
100
AcDbEntity
  8
1
  6
CONTINUOUS
370
50
 62
4
100
AcDbLine
 10
20.819983
 20
-4.443923
 30
0.0
 11
20.538216
 21
-4.265908
 31
0.0
  0
LINE
  5
839
330
1F
100
AcDbEntity
  8
1
  6
CONTINUOUS
370
50
 62
4
100
AcDbLine
 10
6.203503
 20
-0.714602
 30
0.0
 11
5.639927
 21
-0.359166
 31
0.0
  0
LINE
  5
83A
330
1F
100
AcDbEntity
  8
1
  6
CONTINUOUS
370
50
 62
4
100
AcDbLine
 10
6.765789
 20
-1.066966
 30
0.0
 11
6.203503
 21
-0.714602
 31
0.0
  0
LINE
  5
83B
330
1F
100
AcDbEntity
  8
1
  6
CONTINUOUS
370
50
 62
4
100
AcDbLine
 10
7.327451
 20
-1.418017
 30
0.0
 11
6.765789
 21
-1.066966
 31
0.0
  0
LINE
  5
83C
330
1F
100
AcDbEntity
  8
1
  6
CONTINUOUS
370
50
 62
4
100
AcDbLine
 10
11.1384
 20
2.687006
 30
0.0
 11
8.017337
 21
4.637671
 31
0.0
  0
LINE
  5
83D
330
1F
100
AcDbEntity
  8
1
  6
CONTINUOUS
370
50
 62
4
100
AcDbLine
 10
38.54372
 20
4.307632
 30
0.0
 11
38.267124
 21
4.480331
 31
0.0
  0
LINE
  5
83E
330
1F
100
AcDbEntity
  8
1
  6
CONTINUOUS
370
50
 62
4
100
AcDbLine
 10
7.885562999999999
 20
-1.766359
 30
0.0
 11
7.327451
 21
-1.418017
 31
0.0
  0
LINE
  5
83F
330
1F
100
AcDbEntity
  8
1
  6
CONTINUOUS
370
50
 62
4
100
AcDbLine
 10
75.081024
 20
4.317024
 30
0.0
 11
74.80330699999999
 21
4.489644999999999
 31
0.0
  0
LINE
  5
840
330
1F
100
AcDbEntity
  8
1
  6
CONTINUOUS
370
50
 62
4
100
AcDbLine
 10
20.302307
 20
4.285358
 30
0.0
 11
19.921474
 21
4.522021
 31
0.0
  0
LINE
  5
841
330
1F
100
AcDbEntity
  8
1
  6
CONTINUOUS
370
50
 62
4
100
AcDbLine
 10
8.439226999999999
 20
-2.109967
 30
0.0
 11
7.885562999999999
 21
-1.766359
 31
0.0
  0
LINE
  5
842
330
1F
100
AcDbEntity
  8
1
  6
CONTINUOUS
370
50
 62
4
100
AcDbLine
 10
13.934226
 20
0.87842
 30
0.0
 11
13.236965
 21
1.30994
 31
0.0
  0
LINE
  5
843
330
1F
100
AcDbEntity
  8
1
  6
CONTINUOUS
370
50
 62
4
100
AcDbLine
 10
33.681942
 20
-0.019676
 30
0.0
 11
33.055641
 21
0.366563
 31
0.0
  0
LINE
  5
844
330
1F
100
AcDbEntity
  8
1
  6
CONTINUOUS
370
50
 62
4
100
AcDbLine
 10
51.957935
 20
-0.019472
 30
0.0
 11
51.331642
 21
0.366606
 31
0.0
  0
LINE
  5
845
330
1F
100
AcDbEntity
  8
1
  6
CONTINUOUS
370
50
 62
4
100
AcDbLine
 10
16.032949
 20
-0.405215
 30
0.0
 11
15.333413
 21
0.025974
 31
0.0
  0
LINE
  5
846
330
1F
100
AcDbEntity
  8
1
  6
CONTINUOUS
370
50
 62
4
100
AcDbLine
 10
70.861092
 20
-0.40576
 30
0.0
 11
70.234741
 21
-0.019708
 31
0.0
  0
LINE
  5
847
330
1F
100
AcDbEntity
  8
1
  6
CONTINUOUS
370
50
 62
4
100
AcDbLine
 10
88.510132
 20
-0.019714
 30
0.0
 11
87.883804
 21
0.366275
 31
0.0
  0
LINE
  5
848
330
1F
100
AcDbEntity
  8
1
  6
CONTINUOUS
370
50
 62
4
100
AcDbLine
 10
52.584229
 20
-0.405008
 30
0.0
 11
51.957935
 21
-0.019472
 31
0.0
  0
LINE
  5
849
330
1F
100
AcDbEntity
  8
1
  6
CONTINUOUS
370
50
 62
4
100
AcDbLine
 10
89.13645199999999
 20
-0.405144
 30
0.0
 11
88.510132
 21
-0.019714
 31
0.0
  0
LINE
  5
84A
330
1F
100
AcDbEntity
  8
1
  6
CONTINUOUS
370
50
 62
4
100
AcDbLine
 10
70.234741
 20
-0.019708
 30
0.0
 11
69.608398
 21
0.365636
 31
0.0
  0
LINE
  5
84B
330
1F
100
AcDbEntity
  8
1
  6
CONTINUOUS
370
50
 62
4
100
AcDbLine
 10
34.308247
 20
-0.404887
 30
0.0
 11
33.681942
 21
-0.019676
 31
0.0
  0
LINE
  5
84C
330
1F
100
AcDbEntity
  8
1
  6
CONTINUOUS
370
50
 62
4
100
AcDbLine
 10
12.266032
 20
-4.520715
 30
0.0
 11
11.88461
 21
-4.28675
 31
0.0
  0
LINE
  5
84D
330
1F
100
AcDbEntity
  8
1
  6
CONTINUOUS
370
50
 62
4
100
AcDbLine
 10
8.990978
 20
-2.44773
 30
0.0
 11
8.439226999999999
 21
-2.109967
 31
0.0
  0
LINE
  5
84E
330
1F
100
AcDbEntity
  8
1
  6
CONTINUOUS
370
50
 62
4
100
AcDbLine
 10
95.07730099999999
 20
1.453728
 30
0.0
 11
94.952766
 21
1.529955
 31
0.0
  0
LINE
  5
84F
330
1F
100
AcDbEntity
  8
1
  6
CONTINUOUS
370
50
 62
4
100
AcDbLine
 10
15.333413
 20
0.025974
 30
0.0
 11
14.633366
 21
0.453802
 31
0.0
  0
LINE
  5
850
330
1F
100
AcDbEntity
  8
1
  6
CONTINUOUS
370
50
 62
4
100
AcDbLine
 10
69.608398
 20
0.365636
 30
0.0
 11
68.98204799999999
 21
0.747853
 31
0.0
  0
LINE
  5
851
330
1F
100
AcDbEntity
  8
1
  6
CONTINUOUS
370
50
 62
4
100
AcDbLine
 10
87.883804
 20
0.366275
 30
0.0
 11
87.257477
 21
0.747977
 31
0.0
  0
LINE
  5
852
330
1F
100
AcDbEntity
  8
1
  6
CONTINUOUS
370
50
 62
4
100
AcDbLine
 10
33.055641
 20
0.366563
 30
0.0
 11
32.42934
 21
0.747813
 31
0.0
  0
LINE
  5
853
330
1F
100
AcDbEntity
  8
1
  6
CONTINUOUS
370
50
 62
4
100
AcDbLine
 10
51.331642
 20
0.366606
 30
0.0
 11
50.705349
 21
0.747768
 31
0.0
  0
LINE
  5
854
330
1F
100
AcDbEntity
  8
1
  6
CONTINUOUS
370
50
 62
4
100
AcDbLine
 10
14.633366
 20
0.453802
 30
0.0
 11
13.934226
 21
0.87842
 31
0.0
  0
LINE
  5
855
330
1F
100
AcDbEntity
  8
1
  6
CONTINUOUS
370
50
 62
4
100
AcDbLine
 10
56.69339
 20
4.387849
 30
0.0
 11
56.4091
 21
4.560135
 31
0.0
  0
LINE
  5
856
330
1F
100
AcDbEntity
  8
1
  6
CONTINUOUS
370
50
 62
4
100
AcDbLine
 10
30.672619
 20
-4.575366
 30
0.0
 11
30.386799
 21
-4.402737999999999
 31
0.0
  0
LINE
  5
857
330
1F
100
AcDbEntity
  8
1
  6
CONTINUOUS
370
50
 62
4
100
AcDbLine
 10
67.215935
 20
-4.570177999999999
 30
0.0
 11
66.930435
 21
-4.397781
 31
0.0
  0
LINE
  5
858
330
1F
100
AcDbEntity
  8
1
  6
CONTINUOUS
370
50
 62
4
100
AcDbLine
 10
28.758291
 20
4.403726
 30
0.0
 11
28.472898
 21
4.575895
 31
0.0
  0
LINE
  5
859
330
1F
100
AcDbEntity
  8
1
  6
CONTINUOUS
370
50
 62
4
100
AcDbLine
 10
47.030369
 20
4.406191
 30
0.0
 11
46.744781
 21
4.578355999999999
 31
0.0
  0
LINE
  5
85A
330
1F
100
AcDbEntity
  8
1
  6
CONTINUOUS
370
50
 62
4
100
AcDbLine
 10
83.582298
 20
4.406213
 30
0.0
 11
83.296753
 21
4.578314
 31
0.0
  0
LINE
  5
85B
330
1F
100
AcDbEntity
  8
1
  6
CONTINUOUS
370
50
 62
4
100
AcDbLine
 10
65.30602999999999
 20
4.406416
 30
0.0
 11
65.020538
 21
4.578457
 31
0.0
  0
LINE
  5
85C
330
1F
100
AcDbEntity
  8
1
  6
CONTINUOUS
370
50
 62
4
100
AcDbLine
 10
48.97084
 20
-4.588163
 30
0.0
 11
48.683231
 21
-4.415368
 31
0.0
  0
LINE
  5
85D
330
1F
100
AcDbEntity
  8
1
  6
CONTINUOUS
370
50
 62
4
100
AcDbLine
 10
85.58470899999999
 20
-4.624142
 30
0.0
 11
85.181343
 21
-4.38199
 31
0.0
  0
LINE
  5
85E
330
1F
100
AcDbEntity
  8
1
  6
CONTINUOUS
370
50
 62
4
100
AcDbLine
 10
9.531331999999999
 20
-2.770545
 30
0.0
 11
8.990978
 21
-2.44773
 31
0.0
  0
LINE
  5
85F
330
1F
100
AcDbEntity
  8
1
  6
CONTINUOUS
370
50
 62
4
100
AcDbLine
 10
50.705349
 20
0.747768
 30
0.0
 11
50.07906
 21
1.121263
 31
0.0
  0
LINE
  5
860
330
1F
100
AcDbEntity
  8
1
  6
CONTINUOUS
370
50
 62
4
100
AcDbLine
 10
32.42934
 20
0.747813
 30
0.0
 11
31.803036
 21
1.121021
 31
0.0
  0
LINE
  5
861
330
1F
100
AcDbEntity
  8
1
  6
CONTINUOUS
370
50
 62
4
100
AcDbLine
 10
57.64928099999999
 20
-4.608998
 30
0.0
 11
57.367771
 21
-4.441352
 31
0.0
  0
LINE
  5
862
330
1F
100
AcDbEntity
  8
1
  6
CONTINUOUS
370
50
 62
4
100
AcDbLine
 10
39.373459
 20
-4.609075
 30
0.0
 11
39.092022
 21
-4.4415
 31
0.0
  0
LINE
  5
863
330
1F
100
AcDbEntity
  8
1
  6
CONTINUOUS
370
50
 62
4
100
AcDbLine
 10
75.92517099999999
 20
-4.608954
 30
0.0
 11
75.64372999999999
 21
-4.441407
 31
0.0
  0
LINE
  5
864
330
1F
100
AcDbEntity
  8
1
  6
CONTINUOUS
370
50
 62
4
100
AcDbLine
 10
87.257477
 20
0.747977
 30
0.0
 11
86.631149
 21
1.120715
 31
0.0
  0
LINE
  5
865
330
1F
100
AcDbEntity
  8
1
  6
CONTINUOUS
370
50
 62
4
100
AcDbLine
 10
21.101585
 20
-4.611410999999999
 30
0.0
 11
20.819983
 21
-4.443923
 31
0.0
  0
LINE
  5
866
330
1F
100
AcDbEntity
  8
1
  6
CONTINUOUS
370
50
 62
4
100
AcDbLine
 10
68.98204799999999
 20
0.747853
 30
0.0
 11
68.355705
 21
1.120216
 31
0.0
  0
LINE
  5
867
330
1F
100
AcDbEntity
  8
1
  6
CONTINUOUS
370
50
 62
4
100
AcDbLine
 10
93.229103
 20
4.397857
 30
0.0
 11
92.783653
 21
4.662569
 31
0.0
  0
LINE
  5
868
330
1F
100
AcDbEntity
  8
1
  6
CONTINUOUS
370
50
 62
4
100
AcDbLine
 10
93.613373
 20
3.782744
 30
0.0
 11
93.45002
 21
3.879636
 31
0.0
  0
LINE
  5
869
330
1F
100
AcDbEntity
  8
1
  6
CONTINUOUS
370
50
 62
4
100
AcDbLine
 10
38.267124
 20
4.480331
 30
0.0
 11
37.9902
 21
4.642952999999999
 31
0.0
  0
LINE
  5
86A
330
1F
100
AcDbEntity
  8
1
  6
CONTINUOUS
370
50
 62
4
100
AcDbLine
 10
74.80330699999999
 20
4.489644999999999
 30
0.0
 11
74.52597
 21
4.652009
 31
0.0
  0
LINE
  5
86B
330
1F
100
AcDbEntity
  8
1
  6
CONTINUOUS
370
50
 62
4
100
AcDbLine
 10
1.519615
 20
5.7
 30
0.0
 11
1.0
 21
6.0
 31
0.0
  0
LINE
  5
86C
330
1F
100
AcDbEntity
  8
1
  6
CONTINUOUS
370
50
 62
4
100
AcDbLine
 10
68.355705
 20
1.120216
 30
0.0
 11
67.729355
 21
1.480777
 31
0.0
  0
LINE
  5
86D
330
1F
100
AcDbEntity
  8
1
  6
CONTINUOUS
370
50
 62
4
100
AcDbLine
 10
86.631149
 20
1.120715
 30
0.0
 11
86.004829
 21
1.481141
 31
0.0
  0
LINE
  5
86E
330
1F
100
AcDbEntity
  8
1
  6
CONTINUOUS
370
50
 62
4
100
AcDbLine
 10
31.803036
 20
1.121021
 30
0.0
 11
31.176735
 21
1.480952
 31
0.0
  0
LINE
  5
86F
330
1F
100
AcDbEntity
  8
1
  6
CONTINUOUS
370
50
 62
4
100
AcDbLine
 10
50.07906
 20
1.121263
 30
0.0
 11
49.452763
 21
1.48046
 31
0.0
  0
LINE
  5
870
330
1F
100
AcDbEntity
  8
1
  6
CONTINUOUS
370
50
 62
4
100
AcDbLine
 10
10.063788
 20
-3.075595
 30
0.0
 11
9.531331999999999
 21
-2.770545
 31
0.0
  0
LINE
  5
871
330
1F
100
AcDbEntity
  8
1
  6
CONTINUOUS
370
50
 62
4
100
AcDbLine
 10
19.921474
 20
4.522021
 30
0.0
 11
19.541189
 21
4.739208
 31
0.0
  0
LINE
  5
872
330
1F
100
AcDbEntity
  8
1
  6
CONTINUOUS
370
50
 62
4
100
AcDbLine
 10
56.4091
 20
4.560135
 30
0.0
 11
56.124962
 21
4.721582
 31
0.0
  0
LINE
  5
873
330
1F
100
AcDbEntity
  8
1
  6
CONTINUOUS
370
50
 62
4
100
AcDbLine
 10
67.501289
 20
-4.731612999999999
 30
0.0
 11
67.215935
 21
-4.570177999999999
 31
0.0
  0
LINE
  5
874
330
1F
100
AcDbEntity
  8
1
  6
CONTINUOUS
370
50
 62
4
100
AcDbLine
 10
30.958448
 20
-4.736813
 30
0.0
 11
30.672619
 21
-4.575366
 31
0.0
  0
LINE
  5
875
330
1F
100
AcDbEntity
  8
1
  6
CONTINUOUS
370
50
 62
4
100
AcDbLine
 10
28.472898
 20
4.575895
 30
0.0
 11
28.187538
 21
4.737070999999999
 31
0.0
  0
LINE
  5
876
330
1F
100
AcDbEntity
  8
1
  6
CONTINUOUS
370
50
 62
4
100
AcDbLine
 10
83.296753
 20
4.578314
 30
0.0
 11
83.011246
 21
4.739390999999999
 31
0.0
  0
LINE
  5
877
330
1F
100
AcDbEntity
  8
1
  6
CONTINUOUS
370
50
 62
4
100
AcDbLine
 10
46.744781
 20
4.578355999999999
 30
0.0
 11
46.459156
 21
4.73947
 31
0.0
  0
LINE
  5
878
330
1F
100
AcDbEntity
  8
1
  6
CONTINUOUS
370
50
 62
4
100
AcDbLine
 10
65.020538
 20
4.578457
 30
0.0
 11
64.735008
 21
4.739493
 31
0.0
  0
LINE
  5
879
330
1F
100
AcDbEntity
  8
1
  6
CONTINUOUS
370
50
 62
4
100
AcDbLine
 10
49.258354
 20
-4.749791
 30
0.0
 11
48.97084
 21
-4.588163
 31
0.0
  0
LINE
  5
87A
330
1F
100
AcDbEntity
  8
1
  6
CONTINUOUS
370
50
 62
4
100
AcDbLine
 10
57.930794
 20
-4.76586
 30
0.0
 11
57.64928099999999
 21
-4.608998
 31
0.0
  0
LINE
  5
87B
330
1F
100
AcDbEntity
  8
1
  6
CONTINUOUS
370
50
 62
4
100
AcDbLine
 10
76.206688
 20
-4.76579
 30
0.0
 11
75.92517099999999
 21
-4.608954
 31
0.0
  0
LINE
  5
87C
330
1F
100
AcDbEntity
  8
1
  6
CONTINUOUS
370
50
 62
4
100
AcDbLine
 10
39.654995
 20
-4.765889
 30
0.0
 11
39.373459
 21
-4.609075
 31
0.0
  0
LINE
  5
87D
330
1F
100
AcDbEntity
  8
1
  6
CONTINUOUS
370
50
 62
4
100
AcDbLine
 10
21.383131
 20
-4.768076
 30
0.0
 11
21.101585
 21
-4.611410999999999
 31
0.0
  0
LINE
  5
87E
330
1F
100
AcDbEntity
  8
1
  6
CONTINUOUS
370
50
 62
4
100
AcDbLine
 10
49.452763
 20
1.48046
 30
0.0
 11
48.826469
 21
1.824102
 31
0.0
  0
LINE
  5
87F
330
1F
100
AcDbEntity
  8
1
  6
CONTINUOUS
370
50
 62
4
100
AcDbLine
 10
37.9902
 20
4.642952999999999
 30
0.0
 11
37.713062
 21
4.795008999999999
 31
0.0
  0
LINE
  5
880
330
1F
100
AcDbEntity
  8
1
  6
CONTINUOUS
370
50
 62
4
100
AcDbLine
 10
74.52597
 20
4.652009
 30
0.0
 11
74.248611
 21
4.803825
 31
0.0
  0
LINE
  5
881
330
1F
100
AcDbEntity
  8
1
  6
CONTINUOUS
370
50
 62
4
100
AcDbLine
 10
31.176735
 20
1.480952
 30
0.0
 11
30.550432
 21
1.823654
 31
0.0
  0
LINE
  5
882
330
1F
100
AcDbEntity
  8
1
  6
CONTINUOUS
370
50
 62
4
100
AcDbLine
 10
67.729355
 20
1.480777
 30
0.0
 11
67.10301199999999
 21
1.823147
 31
0.0
  0
LINE
  5
883
330
1F
100
AcDbEntity
  8
1
  6
CONTINUOUS
370
50
 62
4
100
AcDbLine
 10
86.004829
 20
1.481141
 30
0.0
 11
85.378502
 21
1.823364
 31
0.0
  0
LINE
  5
884
330
1F
100
AcDbEntity
  8
1
  6
CONTINUOUS
370
50
 62
4
100
AcDbLine
 10
85.98867
 20
-4.844008
 30
0.0
 11
85.58470899999999
 21
-4.624142
 31
0.0
  0
LINE
  5
885
330
1F
100
AcDbEntity
  8
1
  6
CONTINUOUS
370
50
 62
4
100
AcDbLine
 10
10.596696
 20
-3.362803
 30
0.0
 11
10.063788
 21
-3.075595
 31
0.0
  0
LINE
  5
886
330
1F
100
AcDbEntity
  8
1
  6
CONTINUOUS
370
50
 62
4
100
AcDbLine
 10
92.783653
 20
4.662569
 30
0.0
 11
92.337715
 21
4.899788
 31
0.0
  0
LINE
  5
887
330
1F
100
AcDbEntity
  8
1
  6
CONTINUOUS
370
50
 62
4
100
AcDbLine
 10
56.124962
 20
4.721582
 30
0.0
 11
55.841251
 21
4.871741
 31
0.0
  0
LINE
  5
888
330
1F
100
AcDbEntity
  8
1
  6
CONTINUOUS
370
50
 62
4
100
AcDbLine
 10
67.786209
 20
-4.881648
 30
0.0
 11
67.501289
 21
-4.731612999999999
 31
0.0
  0
LINE
  5
889
330
1F
100
AcDbEntity
  8
1
  6
CONTINUOUS
370
50
 62
4
100
AcDbLine
 10
28.187538
 20
4.737070999999999
 30
0.0
 11
27.902218
 21
4.886788999999999
 31
0.0
  0
LINE
  5
88A
330
1F
100
AcDbEntity
  8
1
  6
CONTINUOUS
370
50
 62
4
100
AcDbLine
 10
83.011246
 20
4.739390999999999
 30
0.0
 11
82.725639
 21
4.889104
 31
0.0
  0
LINE
  5
88B
330
1F
100
AcDbEntity
  8
1
  6
CONTINUOUS
370
50
 62
4
100
AcDbLine
 10
64.735008
 20
4.739493
 30
0.0
 11
64.449387
 21
4.889203
 31
0.0
  0
LINE
  5
88C
330
1F
100
AcDbEntity
  8
1
  6
CONTINUOUS
370
50
 62
4
100
AcDbLine
 10
31.244633
 20
-4.886799
 30
0.0
 11
30.958448
 21
-4.736813
 31
0.0
  0
LINE
  5
88D
330
1F
100
AcDbEntity
  8
1
  6
CONTINUOUS
370
50
 62
4
100
AcDbLine
 10
46.459156
 20
4.73947
 30
0.0
 11
46.173538
 21
4.889129
 31
0.0
  0
LINE
  5
88E
330
1F
100
AcDbEntity
  8
1
  6
CONTINUOUS
370
50
 62
4
100
AcDbLine
 10
49.546215
 20
-4.899878999999999
 30
0.0
 11
49.258354
 21
-4.749791
 31
0.0
  0
LINE
  5
88F
330
1F
100
AcDbEntity
  8
1
  6
CONTINUOUS
370
50
 62
4
100
AcDbLine
 10
12.632839
 20
-4.711078
 30
0.0
 11
12.266032
 21
-4.520715
 31
0.0
  0
LINE
  5
890
330
1F
100
AcDbEntity
  8
1
  6
CONTINUOUS
370
50
 62
4
100
AcDbLine
 10
76.488113
 20
-4.91144
 30
0.0
 11
76.206688
 21
-4.76579
 31
0.0
  0
LINE
  5
891
330
1F
100
AcDbEntity
  8
1
  6
CONTINUOUS
370
50
 62
4
100
AcDbLine
 10
58.21228799999999
 20
-4.911508
 30
0.0
 11
57.930794
 21
-4.76586
 31
0.0
  0
LINE
  5
892
330
1F
100
AcDbEntity
  8
1
  6
CONTINUOUS
370
50
 62
4
100
AcDbLine
 10
39.936516
 20
-4.91154
 30
0.0
 11
39.654995
 21
-4.765889
 31
0.0
  0
LINE
  5
893
330
1F
100
AcDbEntity
  8
1
  6
CONTINUOUS
370
50
 62
4
100
AcDbLine
 10
19.541189
 20
4.739208
 30
0.0
 11
19.160526
 21
4.936052999999999
 31
0.0
  0
LINE
  5
894
330
1F
100
AcDbEntity
  8
1
  6
CONTINUOUS
370
50
 62
4
100
AcDbLine
 10
21.664755
 20
-4.913639
 30
0.0
 11
21.383131
 21
-4.768076
 31
0.0
  0
LINE
  5
895
330
1F
100
AcDbEntity
  8
1
  6
CONTINUOUS
370
50
 62
4
100
AcDbLine
 10
85.378502
 20
1.823364
 30
0.0
 11
84.752174
 21
2.145863
 31
0.0
  0
LINE
  5
896
330
1F
100
AcDbEntity
  8
1
  6
CONTINUOUS
370
50
 62
4
100
AcDbLine
 10
30.550432
 20
1.823654
 30
0.0
 11
29.924131
 21
2.145743
 31
0.0
  0
LINE
  5
897
330
1F
100
AcDbEntity
  8
1
  6
CONTINUOUS
370
50
 62
4
100
AcDbLine
 10
67.10301199999999
 20
1.823147
 30
0.0
 11
66.47666199999999
 21
2.145189
 31
0.0
  0
LINE
  5
898
330
1F
100
AcDbEntity
  8
1
  6
CONTINUOUS
370
50
 62
4
100
AcDbLine
 10
48.826469
 20
1.824102
 30
0.0
 11
48.200176
 21
2.14484
 31
0.0
  0
LINE
  5
899
330
1F
100
AcDbEntity
  8
1
  6
CONTINUOUS
370
50
 62
4
100
AcDbLine
 10
37.713062
 20
4.795008999999999
 30
0.0
 11
37.435955
 21
4.936222
 31
0.0
  0
LINE
  5
89A
330
1F
100
AcDbEntity
  8
1
  6
CONTINUOUS
370
50
 62
4
100
AcDbLine
 10
74.248611
 20
4.803825
 30
0.0
 11
73.970894
 21
4.944749
 31
0.0
  0
LINE
  5
89B
330
1F
100
AcDbEntity
  8
1
  6
CONTINUOUS
370
50
 62
4
100
AcDbLine
 10
13.028868
 20
-4.911008
 30
0.0
 11
12.632839
 21
-4.711078
 31
0.0
  0
LINE
  5
89C
330
1F
100
AcDbEntity
  8
1
  6
CONTINUOUS
370
50
 62
4
100
AcDbLine
 10
11.1384
 20
-3.632092
 30
0.0
 11
10.596696
 21
-3.362803
 31
0.0
  0
LINE
  5
89D
330
1F
100
AcDbEntity
  8
1
  6
CONTINUOUS
370
50
 62
4
100
AcDbLine
 10
13.236965
 20
1.30994
 30
0.0
 11
12.533732
 21
1.654048
 31
0.0
  0
LINE
  5
89E
330
1F
100
AcDbEntity
  8
1
  6
CONTINUOUS
370
50
 62
4
100
AcDbLine
 10
55.841251
 20
4.871741
 30
0.0
 11
55.557533
 21
5.010318
 31
0.0
  0
LINE
  5
89F
330
1F
100
AcDbEntity
  8
1
  6
CONTINUOUS
370
50
 62
4
100
AcDbLine
 10
86.39209
 20
-5.040589
 30
0.0
 11
85.98867
 21
-4.844008
 31
0.0
  0
LINE
  5
8A0
330
1F
100
AcDbEntity
  8
1
  6
CONTINUOUS
370
50
 62
4
100
AcDbLine
 10
68.071144
 20
-5.019979
 30
0.0
 11
67.786209
 21
-4.881648
 31
0.0
  0
LINE
  5
8A1
330
1F
100
AcDbEntity
  8
1
  6
CONTINUOUS
370
50
 62
4
100
AcDbLine
 10
27.902218
 20
4.886788999999999
 30
0.0
 11
27.616959
 21
5.024704
 31
0.0
  0
LINE
  5
8A2
330
1F
100
AcDbEntity
  8
1
  6
CONTINUOUS
370
50
 62
4
100
AcDbLine
 10
31.530497
 20
-5.024992
 30
0.0
 11
31.244633
 21
-4.886799
 31
0.0
  0
LINE
  5
8A3
330
1F
100
AcDbEntity
  8
1
  6
CONTINUOUS
370
50
 62
4
100
AcDbLine
 10
64.449387
 20
4.889203
 30
0.0
 11
64.163849
 21
5.027101
 31
0.0
  0
LINE
  5
8A4
330
1F
100
AcDbEntity
  8
1
  6
CONTINUOUS
370
50
 62
4
100
AcDbLine
 10
82.725639
 20
4.889104
 30
0.0
 11
82.44010899999999
 21
5.026968
 31
0.0
  0
LINE
  5
8A5
330
1F
100
AcDbEntity
  8
1
  6
CONTINUOUS
370
50
 62
4
100
AcDbLine
 10
46.173538
 20
4.889129
 30
0.0
 11
45.887909
 21
5.027034
 31
0.0
  0
LINE
  5
8A6
330
1F
100
AcDbEntity
  8
1
  6
CONTINUOUS
370
50
 62
4
100
AcDbLine
 10
49.834312
 20
-5.03791
 30
0.0
 11
49.546215
 21
-4.899878999999999
 31
0.0
  0
LINE
  5
8A7
330
1F
100
AcDbEntity
  8
1
  6
CONTINUOUS
370
50
 62
4
100
AcDbLine
 10
76.769516
 20
-5.045571
 30
0.0
 11
76.488113
 21
-4.91144
 31
0.0
  0
LINE
  5
8A8
330
1F
100
AcDbEntity
  8
1
  6
CONTINUOUS
370
50
 62
4
100
AcDbLine
 10
40.217941
 20
-5.045675999999999
 30
0.0
 11
39.936516
 21
-4.91154
 31
0.0
  0
LINE
  5
8A9
330
1F
100
AcDbEntity
  8
1
  6
CONTINUOUS
370
50
 62
4
100
AcDbLine
 10
58.493637
 20
-5.045585
 30
0.0
 11
58.21228799999999
 21
-4.911508
 31
0.0
  0
LINE
  5
8AA
330
1F
100
AcDbEntity
  8
1
  6
CONTINUOUS
370
50
 62
4
100
AcDbLine
 10
21.946539
 20
-5.047772
 30
0.0
 11
21.664755
 21
-4.913639
 31
0.0
  0
LINE
  5
8AB
330
1F
100
AcDbEntity
  8
1
  6
CONTINUOUS
370
50
 62
4
100
AcDbLine
 10
48.200176
 20
2.14484
 30
0.0
 11
47.573883
 21
2.442654
 31
0.0
  0
LINE
  5
8AC
330
1F
100
AcDbEntity
  8
1
  6
CONTINUOUS
370
50
 62
4
100
AcDbLine
 10
13.414372
 20
-5.094174
 30
0.0
 11
13.028868
 21
-4.911008
 31
0.0
  0
LINE
  5
8AD
330
1F
100
AcDbEntity
  8
1
  6
CONTINUOUS
370
50
 62
4
100
AcDbLine
 10
66.47666199999999
 20
2.145189
 30
0.0
 11
65.85031099999999
 21
2.442013
 31
0.0
  0
LINE
  5
8AE
330
1F
100
AcDbEntity
  8
1
  6
CONTINUOUS
370
50
 62
4
100
AcDbLine
 10
29.924131
 20
2.145743
 30
0.0
 11
29.297829
 21
2.442033
 31
0.0
  0
LINE
  5
8AF
330
1F
100
AcDbEntity
  8
1
  6
CONTINUOUS
370
50
 62
4
100
AcDbLine
 10
84.752174
 20
2.145863
 30
0.0
 11
84.125847
 21
2.441793
 31
0.0
  0
LINE
  5
8B0
330
1F
100
AcDbEntity
  8
1
  6
CONTINUOUS
370
50
 62
4
100
AcDbLine
 10
37.435955
 20
4.936222
 30
0.0
 11
37.159122
 21
5.066293
 31
0.0
  0
LINE
  5
8B1
330
1F
100
AcDbEntity
  8
1
  6
CONTINUOUS
370
50
 62
4
100
AcDbLine
 10
92.337715
 20
4.899788
 30
0.0
 11
91.891998
 21
5.10832
 31
0.0
  0
LINE
  5
8B2
330
1F
100
AcDbEntity
  8
1
  6
CONTINUOUS
370
50
 62
4
100
AcDbLine
 10
73.970894
 20
4.944749
 30
0.0
 11
73.693016
 21
5.074367
 31
0.0
  0
LINE
  5
8B3
330
1F
100
AcDbEntity
  8
1
  6
CONTINUOUS
370
50
 62
4
100
AcDbLine
 10
19.160526
 20
4.936052999999999
 30
0.0
 11
18.779474
 21
5.111905999999999
 31
0.0
  0
LINE
  5
8B4
330
1F
100
AcDbEntity
  8
1
  6
CONTINUOUS
370
50
 62
4
100
AcDbLine
 10
12.533732
 20
1.654048
 30
0.0
 11
11.834086
 21
1.975074
 31
0.0
  0
LINE
  5
8B5
330
1F
100
AcDbEntity
  8
1
  6
CONTINUOUS
370
50
 62
4
100
AcDbLine
 10
55.557533
 20
5.010318
 30
0.0
 11
55.273445
 21
5.137002
 31
0.0
  0
LINE
  5
8B6
330
1F
100
AcDbEntity
  8
1
  6
CONTINUOUS
370
50
 62
4
100
AcDbLine
 10
68.356461
 20
-5.146294
 30
0.0
 11
68.071144
 21
-5.019979
 31
0.0
  0
LINE
  5
8B7
330
1F
100
AcDbEntity
  8
1
  6
CONTINUOUS
370
50
 62
4
100
AcDbLine
 10
31.816153
 20
-5.151102
 30
0.0
 11
31.530497
 21
-5.024992
 31
0.0
  0
LINE
  5
8B8
330
1F
100
AcDbEntity
  8
1
  6
CONTINUOUS
370
50
 62
4
100
AcDbLine
 10
27.616959
 20
5.024704
 30
0.0
 11
27.331656
 21
5.150568
 31
0.0
  0
LINE
  5
8B9
330
1F
100
AcDbEntity
  8
1
  6
CONTINUOUS
370
50
 62
4
100
AcDbLine
 10
45.887909
 20
5.027034
 30
0.0
 11
45.60233299999999
 21
5.152841
 31
0.0
  0
LINE
  5
8BA
330
1F
100
AcDbEntity
  8
1
  6
CONTINUOUS
370
50
 62
4
100
AcDbLine
 10
64.163849
 20
5.027101
 30
0.0
 11
63.87835699999999
 21
5.152848
 31
0.0
  0
LINE
  5
8BB
330
1F
100
AcDbEntity
  8
1
  6
CONTINUOUS
370
50
 62
4
100
AcDbLine
 10
82.44010899999999
 20
5.026968
 30
0.0
 11
82.15458699999999
 21
5.152712
 31
0.0
  0
LINE
  5
8BC
330
1F
100
AcDbEntity
  8
1
  6
CONTINUOUS
370
50
 62
4
100
AcDbLine
 10
50.122364
 20
-5.163622
 30
0.0
 11
49.834312
 21
-5.03791
 31
0.0
  0
LINE
  5
8BD
330
1F
100
AcDbEntity
  8
1
  6
CONTINUOUS
370
50
 62
4
100
AcDbLine
 10
40.499447
 20
-5.168054
 30
0.0
 11
40.217941
 21
-5.045675999999999
 31
0.0
  0
LINE
  5
8BE
330
1F
100
AcDbEntity
  8
1
  6
CONTINUOUS
370
50
 62
4
100
AcDbLine
 10
58.77496
 20
-5.167864
 30
0.0
 11
58.493637
 21
-5.045585
 31
0.0
  0
LINE
  5
8BF
330
1F
100
AcDbEntity
  8
1
  6
CONTINUOUS
370
50
 62
4
100
AcDbLine
 10
77.051056
 20
-5.167930999999999
 30
0.0
 11
76.769516
 21
-5.045571
 31
0.0
  0
LINE
  5
8C0
330
1F
100
AcDbEntity
  8
1
  6
CONTINUOUS
370
50
 62
4
100
AcDbLine
 10
22.228266
 20
-5.170004
 30
0.0
 11
21.946539
 21
-5.047772
 31
0.0
  0
LINE
  5
8C1
330
1F
100
AcDbEntity
  8
1
  6
CONTINUOUS
370
50
 62
4
100
AcDbLine
 10
84.125847
 20
2.441793
 30
0.0
 11
83.499527
 21
2.71137
 31
0.0
  0
LINE
  5
8C2
330
1F
100
AcDbEntity
  8
1
  6
CONTINUOUS
370
50
 62
4
100
AcDbLine
 10
29.297829
 20
2.442033
 30
0.0
 11
28.671528
 21
2.711371
 31
0.0
  0
LINE
  5
8C3
330
1F
100
AcDbEntity
  8
1
  6
CONTINUOUS
370
50
 62
4
100
AcDbLine
 10
65.85031099999999
 20
2.442013
 30
0.0
 11
65.223969
 21
2.710475
 31
0.0
  0
LINE
  5
8C4
330
1F
100
AcDbEntity
  8
1
  6
CONTINUOUS
370
50
 62
4
100
AcDbLine
 10
37.159122
 20
5.066293
 30
0.0
 11
36.882549
 21
5.184797
 31
0.0
  0
LINE
  5
8C5
330
1F
100
AcDbEntity
  8
1
  6
CONTINUOUS
370
50
 62
4
100
AcDbLine
 10
86.795662
 20
-5.213058999999999
 30
0.0
 11
86.39209
 21
-5.040589
 31
0.0
  0
LINE
  5
8C6
330
1F
100
AcDbEntity
  8
1
  6
CONTINUOUS
370
50
 62
4
100
AcDbLine
 10
47.573883
 20
2.442654
 30
0.0
 11
46.947594
 21
2.710267
 31
0.0
  0
LINE
  5
8C7
330
1F
100
AcDbEntity
  8
1
  6
CONTINUOUS
370
50
 62
4
100
AcDbLine
 10
73.693016
 20
5.074367
 30
0.0
 11
73.415222
 21
5.192458999999999
 31
0.0
  0
LINE
  5
8C8
330
1F
100
AcDbEntity
  8
1
  6
CONTINUOUS
370
50
 62
4
100
AcDbLine
 10
95.19139899999999
 20
1.406012
 30
0.0
 11
95.07730099999999
 21
1.453728
 31
0.0
  0
LINE
  5
8C9
330
1F
100
AcDbEntity
  8
1
  6
CONTINUOUS
370
50
 62
4
100
AcDbLine
 10
13.798124
 20
-5.254068999999999
 30
0.0
 11
13.414372
 21
-5.094174
 31
0.0
  0
LINE
  5
8CA
330
1F
100
AcDbEntity
  8
1
  6
CONTINUOUS
370
50
 62
4
100
AcDbLine
 10
18.779474
 20
5.111905999999999
 30
0.0
 11
18.398977
 21
5.265891
 31
0.0
  0
LINE
  5
8CB
330
1F
100
AcDbEntity
  8
1
  6
CONTINUOUS
370
50
 62
4
100
AcDbLine
 10
55.273445
 20
5.137002
 30
0.0
 11
54.989189
 21
5.251409
 31
0.0
  0
LINE
  5
8CC
330
1F
100
AcDbEntity
  8
1
  6
CONTINUOUS
370
50
 62
4
100
AcDbLine
 10
91.891998
 20
5.10832
 30
0.0
 11
91.446861
 21
5.286779999999999
 31
0.0
  0
LINE
  5
8CD
330
1F
100
AcDbEntity
  8
1
  6
CONTINUOUS
370
50
 62
4
100
AcDbLine
 10
68.64194499999999
 20
-5.260208
 30
0.0
 11
68.356461
 21
-5.146294
 31
0.0
  0
LINE
  5
8CE
330
1F
100
AcDbEntity
  8
1
  6
CONTINUOUS
370
50
 62
4
100
AcDbLine
 10
27.331656
 20
5.150568
 30
0.0
 11
27.04627
 21
5.264111
 31
0.0
  0
LINE
  5
8CF
330
1F
100
AcDbEntity
  8
1
  6
CONTINUOUS
370
50
 62
4
100
AcDbLine
 10
32.102085
 20
-5.26485
 30
0.0
 11
31.816153
 21
-5.151102
 31
0.0
  0
LINE
  5
8D0
330
1F
100
AcDbEntity
  8
1
  6
CONTINUOUS
370
50
 62
4
100
AcDbLine
 10
82.15458699999999
 20
5.152712
 30
0.0
 11
81.868996
 21
5.2661
 31
0.0
  0
LINE
  5
8D1
330
1F
100
AcDbEntity
  8
1
  6
CONTINUOUS
370
50
 62
4
100
AcDbLine
 10
45.60233299999999
 20
5.152841
 30
0.0
 11
45.316849
 21
5.266179
 31
0.0
  0
LINE
  5
8D2
330
1F
100
AcDbEntity
  8
1
  6
CONTINUOUS
370
50
 62
4
100
AcDbLine
 10
63.87835699999999
 20
5.152848
 30
0.0
 11
63.592735
 21
5.266213
 31
0.0
  0
LINE
  5
8D3
330
1F
100
AcDbEntity
  8
1
  6
CONTINUOUS
370
50
 62
4
100
AcDbLine
 10
50.410095
 20
-5.276712
 30
0.0
 11
50.122364
 21
-5.163622
 31
0.0
  0
LINE
  5
8D4
330
1F
100
AcDbEntity
  8
1
  6
CONTINUOUS
370
50
 62
4
100
AcDbLine
 10
59.056393
 20
-5.278119999999999
 30
0.0
 11
58.77496
 21
-5.167864
 31
0.0
  0
LINE
  5
8D5
330
1F
100
AcDbEntity
  8
1
  6
CONTINUOUS
370
50
 62
4
100
AcDbLine
 10
77.332512
 20
-5.278169
 30
0.0
 11
77.051056
 21
-5.167930999999999
 31
0.0
  0
LINE
  5
8D6
330
1F
100
AcDbEntity
  8
1
  6
CONTINUOUS
370
50
 62
4
100
AcDbLine
 10
40.780994
 20
-5.27832
 30
0.0
 11
40.499447
 21
-5.168054
 31
0.0
  0
LINE
  5
8D7
330
1F
100
AcDbEntity
  8
1
  6
CONTINUOUS
370
50
 62
4
100
AcDbLine
 10
22.509935
 20
-5.280086
 30
0.0
 11
22.228266
 21
-5.170004
 31
0.0
  0
LINE
  5
8D8
330
1F
100
AcDbEntity
  8
1
  6
CONTINUOUS
370
50
 62
4
100
AcDbLine
 10
36.882549
 20
5.184797
 30
0.0
 11
36.605797
 21
5.291531
 31
0.0
  0
LINE
  5
8D9
330
1F
100
AcDbEntity
  8
1
  6
CONTINUOUS
370
50
 62
4
100
AcDbLine
 10
73.415222
 20
5.192458999999999
 30
0.0
 11
73.137756
 21
5.298735
 31
0.0
  0
LINE
  5
8DA
330
1F
100
AcDbEntity
  8
1
  6
CONTINUOUS
370
50
 62
4
100
AcDbLine
 10
46.947594
 20
2.710267
 30
0.0
 11
46.321301
 21
2.948338
 31
0.0
  0
LINE
  5
8DB
330
1F
100
AcDbEntity
  8
1
  6
CONTINUOUS
370
50
 62
4
100
AcDbLine
 10
65.223969
 20
2.710475
 30
0.0
 11
64.597618
 21
2.948127
 31
0.0
  0
LINE
  5
8DC
330
1F
100
AcDbEntity
  8
1
  6
CONTINUOUS
370
50
 62
4
100
AcDbLine
 10
28.671528
 20
2.711371
 30
0.0
 11
28.045227
 21
2.947615
 31
0.0
  0
LINE
  5
8DD
330
1F
100
AcDbEntity
  8
1
  6
CONTINUOUS
370
50
 62
4
100
AcDbLine
 10
83.499527
 20
2.71137
 30
0.0
 11
82.873199
 21
2.947441
 31
0.0
  0
LINE
  5
8DE
330
1F
100
AcDbEntity
  8
1
  6
CONTINUOUS
370
50
 62
4
100
AcDbLine
 10
87.199753
 20
-5.360379
 30
0.0
 11
86.795662
 21
-5.213058999999999
 31
0.0
  0
LINE
  5
8DF
330
1F
100
AcDbEntity
  8
1
  6
CONTINUOUS
370
50
 62
4
100
AcDbLine
 10
54.989189
 20
5.251409
 30
0.0
 11
54.705017
 21
5.353331
 31
0.0
  0
LINE
  5
8E0
330
1F
100
AcDbEntity
  8
1
  6
CONTINUOUS
370
50
 62
4
100
AcDbLine
 10
68.92733799999999
 20
-5.361509
 30
0.0
 11
68.64194499999999
 21
-5.260208
 31
0.0
  0
LINE
  5
8E1
330
1F
100
AcDbEntity
  8
1
  6
CONTINUOUS
370
50
 62
4
100
AcDbLine
 10
27.04627
 20
5.264111
 30
0.0
 11
26.760996
 21
5.364951
 31
0.0
  0
LINE
  5
8E2
330
1F
100
AcDbEntity
  8
1
  6
CONTINUOUS
370
50
 62
4
100
AcDbLine
 10
32.388298
 20
-5.36583
 30
0.0
 11
32.102085
 21
-5.26485
 31
0.0
  0
LINE
  5
8E3
330
1F
100
AcDbEntity
  8
1
  6
CONTINUOUS
370
50
 62
4
100
AcDbLine
 10
81.868996
 20
5.2661
 30
0.0
 11
81.58341999999999
 21
5.366815
 31
0.0
  0
LINE
  5
8E4
330
1F
100
AcDbEntity
  8
1
  6
CONTINUOUS
370
50
 62
4
100
AcDbLine
 10
63.592735
 20
5.266213
 30
0.0
 11
63.30718599999999
 21
5.366874
 31
0.0
  0
LINE
  5
8E5
330
1F
100
AcDbEntity
  8
1
  6
CONTINUOUS
370
50
 62
4
100
AcDbLine
 10
45.316849
 20
5.266179
 30
0.0
 11
45.031334
 21
5.366827
 31
0.0
  0
LINE
  5
8E6
330
1F
100
AcDbEntity
  8
1
  6
CONTINUOUS
370
50
 62
4
100
AcDbLine
 10
14.183386
 20
-5.389732
 30
0.0
 11
13.798124
 21
-5.254068999999999
 31
0.0
  0
LINE
  5
8E7
330
1F
100
AcDbEntity
  8
1
  6
CONTINUOUS
370
50
 62
4
100
AcDbLine
 10
50.697609
 20
-5.376831999999999
 30
0.0
 11
50.410095
 21
-5.276712
 31
0.0
  0
LINE
  5
8E8
330
1F
100
AcDbEntity
  8
1
  6
CONTINUOUS
370
50
 62
4
100
AcDbLine
 10
59.337936
 20
-5.376062
 30
0.0
 11
59.056393
 21
-5.278119999999999
 31
0.0
  0
LINE
  5
8E9
330
1F
100
AcDbEntity
  8
1
  6
CONTINUOUS
370
50
 62
4
100
AcDbLine
 10
77.61393699999999
 20
-5.376064
 30
0.0
 11
77.332512
 21
-5.278169
 31
0.0
  0
LINE
  5
8EA
330
1F
100
AcDbEntity
  8
1
  6
CONTINUOUS
370
50
 62
4
100
AcDbLine
 10
41.062447
 20
-5.376176
 30
0.0
 11
40.780994
 21
-5.27832
 31
0.0
  0
LINE
  5
8EB
330
1F
100
AcDbEntity
  8
1
  6
CONTINUOUS
370
50
 62
4
100
AcDbLine
 10
22.791649
 20
-5.377822999999999
 30
0.0
 11
22.509935
 21
-5.280086
 31
0.0
  0
LINE
  5
8EC
330
1F
100
AcDbEntity
  8
1
  6
CONTINUOUS
370
50
 62
4
100
AcDbLine
 10
18.398977
 20
5.265891
 30
0.0
 11
18.018099
 21
5.397392
 31
0.0
  0
LINE
  5
8ED
330
1F
100
AcDbEntity
  8
1
  6
CONTINUOUS
370
50
 62
4
100
AcDbLine
 10
36.605797
 20
5.291531
 30
0.0
 11
36.328609
 21
5.386316
 31
0.0
  0
LINE
  5
8EE
330
1F
100
AcDbEntity
  8
1
  6
CONTINUOUS
370
50
 62
4
100
AcDbLine
 10
73.137756
 20
5.298735
 30
0.0
 11
72.860474
 21
5.39288
 31
0.0
  0
LINE
  5
8EF
330
1F
100
AcDbEntity
  8
1
  6
CONTINUOUS
370
50
 62
4
100
AcDbLine
 10
91.446861
 20
5.286779999999999
 30
0.0
 11
91.001007
 21
5.434271
 31
0.0
  0
LINE
  5
8F0
330
1F
100
AcDbEntity
  8
1
  6
CONTINUOUS
370
50
 62
4
100
AcDbLine
 10
82.873199
 20
2.947441
 30
0.0
 11
82.246872
 21
3.151519
 31
0.0
  0
LINE
  5
8F1
330
1F
100
AcDbEntity
  8
1
  6
CONTINUOUS
370
50
 62
4
100
AcDbLine
 10
28.045227
 20
2.947615
 30
0.0
 11
27.418924
 21
3.151649
 31
0.0
  0
LINE
  5
8F2
330
1F
100
AcDbEntity
  8
1
  6
CONTINUOUS
370
50
 62
4
100
AcDbLine
 10
64.597618
 20
2.948127
 30
0.0
 11
63.971272
 21
3.150596
 31
0.0
  0
LINE
  5
8F3
330
1F
100
AcDbEntity
  8
1
  6
CONTINUOUS
370
50
 62
4
100
AcDbLine
 10
46.321301
 20
2.948338
 30
0.0
 11
45.695007
 21
3.150641
 31
0.0
  0
LINE
  5
8F4
330
1F
100
AcDbEntity
  8
1
  6
CONTINUOUS
370
50
 62
4
100
AcDbLine
 10
54.705017
 20
5.353331
 30
0.0
 11
54.421181
 21
5.442499
 31
0.0
  0
LINE
  5
8F5
330
1F
100
AcDbEntity
  8
1
  6
CONTINUOUS
370
50
 62
4
100
AcDbLine
 10
69.21243299999999
 20
-5.449930999999999
 30
0.0
 11
68.92733799999999
 21
-5.361509
 31
0.0
  0
LINE
  5
8F6
330
1F
100
AcDbEntity
  8
1
  6
CONTINUOUS
370
50
 62
4
100
AcDbLine
 10
26.760996
 20
5.364951
 30
0.0
 11
26.475733
 21
5.45287
 31
0.0
  0
LINE
  5
8F7
330
1F
100
AcDbEntity
  8
1
  6
CONTINUOUS
370
50
 62
4
100
AcDbLine
 10
32.674526
 20
-5.453834
 30
0.0
 11
32.388298
 21
-5.36583
 31
0.0
  0
LINE
  5
8F8
330
1F
100
AcDbEntity
  8
1
  6
CONTINUOUS
370
50
 62
4
100
AcDbLine
 10
81.58341999999999
 20
5.366815
 30
0.0
 11
81.297928
 21
5.454556
 31
0.0
  0
LINE
  5
8F9
330
1F
100
AcDbEntity
  8
1
  6
CONTINUOUS
370
50
 62
4
100
AcDbLine
 10
63.30718599999999
 20
5.366874
 30
0.0
 11
63.021687
 21
5.454607999999999
 31
0.0
  0
LINE
  5
8FA
330
1F
100
AcDbEntity
  8
1
  6
CONTINUOUS
370
50
 62
4
100
AcDbLine
 10
45.031334
 20
5.366827
 30
0.0
 11
44.745735
 21
5.454572
 31
0.0
  0
LINE
  5
8FB
330
1F
100
AcDbEntity
  8
1
  6
CONTINUOUS
370
50
 62
4
100
AcDbLine
 10
77.89544699999999
 20
-5.461412
 30
0.0
 11
77.61393699999999
 21
-5.376064
 31
0.0
  0
LINE
  5
8FC
330
1F
100
AcDbEntity
  8
1
  6
CONTINUOUS
370
50
 62
4
100
AcDbLine
 10
59.619511
 20
-5.461392
 30
0.0
 11
59.337936
 21
-5.376062
 31
0.0
  0
LINE
  5
8FD
330
1F
100
AcDbEntity
  8
1
  6
CONTINUOUS
370
50
 62
4
100
AcDbLine
 10
41.343895
 20
-5.461456999999999
 30
0.0
 11
41.062447
 21
-5.376176
 31
0.0
  0
LINE
  5
8FE
330
1F
100
AcDbEntity
  8
1
  6
CONTINUOUS
370
50
 62
4
100
AcDbLine
 10
23.073418
 20
-5.462986
 30
0.0
 11
22.791649
 21
-5.377822999999999
 31
0.0
  0
LINE
  5
8FF
330
1F
100
AcDbEntity
  8
1
  6
CONTINUOUS
370
50
 62
4
100
AcDbLine
 10
50.985378
 20
-5.463804
 30
0.0
 11
50.697609
 21
-5.376831999999999
 31
0.0
  0
LINE
  5
900
330
1F
100
AcDbEntity
  8
1
  6
CONTINUOUS
370
50
 62
4
100
AcDbLine
 10
87.603653
 20
-5.481897
 30
0.0
 11
87.199753
 21
-5.360379
 31
0.0
  0
LINE
  5
901
330
1F
100
AcDbEntity
  8
1
  6
CONTINUOUS
370
50
 62
4
100
AcDbLine
 10
36.328609
 20
5.386316
 30
0.0
 11
36.051762
 21
5.468916999999999
 31
0.0
  0
LINE
  5
902
330
1F
100
AcDbEntity
  8
1
  6
CONTINUOUS
370
50
 62
4
100
AcDbLine
 10
72.860474
 20
5.39288
 30
0.0
 11
72.582916
 21
5.474745
 31
0.0
  0
LINE
  5
903
330
1F
100
AcDbEntity
  8
1
  6
CONTINUOUS
370
50
 62
4
100
AcDbLine
 10
14.570921
 20
-5.500856
 30
0.0
 11
14.183386
 21
-5.389732
 31
0.0
  0
LINE
  5
904
330
1F
100
AcDbEntity
  8
1
  6
CONTINUOUS
370
50
 62
4
100
AcDbLine
 10
18.018099
 20
5.397392
 30
0.0
 11
17.636831
 21
5.505703
 31
0.0
  0
LINE
  5
905
330
1F
100
AcDbEntity
  8
1
  6
CONTINUOUS
370
50
 62
4
100
AcDbLine
 10
54.421181
 20
5.442499
 30
0.0
 11
54.137505
 21
5.518638
 31
0.0
  0
LINE
  5
906
330
1F
100
AcDbEntity
  8
1
  6
CONTINUOUS
370
50
 62
4
100
AcDbLine
 10
63.971272
 20
3.150596
 30
0.0
 11
63.344925
 21
3.318005
 31
0.0
  0
LINE
  5
907
330
1F
100
AcDbEntity
  8
1
  6
CONTINUOUS
370
50
 62
4
100
AcDbLine
 10
45.695007
 20
3.150641
 30
0.0
 11
45.068714
 21
3.317805
 31
0.0
  0
LINE
  5
908
330
1F
100
AcDbEntity
  8
1
  6
CONTINUOUS
370
50
 62
4
100
AcDbLine
 10
82.246872
 20
3.151519
 30
0.0
 11
81.620544
 21
3.317021
 31
0.0
  0
LINE
  5
909
330
1F
100
AcDbEntity
  8
1
  6
CONTINUOUS
370
50
 62
4
100
AcDbLine
 10
69.49739799999999
 20
-5.525198
 30
0.0
 11
69.21243299999999
 21
-5.449930999999999
 31
0.0
  0
LINE
  5
90A
330
1F
100
AcDbEntity
  8
1
  6
CONTINUOUS
370
50
 62
4
100
AcDbLine
 10
27.418924
 20
3.151649
 30
0.0
 11
26.792624
 21
3.317055
 31
0.0
  0
LINE
  5
90B
330
1F
100
AcDbEntity
  8
1
  6
CONTINUOUS
370
50
 62
4
100
AcDbLine
 10
26.475733
 20
5.45287
 30
0.0
 11
26.19034
 21
5.527699
 31
0.0
  0
LINE
  5
90C
330
1F
100
AcDbEntity
  8
1
  6
CONTINUOUS
370
50
 62
4
100
AcDbLine
 10
32.960491
 20
-5.528675
 30
0.0
 11
32.674526
 21
-5.453834
 31
0.0
  0
LINE
  5
90D
330
1F
100
AcDbEntity
  8
1
  6
CONTINUOUS
370
50
 62
4
100
AcDbLine
 10
44.745735
 20
5.454572
 30
0.0
 11
44.46028099999999
 21
5.529157
 31
0.0
  0
LINE
  5
90E
330
1F
100
AcDbEntity
  8
1
  6
CONTINUOUS
370
50
 62
4
100
AcDbLine
 10
63.021687
 20
5.454607999999999
 30
0.0
 11
62.736095
 21
5.529229
 31
0.0
  0
LINE
  5
90F
330
1F
100
AcDbEntity
  8
1
  6
CONTINUOUS
370
50
 62
4
100
AcDbLine
 10
81.297928
 20
5.454556
 30
0.0
 11
81.012367
 21
5.529165
 31
0.0
  0
LINE
  5
910
330
1F
100
AcDbEntity
  8
1
  6
CONTINUOUS
370
50
 62
4
100
AcDbLine
 10
91.001007
 20
5.434271
 30
0.0
 11
90.555611
 21
5.549958999999999
 31
0.0
  0
LINE
  5
911
330
1F
100
AcDbEntity
  8
1
  6
CONTINUOUS
370
50
 62
4
100
AcDbLine
 10
41.625431
 20
-5.533998
 30
0.0
 11
41.343895
 21
-5.461456999999999
 31
0.0
  0
LINE
  5
912
330
1F
100
AcDbEntity
  8
1
  6
CONTINUOUS
370
50
 62
4
100
AcDbLine
 10
78.17701699999999
 20
-5.533962
 30
0.0
 11
77.89544699999999
 21
-5.461412
 31
0.0
  0
LINE
  5
913
330
1F
100
AcDbEntity
  8
1
  6
CONTINUOUS
370
50
 62
4
100
AcDbLine
 10
59.901073
 20
-5.533932999999999
 30
0.0
 11
59.619511
 21
-5.461392
 31
0.0
  0
LINE
  5
914
330
1F
100
AcDbEntity
  8
1
  6
CONTINUOUS
370
50
 62
4
100
AcDbLine
 10
23.355118
 20
-5.535308
 30
0.0
 11
23.073418
 21
-5.462986
 31
0.0
  0
LINE
  5
915
330
1F
100
AcDbEntity
  8
1
  6
CONTINUOUS
370
50
 62
4
100
AcDbLine
 10
11.1384
 20
3.961877
 30
0.0
 11
10.697778
 21
4.074859
 31
0.0
  0
LINE
  5
916
330
1F
100
AcDbEntity
  8
1
  6
CONTINUOUS
370
50
 62
4
100
AcDbLine
 10
51.273594
 20
-5.53742
 30
0.0
 11
50.985378
 21
-5.463804
 31
0.0
  0
LINE
  5
917
330
1F
100
AcDbEntity
  8
1
  6
CONTINUOUS
370
50
 62
4
100
AcDbLine
 10
36.051762
 20
5.468916999999999
 30
0.0
 11
35.775082
 21
5.539153
 31
0.0
  0
LINE
  5
918
330
1F
100
AcDbEntity
  8
1
  6
CONTINUOUS
370
50
 62
4
100
AcDbLine
 10
72.582916
 20
5.474745
 30
0.0
 11
72.304947
 21
5.54419
 31
0.0
  0
LINE
  5
919
330
1F
100
AcDbEntity
  8
1
  6
CONTINUOUS
370
50
 62
4
100
AcDbLine
 10
10.697778
 20
4.074859
 30
0.0
 11
10.254441
 21
4.18203
 31
0.0
  0
LINE
  5
91A
330
1F
100
AcDbEntity
  8
1
  6
CONTINUOUS
370
50
 62
4
100
AcDbLine
 10
88.00696599999999
 20
-5.576982
 30
0.0
 11
87.603653
 21
-5.481897
 31
0.0
  0
LINE
  5
91B
330
1F
100
AcDbEntity
  8
1
  6
CONTINUOUS
370
50
 62
4
100
AcDbLine
 10
10.254441
 20
4.18203
 30
0.0
 11
9.808971999999999
 21
4.283588
 31
0.0
  0
LINE
  5
91C
330
1F
100
AcDbEntity
  8
1
  6
CONTINUOUS
370
50
 62
4
100
AcDbLine
 10
14.957774
 20
-5.587651
 30
0.0
 11
14.570921
 21
-5.500856
 31
0.0
  0
LINE
  5
91D
330
1F
100
AcDbEntity
  8
1
  6
CONTINUOUS
370
50
 62
4
100
AcDbLine
 10
17.636831
 20
5.505703
 30
0.0
 11
17.255938
 21
5.590428
 31
0.0
  0
LINE
  5
91E
330
1F
100
AcDbEntity
  8
1
  6
CONTINUOUS
370
50
 62
4
100
AcDbLine
 10
54.137505
 20
5.518638
 30
0.0
 11
53.853497
 21
5.581627999999999
 31
0.0
  0
LINE
  5
91F
330
1F
100
AcDbEntity
  8
1
  6
CONTINUOUS
370
50
 62
4
100
AcDbLine
 10
69.782692
 20
-5.587186
 30
0.0
 11
69.49739799999999
 21
-5.525198
 31
0.0
  0
LINE
  5
920
330
1F
100
AcDbEntity
  8
1
  6
CONTINUOUS
370
50
 62
4
100
AcDbLine
 10
26.19034
 20
5.527699
 30
0.0
 11
25.905056
 21
5.589218
 31
0.0
  0
LINE
  5
921
330
1F
100
AcDbEntity
  8
1
  6
CONTINUOUS
370
50
 62
4
100
AcDbLine
 10
33.246147
 20
-5.590127
 30
0.0
 11
32.960491
 21
-5.528675
 31
0.0
  0
LINE
  5
922
330
1F
100
AcDbEntity
  8
1
  6
CONTINUOUS
370
50
 62
4
100
AcDbLine
 10
9.808971999999999
 20
4.283588
 30
0.0
 11
9.361948
 21
4.379733
 31
0.0
  0
LINE
  5
923
330
1F
100
AcDbEntity
  8
1
  6
CONTINUOUS
370
50
 62
4
100
AcDbLine
 10
44.46028099999999
 20
5.529157
 30
0.0
 11
44.174797
 21
5.590440999999999
 31
0.0
  0
LINE
  5
924
330
1F
100
AcDbEntity
  8
1
  6
CONTINUOUS
370
50
 62
4
100
AcDbLine
 10
81.012367
 20
5.529165
 30
0.0
 11
80.726776
 21
5.590463
 31
0.0
  0
LINE
  5
925
330
1F
100
AcDbEntity
  8
1
  6
CONTINUOUS
370
50
 62
4
100
AcDbLine
 10
62.736095
 20
5.529229
 30
0.0
 11
62.45056899999999
 21
5.590496
 31
0.0
  0
LINE
  5
926
330
1F
100
AcDbEntity
  8
1
  6
CONTINUOUS
370
50
 62
4
100
AcDbLine
 10
60.182629
 20
-5.593528
 30
0.0
 11
59.901073
 21
-5.533932999999999
 31
0.0
  0
LINE
  5
927
330
1F
100
AcDbEntity
  8
1
  6
CONTINUOUS
370
50
 62
4
100
AcDbLine
 10
41.90696
 20
-5.593580999999999
 30
0.0
 11
41.625431
 21
-5.533998
 31
0.0
  0
LINE
  5
928
330
1F
100
AcDbEntity
  8
1
  6
CONTINUOUS
370
50
 62
4
100
AcDbLine
 10
78.45857199999999
 20
-5.593541
 30
0.0
 11
78.17701699999999
 21
-5.533962
 31
0.0
  0
LINE
  5
929
330
1F
100
AcDbEntity
  8
1
  6
CONTINUOUS
370
50
 62
4
100
AcDbLine
 10
23.636913
 20
-5.594659
 30
0.0
 11
23.355118
 21
-5.535308
 31
0.0
  0
LINE
  5
92A
330
1F
100
AcDbEntity
  8
1
  6
CONTINUOUS
370
50
 62
4
100
AcDbLine
 10
51.561554
 20
-5.597498
 30
0.0
 11
51.273594
 21
-5.53742
 31
0.0
  0
LINE
  5
92B
330
1F
100
AcDbEntity
  8
1
  6
CONTINUOUS
370
50
 62
4
100
AcDbLine
 10
35.775082
 20
5.539153
 30
0.0
 11
35.498173
 21
5.596877
 31
0.0
  0
LINE
  5
92C
330
1F
100
AcDbEntity
  8
1
  6
CONTINUOUS
370
50
 62
4
100
AcDbLine
 10
26.792624
 20
3.317055
 30
0.0
 11
26.166321
 21
3.446247
 31
0.0
  0
LINE
  5
92D
330
1F
100
AcDbEntity
  8
1
  6
CONTINUOUS
370
50
 62
4
100
AcDbLine
 10
81.620544
 20
3.317021
 30
0.0
 11
80.994225
 21
3.446054
 31
0.0
  0
LINE
  5
92E
330
1F
100
AcDbEntity
  8
1
  6
CONTINUOUS
370
50
 62
4
100
AcDbLine
 10
72.304947
 20
5.54419
 30
0.0
 11
72.027306
 21
5.601026
 31
0.0
  0
LINE
  5
92F
330
1F
100
AcDbEntity
  8
1
  6
CONTINUOUS
370
50
 62
4
100
AcDbLine
 10
45.068714
 20
3.317805
 30
0.0
 11
44.442421
 21
3.445616
 31
0.0
  0
LINE
  5
930
330
1F
100
AcDbEntity
  8
1
  6
CONTINUOUS
370
50
 62
4
100
AcDbLine
 10
63.344925
 20
3.318005
 30
0.0
 11
62.71857499999999
 21
3.445242
 31
0.0
  0
LINE
  5
931
330
1F
100
AcDbEntity
  8
1
  6
CONTINUOUS
370
50
 62
4
100
AcDbLine
 10
9.361948
 20
4.379733
 30
0.0
 11
8.913948
 21
4.470662
 31
0.0
  0
LINE
  5
932
330
1F
100
AcDbEntity
  8
1
  6
CONTINUOUS
370
50
 62
4
100
AcDbLine
 10
95.300224
 20
1.384895
 30
0.0
 11
95.19139899999999
 21
1.406012
 31
0.0
  0
LINE
  5
933
330
1F
100
AcDbEntity
  8
1
  6
CONTINUOUS
370
50
 62
4
100
AcDbLine
 10
8.913948
 20
4.470662
 30
0.0
 11
8.46555
 21
4.556575
 31
0.0
  0
LINE
  5
934
330
1F
100
AcDbEntity
  8
1
  6
CONTINUOUS
370
50
 62
4
100
AcDbLine
 10
90.555611
 20
5.549958999999999
 30
0.0
 11
90.109962
 21
5.633152
 31
0.0
  0
LINE
  5
935
330
1F
100
AcDbEntity
  8
1
  6
CONTINUOUS
370
50
 62
4
100
AcDbLine
 10
8.46555
 20
4.556575
 30
0.0
 11
8.017337
 21
4.637671
 31
0.0
  0
LINE
  5
936
330
1F
100
AcDbEntity
  8
1
  6
CONTINUOUS
370
50
 62
4
100
AcDbLine
 10
53.853497
 20
5.581627999999999
 30
0.0
 11
53.569145
 21
5.631368
 31
0.0
  0
LINE
  5
937
330
1F
100
AcDbEntity
  8
1
  6
CONTINUOUS
370
50
 62
4
100
AcDbLine
 10
70.06824499999999
 20
-5.63577
 30
0.0
 11
69.782692
 21
-5.587186
 31
0.0
  0
LINE
  5
938
330
1F
100
AcDbEntity
  8
1
  6
CONTINUOUS
370
50
 62
4
100
AcDbLine
 10
88.41072799999999
 20
-5.645231
 30
0.0
 11
88.00696599999999
 21
-5.576982
 31
0.0
  0
LINE
  5
939
330
1F
100
AcDbEntity
  8
1
  6
CONTINUOUS
370
50
 62
4
100
AcDbLine
 10
25.905056
 20
5.589218
 30
0.0
 11
25.619793
 21
5.637302
 31
0.0
  0
LINE
  5
93A
330
1F
100
AcDbEntity
  8
1
  6
CONTINUOUS
370
50
 62
4
100
AcDbLine
 10
33.53194
 20
-5.638081
 30
0.0
 11
33.246147
 21
-5.590127
 31
0.0
  0
LINE
  5
93B
330
1F
100
AcDbEntity
  8
1
  6
CONTINUOUS
370
50
 62
4
100
AcDbLine
 10
80.726776
 20
5.590463
 30
0.0
 11
80.441299
 21
5.638282999999999
 31
0.0
  0
LINE
  5
93C
330
1F
100
AcDbEntity
  8
1
  6
CONTINUOUS
370
50
 62
4
100
AcDbLine
 10
44.174797
 20
5.590440999999999
 30
0.0
 11
43.889221
 21
5.638268
 31
0.0
  0
LINE
  5
93D
330
1F
100
AcDbEntity
  8
1
  6
CONTINUOUS
370
50
 62
4
100
AcDbLine
 10
62.45056899999999
 20
5.590496
 30
0.0
 11
62.165066
 21
5.638296
 31
0.0
  0
LINE
  5
93E
330
1F
100
AcDbEntity
  8
1
  6
CONTINUOUS
370
50
 62
4
100
AcDbLine
 10
60.46416499999999
 20
-5.640027
 30
0.0
 11
60.182629
 21
-5.593528
 31
0.0
  0
LINE
  5
93F
330
1F
100
AcDbEntity
  8
1
  6
CONTINUOUS
370
50
 62
4
100
AcDbLine
 10
78.740143
 20
-5.640035
 30
0.0
 11
78.45857199999999
 21
-5.593541
 31
0.0
  0
LINE
  5
940
330
1F
100
AcDbEntity
  8
1
  6
CONTINUOUS
370
50
 62
4
100
AcDbLine
 10
42.188511
 20
-5.640052
 30
0.0
 11
41.90696
 21
-5.593580999999999
 31
0.0
  0
LINE
  5
941
330
1F
100
AcDbEntity
  8
1
  6
CONTINUOUS
370
50
 62
4
100
AcDbLine
 10
23.918671
 20
-5.640884
 30
0.0
 11
23.636913
 21
-5.594659
 31
0.0
  0
LINE
  5
942
330
1F
100
AcDbEntity
  8
1
  6
CONTINUOUS
370
50
 62
4
100
AcDbLine
 10
8.017337
 20
4.637671
 30
0.0
 11
7.690207
 21
4.690878
 31
0.0
  0
LINE
  5
943
330
1F
100
AcDbEntity
  8
1
  6
CONTINUOUS
370
50
 62
4
100
AcDbLine
 10
35.498173
 20
5.596877
 30
0.0
 11
35.220985
 21
5.641893
 31
0.0
  0
LINE
  5
944
330
1F
100
AcDbEntity
  8
1
  6
CONTINUOUS
370
50
 62
4
100
AcDbLine
 10
15.343665
 20
-5.649939
 30
0.0
 11
14.957774
 21
-5.587651
 31
0.0
  0
LINE
  5
945
330
1F
100
AcDbEntity
  8
1
  6
CONTINUOUS
370
50
 62
4
100
AcDbLine
 10
51.84913299999999
 20
-5.643858
 30
0.0
 11
51.561554
 21
-5.597498
 31
0.0
  0
LINE
  5
946
330
1F
100
AcDbEntity
  8
1
  6
CONTINUOUS
370
50
 62
4
100
AcDbLine
 10
17.255938
 20
5.590428
 30
0.0
 11
16.875191
 21
5.65121
 31
0.0
  0
LINE
  5
947
330
1F
100
AcDbEntity
  8
1
  6
CONTINUOUS
370
50
 62
4
100
AcDbLine
 10
72.027306
 20
5.601026
 30
0.0
 11
71.749847
 21
5.645106999999999
 31
0.0
  0
LINE
  5
948
330
1F
100
AcDbEntity
  8
1
  6
CONTINUOUS
370
50
 62
4
100
AcDbLine
 10
62.71857499999999
 20
3.445242
 30
0.0
 11
62.092228
 21
3.534527
 31
0.0
  0
LINE
  5
949
330
1F
100
AcDbEntity
  8
1
  6
CONTINUOUS
370
50
 62
4
100
AcDbLine
 10
44.442421
 20
3.445616
 30
0.0
 11
43.816128
 21
3.534001
 31
0.0
  0
LINE
  5
94A
330
1F
100
AcDbEntity
  8
1
  6
CONTINUOUS
370
50
 62
4
100
AcDbLine
 10
80.994225
 20
3.446054
 30
0.0
 11
80.367897
 21
3.533533
 31
0.0
  0
LINE
  5
94B
330
1F
100
AcDbEntity
  8
1
  6
CONTINUOUS
370
50
 62
4
100
AcDbLine
 10
26.166321
 20
3.446247
 30
0.0
 11
25.540018
 21
3.533395
 31
0.0
  0
LINE
  5
94C
330
1F
100
AcDbEntity
  8
1
  6
CONTINUOUS
370
50
 62
4
100
AcDbLine
 10
7.690207
 20
4.690878
 30
0.0
 11
7.360875
 21
4.735913
 31
0.0
  0
LINE
  5
94D
330
1F
100
AcDbEntity
  8
1
  6
CONTINUOUS
370
50
 62
4
100
AcDbLine
 10
53.569145
 20
5.631368
 30
0.0
 11
53.285141
 21
5.667691
 31
0.0
  0
LINE
  5
94E
330
1F
100
AcDbEntity
  8
1
  6
CONTINUOUS
370
50
 62
4
100
AcDbLine
 10
70.35334
 20
-5.670808999999999
 30
0.0
 11
70.06824499999999
 21
-5.63577
 31
0.0
  0
LINE
  5
94F
330
1F
100
AcDbEntity
  8
1
  6
CONTINUOUS
370
50
 62
4
100
AcDbLine
 10
25.619793
 20
5.637302
 30
0.0
 11
25.334438
 21
5.671838999999999
 31
0.0
  0
LINE
  5
950
330
1F
100
AcDbEntity
  8
1
  6
CONTINUOUS
370
50
 62
4
100
AcDbLine
 10
33.818199
 20
-5.67242
 30
0.0
 11
33.53194
 21
-5.638081
 31
0.0
  0
LINE
  5
951
330
1F
100
AcDbEntity
  8
1
  6
CONTINUOUS
370
50
 62
4
100
AcDbLine
 10
80.441299
 20
5.638282999999999
 30
0.0
 11
80.155746
 21
5.672536
 31
0.0
  0
LINE
  5
952
330
1F
100
AcDbEntity
  8
1
  6
CONTINUOUS
370
50
 62
4
100
AcDbLine
 10
62.165066
 20
5.638296
 30
0.0
 11
61.879482
 21
5.672535
 31
0.0
  0
LINE
  5
953
330
1F
100
AcDbEntity
  8
1
  6
CONTINUOUS
370
50
 62
4
100
AcDbLine
 10
43.889221
 20
5.638268
 30
0.0
 11
43.603718
 21
5.672497
 31
0.0
  0
LINE
  5
954
330
1F
100
AcDbEntity
  8
1
  6
CONTINUOUS
370
50
 62
4
100
AcDbLine
 10
79.021667
 20
-5.673323
 30
0.0
 11
78.740143
 21
-5.640035
 31
0.0
  0
LINE
  5
955
330
1F
100
AcDbEntity
  8
1
  6
CONTINUOUS
370
50
 62
4
100
AcDbLine
 10
60.74571599999999
 20
-5.673309
 30
0.0
 11
60.46416499999999
 21
-5.640027
 31
0.0
  0
LINE
  5
956
330
1F
100
AcDbEntity
  8
1
  6
CONTINUOUS
370
50
 62
4
100
AcDbLine
 10
42.469891
 20
-5.673299
 30
0.0
 11
42.188511
 21
-5.640052
 31
0.0
  0
LINE
  5
957
330
1F
100
AcDbEntity
  8
1
  6
CONTINUOUS
370
50
 62
4
100
AcDbLine
 10
24.200348
 20
-5.67388
 30
0.0
 11
23.918671
 21
-5.640884
 31
0.0
  0
LINE
  5
958
330
1F
100
AcDbEntity
  8
1
  6
CONTINUOUS
370
50
 62
4
100
AcDbLine
 10
35.220985
 20
5.641893
 30
0.0
 11
34.943756
 21
5.674113999999999
 31
0.0
  0
LINE
  5
959
330
1F
100
AcDbEntity
  8
1
  6
CONTINUOUS
370
50
 62
4
100
AcDbLine
 10
52.136818
 20
-5.676409
 30
0.0
 11
51.84913299999999
 21
-5.643858
 31
0.0
  0
LINE
  5
95A
330
1F
100
AcDbEntity
  8
1
  6
CONTINUOUS
370
50
 62
4
100
AcDbLine
 10
71.749847
 20
5.645106999999999
 30
0.0
 11
71.472145
 21
5.67634
 31
0.0
  0
LINE
  5
95B
330
1F
100
AcDbEntity
  8
1
  6
CONTINUOUS
370
50
 62
4
100
AcDbLine
 10
90.109962
 20
5.633152
 30
0.0
 11
89.66378
 21
5.68325
 31
0.0
  0
LINE
  5
95C
330
1F
100
AcDbEntity
  8
1
  6
CONTINUOUS
370
50
 62
4
100
AcDbLine
 10
7.360875
 20
4.735913
 30
0.0
 11
7.029535
 21
4.772821
 31
0.0
  0
LINE
  5
95D
330
1F
100
AcDbEntity
  8
1
  6
CONTINUOUS
370
50
 62
4
100
AcDbLine
 10
88.814774
 20
-5.686298
 30
0.0
 11
88.41072799999999
 21
-5.645231
 31
0.0
  0
LINE
  5
95E
330
1F
100
AcDbEntity
  8
1
  6
CONTINUOUS
370
50
 62
4
100
AcDbLine
 10
15.728498
 20
-5.687393
 30
0.0
 11
15.343665
 21
-5.649939
 31
0.0
  0
LINE
  5
95F
330
1F
100
AcDbEntity
  8
1
  6
CONTINUOUS
370
50
 62
4
100
AcDbLine
 10
16.875191
 20
5.65121
 30
0.0
 11
16.494164
 21
5.687747
 31
0.0
  0
LINE
  5
960
330
1F
100
AcDbEntity
  8
1
  6
CONTINUOUS
370
50
 62
4
100
AcDbLine
 10
7.029535
 20
4.772821
 30
0.0
 11
6.696377999999999
 21
4.80165
 31
0.0
  0
LINE
  5
961
330
1F
100
AcDbEntity
  8
1
  6
CONTINUOUS
370
50
 62
4
100
AcDbLine
 10
53.285141
 20
5.667691
 30
0.0
 11
53.001122
 21
5.690507999999999
 31
0.0
  0
LINE
  5
962
330
1F
100
AcDbEntity
  8
1
  6
CONTINUOUS
370
50
 62
4
100
AcDbLine
 10
25.540018
 20
3.533395
 30
0.0
 11
24.913717
 21
3.581659
 31
0.0
  0
LINE
  5
963
330
1F
100
AcDbEntity
  8
1
  6
CONTINUOUS
370
50
 62
4
100
AcDbLine
 10
80.367897
 20
3.533533
 30
0.0
 11
79.74157
 21
3.581438
 31
0.0
  0
LINE
  5
964
330
1F
100
AcDbEntity
  8
1
  6
CONTINUOUS
370
50
 62
4
100
AcDbLine
 10
43.816128
 20
3.534001
 30
0.0
 11
43.189835
 21
3.581496
 31
0.0
  0
LINE
  5
965
330
1F
100
AcDbEntity
  8
1
  6
CONTINUOUS
370
50
 62
4
100
AcDbLine
 10
70.638359
 20
-5.692222
 30
0.0
 11
70.35334
 21
-5.670808999999999
 31
0.0
  0
LINE
  5
966
330
1F
100
AcDbEntity
  8
1
  6
CONTINUOUS
370
50
 62
4
100
AcDbLine
 10
62.092228
 20
3.534527
 30
0.0
 11
61.465881
 21
3.580816
 31
0.0
  0
LINE
  5
967
330
1F
100
AcDbEntity
  8
1
  6
CONTINUOUS
370
50
 62
4
100
AcDbLine
 10
25.334438
 20
5.671838999999999
 30
0.0
 11
25.049162
 21
5.692721
 31
0.0
  0
LINE
  5
968
330
1F
100
AcDbEntity
  8
1
  6
CONTINUOUS
370
50
 62
4
100
AcDbLine
 10
34.104359
 20
-5.693053
 30
0.0
 11
33.818199
 21
-5.67242
 31
0.0
  0
LINE
  5
969
330
1F
100
AcDbEntity
  8
1
  6
CONTINUOUS
370
50
 62
4
100
AcDbLine
 10
43.603718
 20
5.672497
 30
0.0
 11
43.318199
 21
5.693074999999999
 31
0.0
  0
LINE
  5
96A
330
1F
100
AcDbEntity
  8
1
  6
CONTINUOUS
370
50
 62
4
100
AcDbLine
 10
80.155746
 20
5.672536
 30
0.0
 11
79.87018599999999
 21
5.693117
 31
0.0
  0
LINE
  5
96B
330
1F
100
AcDbEntity
  8
1
  6
CONTINUOUS
370
50
 62
4
100
AcDbLine
 10
61.879482
 20
5.672535
 30
0.0
 11
61.59390999999999
 21
5.693111
 31
0.0
  0
LINE
  5
96C
330
1F
100
AcDbEntity
  8
1
  6
CONTINUOUS
370
50
 62
4
100
AcDbLine
 10
79.30319999999999
 20
-5.693321999999999
 30
0.0
 11
79.021667
 21
-5.673323
 31
0.0
  0
LINE
  5
96D
330
1F
100
AcDbEntity
  8
1
  6
CONTINUOUS
370
50
 62
4
100
AcDbLine
 10
61.027142
 20
-5.693296
 30
0.0
 11
60.74571599999999
 21
-5.673309
 31
0.0
  0
LINE
  5
96E
330
1F
100
AcDbEntity
  8
1
  6
CONTINUOUS
370
50
 62
4
100
AcDbLine
 10
42.751217
 20
-5.693277
 30
0.0
 11
42.469891
 21
-5.673299
 31
0.0
  0
LINE
  5
96F
330
1F
100
AcDbEntity
  8
1
  6
CONTINUOUS
370
50
 62
4
100
AcDbLine
 10
24.482103
 20
-5.69358
 30
0.0
 11
24.200348
 21
-5.67388
 31
0.0
  0
LINE
  5
970
330
1F
100
AcDbEntity
  8
1
  6
CONTINUOUS
370
50
 62
4
100
AcDbLine
 10
34.943756
 20
5.674113999999999
 30
0.0
 11
34.666729
 21
5.69348
 31
0.0
  0
LINE
  5
971
330
1F
100
AcDbEntity
  8
1
  6
CONTINUOUS
370
50
 62
4
100
AcDbLine
 10
71.472145
 20
5.67634
 30
0.0
 11
71.19416799999999
 21
5.694622
 31
0.0
  0
LINE
  5
972
330
1F
100
AcDbEntity
  8
1
  6
CONTINUOUS
370
50
 62
4
100
AcDbLine
 10
52.4249
 20
-5.695065
 30
0.0
 11
52.136818
 21
-5.676409
 31
0.0
  0
LINE
  5
973
330
1F
100
AcDbEntity
  8
1
  6
CONTINUOUS
370
50
 62
4
100
AcDbLine
 10
6.696377999999999
 20
4.80165
 30
0.0
 11
6.361598
 21
4.822446999999999
 31
0.0
  0
LINE
  5
974
330
1F
100
AcDbEntity
  8
1
  6
CONTINUOUS
370
50
 62
4
100
AcDbLine
 10
6.361598
 20
4.822446999999999
 30
0.0
 11
6.025388
 21
4.835258
 31
0.0
  0
LINE
  5
975
330
1F
100
AcDbEntity
  8
1
  6
CONTINUOUS
370
50
 62
4
100
AcDbLine
 10
89.66378
 20
5.68325
 30
0.0
 11
89.218071
 21
5.699996
 31
0.0
  0
LINE
  5
976
330
1F
100
AcDbEntity
  8
1
  6
CONTINUOUS
370
50
 62
4
100
AcDbLine
 10
89.218071
 20
-5.699996
 30
0.0
 11
88.814774
 21
-5.686298
 31
0.0
  0
LINE
  5
977
330
1F
100
AcDbEntity
  8
1
  6
CONTINUOUS
370
50
 62
4
100
AcDbLine
 10
16.113363
 20
-5.699916
 30
0.0
 11
15.728498
 21
-5.687393
 31
0.0
  0
LINE
  5
978
330
1F
100
AcDbEntity
  8
1
  6
CONTINUOUS
370
50
 62
4
100
AcDbLine
 10
16.494164
 20
5.687747
 30
0.0
 11
16.113363
 21
5.699916
 31
0.0
  0
LINE
  5
979
330
1F
100
AcDbEntity
  8
1
  6
CONTINUOUS
370
50
 62
4
100
AcDbLine
 10
70.927544
 20
-5.699959
 30
0.0
 11
70.638359
 21
-5.692222
 31
0.0
  0
LINE
  5
97A
330
1F
100
AcDbEntity
  8
1
  6
CONTINUOUS
370
50
 62
4
100
AcDbLine
 10
25.049162
 20
5.692721
 30
0.0
 11
24.763893
 21
5.69992
 31
0.0
  0
LINE
  5
97B
330
1F
100
AcDbEntity
  8
1
  6
CONTINUOUS
370
50
 62
4
100
AcDbLine
 10
34.390057
 20
-5.699935
 30
0.0
 11
34.104359
 21
-5.693053
 31
0.0
  0
LINE
  5
97C
330
1F
100
AcDbEntity
  8
1
  6
CONTINUOUS
370
50
 62
4
100
AcDbLine
 10
79.87018599999999
 20
5.693117
 30
0.0
 11
79.584679
 21
5.699985
 31
0.0
  0
LINE
  5
97D
330
1F
100
AcDbEntity
  8
1
  6
CONTINUOUS
370
50
 62
4
100
AcDbLine
 10
43.318199
 20
5.693074999999999
 30
0.0
 11
43.032635
 21
5.699943999999999
 31
0.0
  0
LINE
  5
97E
330
1F
100
AcDbEntity
  8
1
  6
CONTINUOUS
370
50
 62
4
100
AcDbLine
 10
61.59390999999999
 20
5.693111
 30
0.0
 11
61.30842999999999
 21
5.699965
 31
0.0
  0
LINE
  5
97F
330
1F
100
AcDbEntity
  8
1
  6
CONTINUOUS
370
50
 62
4
100
AcDbLine
 10
61.30847499999999
 20
-5.699965
 30
0.0
 11
61.027142
 21
-5.693296
 31
0.0
  0
LINE
  5
980
330
1F
100
AcDbEntity
  8
1
  6
CONTINUOUS
370
50
 62
4
100
AcDbLine
 10
43.032627
 20
-5.699943999999999
 30
0.0
 11
42.751217
 21
-5.693277
 31
0.0
  0
LINE
  5
981
330
1F
100
AcDbEntity
  8
1
  6
CONTINUOUS
370
50
 62
4
100
AcDbLine
 10
79.584694
 20
-5.699985
 30
0.0
 11
79.30319999999999
 21
-5.693321999999999
 31
0.0
  0
LINE
  5
982
330
1F
100
AcDbEntity
  8
1
  6
CONTINUOUS
370
50
 62
4
100
AcDbLine
 10
34.666729
 20
5.69348
 30
0.0
 11
34.390057
 21
5.699935
 31
0.0
  0
LINE
  5
983
330
1F
100
AcDbEntity
  8
1
  6
CONTINUOUS
370
50
 62
4
100
AcDbLine
 10
24.763893
 20
-5.69992
 30
0.0
 11
24.482103
 21
-5.69358
 31
0.0
  0
LINE
  5
984
330
1F
100
AcDbEntity
  8
1
  6
CONTINUOUS
370
50
 62
4
100
AcDbLine
 10
71.19416799999999
 20
5.694622
 30
0.0
 11
70.916153
 21
5.699921
 31
0.0
  0
LINE
  5
985
330
1F
100
AcDbEntity
  8
1
  6
CONTINUOUS
370
50
 62
4
100
AcDbLine
 10
52.713078
 20
-5.69977
 30
0.0
 11
52.4249
 21
-5.695065
 31
0.0
  0
LINE
  5
986
330
1F
100
AcDbEntity
  8
1
  6
CONTINUOUS
370
50
 62
4
100
AcDbLine
 10
6.025388
 20
4.835258
 30
0.0
 11
5.687939999999999
 21
4.840132
 31
0.0
  0
LINE
  5
987
330
1F
100
AcDbEntity
  8
1
  6
CONTINUOUS
370
50
 62
4
100
AcDbLine
 10
61.465881
 20
3.580816
 30
0.0
 11
60.839535
 21
3.587687
 31
0.0
  0
LINE
  5
988
330
1F
100
AcDbEntity
  8
1
  6
CONTINUOUS
370
50
 62
4
100
AcDbLine
 10
79.74157
 20
3.581438
 30
0.0
 11
79.115242
 21
3.586964
 31
0.0
  0
LINE
  5
989
330
1F
100
AcDbEntity
  8
1
  6
CONTINUOUS
370
50
 62
4
100
AcDbLine
 10
43.189835
 20
3.581496
 30
0.0
 11
42.563545
 21
3.586956
 31
0.0
  0
LINE
  5
98A
330
1F
100
AcDbEntity
  8
1
  6
CONTINUOUS
370
50
 62
4
100
AcDbLine
 10
24.913717
 20
3.581659
 30
0.0
 11
24.287415
 21
3.586676
 31
0.0
  0
LINE
  5
98B
330
1F
100
AcDbEntity
  8
1
  6
CONTINUOUS
370
50
 62
4
100
AcDbLine
 10
16.113506
 20
-5.699915
 30
0.0
 11
2.52
 21
-5.6999
 31
0.0
  0
LINE
  5
98C
330
1F
100
AcDbEntity
  8
1
  6
CONTINUOUS
370
50
 62
4
100
AcDbLine
 10
52.665825
 20
-5.699955
 30
0.0
 11
43.032555
 21
-5.699943999999999
 31
0.0
  0
LINE
  5
98D
330
1F
100
AcDbEntity
  8
1
  6
CONTINUOUS
370
50
 62
4
100
AcDbLine
 10
34.389946
 20
-5.699935
 30
0.0
 11
24.756069
 21
-5.699923999999999
 31
0.0
  0
LINE
  5
98E
330
1F
100
AcDbEntity
  8
1
  6
CONTINUOUS
370
50
 62
4
100
AcDbLine
 10
70.942482
 20
-5.699974999999999
 30
0.0
 11
61.308891
 21
-5.699965
 31
0.0
  0
LINE
  5
98F
330
1F
100
AcDbEntity
  8
1
  6
CONTINUOUS
370
50
 62
4
100
AcDbLine
 10
89.217834
 20
-5.699996
 30
0.0
 11
79.58429
 21
-5.699985
 31
0.0
  0
LINE
  5
990
330
1F
100
AcDbEntity
  8
1
  6
CONTINUOUS
370
50
 62
4
100
AcDbLine
 10
0.0
 20
-6.0
 30
0.0
 11
1.0
 21
-6.0
 31
0.0
  0
LINE
  5
991
330
1F
100
AcDbEntity
  8
1
  6
CONTINUOUS
370
50
 62
4
100
AcDbLine
 10
1.519615
 20
-5.7
 30
0.0
 11
2.52
 21
-5.7
 31
0.0
  0
LINE
  5
992
330
1F
100
AcDbEntity
  8
1
  6
CONTINUOUS
370
50
 62
4
100
AcDbLine
 10
1.519615
 20
5.7
 30
0.0
 11
2.52
 21
5.7
 31
0.0
  0
LINE
  5
993
330
1F
100
AcDbEntity
  8
1
  6
CONTINUOUS
370
50
 62
4
100
AcDbLine
 10
0.0
 20
6.0
 30
0.0
 11
1.0
 21
6.0
 31
0.0
  0
LINE
  5
994
330
1F
100
AcDbEntity
  8
1
  6
CONTINUOUS
370
50
 62
4
100
AcDbLine
 10
24.756069
 20
5.699923999999999
 30
0.0
 11
34.389946
 21
5.699935
 31
0.0
  0
LINE
  5
995
330
1F
100
AcDbEntity
  8
1
  6
CONTINUOUS
370
50
 62
4
100
AcDbLine
 10
61.309002
 20
5.699965
 30
0.0
 11
70.942482
 21
5.699974999999999
 31
0.0
  0
LINE
  5
996
330
1F
100
AcDbEntity
  8
1
  6
CONTINUOUS
370
50
 62
4
100
AcDbLine
 10
2.52
 20
5.6999
 30
0.0
 11
16.113506
 21
5.699915
 31
0.0
  0
LINE
  5
997
330
1F
100
AcDbEntity
  8
1
  6
CONTINUOUS
370
50
 62
4
100
AcDbLine
 10
43.032547
 20
5.699943999999999
 30
0.0
 11
52.665825
 21
5.699955
 31
0.0
  0
LINE
  5
998
330
1F
100
AcDbEntity
  8
1
  6
CONTINUOUS
370
50
 62
4
100
AcDbLine
 10
79.58431999999999
 20
5.699985
 30
0.0
 11
89.217834
 21
5.699996
 31
0.0
  0
LINE
  5
999
330
1F
100
AcDbEntity
  8
1
  6
CONTINUOUS
370
50
 62
4
100
AcDbLine
 10
5.352471
 20
4.837085
 30
0.0
 11
5.687939999999999
 21
4.840132
 31
0.0
  0
LINE
  5
99A
330
1F
100
AcDbEntity
  8
1
  6
CONTINUOUS
370
50
 62
4
100
AcDbLine
 10
70.927544
 20
-5.699959
 30
0.0
 11
71.216957
 21
-5.693612
 31
0.0
  0
LINE
  5
99B
330
1F
100
AcDbEntity
  8
1
  6
CONTINUOUS
370
50
 62
4
100
AcDbLine
 10
24.475245
 20
5.693258999999999
 30
0.0
 11
24.763893
 21
5.69992
 31
0.0
  0
LINE
  5
99C
330
1F
100
AcDbEntity
  8
1
  6
CONTINUOUS
370
50
 62
4
100
AcDbLine
 10
79.29654699999999
 20
5.693003
 30
0.0
 11
79.584679
 21
5.699985
 31
0.0
  0
LINE
  5
99D
330
1F
100
AcDbEntity
  8
1
  6
CONTINUOUS
370
50
 62
4
100
AcDbLine
 10
42.74461
 20
5.692959999999999
 30
0.0
 11
43.032635
 21
5.699943999999999
 31
0.0
  0
LINE
  5
99E
330
1F
100
AcDbEntity
  8
1
  6
CONTINUOUS
370
50
 62
4
100
AcDbLine
 10
34.390057
 20
-5.699935
 30
0.0
 11
34.677906
 21
-5.692946999999999
 31
0.0
  0
LINE
  5
99F
330
1F
100
AcDbEntity
  8
1
  6
CONTINUOUS
370
50
 62
4
100
AcDbLine
 10
61.02034
 20
5.692968
 30
0.0
 11
61.30842999999999
 21
5.699965
 31
0.0
  0
LINE
  5
9A0
330
1F
100
AcDbEntity
  8
1
  6
CONTINUOUS
370
50
 62
4
100
AcDbLine
 10
70.638359
 20
5.692222
 30
0.0
 11
70.916153
 21
5.699921
 31
0.0
  0
LINE
  5
9A1
330
1F
100
AcDbEntity
  8
1
  6
CONTINUOUS
370
50
 62
4
100
AcDbLine
 10
52.713078
 20
-5.69977
 30
0.0
 11
53.001122
 21
-5.690507999999999
 31
0.0
  0
LINE
  5
9A2
330
1F
100
AcDbEntity
  8
1
  6
CONTINUOUS
370
50
 62
4
100
AcDbLine
 10
16.113363
 20
-5.699916
 30
0.0
 11
16.506264
 21
-5.686961999999999
 31
0.0
  0
LINE
  5
9A3
330
1F
100
AcDbEntity
  8
1
  6
CONTINUOUS
370
50
 62
4
100
AcDbLine
 10
5.027564
 20
4.826174
 30
0.0
 11
5.352471
 21
4.837085
 31
0.0
  0
LINE
  5
9A4
330
1F
100
AcDbEntity
  8
1
  6
CONTINUOUS
370
50
 62
4
100
AcDbLine
 10
89.218071
 20
-5.699996
 30
0.0
 11
89.66378
 21
-5.68325
 31
0.0
  0
LINE
  5
9A5
330
1F
100
AcDbEntity
  8
1
  6
CONTINUOUS
370
50
 62
4
100
AcDbLine
 10
23.661112
 20
3.551657
 30
0.0
 11
24.287415
 21
3.586676
 31
0.0
  0
LINE
  5
9A6
330
1F
100
AcDbEntity
  8
1
  6
CONTINUOUS
370
50
 62
4
100
AcDbLine
 10
41.937252
 20
3.551828
 30
0.0
 11
42.563545
 21
3.586956
 31
0.0
  0
LINE
  5
9A7
330
1F
100
AcDbEntity
  8
1
  6
CONTINUOUS
370
50
 62
4
100
AcDbLine
 10
78.488922
 20
3.55143
 30
0.0
 11
79.115242
 21
3.586964
 31
0.0
  0
LINE
  5
9A8
330
1F
100
AcDbEntity
  8
1
  6
CONTINUOUS
370
50
 62
4
100
AcDbLine
 10
60.213188
 20
3.551051
 30
0.0
 11
60.839535
 21
3.587687
 31
0.0
  0
LINE
  5
9A9
330
1F
100
AcDbEntity
  8
1
  6
CONTINUOUS
370
50
 62
4
100
AcDbLine
 10
4.714396
 20
4.807625
 30
0.0
 11
5.027564
 21
4.826174
 31
0.0
  0
LINE
  5
9AA
330
1F
100
AcDbEntity
  8
1
  6
CONTINUOUS
370
50
 62
4
100
AcDbLine
 10
71.216957
 20
-5.693612
 30
0.0
 11
71.50631
 21
-5.673197
 31
0.0
  0
LINE
  5
9AB
330
1F
100
AcDbEntity
  8
1
  6
CONTINUOUS
370
50
 62
4
100
AcDbLine
 10
24.186636
 20
5.672581
 30
0.0
 11
24.475245
 21
5.693258999999999
 31
0.0
  0
LINE
  5
9AC
330
1F
100
AcDbEntity
  8
1
  6
CONTINUOUS
370
50
 62
4
100
AcDbLine
 10
42.45667299999999
 20
5.672034
 30
0.0
 11
42.74461
 21
5.692959999999999
 31
0.0
  0
LINE
  5
9AD
330
1F
100
AcDbEntity
  8
1
  6
CONTINUOUS
370
50
 62
4
100
AcDbLine
 10
79.008377
 20
5.67205
 30
0.0
 11
79.29654699999999
 21
5.693003
 31
0.0
  0
LINE
  5
9AE
330
1F
100
AcDbEntity
  8
1
  6
CONTINUOUS
370
50
 62
4
100
AcDbLine
 10
34.677906
 20
-5.692946999999999
 30
0.0
 11
34.966141
 21
-5.671988
 31
0.0
  0
LINE
  5
9AF
330
1F
100
AcDbEntity
  8
1
  6
CONTINUOUS
370
50
 62
4
100
AcDbLine
 10
60.73218499999999
 20
5.672010999999999
 30
0.0
 11
61.02034
 21
5.692968
 31
0.0
  0
LINE
  5
9B0
330
1F
100
AcDbEntity
  8
1
  6
CONTINUOUS
370
50
 62
4
100
AcDbLine
 10
53.001122
 20
-5.690507999999999
 30
0.0
 11
53.307762
 21
-5.665291
 31
0.0
  0
LINE
  5
9B1
330
1F
100
AcDbEntity
  8
1
  6
CONTINUOUS
370
50
 62
4
100
AcDbLine
 10
4.413709
 20
4.781671
 30
0.0
 11
4.714396
 21
4.807625
 31
0.0
  0
LINE
  5
9B2
330
1F
100
AcDbEntity
  8
1
  6
CONTINUOUS
370
50
 62
4
100
AcDbLine
 10
95.300224
 20
1.384895
 30
0.0
 11
95.39400499999999
 21
1.393444
 31
0.0
  0
LINE
  5
9B3
330
1F
100
AcDbEntity
  8
1
  6
CONTINUOUS
370
50
 62
4
100
AcDbLine
 10
16.506264
 20
-5.686961999999999
 30
0.0
 11
16.899364
 21
-5.648069
 31
0.0
  0
LINE
  5
9B4
330
1F
100
AcDbEntity
  8
1
  6
CONTINUOUS
370
50
 62
4
100
AcDbLine
 10
89.66378
 20
-5.68325
 30
0.0
 11
90.109962
 21
-5.633152
 31
0.0
  0
LINE
  5
9B5
330
1F
100
AcDbEntity
  8
1
  6
CONTINUOUS
370
50
 62
4
100
AcDbLine
 10
4.126242
 20
4.748542
 30
0.0
 11
4.413709
 21
4.781671
 31
0.0
  0
LINE
  5
9B6
330
1F
100
AcDbEntity
  8
1
  6
CONTINUOUS
370
50
 62
4
100
AcDbLine
 10
71.50631
 20
-5.673197
 30
0.0
 11
71.795334
 21
-5.638758999999999
 31
0.0
  0
LINE
  5
9B7
330
1F
100
AcDbEntity
  8
1
  6
CONTINUOUS
370
50
 62
4
100
AcDbLine
 10
23.898104
 20
5.637956
 30
0.0
 11
24.186636
 21
5.672581
 31
0.0
  0
LINE
  5
9B8
330
1F
100
AcDbEntity
  8
1
  6
CONTINUOUS
370
50
 62
4
100
AcDbLine
 10
34.966141
 20
-5.671988
 30
0.0
 11
35.254566
 21
-5.637119999999999
 31
0.0
  0
LINE
  5
9B9
330
1F
100
AcDbEntity
  8
1
  6
CONTINUOUS
370
50
 62
4
100
AcDbLine
 10
42.168667
 20
5.637208999999999
 30
0.0
 11
42.45667299999999
 21
5.672034
 31
0.0
  0
LINE
  5
9BA
330
1F
100
AcDbEntity
  8
1
  6
CONTINUOUS
370
50
 62
4
100
AcDbLine
 10
78.720398
 20
5.63721
 30
0.0
 11
79.008377
 21
5.67205
 31
0.0
  0
LINE
  5
9BB
330
1F
100
AcDbEntity
  8
1
  6
CONTINUOUS
370
50
 62
4
100
AcDbLine
 10
60.444138
 20
5.637151999999999
 30
0.0
 11
60.73218499999999
 21
5.672010999999999
 31
0.0
  0
LINE
  5
9BC
330
1F
100
AcDbEntity
  8
1
  6
CONTINUOUS
370
50
 62
4
100
AcDbLine
 10
59.586842
 20
3.475044
 30
0.0
 11
60.213188
 21
3.551051
 31
0.0
  0
LINE
  5
9BD
330
1F
100
AcDbEntity
  8
1
  6
CONTINUOUS
370
50
 62
4
100
AcDbLine
 10
77.862595
 20
3.474774
 30
0.0
 11
78.488922
 21
3.55143
 31
0.0
  0
LINE
  5
9BE
330
1F
100
AcDbEntity
  8
1
  6
CONTINUOUS
370
50
 62
4
100
AcDbLine
 10
23.034809
 20
3.474405
 30
0.0
 11
23.661112
 21
3.551657
 31
0.0
  0
LINE
  5
9BF
330
1F
100
AcDbEntity
  8
1
  6
CONTINUOUS
370
50
 62
4
100
AcDbLine
 10
41.310959
 20
3.474336
 30
0.0
 11
41.937252
 21
3.551828
 31
0.0
  0
LINE
  5
9C0
330
1F
100
AcDbEntity
  8
1
  6
CONTINUOUS
370
50
 62
4
100
AcDbLine
 10
53.307762
 20
-5.665291
 30
0.0
 11
53.61442599999999
 21
-5.624338
 31
0.0
  0
LINE
  5
9C1
330
1F
100
AcDbEntity
  8
1
  6
CONTINUOUS
370
50
 62
4
100
AcDbLine
 10
3.852735
 20
4.708472
 30
0.0
 11
4.126242
 21
4.748542
 31
0.0
  0
LINE
  5
9C2
330
1F
100
AcDbEntity
  8
1
  6
CONTINUOUS
370
50
 62
4
100
AcDbLine
 10
16.899364
 20
-5.648069
 30
0.0
 11
17.292187
 21
-5.583387
 31
0.0
  0
LINE
  5
9C3
330
1F
100
AcDbEntity
  8
1
  6
CONTINUOUS
370
50
 62
4
100
AcDbLine
 10
71.795334
 20
-5.638758999999999
 30
0.0
 11
72.084167
 21
-5.590415999999999
 31
0.0
  0
LINE
  5
9C4
330
1F
100
AcDbEntity
  8
1
  6
CONTINUOUS
370
50
 62
4
100
AcDbLine
 10
23.60947
 20
5.589454
 30
0.0
 11
23.898104
 21
5.637956
 31
0.0
  0
LINE
  5
9C5
330
1F
100
AcDbEntity
  8
1
  6
CONTINUOUS
370
50
 62
4
100
AcDbLine
 10
41.880489
 20
5.588536
 30
0.0
 11
42.168667
 21
5.637208999999999
 31
0.0
  0
LINE
  5
9C6
330
1F
100
AcDbEntity
  8
1
  6
CONTINUOUS
370
50
 62
4
100
AcDbLine
 10
78.43247199999999
 20
5.588573999999999
 30
0.0
 11
78.720398
 21
5.63721
 31
0.0
  0
LINE
  5
9C7
330
1F
100
AcDbEntity
  8
1
  6
CONTINUOUS
370
50
 62
4
100
AcDbLine
 10
35.254566
 20
-5.637119999999999
 30
0.0
 11
35.542919
 21
-5.58841
 31
0.0
  0
LINE
  5
9C8
330
1F
100
AcDbEntity
  8
1
  6
CONTINUOUS
370
50
 62
4
100
AcDbLine
 10
60.156021
 20
5.588454
 30
0.0
 11
60.444138
 21
5.637151999999999
 31
0.0
  0
LINE
  5
9C9
330
1F
100
AcDbEntity
  8
1
  6
CONTINUOUS
370
50
 62
4
100
AcDbLine
 10
3.593929
 20
4.661693
 30
0.0
 11
3.852735
 21
4.708472
 31
0.0
  0
LINE
  5
9CA
330
1F
100
AcDbEntity
  8
1
  6
CONTINUOUS
370
50
 62
4
100
AcDbLine
 10
53.61442599999999
 20
-5.624338
 30
0.0
 11
53.921432
 21
-5.567775
 31
0.0
  0
LINE
  5
9CB
330
1F
100
AcDbEntity
  8
1
  6
CONTINUOUS
370
50
 62
4
100
AcDbLine
 10
40.684666
 20
3.358016
 30
0.0
 11
41.310959
 21
3.474336
 31
0.0
  0
LINE
  5
9CC
330
1F
100
AcDbEntity
  8
1
  6
CONTINUOUS
370
50
 62
4
100
AcDbLine
 10
22.408508
 20
3.357645
 30
0.0
 11
23.034809
 21
3.474405
 31
0.0
  0
LINE
  5
9CD
330
1F
100
AcDbEntity
  8
1
  6
CONTINUOUS
370
50
 62
4
100
AcDbLine
 10
90.109962
 20
-5.633152
 30
0.0
 11
90.555611
 21
-5.549958999999999
 31
0.0
  0
LINE
  5
9CE
330
1F
100
AcDbEntity
  8
1
  6
CONTINUOUS
370
50
 62
4
100
AcDbLine
 10
77.236267
 20
3.357433
 30
0.0
 11
77.862595
 21
3.474774
 31
0.0
  0
LINE
  5
9CF
330
1F
100
AcDbEntity
  8
1
  6
CONTINUOUS
370
50
 62
4
100
AcDbLine
 10
58.96049499999999
 20
3.357291
 30
0.0
 11
59.586842
 21
3.475044
 31
0.0
  0
LINE
  5
9D0
330
1F
100
AcDbEntity
  8
1
  6
CONTINUOUS
370
50
 62
4
100
AcDbLine
 10
72.084167
 20
-5.590415999999999
 30
0.0
 11
72.373283
 21
-5.528271999999999
 31
0.0
  0
LINE
  5
9D1
330
1F
100
AcDbEntity
  8
1
  6
CONTINUOUS
370
50
 62
4
100
AcDbLine
 10
23.320835
 20
5.527197999999999
 30
0.0
 11
23.60947
 21
5.589454
 31
0.0
  0
LINE
  5
9D2
330
1F
100
AcDbEntity
  8
1
  6
CONTINUOUS
370
50
 62
4
100
AcDbLine
 10
78.144455
 20
5.526234
 30
0.0
 11
78.43247199999999
 21
5.588573999999999
 31
0.0
  0
LINE
  5
9D3
330
1F
100
AcDbEntity
  8
1
  6
CONTINUOUS
370
50
 62
4
100
AcDbLine
 10
41.592342
 20
5.52614
 30
0.0
 11
41.880489
 21
5.588536
 31
0.0
  0
LINE
  5
9D4
330
1F
100
AcDbEntity
  8
1
  6
CONTINUOUS
370
50
 62
4
100
AcDbLine
 10
59.867954
 20
5.526073999999999
 30
0.0
 11
60.156021
 21
5.588454
 31
0.0
  0
LINE
  5
9D5
330
1F
100
AcDbEntity
  8
1
  6
CONTINUOUS
370
50
 62
4
100
AcDbLine
 10
35.542919
 20
-5.58841
 30
0.0
 11
35.830944
 21
-5.525977
 31
0.0
  0
LINE
  5
9D6
330
1F
100
AcDbEntity
  8
1
  6
CONTINUOUS
370
50
 62
4
100
AcDbLine
 10
3.349623
 20
4.608162
 30
0.0
 11
3.593929
 21
4.661693
 31
0.0
  0
LINE
  5
9D7
330
1F
100
AcDbEntity
  8
1
  6
CONTINUOUS
370
50
 62
4
100
AcDbLine
 10
17.292187
 20
-5.583387
 30
0.0
 11
17.68523
 21
-5.493251
 31
0.0
  0
LINE
  5
9D8
330
1F
100
AcDbEntity
  8
1
  6
CONTINUOUS
370
50
 62
4
100
AcDbLine
 10
53.921432
 20
-5.567775
 30
0.0
 11
54.227917
 21
-5.495795999999999
 31
0.0
  0
LINE
  5
9D9
330
1F
100
AcDbEntity
  8
1
  6
CONTINUOUS
370
50
 62
4
100
AcDbLine
 10
58.334148
 20
3.201837
 30
0.0
 11
58.96049499999999
 21
3.357291
 31
0.0
  0
LINE
  5
9DA
330
1F
100
AcDbEntity
  8
1
  6
CONTINUOUS
370
50
 62
4
100
AcDbLine
 10
76.60994
 20
3.201952
 30
0.0
 11
77.236267
 21
3.357433
 31
0.0
  0
LINE
  5
9DB
330
1F
100
AcDbEntity
  8
1
  6
CONTINUOUS
370
50
 62
4
100
AcDbLine
 10
21.782207
 20
3.201698
 30
0.0
 11
22.408508
 21
3.357645
 31
0.0
  0
LINE
  5
9DC
330
1F
100
AcDbEntity
  8
1
  6
CONTINUOUS
370
50
 62
4
100
AcDbLine
 10
40.058372
 20
3.201373
 30
0.0
 11
40.684666
 21
3.358016
 31
0.0
  0
LINE
  5
9DD
330
1F
100
AcDbEntity
  8
1
  6
CONTINUOUS
370
50
 62
4
100
AcDbLine
 10
90.555611
 20
-5.549958999999999
 30
0.0
 11
91.001007
 21
-5.434271
 31
0.0
  0
LINE
  5
9DE
330
1F
100
AcDbEntity
  8
1
  6
CONTINUOUS
370
50
 62
4
100
AcDbLine
 10
72.373283
 20
-5.528271999999999
 30
0.0
 11
72.66259
 21
-5.452526
 31
0.0
  0
LINE
  5
9DF
330
1F
100
AcDbEntity
  8
1
  6
CONTINUOUS
370
50
 62
4
100
AcDbLine
 10
23.032278
 20
5.451346
 30
0.0
 11
23.320835
 21
5.527197999999999
 31
0.0
  0
LINE
  5
9E0
330
1F
100
AcDbEntity
  8
1
  6
CONTINUOUS
370
50
 62
4
100
AcDbLine
 10
3.119221
 20
4.547504
 30
0.0
 11
3.349623
 21
4.608162
 31
0.0
  0
LINE
  5
9E1
330
1F
100
AcDbEntity
  8
1
  6
CONTINUOUS
370
50
 62
4
100
AcDbLine
 10
77.85627699999999
 20
5.450298
 30
0.0
 11
78.144455
 21
5.526234
 31
0.0
  0
LINE
  5
9E2
330
1F
100
AcDbEntity
  8
1
  6
CONTINUOUS
370
50
 62
4
100
AcDbLine
 10
59.57993699999999
 20
5.450172999999999
 30
0.0
 11
59.867954
 21
5.526073999999999
 31
0.0
  0
LINE
  5
9E3
330
1F
100
AcDbEntity
  8
1
  6
CONTINUOUS
370
50
 62
4
100
AcDbLine
 10
41.304199
 20
5.450197999999999
 30
0.0
 11
41.592342
 21
5.52614
 31
0.0
  0
LINE
  5
9E4
330
1F
100
AcDbEntity
  8
1
  6
CONTINUOUS
370
50
 62
4
100
AcDbLine
 10
35.830944
 20
-5.525977
 30
0.0
 11
36.118797
 21
-5.450037
 31
0.0
  0
LINE
  5
9E5
330
1F
100
AcDbEntity
  8
1
  6
CONTINUOUS
370
50
 62
4
100
AcDbLine
 10
54.227917
 20
-5.495795999999999
 30
0.0
 11
54.534199
 21
-5.408532999999999
 31
0.0
  0
LINE
  5
9E6
330
1F
100
AcDbEntity
  8
1
  6
CONTINUOUS
370
50
 62
4
100
AcDbLine
 10
17.68523
 20
-5.493251
 30
0.0
 11
18.078592
 21
-5.378057
 31
0.0
  0
LINE
  5
9E7
330
1F
100
AcDbEntity
  8
1
  6
CONTINUOUS
370
50
 62
4
100
AcDbLine
 10
72.66259
 20
-5.452526
 30
0.0
 11
72.951385
 21
-5.363360999999999
 31
0.0
  0
LINE
  5
9E8
330
1F
100
AcDbEntity
  8
1
  6
CONTINUOUS
370
50
 62
4
100
AcDbLine
 10
22.743645
 20
5.362051999999999
 30
0.0
 11
23.032278
 21
5.451346
 31
0.0
  0
LINE
  5
9E9
330
1F
100
AcDbEntity
  8
1
  6
CONTINUOUS
370
50
 62
4
100
AcDbLine
 10
36.118797
 20
-5.450037
 30
0.0
 11
36.406944
 21
-5.360748
 31
0.0
  0
LINE
  5
9EA
330
1F
100
AcDbEntity
  8
1
  6
CONTINUOUS
370
50
 62
4
100
AcDbLine
 10
41.016144
 20
5.360936
 30
0.0
 11
41.304199
 21
5.450197999999999
 31
0.0
  0
LINE
  5
9EB
330
1F
100
AcDbEntity
  8
1
  6
CONTINUOUS
370
50
 62
4
100
AcDbLine
 10
59.291855
 20
5.360892
 30
0.0
 11
59.57993699999999
 21
5.450172999999999
 31
0.0
  0
LINE
  5
9EC
330
1F
100
AcDbEntity
  8
1
  6
CONTINUOUS
370
50
 62
4
100
AcDbLine
 10
77.56813
 20
5.360977999999999
 30
0.0
 11
77.85627699999999
 21
5.450298
 31
0.0
  0
LINE
  5
9ED
330
1F
100
AcDbEntity
  8
1
  6
CONTINUOUS
370
50
 62
4
100
AcDbLine
 10
2.903573
 20
4.479617
 30
0.0
 11
3.119221
 21
4.547504
 31
0.0
  0
LINE
  5
9EE
330
1F
100
AcDbEntity
  8
1
  6
CONTINUOUS
370
50
 62
4
100
AcDbLine
 10
94.36031299999999
 20
3.042327
 30
0.0
 11
94.447205
 21
3.070383
 31
0.0
  0
LINE
  5
9EF
330
1F
100
AcDbEntity
  8
1
  6
CONTINUOUS
370
50
 62
4
100
AcDbLine
 10
94.273438
 20
3.013659
 30
0.0
 11
94.36031299999999
 21
3.042327
 31
0.0
  0
LINE
  5
9F0
330
1F
100
AcDbEntity
  8
1
  6
CONTINUOUS
370
50
 62
4
100
AcDbLine
 10
91.001007
 20
-5.434271
 30
0.0
 11
91.446861
 21
-5.286779999999999
 31
0.0
  0
LINE
  5
9F1
330
1F
100
AcDbEntity
  8
1
  6
CONTINUOUS
370
50
 62
4
100
AcDbLine
 10
54.534199
 20
-5.408532999999999
 30
0.0
 11
54.840832
 21
-5.306179999999999
 31
0.0
  0
LINE
  5
9F2
330
1F
100
AcDbEntity
  8
1
  6
CONTINUOUS
370
50
 62
4
100
AcDbLine
 10
94.186562
 20
2.984272
 30
0.0
 11
94.273438
 21
3.013659
 31
0.0
  0
LINE
  5
9F3
330
1F
100
AcDbEntity
  8
1
  6
CONTINUOUS
370
50
 62
4
100
AcDbLine
 10
94.099678
 20
2.954164
 30
0.0
 11
94.186562
 21
2.984272
 31
0.0
  0
LINE
  5
9F4
330
1F
100
AcDbEntity
  8
1
  6
CONTINUOUS
370
50
 62
4
100
AcDbLine
 10
72.951385
 20
-5.363360999999999
 30
0.0
 11
73.240044
 21
-5.260942
 31
0.0
  0
LINE
  5
9F5
330
1F
100
AcDbEntity
  8
1
  6
CONTINUOUS
370
50
 62
4
100
AcDbLine
 10
94.012794
 20
2.92333
 30
0.0
 11
94.099678
 21
2.954164
 31
0.0
  0
LINE
  5
9F6
330
1F
100
AcDbEntity
  8
1
  6
CONTINUOUS
370
50
 62
4
100
AcDbLine
 10
22.455091
 20
5.259614
 30
0.0
 11
22.743645
 21
5.362051999999999
 31
0.0
  0
LINE
  5
9F7
330
1F
100
AcDbEntity
  8
1
  6
CONTINUOUS
370
50
 62
4
100
AcDbLine
 10
36.406944
 20
-5.360748
 30
0.0
 11
36.695236
 21
-5.258353
 31
0.0
  0
LINE
  5
9F8
330
1F
100
AcDbEntity
  8
1
  6
CONTINUOUS
370
50
 62
4
100
AcDbLine
 10
40.728062
 20
5.258527
 30
0.0
 11
41.016144
 21
5.360936
 31
0.0
  0
LINE
  5
9F9
330
1F
100
AcDbEntity
  8
1
  6
CONTINUOUS
370
50
 62
4
100
AcDbLine
 10
77.280014
 20
5.258539
 30
0.0
 11
77.56813
 21
5.360977999999999
 31
0.0
  0
LINE
  5
9FA
330
1F
100
AcDbEntity
  8
1
  6
CONTINUOUS
370
50
 62
4
100
AcDbLine
 10
59.003727
 20
5.258417
 30
0.0
 11
59.291855
 21
5.360892
 31
0.0
  0
LINE
  5
9FB
330
1F
100
AcDbEntity
  8
1
  6
CONTINUOUS
370
50
 62
4
100
AcDbLine
 10
18.078592
 20
-5.378057
 30
0.0
 11
18.471437
 21
-5.23828
 31
0.0
  0
LINE
  5
9FC
330
1F
100
AcDbEntity
  8
1
  6
CONTINUOUS
370
50
 62
4
100
AcDbLine
 10
93.925911
 20
2.891767
 30
0.0
 11
94.012794
 21
2.92333
 31
0.0
  0
LINE
  5
9FD
330
1F
100
AcDbEntity
  8
1
  6
CONTINUOUS
370
50
 62
4
100
AcDbLine
 10
2.703545
 20
4.404401
 30
0.0
 11
2.903573
 21
4.479617
 31
0.0
  0
LINE
  5
9FE
330
1F
100
AcDbEntity
  8
1
  6
CONTINUOUS
370
50
 62
4
100
AcDbLine
 10
54.840832
 20
-5.306179999999999
 30
0.0
 11
55.14772
 21
-5.189133
 31
0.0
  0
LINE
  5
9FF
330
1F
100
AcDbEntity
  8
1
  6
CONTINUOUS
370
50
 62
4
100
AcDbLine
 10
73.240044
 20
-5.260942
 30
0.0
 11
73.529037
 21
-5.145472
 31
0.0
  0
LINE
  5
A00
330
1F
100
AcDbEntity
  8
1
  6
CONTINUOUS
370
50
 62
4
100
AcDbLine
 10
22.166563
 20
5.144261999999999
 30
0.0
 11
22.455091
 21
5.259614
 31
0.0
  0
LINE
  5
A01
330
1F
100
AcDbEntity
  8
1
  6
CONTINUOUS
370
50
 62
4
100
AcDbLine
 10
76.99196599999999
 20
5.143256
 30
0.0
 11
77.280014
 21
5.258539
 31
0.0
  0
LINE
  5
A02
330
1F
100
AcDbEntity
  8
1
  6
CONTINUOUS
370
50
 62
4
100
AcDbLine
 10
40.439884
 20
5.143159
 30
0.0
 11
40.728062
 21
5.258527
 31
0.0
  0
LINE
  5
A03
330
1F
100
AcDbEntity
  8
1
  6
CONTINUOUS
370
50
 62
4
100
AcDbLine
 10
58.715714
 20
5.143096
 30
0.0
 11
59.003727
 21
5.258417
 31
0.0
  0
LINE
  5
A04
330
1F
100
AcDbEntity
  8
1
  6
CONTINUOUS
370
50
 62
4
100
AcDbLine
 10
36.695236
 20
-5.258353
 30
0.0
 11
36.983047
 21
-5.143085999999999
 31
0.0
  0
LINE
  5
A05
330
1F
100
AcDbEntity
  8
1
  6
CONTINUOUS
370
50
 62
4
100
AcDbLine
 10
91.446861
 20
-5.286779999999999
 30
0.0
 11
91.891998
 21
-5.10832
 31
0.0
  0
LINE
  5
A06
330
1F
100
AcDbEntity
  8
1
  6
CONTINUOUS
370
50
 62
4
100
AcDbLine
 10
18.471437
 20
-5.23828
 30
0.0
 11
18.864069
 21
-5.074698
 31
0.0
  0
LINE
  5
A07
330
1F
100
AcDbEntity
  8
1
  6
CONTINUOUS
370
50
 62
4
100
AcDbLine
 10
55.14772
 20
-5.189133
 30
0.0
 11
55.454552
 21
-5.057659
 31
0.0
  0
LINE
  5
A08
330
1F
100
AcDbEntity
  8
1
  6
CONTINUOUS
370
50
 62
4
100
AcDbLine
 10
73.529037
 20
-5.145472
 30
0.0
 11
73.818283
 21
-5.017352
 31
0.0
  0
LINE
  5
A09
330
1F
100
AcDbEntity
  8
1
  6
CONTINUOUS
370
50
 62
4
100
AcDbLine
 10
21.877949
 20
5.016205999999999
 30
0.0
 11
22.166563
 21
5.144261999999999
 31
0.0
  0
LINE
  5
A0A
330
1F
100
AcDbEntity
  8
1
  6
CONTINUOUS
370
50
 62
4
100
AcDbLine
 10
76.70388
 20
5.015346
 30
0.0
 11
76.99196599999999
 21
5.143256
 31
0.0
  0
LINE
  5
A0B
330
1F
100
AcDbEntity
  8
1
  6
CONTINUOUS
370
50
 62
4
100
AcDbLine
 10
58.42767
 20
5.01518
 30
0.0
 11
58.715714
 21
5.143096
 31
0.0
  0
LINE
  5
A0C
330
1F
100
AcDbEntity
  8
1
  6
CONTINUOUS
370
50
 62
4
100
AcDbLine
 10
40.151787
 20
5.015193
 30
0.0
 11
40.439884
 21
5.143159
 31
0.0
  0
LINE
  5
A0D
330
1F
100
AcDbEntity
  8
1
  6
CONTINUOUS
370
50
 62
4
100
AcDbLine
 10
36.983047
 20
-5.143085999999999
 30
0.0
 11
37.270844
 21
-5.015152
 31
0.0
  0
LINE
  5
A0E
330
1F
100
AcDbEntity
  8
1
  6
CONTINUOUS
370
50
 62
4
100
AcDbLine
 10
2.52
 20
4.321757
 30
0.0
 11
2.703545
 21
4.404401
 31
0.0
  0
LINE
  5
A0F
330
1F
100
AcDbEntity
  8
1
  6
CONTINUOUS
370
50
 62
4
100
AcDbLine
 10
93.229073
 20
-3.986998
 30
0.0
 11
93.337029
 21
-3.937981
 31
0.0
  0
LINE
  5
A10
330
1F
100
AcDbEntity
  8
1
  6
CONTINUOUS
370
50
 62
4
100
AcDbLine
 10
91.891998
 20
-5.10832
 30
0.0
 11
92.337715
 21
-4.899788
 31
0.0
  0
LINE
  5
A11
330
1F
100
AcDbEntity
  8
1
  6
CONTINUOUS
370
50
 62
4
100
AcDbLine
 10
18.864069
 20
-5.074698
 30
0.0
 11
19.257284
 21
-4.888033
 31
0.0
  0
LINE
  5
A12
330
1F
100
AcDbEntity
  8
1
  6
CONTINUOUS
370
50
 62
4
100
AcDbLine
 10
55.454552
 20
-5.057659
 30
0.0
 11
55.760986
 21
-4.912141999999999
 31
0.0
  0
LINE
  5
A13
330
1F
100
AcDbEntity
  8
1
  6
CONTINUOUS
370
50
 62
4
100
AcDbLine
 10
73.818283
 20
-5.017352
 30
0.0
 11
74.10749799999999
 21
-4.876844999999999
 31
0.0
  0
LINE
  5
A14
330
1F
100
AcDbEntity
  8
1
  6
CONTINUOUS
370
50
 62
4
100
AcDbLine
 10
21.589342
 20
4.875772
 30
0.0
 11
21.877949
 21
5.016205999999999
 31
0.0
  0
LINE
  5
A15
330
1F
100
AcDbEntity
  8
1
  6
CONTINUOUS
370
50
 62
4
100
AcDbLine
 10
58.139523
 20
4.874936
 30
0.0
 11
58.42767
 21
5.01518
 31
0.0
  0
LINE
  5
A16
330
1F
100
AcDbEntity
  8
1
  6
CONTINUOUS
370
50
 62
4
100
AcDbLine
 10
39.863739
 20
4.874972
 30
0.0
 11
40.151787
 21
5.015193
 31
0.0
  0
LINE
  5
A17
330
1F
100
AcDbEntity
  8
1
  6
CONTINUOUS
370
50
 62
4
100
AcDbLine
 10
76.415703
 20
4.875058
 30
0.0
 11
76.70388
 21
5.015346
 31
0.0
  0
LINE
  5
A18
330
1F
100
AcDbEntity
  8
1
  6
CONTINUOUS
370
50
 62
4
100
AcDbLine
 10
37.270844
 20
-5.015152
 30
0.0
 11
37.55901
 21
-4.874858
 31
0.0
  0
LINE
  5
A19
330
1F
100
AcDbEntity
  8
1
  6
CONTINUOUS
370
50
 62
4
100
AcDbLine
 10
93.337029
 20
-3.937981
 30
0.0
 11
93.44562499999999
 21
-3.882039
 31
0.0
  0
LINE
  5
A1A
330
1F
100
AcDbEntity
  8
1
  6
CONTINUOUS
370
50
 62
4
100
AcDbLine
 10
2.433417
 20
4.277087
 30
0.0
 11
2.52
 21
4.321899999999999
 31
0.0
  0
LINE
  5
A1B
330
1F
100
AcDbEntity
  8
1
  6
CONTINUOUS
370
50
 62
4
100
AcDbLine
 10
95.39400499999999
 20
1.393444
 30
0.0
 11
95.4674
 21
1.43146
 31
0.0
  0
LINE
  5
A1C
330
1F
100
AcDbEntity
  8
1
  6
CONTINUOUS
370
50
 62
4
100
AcDbLine
 10
55.760986
 20
-4.912141999999999
 30
0.0
 11
56.06726099999999
 21
-4.753036
 31
0.0
  0
LINE
  5
A1D
330
1F
100
AcDbEntity
  8
1
  6
CONTINUOUS
370
50
 62
4
100
AcDbLine
 10
37.55901
 20
-4.874858
 30
0.0
 11
37.847347
 21
-4.722675
 31
0.0
  0
LINE
  5
A1E
330
1F
100
AcDbEntity
  8
1
  6
CONTINUOUS
370
50
 62
4
100
AcDbLine
 10
21.3009
 20
4.723455
 30
0.0
 11
21.589342
 21
4.875772
 31
0.0
  0
LINE
  5
A1F
330
1F
100
AcDbEntity
  8
1
  6
CONTINUOUS
370
50
 62
4
100
AcDbLine
 10
74.10749799999999
 20
-4.876844999999999
 30
0.0
 11
74.3964
 21
-4.724276
 31
0.0
  0
LINE
  5
A20
330
1F
100
AcDbEntity
  8
1
  6
CONTINUOUS
370
50
 62
4
100
AcDbLine
 10
39.575558
 20
4.722761
 30
0.0
 11
39.863739
 21
4.874972
 31
0.0
  0
LINE
  5
A21
330
1F
100
AcDbEntity
  8
1
  6
CONTINUOUS
370
50
 62
4
100
AcDbLine
 10
57.851501
 20
4.722778
 30
0.0
 11
58.139523
 21
4.874936
 31
0.0
  0
LINE
  5
A22
330
1F
100
AcDbEntity
  8
1
  6
CONTINUOUS
370
50
 62
4
100
AcDbLine
 10
76.12763199999999
 20
4.722858
 30
0.0
 11
76.415703
 21
4.875058
 31
0.0
  0
LINE
  5
A23
330
1F
100
AcDbEntity
  8
1
  6
CONTINUOUS
370
50
 62
4
100
AcDbLine
 10
92.337715
 20
-4.899788
 30
0.0
 11
92.783653
 21
-4.662569
 31
0.0
  0
LINE
  5
A24
330
1F
100
AcDbEntity
  8
1
  6
CONTINUOUS
370
50
 62
4
100
AcDbLine
 10
19.257284
 20
-4.888033
 30
0.0
 11
19.649809
 21
-4.679213
 31
0.0
  0
LINE
  5
A25
330
1F
100
AcDbEntity
  8
1
  6
CONTINUOUS
370
50
 62
4
100
AcDbLine
 10
56.06726099999999
 20
-4.753036
 30
0.0
 11
56.373943
 21
-4.58069
 31
0.0
  0
LINE
  5
A26
330
1F
100
AcDbEntity
  8
1
  6
CONTINUOUS
370
50
 62
4
100
AcDbLine
 10
37.847347
 20
-4.722675
 30
0.0
 11
38.135601
 21
-4.558883
 31
0.0
  0
LINE
  5
A27
330
1F
100
AcDbEntity
  8
1
  6
CONTINUOUS
370
50
 62
4
100
AcDbLine
 10
21.012499
 20
4.559574
 30
0.0
 11
21.3009
 21
4.723455
 31
0.0
  0
LINE
  5
A28
330
1F
100
AcDbEntity
  8
1
  6
CONTINUOUS
370
50
 62
4
100
AcDbLine
 10
39.287453
 20
4.558993
 30
0.0
 11
39.575558
 21
4.722761
 31
0.0
  0
LINE
  5
A29
330
1F
100
AcDbEntity
  8
1
  6
CONTINUOUS
370
50
 62
4
100
AcDbLine
 10
75.83957699999999
 20
4.559114
 30
0.0
 11
76.12763199999999
 21
4.722858
 31
0.0
  0
LINE
  5
A2A
330
1F
100
AcDbEntity
  8
1
  6
CONTINUOUS
370
50
 62
4
100
AcDbLine
 10
57.563446
 20
4.559005
 30
0.0
 11
57.851501
 21
4.722778
 31
0.0
  0
LINE
  5
A2B
330
1F
100
AcDbEntity
  8
1
  6
CONTINUOUS
370
50
 62
4
100
AcDbLine
 10
74.3964
 20
-4.724276
 30
0.0
 11
74.685059
 21
-4.56013
 31
0.0
  0
LINE
  5
A2C
330
1F
100
AcDbEntity
  8
1
  6
CONTINUOUS
370
50
 62
4
100
AcDbLine
 10
2.349611
 20
4.229241
 30
0.0
 11
2.433417
 21
4.277087
 31
0.0
  0
LINE
  5
A2D
330
1F
100
AcDbEntity
  8
1
  6
CONTINUOUS
370
50
 62
4
100
AcDbLine
 10
93.44562499999999
 20
-3.882039
 30
0.0
 11
93.55484
 21
-3.819148
 31
0.0
  0
LINE
  5
A2E
330
1F
100
AcDbEntity
  8
1
  6
CONTINUOUS
370
50
 62
4
100
AcDbLine
 10
1.0
 20
-6.0
 30
0.0
 11
1.519615
 21
-5.7
 31
0.0
  0
LINE
  5
A2F
330
1F
100
AcDbEntity
  8
1
  6
CONTINUOUS
370
50
 62
4
100
AcDbLine
 10
19.649809
 20
-4.679213
 30
0.0
 11
20.04229
 21
-4.448939999999999
 31
0.0
  0
LINE
  5
A30
330
1F
100
AcDbEntity
  8
1
  6
CONTINUOUS
370
50
 62
4
100
AcDbLine
 10
92.783653
 20
-4.662569
 30
0.0
 11
93.229103
 21
-4.397857
 31
0.0
  0
LINE
  5
A31
330
1F
100
AcDbEntity
  8
1
  6
CONTINUOUS
370
50
 62
4
100
AcDbLine
 10
56.373943
 20
-4.58069
 30
0.0
 11
56.680901
 21
-4.395648
 31
0.0
  0
LINE
  5
A32
330
1F
100
AcDbEntity
  8
1
  6
CONTINUOUS
370
50
 62
4
100
AcDbLine
 10
20.723993
 20
4.384431999999999
 30
0.0
 11
21.012499
 21
4.559574
 31
0.0
  0
LINE
  5
A33
330
1F
100
AcDbEntity
  8
1
  6
CONTINUOUS
370
50
 62
4
100
AcDbLine
 10
75.551399
 20
4.384145
 30
0.0
 11
75.83957699999999
 21
4.559114
 31
0.0
  0
LINE
  5
A34
330
1F
100
AcDbEntity
  8
1
  6
CONTINUOUS
370
50
 62
4
100
AcDbLine
 10
74.685059
 20
-4.56013
 30
0.0
 11
74.973953
 21
-4.384723999999999
 31
0.0
  0
LINE
  5
A35
330
1F
100
AcDbEntity
  8
1
  6
CONTINUOUS
370
50
 62
4
100
AcDbLine
 10
57.275356
 20
4.384048
 30
0.0
 11
57.563446
 21
4.559005
 31
0.0
  0
LINE
  5
A36
330
1F
100
AcDbEntity
  8
1
  6
CONTINUOUS
370
50
 62
4
100
AcDbLine
 10
38.999393
 20
4.384047
 30
0.0
 11
39.287453
 21
4.558993
 31
0.0
  0
LINE
  5
A37
330
1F
100
AcDbEntity
  8
1
  6
CONTINUOUS
370
50
 62
4
100
AcDbLine
 10
38.135601
 20
-4.558883
 30
0.0
 11
38.423492
 21
-4.383925
 31
0.0
  0
LINE
  5
A38
330
1F
100
AcDbEntity
  8
1
  6
CONTINUOUS
370
50
 62
4
100
AcDbLine
 10
2.269079
 20
4.178242
 30
0.0
 11
2.349611
 21
4.229241
 31
0.0
  0
LINE
  5
A39
330
1F
100
AcDbEntity
  8
1
  6
CONTINUOUS
370
50
 62
4
100
AcDbLine
 10
93.55484
 20
-3.819148
 30
0.0
 11
93.664665
 21
-3.749306
 31
0.0
  0
LINE
  5
A3A
330
1F
100
AcDbEntity
  8
1
  6
CONTINUOUS
370
50
 62
4
100
AcDbLine
 10
20.04229
 20
-4.448939999999999
 30
0.0
 11
20.435349
 21
-4.198384
 31
0.0
  0
LINE
  5
A3B
330
1F
100
AcDbEntity
  8
1
  6
CONTINUOUS
370
50
 62
4
100
AcDbLine
 10
56.680901
 20
-4.395648
 30
0.0
 11
56.987347
 21
-4.198427
 31
0.0
  0
LINE
  5
A3C
330
1F
100
AcDbEntity
  8
1
  6
CONTINUOUS
370
50
 62
4
100
AcDbLine
 10
74.973953
 20
-4.384723999999999
 30
0.0
 11
75.26329799999999
 21
-4.198483
 31
0.0
  0
LINE
  5
A3D
330
1F
100
AcDbEntity
  8
1
  6
CONTINUOUS
370
50
 62
4
100
AcDbLine
 10
56.987343
 20
4.198434
 30
0.0
 11
57.275356
 21
4.384048
 31
0.0
  0
LINE
  5
A3E
330
1F
100
AcDbEntity
  8
1
  6
CONTINUOUS
370
50
 62
4
100
AcDbLine
 10
75.26332099999999
 20
4.198469999999999
 30
0.0
 11
75.551399
 21
4.384145
 31
0.0
  0
LINE
  5
A3F
330
1F
100
AcDbEntity
  8
1
  6
CONTINUOUS
370
50
 62
4
100
AcDbLine
 10
20.43535
 20
4.198386999999999
 30
0.0
 11
20.723993
 21
4.384431999999999
 31
0.0
  0
LINE
  5
A40
330
1F
100
AcDbEntity
  8
1
  6
CONTINUOUS
370
50
 62
4
100
AcDbLine
 10
38.711239
 20
4.198286
 30
0.0
 11
38.999393
 21
4.384047
 31
0.0
  0
LINE
  5
A41
330
1F
100
AcDbEntity
  8
1
  6
CONTINUOUS
370
50
 62
4
100
AcDbLine
 10
38.423492
 20
-4.383925
 30
0.0
 11
38.71123499999999
 21
-4.198286
 31
0.0
  0
LINE
  5
A42
330
1F
100
AcDbEntity
  8
1
  6
CONTINUOUS
370
50
 62
4
100
AcDbLine
 10
93.664665
 20
-3.749306
 30
0.0
 11
93.77508499999999
 21
-3.672513
 31
0.0
  0
LINE
  5
A43
330
1F
100
AcDbEntity
  8
1
  6
CONTINUOUS
370
50
 62
4
100
AcDbLine
 10
2.19232
 20
4.12397
 30
0.0
 11
2.269079
 21
4.178242
 31
0.0
  0
LINE
  5
A44
330
1F
100
AcDbEntity
  8
1
  6
CONTINUOUS
370
50
 62
4
100
AcDbLine
 10
93.77508499999999
 20
-3.672513
 30
0.0
 11
93.885902
 21
-3.588929
 31
0.0
  0
LINE
  5
A45
330
1F
100
AcDbEntity
  8
1
  6
CONTINUOUS
370
50
 62
4
100
AcDbLine
 10
2.11983
 20
4.066306
 30
0.0
 11
2.19232
 21
4.12397
 31
0.0
  0
LINE
  5
A46
330
1F
100
AcDbEntity
  8
1
  6
CONTINUOUS
370
50
 62
4
100
AcDbLine
 10
93.885902
 20
-3.588929
 30
0.0
 11
93.997131
 21
-3.4986
 31
0.0
  0
LINE
  5
A47
330
1F
100
AcDbEntity
  8
1
  6
CONTINUOUS
370
50
 62
4
100
AcDbLine
 10
93.997131
 20
-3.4986
 30
0.0
 11
94.108887
 21
-3.40151
 31
0.0
  0
LINE
  5
A48
330
1F
100
AcDbEntity
  8
1
  6
CONTINUOUS
370
50
 62
4
100
AcDbLine
 10
2.052145
 20
4.00516
 30
0.0
 11
2.11983
 21
4.066306
 31
0.0
  0
LINE
  5
A49
330
1F
100
AcDbEntity
  8
1
  6
CONTINUOUS
370
50
 62
4
100
AcDbLine
 10
94.108887
 20
-3.40151
 30
0.0
 11
94.221176
 21
-3.297715
 31
0.0
  0
LINE
  5
A4A
330
1F
100
AcDbEntity
  8
1
  6
CONTINUOUS
370
50
 62
4
100
AcDbLine
 10
94.221176
 20
-3.297715
 30
0.0
 11
94.33395399999999
 21
-3.187315
 31
0.0
  0
LINE
  5
A4B
330
1F
100
AcDbEntity
  8
1
  6
CONTINUOUS
370
50
 62
4
100
AcDbLine
 10
94.33395399999999
 20
-3.187315
 30
0.0
 11
94.447205
 21
-3.070383
 31
0.0
  0
LINE
  5
A4C
330
1F
100
AcDbEntity
  8
1
  6
CONTINUOUS
370
50
 62
4
100
AcDbLine
 10
1.989892
 20
3.940535
 30
0.0
 11
2.052145
 21
4.00516
 31
0.0
  0
LINE
  5
A4D
330
1F
100
AcDbEntity
  8
1
  6
CONTINUOUS
370
50
 62
4
100
AcDbLine
 10
94.447205
 20
-3.070383
 30
0.0
 11
94.50896499999999
 21
-3.004993
 31
0.0
  0
LINE
  5
A4E
330
1F
100
AcDbEntity
  8
1
  6
CONTINUOUS
370
50
 62
4
100
AcDbLine
 10
94.50896499999999
 20
-3.004993
 30
0.0
 11
94.576653
 21
-2.933141
 31
0.0
  0
LINE
  5
A4F
330
1F
100
AcDbEntity
  8
1
  6
CONTINUOUS
370
50
 62
4
100
AcDbLine
 10
94.576653
 20
-2.933141
 30
0.0
 11
94.649048
 21
-2.855804
 31
0.0
  0
LINE
  5
A50
330
1F
100
AcDbEntity
  8
1
  6
CONTINUOUS
370
50
 62
4
100
AcDbLine
 10
94.649048
 20
-2.855804
 30
0.0
 11
94.724937
 21
-2.77396
 31
0.0
  0
LINE
  5
A51
330
1F
100
AcDbEntity
  8
1
  6
CONTINUOUS
370
50
 62
4
100
AcDbLine
 10
94.724937
 20
-2.77396
 30
0.0
 11
94.803108
 21
-2.688585
 31
0.0
  0
LINE
  5
A52
330
1F
100
AcDbEntity
  8
1
  6
CONTINUOUS
370
50
 62
4
100
AcDbLine
 10
94.803108
 20
-2.688585
 30
0.0
 11
94.88233199999999
 21
-2.600655
 31
0.0
  0
LINE
  5
A53
330
1F
100
AcDbEntity
  8
1
  6
CONTINUOUS
370
50
 62
4
100
AcDbLine
 10
94.88233199999999
 20
-2.600655
 30
0.0
 11
94.961395
 21
-2.511149
 31
0.0
  0
LINE
  5
A54
330
1F
100
AcDbEntity
  8
1
  6
CONTINUOUS
370
50
 62
4
100
AcDbLine
 10
94.961395
 20
-2.511149
 30
0.0
 11
95.039093
 21
-2.421042
 31
0.0
  0
LINE
  5
A55
330
1F
100
AcDbEntity
  8
1
  6
CONTINUOUS
370
50
 62
4
100
AcDbLine
 10
95.039093
 20
-2.421042
 30
0.0
 11
95.11419699999999
 21
-2.331313
 31
0.0
  0
LINE
  5
A56
330
1F
100
AcDbEntity
  8
1
  6
CONTINUOUS
370
50
 62
4
100
AcDbLine
 10
1.933578
 20
3.872345
 30
0.0
 11
1.989892
 21
3.940535
 31
0.0
  0
LINE
  5
A57
330
1F
100
AcDbEntity
  8
1
  6
CONTINUOUS
370
50
 62
4
100
AcDbLine
 10
95.11419699999999
 20
-2.331313
 30
0.0
 11
95.185493
 21
-2.242937
 31
0.0
  0
LINE
  5
A58
330
1F
100
AcDbEntity
  8
1
  6
CONTINUOUS
370
50
 62
4
100
AcDbLine
 10
95.185493
 20
-2.242937
 30
0.0
 11
95.251785
 21
-2.156859
 31
0.0
  0
LINE
  5
A59
330
1F
100
AcDbEntity
  8
1
  6
CONTINUOUS
370
50
 62
4
100
AcDbLine
 10
95.4674
 20
1.43146
 30
0.0
 11
95.51155899999999
 21
1.491582
 31
0.0
  0
LINE
  5
A5A
330
1F
100
AcDbEntity
  8
1
  6
CONTINUOUS
370
50
 62
4
100
AcDbLine
 10
95.251785
 20
-2.156859
 30
0.0
 11
95.31233999999999
 21
-2.073332
 31
0.0
  0
LINE
  5
A5B
330
1F
100
AcDbEntity
  8
1
  6
CONTINUOUS
370
50
 62
4
100
AcDbLine
 10
1.883696
 20
3.800497
 30
0.0
 11
1.933578
 21
3.872345
 31
0.0
  0
LINE
  5
A5C
330
1F
100
AcDbEntity
  8
1
  6
CONTINUOUS
370
50
 62
4
100
AcDbLine
 10
95.31233999999999
 20
-2.073332
 30
0.0
 11
95.366631
 21
-1.992562
 31
0.0
  0
LINE
  5
A5D
330
1F
100
AcDbEntity
  8
1
  6
CONTINUOUS
370
50
 62
4
100
AcDbLine
 10
95.366631
 20
-1.992562
 30
0.0
 11
95.414085
 21
-1.914887
 31
0.0
  0
LINE
  5
A5E
330
1F
100
AcDbEntity
  8
1
  6
CONTINUOUS
370
50
 62
4
100
AcDbLine
 10
95.414642
 20
-1.914538
 30
0.0
 11
96.51999699999999
 21
0.0
 31
0.0
  0
LINE
  5
A5F
330
1F
100
AcDbEntity
  8
1
  6
CONTINUOUS
370
50
 62
4
100
AcDbLine
 10
1.840739
 20
3.724896
 30
0.0
 11
1.883696
 21
3.800497
 31
0.0
  0
LINE
  5
A60
330
1F
100
AcDbEntity
  8
1
  6
CONTINUOUS
370
50
 62
4
100
AcDbLine
 10
1.805338
 20
3.645788
 30
0.0
 11
1.840739
 21
3.724896
 31
0.0
  0
LINE
  5
A61
330
1F
100
AcDbEntity
  8
1
  6
CONTINUOUS
370
50
 62
4
100
AcDbLine
 10
93.412476
 20
-3.965477
 30
0.0
 11
93.45013399999999
 21
-3.879567
 31
0.0
  0
LINE
  5
A62
330
1F
100
AcDbEntity
  8
1
  6
CONTINUOUS
370
50
 62
4
100
AcDbLine
 10
93.37514499999999
 20
-4.051633
 30
0.0
 11
93.412476
 21
-3.965477
 31
0.0
  0
LINE
  5
A63
330
1F
100
AcDbEntity
  8
1
  6
CONTINUOUS
370
50
 62
4
100
AcDbLine
 10
93.33814199999999
 20
-4.137991
 30
0.0
 11
93.37514499999999
 21
-4.051633
 31
0.0
  0
LINE
  5
A64
330
1F
100
AcDbEntity
  8
1
  6
CONTINUOUS
370
50
 62
4
100
AcDbLine
 10
93.301468
 20
-4.224507
 30
0.0
 11
93.33814199999999
 21
-4.137991
 31
0.0
  0
LINE
  5
A65
330
1F
100
AcDbEntity
  8
1
  6
CONTINUOUS
370
50
 62
4
100
AcDbLine
 10
93.26510599999999
 20
-4.311138
 30
0.0
 11
93.301468
 21
-4.224507
 31
0.0
  0
LINE
  5
A66
330
1F
100
AcDbEntity
  8
1
  6
CONTINUOUS
370
50
 62
4
100
AcDbLine
 10
93.22906499999999
 20
-4.39784
 30
0.0
 11
93.26510599999999
 21
-4.311138
 31
0.0
  0
LINE
  5
A67
330
1F
100
AcDbEntity
  8
1
  6
CONTINUOUS
370
50
 62
4
100
AcDbLine
 10
1.778219
 20
3.564284
 30
0.0
 11
1.805338
 21
3.645788
 31
0.0
  0
LINE
  5
A68
330
1F
100
AcDbEntity
  8
1
  6
CONTINUOUS
370
50
 62
4
100
AcDbLine
 10
95.51155899999999
 20
1.491582
 30
0.0
 11
95.52821399999999
 21
1.561175
 31
0.0
  0
LINE
  5
A69
330
1F
100
AcDbEntity
  8
1
  6
CONTINUOUS
370
50
 62
4
100
AcDbLine
 10
1.75944
 20
3.480509
 30
0.0
 11
1.778219
 21
3.564284
 31
0.0
  0
LINE
  5
A6A
330
1F
100
AcDbEntity
  8
1
  6
CONTINUOUS
370
50
 62
4
100
AcDbLine
 10
1.749013
 20
3.394499
 30
0.0
 11
1.75944
 21
3.480509
 31
0.0
  0
LINE
  5
A6B
330
1F
100
AcDbEntity
  8
1
  6
CONTINUOUS
370
50
 62
4
100
AcDbLine
 10
1.746948
 20
3.306289
 30
0.0
 11
1.749013
 21
3.394499
 31
0.0
  0
LINE
  5
A6C
330
1F
100
AcDbEntity
  8
1
  6
CONTINUOUS
370
50
 62
4
100
AcDbLine
 10
0.0
 20
-6.0
 30
0.0
 11
0.0
 21
6.0
 31
0.0
  0
LINE
  5
A6D
330
1F
100
AcDbEntity
  8
1
  6
CONTINUOUS
370
50
 62
4
100
AcDbLine
 10
1.0
 20
-6.0
 30
0.0
 11
1.0
 21
6.0
 31
0.0
  0
LINE
  5
A6E
330
1F
100
AcDbEntity
  8
1
  6
CONTINUOUS
370
50
 62
4
100
AcDbLine
 10
1.519615
 20
-5.7
 30
0.0
 11
1.519615
 21
5.7
 31
0.0
  0
LINE
  5
A6F
330
1F
100
AcDbEntity
  8
1
  6
CONTINUOUS
370
50
 62
4
100
AcDbLine
 10
2.52
 20
-5.7
 30
0.0
 11
2.52
 21
5.7
 31
0.0
  0
LINE
  5
A70
330
1F
100
AcDbEntity
  8
1
  6
CONTINUOUS
370
50
 62
4
100
AcDbLine
 10
11.1384
 20
-3.632092
 30
0.0
 11
11.1384
 21
3.961877
 31
0.0
  0
LINE
  5
A71
330
1F
100
AcDbEntity
  8
1
  6
CONTINUOUS
370
50
 62
4
100
AcDbLine
 10
93.229103
 20
-3.986995
 30
0.0
 11
93.229103
 21
4.397857
 31
0.0
  0
LINE
  5
A72
330
1F
100
AcDbEntity
  8
SK1
  6
CONTINUOUS
370
50
 62
4
100
AcDbLine
 10
0.0
 20
6.0
 30
0.0
 11
-53.88
 21
6.0
 31
0.0
  0
LINE
  5
A73
330
1F
100
AcDbEntity
  8
SK1
  6
CONTINUOUS
370
50
 62
4
100
AcDbLine
 10
-53.88
 20
6.0
 30
0.0
 11
-54.48
 21
5.4
 31
0.0
  0
LINE
  5
A74
330
1F
100
AcDbEntity
  8
SK1
  6
CONTINUOUS
370
50
 62
4
100
AcDbLine
 10
-54.48
 20
5.4
 30
0.0
 11
-54.48
 21
-5.4
 31
0.0
  0
LINE
  5
A75
330
1F
100
AcDbEntity
  8
SK1
  6
CONTINUOUS
370
50
 62
4
100
AcDbLine
 10
-54.48
 20
-5.4
 30
0.0
 11
-53.88
 21
-6.0
 31
0.0
  0
LINE
  5
A76
330
1F
100
AcDbEntity
  8
SK1
  6
CONTINUOUS
370
50
 62
4
100
AcDbLine
 10
-53.88
 20
-6.0
 30
0.0
 11
0.0
 21
-6.0
 31
0.0
  0
LINE
  5
A77
330
1F
100
AcDbEntity
  8
NOCUT
  6
CONTINUOUS
370
25
 62
7
100
AcDbLine
 10
0.0
 20
0.0
 30
0.0
 11
0.0
 21
6.0
 31
0.0
  0
LINE
  5
A78
330
1F
100
AcDbEntity
  8
NOCUT
  6
CONTINUOUS
370
25
 62
7
100
AcDbLine
 10
0.0
 20
6.0
 30
0.0
 11
1.0
 21
6.0
 31
0.0
  0
LINE
  5
A79
330
1F
100
AcDbEntity
  8
NOCUT
  6
CONTINUOUS
370
25
 62
7
100
AcDbLine
 10
1.0
 20
0.0
 30
0.0
 11
0.0
 21
0.0
 31
0.0
  0
LINE
  5
A7A
330
1F
100
AcDbEntity
  8
SK2
  6
CONTINUOUS
370
25
 62
7
100
AcDbLine
 10
-64.48000019999999
 20
-6.000001
 30
0.0
 11
-65.48000000000008
 21
-6.000001
 31
0.0
  0
LINE
  5
A7B
330
1F
100
AcDbEntity
  8
SK2
  6
CONTINUOUS
370
25
 62
7
100
AcDbLine
 10
-54.48
 20
-6.000001
 30
0.0
 11
-64.4799998
 21
-6.000001
 31
0.0
  0
LINE
  5
A7C
330
1F
100
AcDbEntity
  8
SK2
  6
CONTINUOUS
370
25
 62
7
100
AcDbLine
 10
-65.47999999999999
 20
6.0
 30
0.0
 11
-54.47999999999999
 21
6.0
 31
0.0
  0
LINE
  5
A7D
330
1F
100
AcDbEntity
  8
SK2
  6
CONTINUOUS
370
25
 62
7
100
AcDbLine
 10
-64.47999999999999
 20
-24.475
 30
0.0
 11
-64.47999999999999
 21
16.0
 31
0.0
  0
LINE
  5
A7E
330
1F
100
AcDbEntity
  8
SK2
  6
CONTINUOUS
370
25
 62
7
100
AcDbLine
 10
-64.47999999999999
 20
-6.0
 30
0.0
 11
-63.47999999999999
 21
-11.0
 31
0.0
  0
LINE
  5
A7F
330
1F
100
AcDbEntity
  8
SK2
  6
CONTINUOUS
370
25
 62
7
100
AcDbLine
 10
-63.47999999999999
 20
-11.0
 30
0.0
 11
-65.47999999999999
 21
-11.0
 31
0.0
  0
LINE
  5
A80
330
1F
100
AcDbEntity
  8
SK2
  6
CONTINUOUS
370
25
 62
7
100
AcDbLine
 10
-65.47999999999999
 20
-11.0
 30
0.0
 11
-64.47999999999999
 21
-6.0
 31
0.0
  0
LINE
  5
A81
330
1F
100
AcDbEntity
  8
SK2
  6
CONTINUOUS
370
25
 62
7
100
AcDbLine
 10
-63.60874452027904
 20
-11.0
 30
0.0
 11
-63.5014574200465
 21
-10.89271289976746
 31
0.0
  0
LINE
  5
A82
330
1F
100
AcDbEntity
  8
SK2
  6
CONTINUOUS
370
25
 62
7
100
AcDbLine
 10
-64.03300858899098
 20
-11.00000000000001
 30
0.0
 11
-63.57216809816516
 21
-10.53915950917418
 31
0.0
  0
LINE
  5
A83
330
1F
100
AcDbEntity
  8
SK2
  6
CONTINUOUS
370
25
 62
7
100
AcDbLine
 10
-64.4572726577029
 20
-11.0
 30
0.0
 11
-63.64287877628382
 21
-10.18560611858091
 31
0.0
  0
LINE
  5
A84
330
1F
100
AcDbEntity
  8
SK2
  6
CONTINUOUS
370
25
 62
7
100
AcDbLine
 10
-64.88153672641482
 20
-11.0
 30
0.0
 11
-63.71358945440247
 21
-9.832052727987644
 31
0.0
  0
LINE
  5
A85
330
1F
100
AcDbEntity
  8
SK2
  6
CONTINUOUS
370
25
 62
7
100
AcDbLine
 10
-65.30580079512676
 20
-11.00000000000001
 30
0.0
 11
-63.78430013252112
 21
-9.478499337394368
 31
0.0
  0
LINE
  5
A86
330
1F
100
AcDbEntity
  8
SK2
  6
CONTINUOUS
370
25
 62
7
100
AcDbLine
 10
-65.41748378404033
 20
-10.68741892020166
 30
0.0
 11
-63.85501081063978
 21
-9.124945946801091
 31
0.0
  0
LINE
  5
A87
330
1F
100
AcDbEntity
  8
SK2
  6
CONTINUOUS
370
25
 62
7
100
AcDbLine
 10
-65.31141776686233
 20
-10.15708883431174
 30
0.0
 11
-63.92572148875843
 21
-8.771392556207822
 31
0.0
  0
LINE
  5
A88
330
1F
100
AcDbEntity
  8
SK2
  6
CONTINUOUS
370
25
 62
7
100
AcDbLine
 10
-65.20535174968437
 20
-9.62675874842185
 30
0.0
 11
-63.99643216687708
 21
-8.417839165614545
 31
0.0
  0
LINE
  5
A89
330
1F
100
AcDbEntity
  8
SK2
  6
CONTINUOUS
370
25
 62
7
100
AcDbLine
 10
-65.09928573250637
 20
-9.096428662531913
 30
0.0
 11
-64.06714284499574
 21
-8.064285775021268
 31
0.0
  0
LINE
  5
A8A
330
1F
100
AcDbEntity
  8
SK2
  6
CONTINUOUS
370
25
 62
7
100
AcDbLine
 10
-64.99321971532841
 20
-8.566098576642027
 30
0.0
 11
-64.13785352311439
 21
-7.710732384427992
 31
0.0
  0
LINE
  5
A8B
330
1F
100
AcDbEntity
  8
SK2
  6
CONTINUOUS
370
25
 62
7
100
AcDbLine
 10
-64.88715369815041
 20
-8.03576849075209
 30
0.0
 11
-64.20856420123306
 21
-7.357178993834722
 31
0.0
  0
LINE
  5
A8C
330
1F
100
AcDbEntity
  8
SK2
  6
CONTINUOUS
370
25
 62
7
100
AcDbLine
 10
-64.78108768097243
 20
-7.50543840486219
 30
0.0
 11
-64.2792748793517
 21
-7.003625603241446
 31
0.0
  0
LINE
  5
A8D
330
1F
100
AcDbEntity
  8
SK2
  6
CONTINUOUS
370
25
 62
7
100
AcDbLine
 10
-64.67502166379444
 20
-6.975108318972254
 30
0.0
 11
-64.34998555747036
 21
-6.650072212648162
 31
0.0
  0
LINE
  5
A8E
330
1F
100
AcDbEntity
  8
SK2
  6
CONTINUOUS
370
25
 62
7
100
AcDbLine
 10
-64.56895564661647
 20
-6.444778233082353
 30
0.0
 11
-64.420696235589
 21
-6.296518822054885
 31
0.0
  0
LINE
  5
A8F
330
1F
100
AcDbEntity
  8
SK2
  6
CONTINUOUS
370
25
 62
7
100
AcDbLine
 10
-65.44546096961558
 20
-10.82730484807796
 30
0.0
 11
-65.27276581769354
 21
-11.0
 31
0.0
  0
LINE
  5
A90
330
1F
100
AcDbEntity
  8
SK2
  6
CONTINUOUS
370
25
 62
7
100
AcDbLine
 10
-65.37475029149692
 20
-10.4737514574847
 30
0.0
 11
-64.84850174898162
 21
-11.0
 31
0.0
  0
LINE
  5
A91
330
1F
100
AcDbEntity
  8
SK2
  6
CONTINUOUS
370
25
 62
7
100
AcDbLine
 10
-65.30403961337827
 20
-10.1201980668914
 30
0.0
 11
-64.42423768026967
 21
-11.0
 31
0.0
  0
LINE
  5
A92
330
1F
100
AcDbEntity
  8
SK2
  6
CONTINUOUS
370
25
 62
7
100
AcDbLine
 10
-65.23332893525962
 20
-9.766644676298128
 30
0.0
 11
-63.99997361155774
 21
-11.0
 31
0.0
  0
LINE
  5
A93
330
1F
100
AcDbEntity
  8
SK2
  6
CONTINUOUS
370
25
 62
7
100
AcDbLine
 10
-65.16261825714096
 20
-9.413091285704866
 30
0.0
 11
-63.57570954284583
 21
-11.0
 31
0.0
  0
LINE
  5
A94
330
1F
100
AcDbEntity
  8
SK2
  6
CONTINUOUS
370
25
 62
7
100
AcDbLine
 10
-65.0919075790223
 20
-9.059537895111589
 30
0.0
 11
-63.56213863146652
 21
-10.58930684266736
 31
0.0
  0
LINE
  5
A95
330
1F
100
AcDbEntity
  8
SK2
  6
CONTINUOUS
370
25
 62
7
100
AcDbLine
 10
-65.02119690090366
 20
-8.705984504518312
 30
0.0
 11
-63.6682046486445
 21
-10.05897675677745
 31
0.0
  0
LINE
  5
A96
330
1F
100
AcDbEntity
  8
SK2
  6
CONTINUOUS
370
25
 62
7
100
AcDbLine
 10
-64.95048622278502
 20
-8.352431113925036
 30
0.0
 11
-63.77427066582248
 21
-9.528646670887568
 31
0.0
  0
LINE
  5
A97
330
1F
100
AcDbEntity
  8
SK2
  6
CONTINUOUS
370
25
 62
7
100
AcDbLine
 10
-64.87977554466636
 20
-7.998877723331773
 30
0.0
 11
-63.88033668300046
 21
-8.99831658499766
 31
0.0
  0
LINE
  5
A98
330
1F
100
AcDbEntity
  8
SK2
  6
CONTINUOUS
370
25
 62
7
100
AcDbLine
 10
-64.80906486654769
 20
-7.645324332738497
 30
0.0
 11
-63.98640270017846
 21
-8.467986499107717
 31
0.0
  0
LINE
  5
A99
330
1F
100
AcDbEntity
  8
SK2
  6
CONTINUOUS
370
25
 62
7
100
AcDbLine
 10
-64.73835418842904
 20
-7.291770942145234
 30
0.0
 11
-64.09246871735643
 21
-7.937656413217837
 31
0.0
  0
LINE
  5
A9A
330
1F
100
AcDbEntity
  8
SK2
  6
CONTINUOUS
370
25
 62
7
100
AcDbLine
 10
-64.66764351031038
 20
-6.938217551551958
 30
0.0
 11
-64.1985347345344
 21
-7.407326327327937
 31
0.0
  0
LINE
  5
A9B
330
1F
100
AcDbEntity
  8
SK2
  6
CONTINUOUS
370
25
 62
7
100
AcDbLine
 10
-64.59693283219174
 20
-6.584664160958667
 30
0.0
 11
-64.30460075171239
 21
-6.876996241438022
 31
0.0
  0
LINE
  5
A9C
330
1F
100
AcDbEntity
  8
SK2
  6
CONTINUOUS
370
25
 62
7
100
AcDbLine
 10
-64.52622215407308
 20
-6.231110770365405
 30
0.0
 11
-64.41066676889037
 21
-6.346666155548121
 31
0.0
  0
LINE
  5
A9D
330
1F
100
AcDbEntity
  8
SK2
  6
CONTINUOUS
370
25
 62
7
100
AcDbLine
 10
-64.47999999999999
 20
6.0
 30
0.0
 11
-65.47999999999999
 21
11.0
 31
0.0
  0
LINE
  5
A9E
330
1F
100
AcDbEntity
  8
SK2
  6
CONTINUOUS
370
25
 62
7
100
AcDbLine
 10
-65.47999999999999
 20
11.0
 30
0.0
 11
-63.47999999999999
 21
11.0
 31
0.0
  0
LINE
  5
A9F
330
1F
100
AcDbEntity
  8
SK2
  6
CONTINUOUS
370
25
 62
7
100
AcDbLine
 10
-63.47999999999999
 20
11.0
 30
0.0
 11
-64.47999999999999
 21
6.0
 31
0.0
  0
LINE
  5
AA0
330
1F
100
AcDbEntity
  8
SK2
  6
CONTINUOUS
370
25
 62
7
100
AcDbLine
 10
-64.54201657914867
 20
6.310082895743349
 30
0.0
 11
-64.38697513127698
 21
6.465124343615031
 31
0.0
  0
LINE
  5
AA1
330
1F
100
AcDbEntity
  8
SK2
  6
CONTINUOUS
370
25
 62
7
100
AcDbLine
 10
-64.61272725726731
 20
6.663636286336626
 30
0.0
 11
-64.28090911409902
 21
6.995454429504917
 31
0.0
  0
LINE
  5
AA2
330
1F
100
AcDbEntity
  8
SK2
  6
CONTINUOUS
370
25
 62
7
100
AcDbLine
 10
-64.68343793538598
 20
7.017189676929902
 30
0.0
 11
-64.17484309692102
 21
7.525784515394861
 31
0.0
  0
LINE
  5
AA3
330
1F
100
AcDbEntity
  8
SK2
  6
CONTINUOUS
370
25
 62
7
100
AcDbLine
 10
-64.75414861350463
 20
7.370743067523179
 30
0.0
 11
-64.06877707974304
 21
8.056114601284762
 31
0.0
  0
LINE
  5
AA4
330
1F
100
AcDbEntity
  8
SK2
  6
CONTINUOUS
370
25
 62
7
100
AcDbLine
 10
-64.82485929162328
 20
7.724296458116441
 30
0.0
 11
-63.96271106256506
 21
8.586444687174662
 31
0.0
  0
LINE
  5
AA5
330
1F
100
AcDbEntity
  8
SK2
  6
CONTINUOUS
370
25
 62
7
100
AcDbLine
 10
-64.89556996974194
 20
8.077849848709718
 30
0.0
 11
-63.85664504538708
 21
9.116774773064577
 31
0.0
  0
LINE
  5
AA6
330
1F
100
AcDbEntity
  8
SK2
  6
CONTINUOUS
370
25
 62
7
100
AcDbLine
 10
-64.96628064786059
 20
8.431403239302995
 30
0.0
 11
-63.7505790282091
 21
9.647104858954492
 31
0.0
  0
LINE
  5
AA7
330
1F
100
AcDbEntity
  8
SK2
  6
CONTINUOUS
370
25
 62
7
100
AcDbLine
 10
-65.03699132597924
 20
8.784956629896257
 30
0.0
 11
-63.64451301103112
 21
10.1774349448444
 31
0.0
  0
LINE
  5
AA8
330
1F
100
AcDbEntity
  8
SK2
  6
CONTINUOUS
370
25
 62
7
100
AcDbLine
 10
-65.1077020040979
 20
9.138510020489534
 30
0.0
 11
-63.53844699385314
 21
10.70776503073432
 31
0.0
  0
LINE
  5
AA9
330
1F
100
AcDbEntity
  8
SK2
  6
CONTINUOUS
370
25
 62
7
100
AcDbLine
 10
-65.17841268221656
 20
9.492063411082796
 30
0.0
 11
-63.67047609329937
 21
11.0
 31
0.0
  0
LINE
  5
AAA
330
1F
100
AcDbEntity
  8
SK2
  6
CONTINUOUS
370
25
 62
7
100
AcDbLine
 10
-65.24912336033522
 20
9.845616801676087
 30
0.0
 11
-64.09474016201132
 21
11.0
 31
0.0
  0
LINE
  5
AAB
330
1F
100
AcDbEntity
  8
SK2
  6
CONTINUOUS
370
25
 62
7
100
AcDbLine
 10
-65.31983403845386
 20
10.19917019226936
 30
0.0
 11
-64.51900423072324
 21
11.0
 31
0.0
  0
LINE
  5
AAC
330
1F
100
AcDbEntity
  8
SK2
  6
CONTINUOUS
370
25
 62
7
100
AcDbLine
 10
-65.39054471657252
 20
10.55272358286264
 30
0.0
 11
-64.94326829943516
 21
11.0
 31
0.0
  0
LINE
  5
AAD
330
1F
100
AcDbEntity
  8
SK2
  6
CONTINUOUS
370
25
 62
7
100
AcDbLine
 10
-65.46125539469116
 20
10.90627697345592
 30
0.0
 11
-65.36753236814708
 21
11.0
 31
0.0
  0
LINE
  5
AAE
330
1F
100
AcDbEntity
  8
SK2
  6
CONTINUOUS
370
25
 62
7
100
AcDbLine
 10
-64.50129989281332
 20
6.106499464066616
 30
0.0
 11
-64.46580007145778
 21
6.070999642711072
 31
0.0
  0
LINE
  5
AAF
330
1F
100
AcDbEntity
  8
SK2
  6
CONTINUOUS
370
25
 62
7
100
AcDbLine
 10
-64.6073659099913
 20
6.636829549956524
 30
0.0
 11
-64.39508939333912
 21
6.424553033304342
 31
0.0
  0
LINE
  5
AB0
330
1F
100
AcDbEntity
  8
SK2
  6
CONTINUOUS
370
25
 62
7
100
AcDbLine
 10
-64.71343192716928
 20
7.167159635846446
 30
0.0
 11
-64.32437871522048
 21
6.77810642389764
 31
0.0
  0
LINE
  5
AB1
330
1F
100
AcDbEntity
  8
SK2
  6
CONTINUOUS
370
25
 62
7
100
AcDbLine
 10
-64.81949794434726
 20
7.697489721736346
 30
0.0
 11
-64.25366803710182
 21
7.131659814490902
 31
0.0
  0
LINE
  5
AB2
330
1F
100
AcDbEntity
  8
SK2
  6
CONTINUOUS
370
25
 62
7
100
AcDbLine
 10
-64.92556396152524
 20
8.227819807626233
 30
0.0
 11
-64.18295735898316
 21
7.485213205084165
 31
0.0
  0
LINE
  5
AB3
330
1F
100
AcDbEntity
  8
SK2
  6
CONTINUOUS
370
25
 62
7
100
AcDbLine
 10
-65.03162997870322
 20
8.758149893516155
 30
0.0
 11
-64.11224668086452
 21
7.838766595677448
 31
0.0
  0
LINE
  5
AB4
330
1F
100
AcDbEntity
  8
SK2
  6
CONTINUOUS
370
25
 62
7
100
AcDbLine
 10
-65.1376959958812
 20
9.288479979406063
 30
0.0
 11
-64.04153600274586
 21
8.192319986270732
 31
0.0
  0
LINE
  5
AB5
330
1F
100
AcDbEntity
  8
SK2
  6
CONTINUOUS
370
25
 62
7
100
AcDbLine
 10
-65.24376201305918
 20
9.818810065295963
 30
0.0
 11
-63.97082532462721
 21
8.545873376863995
 31
0.0
  0
LINE
  5
AB6
330
1F
100
AcDbEntity
  8
SK2
  6
CONTINUOUS
370
25
 62
7
100
AcDbLine
 10
-65.34982803023716
 20
10.34914015118586
 30
0.0
 11
-63.90011464650855
 21
8.899426767457264
 31
0.0
  0
LINE
  5
AB7
330
1F
100
AcDbEntity
  8
SK2
  6
CONTINUOUS
370
25
 62
7
100
AcDbLine
 10
-65.45589404741516
 20
10.87947023707579
 30
0.0
 11
-63.82940396838989
 21
9.252980158050534
 31
0.0
  0
LINE
  5
AB8
330
1F
100
AcDbEntity
  8
SK2
  6
CONTINUOUS
370
25
 62
7
100
AcDbLine
 10
-65.15215974162744
 20
11.0
 30
0.0
 11
-63.75869329027122
 21
9.606533548643803
 31
0.0
  0
LINE
  5
AB9
330
1F
100
AcDbEntity
  8
SK2
  6
CONTINUOUS
370
25
 62
7
100
AcDbLine
 10
-64.72789567291552
 20
11.0
 30
0.0
 11
-63.68798261215257
 21
9.960086939237073
 31
0.0
  0
LINE
  5
ABA
330
1F
100
AcDbEntity
  8
SK2
  6
CONTINUOUS
370
25
 62
7
100
AcDbLine
 10
-64.30363160420359
 20
11.0
 30
0.0
 11
-63.61727193403392
 21
10.31364032983034
 31
0.0
  0
LINE
  5
ABB
330
1F
100
AcDbEntity
  8
SK2
  6
CONTINUOUS
370
25
 62
7
100
AcDbLine
 10
-63.87936753549166
 20
11.0
 30
0.0
 11
-63.54656125591527
 21
10.66719372042362
 31
0.0
  0
TEXT
  5
ABC
330
1F
100
AcDbEntity
  8
SK2
  6
CONTINUOUS
370
25
 62
7
100
AcDbText
 10
-65.47999999999999
 20
-18.07083333333333
 30
0.0
 40
3.5
  1
12
 50
90.00000000000001
 72
     1
 11
-65.47999999999999
 21
-15.7375
 31
0.0
100
AcDbText
  0
CIRCLE
  5
ABD
330
1F
100
AcDbEntity
  8
SK2
  6
CONTINUOUS
370
25
 62
7
100
AcDbCircle
 10
-67.01124999999999
 20
-21.80125
 30
0.0
 40
1.53125
  0
LINE
  5
ABE
330
1F
100
AcDbEntity
  8
SK2
  6
CONTINUOUS
370
25
 62
7
100
AcDbLine
 10
-65.47999999999999
 20
-23.3325
 30
0.0
 11
-68.54249999999999
 21
-20.27
 31
0.0
  0
LINE
  5
ABF
330
1F
100
AcDbEntity
  8
SK2
  6
CONTINUOUS
370
25
 62
7
100
AcDbLine
 10
-54.48
 20
6.0
 30
0.0
 11
-54.48
 21
17.00001
 31
0.0
  0
LINE
  5
AC0
330
1F
100
AcDbEntity
  8
SK2
  6
CONTINUOUS
370
25
 62
7
100
AcDbLine
 10
0.0000000000000001
 20
17.00001
 30
0.0
 11
-0.0000000000000006
 21
6.0
 31
0.0
  0
LINE
  5
AC1
330
1F
100
AcDbEntity
  8
SK2
  6
CONTINUOUS
370
25
 62
7
100
AcDbLine
 10
-54.48
 20
16.00001
 30
0.0
 11
0.0
 21
16.00001
 31
0.0
  0
LINE
  5
AC2
330
1F
100
AcDbEntity
  8
SK2
  6
CONTINUOUS
370
25
 62
7
100
AcDbLine
 10
-54.48
 20
16.00001
 30
0.0
 11
-49.48
 21
17.00001
 31
0.0
  0
LINE
  5
AC3
330
1F
100
AcDbEntity
  8
SK2
  6
CONTINUOUS
370
25
 62
7
100
AcDbLine
 10
-49.48
 20
17.00001
 30
0.0
 11
-49.48
 21
15.00001
 31
0.0
  0
LINE
  5
AC4
330
1F
100
AcDbEntity
  8
SK2
  6
CONTINUOUS
370
25
 62
7
100
AcDbLine
 10
-49.48
 20
15.00001
 30
0.0
 11
-54.48
 21
16.00001
 31
0.0
  0
LINE
  5
AC5
330
1F
100
AcDbEntity
  8
SK2
  6
CONTINUOUS
370
25
 62
7
100
AcDbLine
 10
-49.48677370351091
 20
15.00136474070219
 30
0.0
 11
-49.48
 21
15.0081384442131
 31
0.0
  0
LINE
  5
AC6
330
1F
100
AcDbEntity
  8
SK2
  6
CONTINUOUS
370
25
 62
7
100
AcDbLine
 10
-49.84032709410419
 20
15.07207541882084
 30
0.0
 11
-49.48
 21
15.43240251292503
 31
0.0
  0
LINE
  5
AC7
330
1F
100
AcDbEntity
  8
SK2
  6
CONTINUOUS
370
25
 62
7
100
AcDbLine
 10
-50.19388048469745
 20
15.1427860969395
 30
0.0
 11
-49.48
 21
15.85666658163695
 31
0.0
  0
LINE
  5
AC8
330
1F
100
AcDbEntity
  8
SK2
  6
CONTINUOUS
370
25
 62
7
100
AcDbLine
 10
-50.54743387529074
 20
15.21349677505815
 30
0.0
 11
-49.48
 21
16.28093065034889
 31
0.0
  0
LINE
  5
AC9
330
1F
100
AcDbEntity
  8
SK2
  6
CONTINUOUS
370
25
 62
7
100
AcDbLine
 10
-50.90098726588401
 20
15.2842074531768
 30
0.0
 11
-49.48
 21
16.70519471906082
 31
0.0
  0
LINE
  5
ACA
330
1F
100
AcDbEntity
  8
SK2
  6
CONTINUOUS
370
25
 62
7
100
AcDbLine
 10
-51.25454065647729
 20
15.35491813129546
 30
0.0
 11
-49.64181098471593
 21
16.96764780305682
 31
0.0
  0
LINE
  5
ACB
330
1F
100
AcDbEntity
  8
SK2
  6
CONTINUOUS
370
25
 62
7
100
AcDbLine
 10
-51.60809404707056
 20
15.42562880941411
 30
0.0
 11
-50.17214107060583
 21
16.86158178587884
 31
0.0
  0
LINE
  5
ACC
330
1F
100
AcDbEntity
  8
SK2
  6
CONTINUOUS
370
25
 62
7
100
AcDbLine
 10
-51.96164743766384
 20
15.49633948753277
 30
0.0
 11
-50.70247115649575
 21
16.75551576870086
 31
0.0
  0
LINE
  5
ACD
330
1F
100
AcDbEntity
  8
SK2
  6
CONTINUOUS
370
25
 62
7
100
AcDbLine
 10
-52.31520082825712
 20
15.56705016565142
 30
0.0
 11
-51.23280124238567
 21
16.64944975152287
 31
0.0
  0
LINE
  5
ACE
330
1F
100
AcDbEntity
  8
SK2
  6
CONTINUOUS
370
25
 62
7
100
AcDbLine
 10
-52.6687542188504
 20
15.63776084377008
 30
0.0
 11
-51.76313132827558
 21
16.54338373434489
 31
0.0
  0
LINE
  5
ACF
330
1F
100
AcDbEntity
  8
SK2
  6
CONTINUOUS
370
25
 62
7
100
AcDbLine
 10
-53.02230760944366
 20
15.70847152188873
 30
0.0
 11
-52.29346141416548
 21
16.43731771716691
 31
0.0
  0
LINE
  5
AD0
330
1F
100
AcDbEntity
  8
SK2
  6
CONTINUOUS
370
25
 62
7
100
AcDbLine
 10
-53.37586100003694
 20
15.77918220000739
 30
0.0
 11
-52.82379150005541
 21
16.33125169998893
 31
0.0
  0
LINE
  5
AD1
330
1F
100
AcDbEntity
  8
SK2
  6
CONTINUOUS
370
25
 62
7
100
AcDbLine
 10
-53.72941439063022
 20
15.84989287812605
 30
0.0
 11
-53.35412158594532
 21
16.22518568281095
 31
0.0
  0
LINE
  5
AD2
330
1F
100
AcDbEntity
  8
SK2
  6
CONTINUOUS
370
25
 62
7
100
AcDbLine
 10
-54.0829677812235
 20
15.9206035562447
 30
0.0
 11
-53.88445167183524
 21
16.11911966563296
 31
0.0
  0
LINE
  5
AD3
330
1F
100
AcDbEntity
  8
SK2
  6
CONTINUOUS
370
25
 62
7
100
AcDbLine
 10
-54.43652117181676
 20
15.99131423436336
 30
0.0
 11
-54.41478175772514
 21
16.01305364845498
 31
0.0
  0
LINE
  5
AD4
330
1F
100
AcDbEntity
  8
SK2
  6
CONTINUOUS
370
25
 62
7
100
AcDbLine
 10
-54.35933471517306
 20
16.0241430569654
 30
0.0
 11
-54.29900207275958
 21
15.96381041455192
 31
0.0
  0
LINE
  5
AD5
330
1F
100
AcDbEntity
  8
SK2
  6
CONTINUOUS
370
25
 62
7
100
AcDbLine
 10
-54.00578132457978
 20
16.09485373508404
 30
0.0
 11
-53.76867198686966
 21
15.85774439737393
 31
0.0
  0
LINE
  5
AD6
330
1F
100
AcDbEntity
  8
SK2
  6
CONTINUOUS
370
25
 62
7
100
AcDbLine
 10
-53.65222793398652
 20
16.16556441320271
 30
0.0
 11
-53.23834190097976
 21
15.75167838019595
 31
0.0
  0
LINE
  5
AD7
330
1F
100
AcDbEntity
  8
SK2
  6
CONTINUOUS
370
25
 62
7
100
AcDbLine
 10
-53.29867454339323
 20
16.23627509132136
 30
0.0
 11
-52.70801181508984
 21
15.64561236301797
 31
0.0
  0
LINE
  5
AD8
330
1F
100
AcDbEntity
  8
SK2
  6
CONTINUOUS
370
25
 62
7
100
AcDbLine
 10
-52.94512115279996
 20
16.30698576944002
 30
0.0
 11
-52.17768172919993
 21
15.53954634583999
 31
0.0
  0
LINE
  5
AD9
330
1F
100
AcDbEntity
  8
SK2
  6
CONTINUOUS
370
25
 62
7
100
AcDbLine
 10
-52.59156776220667
 20
16.37769644755866
 30
0.0
 11
-51.64735164331
 21
15.43348032866199
 31
0.0
  0
LINE
  5
ADA
330
1F
100
AcDbEntity
  8
SK2
  6
CONTINUOUS
370
25
 62
7
100
AcDbLine
 10
-52.23801437161341
 20
16.44840712567733
 30
0.0
 11
-51.1170215574201
 21
15.32741431148402
 31
0.0
  0
LINE
  5
ADB
330
1F
100
AcDbEntity
  8
SK2
  6
CONTINUOUS
370
25
 62
7
100
AcDbLine
 10
-51.88446098102013
 20
16.51911780379598
 30
0.0
 11
-50.58669147153018
 21
15.22134829430603
 31
0.0
  0
LINE
  5
ADC
330
1F
100
AcDbEntity
  8
SK2
  6
CONTINUOUS
370
25
 62
7
100
AcDbLine
 10
-51.53090759042685
 20
16.58982848191464
 30
0.0
 11
-50.05636138564027
 21
15.11528227712805
 31
0.0
  0
LINE
  5
ADD
330
1F
100
AcDbEntity
  8
SK2
  6
CONTINUOUS
370
25
 62
7
100
AcDbLine
 10
-51.17735419983357
 20
16.66053916003329
 30
0.0
 11
-49.52603129975034
 21
15.00921625995006
 31
0.0
  0
LINE
  5
ADE
330
1F
100
AcDbEntity
  8
SK2
  6
CONTINUOUS
370
25
 62
7
100
AcDbLine
 10
-50.8238008092403
 20
16.73124983815195
 30
0.0
 11
-49.48
 21
15.38744902891164
 31
0.0
  0
LINE
  5
ADF
330
1F
100
AcDbEntity
  8
SK2
  6
CONTINUOUS
370
25
 62
7
100
AcDbLine
 10
-50.47024741864703
 20
16.8019605162706
 30
0.0
 11
-49.48
 21
15.81171309762357
 31
0.0
  0
LINE
  5
AE0
330
1F
100
AcDbEntity
  8
SK2
  6
CONTINUOUS
370
25
 62
7
100
AcDbLine
 10
-50.11669402805374
 20
16.87267119438926
 30
0.0
 11
-49.48
 21
16.23597716633551
 31
0.0
  0
LINE
  5
AE1
330
1F
100
AcDbEntity
  8
SK2
  6
CONTINUOUS
370
25
 62
7
100
AcDbLine
 10
-49.76314063746047
 20
16.94338187250791
 30
0.0
 11
-49.48
 21
16.66024123504744
 31
0.0
  0
LINE
  5
AE2
330
1F
100
AcDbEntity
  8
SK2
  6
CONTINUOUS
370
25
 62
7
100
AcDbLine
 10
0.0
 20
16.00001
 30
0.0
 11
-5.0
 21
15.00001
 31
0.0
  0
LINE
  5
AE3
330
1F
100
AcDbEntity
  8
SK2
  6
CONTINUOUS
370
25
 62
7
100
AcDbLine
 10
-5.0
 20
15.00001
 30
0.0
 11
-5.0
 21
17.00001
 31
0.0
  0
LINE
  5
AE4
330
1F
100
AcDbEntity
  8
SK2
  6
CONTINUOUS
370
25
 62
7
100
AcDbLine
 10
-5.0
 20
17.00001
 30
0.0
 11
0.0
 21
16.00001
 31
0.0
  0
LINE
  5
AE5
330
1F
100
AcDbEntity
  8
SK2
  6
CONTINUOUS
370
25
 62
7
100
AcDbLine
 10
-0.1525307638166006
 20
15.96950384723668
 30
0.0
 11
-0.1016871758777338
 21
16.02034743517554
 31
0.0
  0
LINE
  5
AE6
330
1F
100
AcDbEntity
  8
SK2
  6
CONTINUOUS
370
25
 62
7
100
AcDbLine
 10
-0.6828608497065098
 20
15.8634378300587
 30
0.0
 11
-0.4552405664710067
 21
16.0910581132942
 31
0.0
  0
LINE
  5
AE7
330
1F
100
AcDbEntity
  8
SK2
  6
CONTINUOUS
370
25
 62
7
100
AcDbLine
 10
-1.213190935596419
 20
15.75737181288072
 30
0.0
 11
-0.8087939570642797
 21
16.16176879141285
 31
0.0
  0
LINE
  5
AE8
330
1F
100
AcDbEntity
  8
SK2
  6
CONTINUOUS
370
25
 62
7
100
AcDbLine
 10
-1.743521021486328
 20
15.65130579570273
 30
0.0
 11
-1.162347347657553
 21
16.23247946953151
 31
0.0
  0
LINE
  5
AE9
330
1F
100
AcDbEntity
  8
SK2
  6
CONTINUOUS
370
25
 62
7
100
AcDbLine
 10
-2.273851107376238
 20
15.54523977852475
 30
0.0
 11
-1.515900738250826
 21
16.30319014765016
 31
0.0
  0
LINE
  5
AEA
330
1F
100
AcDbEntity
  8
SK2
  6
CONTINUOUS
370
25
 62
7
100
AcDbLine
 10
-2.80418119326615
 20
15.43917376134677
 30
0.0
 11
-1.869454128844101
 21
16.37390082576882
 31
0.0
  0
LINE
  5
AEB
330
1F
100
AcDbEntity
  8
SK2
  6
CONTINUOUS
370
25
 62
7
100
AcDbLine
 10
-3.33451127915606
 20
15.33310774416879
 30
0.0
 11
-2.223007519437374
 21
16.44461150388748
 31
0.0
  0
LINE
  5
AEC
330
1F
100
AcDbEntity
  8
SK2
  6
CONTINUOUS
370
25
 62
7
100
AcDbLine
 10
-3.864841365045969
 20
15.22704172699081
 30
0.0
 11
-2.576560910030647
 21
16.51532218200613
 31
0.0
  0
LINE
  5
AED
330
1F
100
AcDbEntity
  8
SK2
  6
CONTINUOUS
370
25
 62
7
100
AcDbLine
 10
-4.395171450935878
 20
15.12097570981283
 30
0.0
 11
-2.93011430062392
 21
16.58603286012479
 31
0.0
  0
LINE
  5
AEE
330
1F
100
AcDbEntity
  8
SK2
  6
CONTINUOUS
370
25
 62
7
100
AcDbLine
 10
-4.925501536825787
 20
15.01490969263484
 30
0.0
 11
-3.283667691217193
 21
16.65674353824344
 31
0.0
  0
LINE
  5
AEF
330
1F
100
AcDbEntity
  8
SK2
  6
CONTINUOUS
370
25
 62
7
100
AcDbLine
 10
-5.0
 20
15.36467529817256
 30
0.0
 11
-3.637221081810465
 21
16.72745421636209
 31
0.0
  0
LINE
  5
AF0
330
1F
100
AcDbEntity
  8
SK2
  6
CONTINUOUS
370
25
 62
7
100
AcDbLine
 10
-5.0
 20
15.78893936688448
 30
0.0
 11
-3.990774472403738
 21
16.79816489448075
 31
0.0
  0
LINE
  5
AF1
330
1F
100
AcDbEntity
  8
SK2
  6
CONTINUOUS
370
25
 62
7
100
AcDbLine
 10
-5.0
 20
16.21320343559641
 30
0.0
 11
-4.344327862997011
 21
16.8688755725994
 31
0.0
  0
LINE
  5
AF2
330
1F
100
AcDbEntity
  8
SK2
  6
CONTINUOUS
370
25
 62
7
100
AcDbLine
 10
-5.0
 20
16.63746750430834
 30
0.0
 11
-4.697881253590286
 21
16.93958625071806
 31
0.0
  0
LINE
  5
AF3
330
1F
100
AcDbEntity
  8
SK2
  6
CONTINUOUS
370
25
 62
7
100
AcDbLine
 10
-5.0
 20
15.18233764908626
 30
0.0
 11
-4.848060292428118
 21
15.03039794151438
 31
0.0
  0
LINE
  5
AF4
330
1F
100
AcDbEntity
  8
SK2
  6
CONTINUOUS
370
25
 62
7
100
AcDbLine
 10
-5.0
 20
15.60660171779818
 30
0.0
 11
-4.494506901834846
 21
15.10110861963303
 31
0.0
  0
LINE
  5
AF5
330
1F
100
AcDbEntity
  8
SK2
  6
CONTINUOUS
370
25
 62
7
100
AcDbLine
 10
-5.0
 20
16.03086578651011
 30
0.0
 11
-4.140953511241573
 21
15.17181929775169
 31
0.0
  0
LINE
  5
AF6
330
1F
100
AcDbEntity
  8
SK2
  6
CONTINUOUS
370
25
 62
7
100
AcDbLine
 10
-5.0
 20
16.45512985522204
 30
0.0
 11
-3.787400120648299
 21
15.24252997587034
 31
0.0
  0
LINE
  5
AF7
330
1F
100
AcDbEntity
  8
SK2
  6
CONTINUOUS
370
25
 62
7
100
AcDbLine
 10
-5.0
 20
16.87939392393397
 30
0.0
 11
-3.433846730055025
 21
15.31324065398899
 31
0.0
  0
LINE
  5
AF8
330
1F
100
AcDbEntity
  8
SK2
  6
CONTINUOUS
370
25
 62
7
100
AcDbLine
 10
-4.62044000919263
 20
16.92409800183853
 30
0.0
 11
-3.080293339461752
 21
15.38395133210765
 31
0.0
  0
LINE
  5
AF9
330
1F
100
AcDbEntity
  8
SK2
  6
CONTINUOUS
370
25
 62
7
100
AcDbLine
 10
-4.09010992330272
 20
16.81803198466054
 30
0.0
 11
-2.726739948868478
 21
15.4546620102263
 31
0.0
  0
LINE
  5
AFA
330
1F
100
AcDbEntity
  8
SK2
  6
CONTINUOUS
370
25
 62
7
100
AcDbLine
 10
-3.559779837412809
 20
16.71196596748256
 30
0.0
 11
-2.373186558275204
 21
15.52537268834496
 31
0.0
  0
LINE
  5
AFB
330
1F
100
AcDbEntity
  8
SK2
  6
CONTINUOUS
370
25
 62
7
100
AcDbLine
 10
-3.0294497515229
 20
16.60589995030458
 30
0.0
 11
-2.019633167681933
 21
15.59608336646361
 31
0.0
  0
LINE
  5
AFC
330
1F
100
AcDbEntity
  8
SK2
  6
CONTINUOUS
370
25
 62
7
100
AcDbLine
 10
-2.49911966563299
 20
16.4998339331266
 30
0.0
 11
-1.666079777088659
 21
15.66679404458227
 31
0.0
  0
LINE
  5
AFD
330
1F
100
AcDbEntity
  8
SK2
  6
CONTINUOUS
370
25
 62
7
100
AcDbLine
 10
-1.968789579743077
 20
16.39376791594862
 30
0.0
 11
-1.312526386495384
 21
15.73750472270092
 31
0.0
  0
LINE
  5
AFE
330
1F
100
AcDbEntity
  8
SK2
  6
CONTINUOUS
370
25
 62
7
100
AcDbLine
 10
-1.438459493853167
 20
16.28770189877063
 30
0.0
 11
-0.9589729959021105
 21
15.80821540081958
 31
0.0
  0
LINE
  5
AFF
330
1F
100
AcDbEntity
  8
SK2
  6
CONTINUOUS
370
25
 62
7
100
AcDbLine
 10
-0.9081294079632583
 20
16.18163588159265
 30
0.0
 11
-0.6054196053088384
 21
15.87892607893823
 31
0.0
  0
LINE
  5
B00
330
1F
100
AcDbEntity
  8
SK2
  6
CONTINUOUS
370
25
 62
7
100
AcDbLine
 10
-0.3777993220733454
 20
16.07556986441467
 30
0.0
 11
-0.2518662147155634
 21
15.94963675705689
 31
0.0
  0
TEXT
  5
B01
330
1F
100
AcDbEntity
  8
SK2
  6
CONTINUOUS
370
25
 62
7
100
AcDbText
 10
-34.23999999999999
 20
17.00001
 30
0.0
 40
3.5
  1
54.48
 72
     1
 11
-27.24
 21
17.00001
 31
0.0
100
AcDbText
  0
LINE
  5
B02
330
1F
100
AcDbEntity
  8
2
  6
CONTINUOUS
370
25
 62
7
100
AcDbLine
 10
0.0
 20
-6.00001
 30
0.0
 11
-0.0000000000000007
 21
-17.00001
 31
0.0
  0
LINE
  5
B03
330
1F
100
AcDbEntity
  8
2
  6
CONTINUOUS
370
25
 62
7
100
AcDbLine
 10
1.009999999999999
 20
-17.00001
 30
0.0
 11
1.01
 21
-6.00001
 31
0.0
  0
LINE
  5
B04
330
1F
100
AcDbEntity
  8
2
  6
CONTINUOUS
370
25
 62
7
100
AcDbLine
 10
-18.475
 20
-16.00001
 30
0.0
 11
11.01
 21
-16.00001
 31
0.0
  0
LINE
  5
B05
330
1F
100
AcDbEntity
  8
2
  6
CONTINUOUS
370
25
 62
7
100
AcDbLine
 10
0.0
 20
-16.00001
 30
0.0
 11
-5.0
 21
-17.00001
 31
0.0
  0
LINE
  5
B06
330
1F
100
AcDbEntity
  8
2
  6
CONTINUOUS
370
25
 62
7
100
AcDbLine
 10
-5.0
 20
-17.00001
 30
0.0
 11
-5.0
 21
-15.00001
 31
0.0
  0
LINE
  5
B07
330
1F
100
AcDbEntity
  8
2
  6
CONTINUOUS
370
25
 62
7
100
AcDbLine
 10
-5.0
 20
-15.00001
 30
0.0
 11
0.0
 21
-16.00001
 31
0.0
  0
LINE
  5
B08
330
1F
100
AcDbEntity
  8
2
  6
CONTINUOUS
370
25
 62
7
100
AcDbLine
 10
-0.1734783750750956
 20
-16.03470567501502
 30
0.0
 11
-0.1156522500500637
 21
-15.97687954998999
 31
0.0
  0
LINE
  5
B09
330
1F
100
AcDbEntity
  8
2
  6
CONTINUOUS
370
25
 62
7
100
AcDbLine
 10
-0.7038084609650048
 20
-16.140771692193
 30
0.0
 11
-0.4692056406433367
 21
-15.90616887187133
 31
0.0
  0
LINE
  5
B0A
330
1F
100
AcDbEntity
  8
2
  6
CONTINUOUS
370
25
 62
7
100
AcDbLine
 10
-1.234138546854914
 20
-16.24683770937098
 30
0.0
 11
-0.8227590312366097
 21
-15.83545819375268
 31
0.0
  0
LINE
  5
B0B
330
1F
100
AcDbEntity
  8
2
  6
CONTINUOUS
370
25
 62
7
100
AcDbLine
 10
-1.764468632744823
 20
-16.35290372654896
 30
0.0
 11
-1.176312421829883
 21
-15.76474751563402
 31
0.0
  0
LINE
  5
B0C
330
1F
100
AcDbEntity
  8
2
  6
CONTINUOUS
370
25
 62
7
100
AcDbLine
 10
-2.294798718634733
 20
-16.45896974372695
 30
0.0
 11
-1.529865812423155
 21
-15.69403683751537
 31
0.0
  0
LINE
  5
B0D
330
1F
100
AcDbEntity
  8
2
  6
CONTINUOUS
370
25
 62
7
100
AcDbLine
 10
-2.825128804524641
 20
-16.56503576090493
 30
0.0
 11
-1.883419203016428
 21
-15.62332615939671
 31
0.0
  0
LINE
  5
B0E
330
1F
100
AcDbEntity
  8
2
  6
CONTINUOUS
370
25
 62
7
100
AcDbLine
 10
-3.35545889041455
 20
-16.67110177808291
 30
0.0
 11
-2.236972593609701
 21
-15.55261548127806
 31
0.0
  0
LINE
  5
B0F
330
1F
100
AcDbEntity
  8
2
  6
CONTINUOUS
370
25
 62
7
100
AcDbLine
 10
-3.885788976304462
 20
-16.77716779526089
 30
0.0
 11
-2.590525984202976
 21
-15.48190480315941
 31
0.0
  0
LINE
  5
B10
330
1F
100
AcDbEntity
  8
2
  6
CONTINUOUS
370
25
 62
7
100
AcDbLine
 10
-4.416119062194371
 20
-16.88323381243887
 30
0.0
 11
-2.944079374796248
 21
-15.41119412504075
 31
0.0
  0
LINE
  5
B11
330
1F
100
AcDbEntity
  8
2
  6
CONTINUOUS
370
25
 62
7
100
AcDbLine
 10
-4.94644914808428
 20
-16.98929982961685
 30
0.0
 11
-3.297632765389521
 21
-15.3404834469221
 31
0.0
  0
LINE
  5
B12
330
1F
100
AcDbEntity
  8
2
  6
CONTINUOUS
370
25
 62
7
100
AcDbLine
 10
-5.0
 20
-16.61858661282065
 30
0.0
 11
-3.651186155982794
 21
-15.26977276880344
 31
0.0
  0
LINE
  5
B13
330
1F
100
AcDbEntity
  8
2
  6
CONTINUOUS
370
25
 62
7
100
AcDbLine
 10
-5.0
 20
-16.19432254410872
 30
0.0
 11
-4.004739546576067
 21
-15.19906209068479
 31
0.0
  0
LINE
  5
B14
330
1F
100
AcDbEntity
  8
2
  6
CONTINUOUS
370
25
 62
7
100
AcDbLine
 10
-5.0
 20
-15.77005847539679
 30
0.0
 11
-4.35829293716934
 21
-15.12835141256613
 31
0.0
  0
LINE
  5
B15
330
1F
100
AcDbEntity
  8
2
  6
CONTINUOUS
370
25
 62
7
100
AcDbLine
 10
-5.0
 20
-15.34579440668486
 30
0.0
 11
-4.711846327762613
 21
-15.05764073444748
 31
0.0
  0
LINE
  5
B16
330
1F
100
AcDbEntity
  8
2
  6
CONTINUOUS
370
25
 62
7
100
AcDbLine
 10
-5.0
 20
-16.61858661282064
 30
0.0
 11
-4.682147177350529
 21
-16.93643943547011
 31
0.0
  0
LINE
  5
B17
330
1F
100
AcDbEntity
  8
2
  6
CONTINUOUS
370
25
 62
7
100
AcDbLine
 10
-5.0
 20
-16.19432254410871
 30
0.0
 11
-4.328593786757256
 21
-16.86572875735145
 31
0.0
  0
LINE
  5
B18
330
1F
100
AcDbEntity
  8
2
  6
CONTINUOUS
370
25
 62
7
100
AcDbLine
 10
-5.0
 20
-15.77005847539678
 30
0.0
 11
-3.975040396163982
 21
-16.7950180792328
 31
0.0
  0
LINE
  5
B19
330
1F
100
AcDbEntity
  8
2
  6
CONTINUOUS
370
25
 62
7
100
AcDbLine
 10
-5.0
 20
-15.34579440668485
 30
0.0
 11
-3.621487005570709
 21
-16.72430740111414
 31
0.0
  0
LINE
  5
B1A
330
1F
100
AcDbEntity
  8
2
  6
CONTINUOUS
370
25
 62
7
100
AcDbLine
 10
-4.901900422466156
 20
-15.01962991550677
 30
0.0
 11
-3.267933614977435
 21
-16.65359672299549
 31
0.0
  0
LINE
  5
B1B
330
1F
100
AcDbEntity
  8
2
  6
CONTINUOUS
370
25
 62
7
100
AcDbLine
 10
-4.371570336576245
 20
-15.12569593268475
 30
0.0
 11
-2.914380224384162
 21
-16.58288604487683
 31
0.0
  0
LINE
  5
B1C
330
1F
100
AcDbEntity
  8
2
  6
CONTINUOUS
370
25
 62
7
100
AcDbLine
 10
-3.841240250686335
 20
-15.23176194986273
 30
0.0
 11
-2.560826833790889
 21
-16.51217536675818
 31
0.0
  0
LINE
  5
B1D
330
1F
100
AcDbEntity
  8
2
  6
CONTINUOUS
370
25
 62
7
100
AcDbLine
 10
-3.310910164796425
 20
-15.33782796704071
 30
0.0
 11
-2.207273443197616
 21
-16.44146468863952
 31
0.0
  0
LINE
  5
B1E
330
1F
100
AcDbEntity
  8
2
  6
CONTINUOUS
370
25
 62
7
100
AcDbLine
 10
-2.780580078906515
 20
-15.4438939842187
 30
0.0
 11
-1.853720052604342
 21
-16.37075401052087
 31
0.0
  0
LINE
  5
B1F
330
1F
100
AcDbEntity
  8
2
  6
CONTINUOUS
370
25
 62
7
100
AcDbLine
 10
-2.250249993016604
 20
-15.54996000139668
 30
0.0
 11
-1.500166662011069
 21
-16.30004333240221
 31
0.0
  0
LINE
  5
B20
330
1F
100
AcDbEntity
  8
2
  6
CONTINUOUS
370
25
 62
7
100
AcDbLine
 10
-1.719919907126694
 20
-15.65602601857466
 30
0.0
 11
-1.146613271417795
 21
-16.22933265428356
 31
0.0
  0
LINE
  5
B21
330
1F
100
AcDbEntity
  8
2
  6
CONTINUOUS
370
25
 62
7
100
AcDbLine
 10
-1.189589821236783
 20
-15.76209203575264
 30
0.0
 11
-0.7930598808245215
 21
-16.15862197616491
 31
0.0
  0
LINE
  5
B22
330
1F
100
AcDbEntity
  8
2
  6
CONTINUOUS
370
25
 62
7
100
AcDbLine
 10
-0.6592597353468724
 20
-15.86815805293062
 30
0.0
 11
-0.439506490231248
 21
-16.08791129804625
 31
0.0
  0
LINE
  5
B23
330
1F
100
AcDbEntity
  8
2
  6
CONTINUOUS
370
25
 62
7
100
AcDbLine
 10
-0.1289296494569617
 20
-15.97422407010861
 30
0.0
 11
-0.0859530996379744
 21
-16.0172006199276
 31
0.0
  0
LINE
  5
B24
330
1F
100
AcDbEntity
  8
2
  6
CONTINUOUS
370
25
 62
7
100
AcDbLine
 10
1.009999999999999
 20
-16.00001
 30
0.0
 11
6.01
 21
-15.00001
 31
0.0
  0
LINE
  5
B25
330
1F
100
AcDbEntity
  8
2
  6
CONTINUOUS
370
25
 62
7
100
AcDbLine
 10
6.01
 20
-15.00001
 30
0.0
 11
6.01
 21
-17.00001
 31
0.0
  0
LINE
  5
B26
330
1F
100
AcDbEntity
  8
2
  6
CONTINUOUS
370
25
 62
7
100
AcDbLine
 10
6.01
 20
-17.00001
 30
0.0
 11
1.009999999999999
 21
-16.00001
 31
0.0
  0
LINE
  5
B27
330
1F
100
AcDbEntity
  8
2
  6
CONTINUOUS
370
25
 62
7
100
AcDbLine
 10
5.826707062830647
 20
-16.96335141256613
 30
0.0
 11
6.01
 21
-16.78005847539678
 31
0.0
  0
LINE
  5
B28
330
1F
100
AcDbEntity
  8
2
  6
CONTINUOUS
370
25
 62
7
100
AcDbLine
 10
5.473153672237375
 20
-16.89264073444748
 30
0.0
 11
6.01
 21
-16.35579440668485
 31
0.0
  0
LINE
  5
B29
330
1F
100
AcDbEntity
  8
2
  6
CONTINUOUS
370
25
 62
7
100
AcDbLine
 10
5.119600281644102
 20
-16.82193005632882
 30
0.0
 11
6.01
 21
-15.93153033797292
 31
0.0
  0
LINE
  5
B2A
330
1F
100
AcDbEntity
  8
2
  6
CONTINUOUS
370
25
 62
7
100
AcDbLine
 10
4.766046891050829
 20
-16.75121937821017
 30
0.0
 11
6.01
 21
-15.507266269261
 31
0.0
  0
LINE
  5
B2B
330
1F
100
AcDbEntity
  8
2
  6
CONTINUOUS
370
25
 62
7
100
AcDbLine
 10
4.412493500457556
 20
-16.68050870009151
 30
0.0
 11
6.01
 21
-15.08300220054907
 31
0.0
  0
LINE
  5
B2C
330
1F
100
AcDbEntity
  8
2
  6
CONTINUOUS
370
25
 62
7
100
AcDbLine
 10
4.058940109864283
 20
-16.60979802197286
 30
0.0
 11
5.583410164796428
 21
-15.08532796704071
 31
0.0
  0
LINE
  5
B2D
330
1F
100
AcDbEntity
  8
2
  6
CONTINUOUS
370
25
 62
7
100
AcDbLine
 10
3.70538671927101
 20
-16.5390873438542
 30
0.0
 11
5.053080078906518
 21
-15.19139398421869
 31
0.0
  0
LINE
  5
B2E
330
1F
100
AcDbEntity
  8
2
  6
CONTINUOUS
370
25
 62
7
100
AcDbLine
 10
3.351833328677737
 20
-16.46837666573555
 30
0.0
 11
4.522749993016609
 21
-15.29746000139668
 31
0.0
  0
LINE
  5
B2F
330
1F
100
AcDbEntity
  8
2
  6
CONTINUOUS
370
25
 62
7
100
AcDbLine
 10
2.99827993808446
 20
-16.39766598761689
 30
0.0
 11
3.992419907126694
 21
-15.40352601857466
 31
0.0
  0
LINE
  5
B30
330
1F
100
AcDbEntity
  8
2
  6
CONTINUOUS
370
25
 62
7
100
AcDbLine
 10
2.644726547491188
 20
-16.32695530949824
 30
0.0
 11
3.462089821236785
 21
-15.50959203575264
 31
0.0
  0
LINE
  5
B31
330
1F
100
AcDbEntity
  8
2
  6
CONTINUOUS
370
25
 62
7
100
AcDbLine
 10
2.291173156897914
 20
-16.25624463137958
 30
0.0
 11
2.931759735346875
 21
-15.61565805293062
 31
0.0
  0
LINE
  5
B32
330
1F
100
AcDbEntity
  8
2
  6
CONTINUOUS
370
25
 62
7
100
AcDbLine
 10
1.937619766304641
 20
-16.18553395326093
 30
0.0
 11
2.401429649456965
 21
-15.72172407010861
 31
0.0
  0
LINE
  5
B33
330
1F
100
AcDbEntity
  8
2
  6
CONTINUOUS
370
25
 62
7
100
AcDbLine
 10
1.584066375711368
 20
-16.11482327514227
 30
0.0
 11
1.871099563567055
 21
-15.82779008728659
 31
0.0
  0
LINE
  5
B34
330
1F
100
AcDbEntity
  8
2
  6
CONTINUOUS
370
25
 62
7
100
AcDbLine
 10
1.230512985118095
 20
-16.04411259702362
 30
0.0
 11
1.340769477677145
 21
-15.93385610446457
 31
0.0
  0
LINE
  5
B35
330
1F
100
AcDbEntity
  8
2
  6
CONTINUOUS
370
25
 62
7
100
AcDbLine
 10
1.260212135530173
 20
-15.94996757289396
 30
0.0
 11
1.385318203295262
 21
-16.07507364065905
 31
0.0
  0
LINE
  5
B36
330
1F
100
AcDbEntity
  8
2
  6
CONTINUOUS
370
25
 62
7
100
AcDbLine
 10
1.613765526123446
 20
-15.87925689477531
 30
0.0
 11
1.915648289185172
 21
-16.18113965783703
 31
0.0
  0
LINE
  5
B37
330
1F
100
AcDbEntity
  8
2
  6
CONTINUOUS
370
25
 62
7
100
AcDbLine
 10
1.96731891671672
 20
-15.80854621665665
 30
0.0
 11
2.445978375075083
 21
-16.28720567501502
 31
0.0
  0
LINE
  5
B38
330
1F
100
AcDbEntity
  8
2
  6
CONTINUOUS
370
25
 62
7
100
AcDbLine
 10
2.320872307309993
 20
-15.737835538538
 30
0.0
 11
2.976308460964993
 21
-16.393271692193
 31
0.0
  0
LINE
  5
B39
330
1F
100
AcDbEntity
  8
2
  6
CONTINUOUS
370
25
 62
7
100
AcDbLine
 10
2.674425697903266
 20
-15.66712486041934
 30
0.0
 11
3.506638546854902
 21
-16.49933770937098
 31
0.0
  0
LINE
  5
B3A
330
1F
100
AcDbEntity
  8
2
  6
CONTINUOUS
370
25
 62
7
100
AcDbLine
 10
3.027979088496539
 20
-15.59641418230069
 30
0.0
 11
4.036968632744813
 21
-16.60540372654896
 31
0.0
  0
LINE
  5
B3B
330
1F
100
AcDbEntity
  8
2
  6
CONTINUOUS
370
25
 62
7
100
AcDbLine
 10
3.381532479089813
 20
-15.52570350418203
 30
0.0
 11
4.567298718634722
 21
-16.71146974372694
 31
0.0
  0
LINE
  5
B3C
330
1F
100
AcDbEntity
  8
2
  6
CONTINUOUS
370
25
 62
7
100
AcDbLine
 10
3.735085869683086
 20
-15.45499282606338
 30
0.0
 11
5.097628804524633
 21
-16.81753576090493
 31
0.0
  0
LINE
  5
B3D
330
1F
100
AcDbEntity
  8
2
  6
CONTINUOUS
370
25
 62
7
100
AcDbLine
 10
4.088639260276359
 20
-15.38428214794473
 30
0.0
 11
5.627958890414543
 21
-16.92360177808291
 31
0.0
  0
LINE
  5
B3E
330
1F
100
AcDbEntity
  8
2
  6
CONTINUOUS
370
25
 62
7
100
AcDbLine
 10
4.442192650869632
 20
-15.31357146982607
 30
0.0
 11
6.01
 21
-16.88137881895644
 31
0.0
  0
LINE
  5
B3F
330
1F
100
AcDbEntity
  8
2
  6
CONTINUOUS
370
25
 62
7
100
AcDbLine
 10
4.795746041462905
 20
-15.24286079170742
 30
0.0
 11
6.01
 21
-16.45711475024451
 31
0.0
  0
LINE
  5
B40
330
1F
100
AcDbEntity
  8
2
  6
CONTINUOUS
370
25
 62
7
100
AcDbLine
 10
5.149299432056178
 20
-15.17215011358876
 30
0.0
 11
6.01
 21
-16.03285068153258
 31
0.0
  0
LINE
  5
B41
330
1F
100
AcDbEntity
  8
2
  6
CONTINUOUS
370
25
 62
7
100
AcDbLine
 10
5.502852822649452
 20
-15.10143943547011
 30
0.0
 11
6.01
 21
-15.60858661282065
 31
0.0
  0
LINE
  5
B42
330
1F
100
AcDbEntity
  8
2
  6
CONTINUOUS
370
25
 62
7
100
AcDbLine
 10
5.856406213242725
 20
-15.03072875735145
 30
0.0
 11
6.01
 21
-15.18432254410873
 31
0.0
  0
TEXT
  5
B43
330
1F
100
AcDbEntity
  8
2
  6
CONTINUOUS
370
25
 62
7
100
AcDbText
 10
-15.52916666666667
 20
-15.00001
 30
0.0
 40
3.5
  1
1.01
 72
     1
 11
-11.7375
 21
-15.00001
 31
0.0
100
AcDbText
  0
LINE
  5
B44
330
1F
100
AcDbEntity
  8
2
  6
CONTINUOUS
370
25
 62
7
100
AcDbLine
 10
94.22910347
 20
-5.7
 30
0.0
 11
117.52
 21
-5.7
 31
0.0
  0
LINE
  5
B45
330
1F
100
AcDbEntity
  8
2
  6
CONTINUOUS
370
25
 62
7
100
AcDbLine
 10
117.52
 20
5.7
 30
0.0
 11
94.22910347
 21
5.7
 31
0.0
  0
LINE
  5
B46
330
1F
100
AcDbEntity
  8
2
  6
CONTINUOUS
370
25
 62
7
100
AcDbLine
 10
116.52
 20
-30.9125
 30
0.0
 11
116.52
 21
15.70000000000001
 31
0.0
  0
LINE
  5
B47
330
1F
100
AcDbEntity
  8
2
  6
CONTINUOUS
370
25
 62
7
100
AcDbLine
 10
116.52
 20
-5.7
 30
0.0
 11
117.52
 21
-10.7
 31
0.0
  0
LINE
  5
B48
330
1F
100
AcDbEntity
  8
2
  6
CONTINUOUS
370
25
 62
7
100
AcDbLine
 10
117.52
 20
-10.7
 30
0.0
 11
115.52
 21
-10.7
 31
0.0
  0
LINE
  5
B49
330
1F
100
AcDbEntity
  8
2
  6
CONTINUOUS
370
25
 62
7
100
AcDbLine
 10
115.52
 20
-10.7
 30
0.0
 11
116.52
 21
-5.7
 31
0.0
  0
LINE
  5
B4A
330
1F
100
AcDbEntity
  8
2
  6
CONTINUOUS
370
25
 62
7
100
AcDbLine
 10
117.2925494348381
 20
-10.7
 30
0.0
 11
117.482091572473
 21
-10.51045786236506
 31
0.0
  0
LINE
  5
B4B
330
1F
100
AcDbEntity
  8
2
  6
CONTINUOUS
370
25
 62
7
100
AcDbLine
 10
116.8682853661261
 20
-10.7
 30
0.0
 11
117.4113808943544
 21
-10.1569044717718
 31
0.0
  0
LINE
  5
B4C
330
1F
100
AcDbEntity
  8
2
  6
CONTINUOUS
370
25
 62
7
100
AcDbLine
 10
116.4440212974142
 20
-10.7
 30
0.0
 11
117.3406702162357
 21
-9.80335108117852
 31
0.0
  0
LINE
  5
B4D
330
1F
100
AcDbEntity
  8
2
  6
CONTINUOUS
370
25
 62
7
100
AcDbLine
 10
116.0197572287023
 20
-10.7
 30
0.0
 11
117.269959538117
 21
-9.449797690585243
 31
0.0
  0
LINE
  5
B4E
330
1F
100
AcDbEntity
  8
2
  6
CONTINUOUS
370
25
 62
7
100
AcDbLine
 10
115.5954931599904
 20
-10.7
 30
0.0
 11
117.1992488599984
 21
-9.096244299991966
 31
0.0
  0
LINE
  5
B4F
330
1F
100
AcDbEntity
  8
2
  6
CONTINUOUS
370
25
 62
7
100
AcDbLine
 10
115.6071927271804
 20
-10.26403636409805
 30
0.0
 11
117.1285381818797
 21
-8.742690909398718
 31
0.0
  0
LINE
  5
B50
330
1F
100
AcDbEntity
  8
2
  6
CONTINUOUS
370
25
 62
7
100
AcDbLine
 10
115.7132587443584
 20
-9.733706278208146
 30
0.0
 11
117.0578275037611
 21
-8.389137518805455
 31
0.0
  0
LINE
  5
B51
330
1F
100
AcDbEntity
  8
2
  6
CONTINUOUS
370
25
 62
7
100
AcDbLine
 10
115.8193247615364
 20
-9.203376192318245
 30
0.0
 11
116.9871168256424
 21
-8.035584128212179
 31
0.0
  0
LINE
  5
B52
330
1F
100
AcDbEntity
  8
2
  6
CONTINUOUS
370
25
 62
7
100
AcDbLine
 10
115.9253907787143
 20
-8.67304610642833
 30
0.0
 11
116.9164061475238
 21
-7.682030737618888
 31
0.0
  0
LINE
  5
B53
330
1F
100
AcDbEntity
  8
2
  6
CONTINUOUS
370
25
 62
7
100
AcDbLine
 10
116.0314567958923
 20
-8.14271602053843
 30
0.0
 11
116.8456954694051
 21
-7.328477347025625
 31
0.0
  0
LINE
  5
B54
330
1F
100
AcDbEntity
  8
2
  6
CONTINUOUS
370
25
 62
7
100
AcDbLine
 10
116.1375228130703
 20
-7.612385934648529
 30
0.0
 11
116.7749847912865
 21
-6.974923956432349
 31
0.0
  0
LINE
  5
B55
330
1F
100
AcDbEntity
  8
2
  6
CONTINUOUS
370
25
 62
7
100
AcDbLine
 10
116.2435888302483
 20
-7.0820558487586
 30
0.0
 11
116.7042741131678
 21
-6.621370565839101
 31
0.0
  0
LINE
  5
B56
330
1F
100
AcDbEntity
  8
2
  6
CONTINUOUS
370
25
 62
7
100
AcDbLine
 10
116.3496548474263
 20
-6.551725762868685
 30
0.0
 11
116.6335634350492
 21
-6.26781717524581
 31
0.0
  0
LINE
  5
B57
330
1F
100
AcDbEntity
  8
2
  6
CONTINUOUS
370
25
 62
7
100
AcDbLine
 10
116.4557208646043
 20
-6.021395676978784
 30
0.0
 11
116.5628527569305
 21
-5.914263784652547
 31
0.0
  0
LINE
  5
B58
330
1F
100
AcDbEntity
  8
2
  6
CONTINUOUS
370
25
 62
7
100
AcDbLine
 10
115.5862481734265
 20
-10.36875913286761
 30
0.0
 11
115.9174890405589
 21
-10.7
 31
0.0
  0
LINE
  5
B59
330
1F
100
AcDbEntity
  8
2
  6
CONTINUOUS
370
25
 62
7
100
AcDbLine
 10
115.6569588515451
 20
-10.01520574227435
 30
0.0
 11
116.3417531092708
 21
-10.7
 31
0.0
  0
LINE
  5
B5A
330
1F
100
AcDbEntity
  8
2
  6
CONTINUOUS
370
25
 62
7
100
AcDbLine
 10
115.7276695296638
 20
-9.66165235168107
 30
0.0
 11
116.7660171779827
 21
-10.7
 31
0.0
  0
LINE
  5
B5B
330
1F
100
AcDbEntity
  8
2
  6
CONTINUOUS
370
25
 62
7
100
AcDbLine
 10
115.7983802077824
 20
-9.308098961087794
 30
0.0
 11
117.1902812466947
 21
-10.7
 31
0.0
  0
LINE
  5
B5C
330
1F
100
AcDbEntity
  8
2
  6
CONTINUOUS
370
25
 62
7
100
AcDbLine
 10
115.8690908859011
 20
-8.954545570494545
 30
0.0
 11
117.4963636711483
 21
-10.58181835574177
 31
0.0
  0
LINE
  5
B5D
330
1F
100
AcDbEntity
  8
2
  6
CONTINUOUS
370
25
 62
7
100
AcDbLine
 10
115.9398015640198
 20
-8.600992179901283
 30
0.0
 11
117.3902976539704
 21
-10.05148826985187
 31
0.0
  0
LINE
  5
B5E
330
1F
100
AcDbEntity
  8
2
  6
CONTINUOUS
370
25
 62
7
100
AcDbLine
 10
116.0105122421384
 20
-8.247438789307992
 30
0.0
 11
117.2842316367924
 21
-9.521158183961958
 31
0.0
  0
LINE
  5
B5F
330
1F
100
AcDbEntity
  8
2
  6
CONTINUOUS
370
25
 62
7
100
AcDbLine
 10
116.0812229202571
 20
-7.89388539871473
 30
0.0
 11
117.1781656196144
 21
-8.990828098072072
 31
0.0
  0
LINE
  5
B60
330
1F
100
AcDbEntity
  8
2
  6
CONTINUOUS
370
25
 62
7
100
AcDbLine
 10
116.1519335983757
 20
-7.540332008121439
 30
0.0
 11
117.0720996024364
 21
-8.460498012182157
 31
0.0
  0
LINE
  5
B61
330
1F
100
AcDbEntity
  8
2
  6
CONTINUOUS
370
25
 62
7
100
AcDbLine
 10
116.2226442764944
 20
-7.186778617528162
 30
0.0
 11
116.9660335852584
 21
-7.930167926292242
 31
0.0
  0
LINE
  5
B62
330
1F
100
AcDbEntity
  8
2
  6
CONTINUOUS
370
25
 62
7
100
AcDbLine
 10
116.293354954613
 20
-6.833225226934886
 30
0.0
 11
116.8599675680805
 21
-7.399837840402341
 31
0.0
  0
LINE
  5
B63
330
1F
100
AcDbEntity
  8
2
  6
CONTINUOUS
370
25
 62
7
100
AcDbLine
 10
116.3640656327317
 20
-6.479671836341637
 30
0.0
 11
116.7539015509025
 21
-6.869507754512441
 31
0.0
  0
LINE
  5
B64
330
1F
100
AcDbEntity
  8
2
  6
CONTINUOUS
370
25
 62
7
100
AcDbLine
 10
116.4347763108503
 20
-6.126118445748375
 30
0.0
 11
116.6478355337245
 21
-6.339177668622554
 31
0.0
  0
LINE
  5
B65
330
1F
100
AcDbEntity
  8
2
  6
CONTINUOUS
370
25
 62
7
100
AcDbLine
 10
116.505486988969
 20
-5.772565055155084
 30
0.0
 11
116.5417695165465
 21
-5.808847582732639
 31
0.0
  0
LINE
  5
B66
330
1F
100
AcDbEntity
  8
2
  6
CONTINUOUS
370
25
 62
7
100
AcDbLine
 10
116.52
 20
5.7
 30
0.0
 11
115.52
 21
10.7
 31
0.0
  0
LINE
  5
B67
330
1F
100
AcDbEntity
  8
2
  6
CONTINUOUS
370
25
 62
7
100
AcDbLine
 10
115.52
 20
10.7
 30
0.0
 11
117.52
 21
10.7
 31
0.0
  0
LINE
  5
B68
330
1F
100
AcDbEntity
  8
2
  6
CONTINUOUS
370
25
 62
7
100
AcDbLine
 10
117.52
 20
10.7
 30
0.0
 11
116.52
 21
5.7
 31
0.0
  0
LINE
  5
B69
330
1F
100
AcDbEntity
  8
2
  6
CONTINUOUS
370
25
 62
7
100
AcDbLine
 10
116.4610093180779
 20
5.99495340961046
 30
0.0
 11
116.6084860228831
 21
6.142430114415674
 31
0.0
  0
LINE
  5
B6A
330
1F
100
AcDbEntity
  8
2
  6
CONTINUOUS
370
25
 62
7
100
AcDbLine
 10
116.3902986399593
 20
6.348506800203722
 30
0.0
 11
116.7145520400611
 21
6.672760200305575
 31
0.0
  0
LINE
  5
B6B
330
1F
100
AcDbEntity
  8
2
  6
CONTINUOUS
370
25
 62
7
100
AcDbLine
 10
116.3195879618406
 20
6.702060190796999
 30
0.0
 11
116.8206180572391
 21
7.203090286195476
 31
0.0
  0
LINE
  5
B6C
330
1F
100
AcDbEntity
  8
2
  6
CONTINUOUS
370
25
 62
7
100
AcDbLine
 10
116.248877283722
 20
7.055613581390261
 30
0.0
 11
116.9266840744171
 21
7.733420372085391
 31
0.0
  0
LINE
  5
B6D
330
1F
100
AcDbEntity
  8
2
  6
CONTINUOUS
370
25
 62
7
100
AcDbLine
 10
116.1781666056033
 20
7.409166971983538
 30
0.0
 11
117.032750091595
 21
8.263750457975277
 31
0.0
  0
LINE
  5
B6E
330
1F
100
AcDbEntity
  8
2
  6
CONTINUOUS
370
25
 62
7
100
AcDbLine
 10
116.1074559274847
 20
7.7627203625768
 30
0.0
 11
117.138816108773
 21
8.794080543865192
 31
0.0
  0
LINE
  5
B6F
330
1F
100
AcDbEntity
  8
2
  6
CONTINUOUS
370
25
 62
7
100
AcDbLine
 10
116.036745249366
 20
8.116273753170091
 30
0.0
 11
117.244882125951
 21
9.324410629755107
 31
0.0
  0
LINE
  5
B70
330
1F
100
AcDbEntity
  8
2
  6
CONTINUOUS
370
25
 62
7
100
AcDbLine
 10
115.9660345712473
 20
8.469827143763368
 30
0.0
 11
117.350948143129
 21
9.854740715645008
 31
0.0
  0
LINE
  5
B71
330
1F
100
AcDbEntity
  8
2
  6
CONTINUOUS
370
25
 62
7
100
AcDbLine
 10
115.8953238931287
 20
8.823380534356616
 30
0.0
 11
117.457014160307
 21
10.38507080153491
 31
0.0
  0
LINE
  5
B72
330
1F
100
AcDbEntity
  8
2
  6
CONTINUOUS
370
25
 62
7
100
AcDbLine
 10
115.82461321501
 20
9.176933924949893
 30
0.0
 11
117.3476792900601
 21
10.7
 31
0.0
  0
LINE
  5
B73
330
1F
100
AcDbEntity
  8
2
  6
CONTINUOUS
370
25
 62
7
100
AcDbLine
 10
115.7539025368914
 20
9.53048731554317
 30
0.0
 11
116.9234152213482
 21
10.7
 31
0.0
  0
LINE
  5
B74
330
1F
100
AcDbEntity
  8
2
  6
CONTINUOUS
370
25
 62
7
100
AcDbLine
 10
115.6831918587727
 20
9.884040706136446
 30
0.0
 11
116.4991511526363
 21
10.7
 31
0.0
  0
LINE
  5
B75
330
1F
100
AcDbEntity
  8
2
  6
CONTINUOUS
370
25
 62
7
100
AcDbLine
 10
115.6124811806541
 20
10.23759409672971
 30
0.0
 11
116.0748870839244
 21
10.7
 31
0.0
  0
LINE
  5
B76
330
1F
100
AcDbEntity
  8
2
  6
CONTINUOUS
370
25
 62
7
100
AcDbLine
 10
115.5417705025354
 20
10.59114748732298
 30
0.0
 11
115.6506230152124
 21
10.7
 31
0.0
  0
LINE
  5
B77
330
1F
100
AcDbEntity
  8
2
  6
CONTINUOUS
370
25
 62
7
100
AcDbLine
 10
116.4219210355631
 20
6.1903948221847
 30
0.0
 11
116.5853859762913
 21
6.026929881456482
 31
0.0
  0
LINE
  5
B78
330
1F
100
AcDbEntity
  8
2
  6
CONTINUOUS
370
25
 62
7
100
AcDbLine
 10
116.3158550183851
 20
6.720724908074615
 30
0.0
 11
116.6560966544099
 21
6.380483272049773
 31
0.0
  0
LINE
  5
B79
330
1F
100
AcDbEntity
  8
2
  6
CONTINUOUS
370
25
 62
7
100
AcDbLine
 10
116.2097890012071
 20
7.251054993964516
 30
0.0
 11
116.7268073325286
 21
6.734036662643049
 31
0.0
  0
LINE
  5
B7A
330
1F
100
AcDbEntity
  8
2
  6
CONTINUOUS
370
25
 62
7
100
AcDbLine
 10
116.1037229840291
 20
7.781385079854417
 30
0.0
 11
116.7975180106473
 21
7.087590053236298
 31
0.0
  0
LINE
  5
B7B
330
1F
100
AcDbEntity
  8
2
  6
CONTINUOUS
370
25
 62
7
100
AcDbLine
 10
115.9976569668512
 20
8.311715165744317
 30
0.0
 11
116.8682286887659
 21
7.44114344382956
 31
0.0
  0
LINE
  5
B7C
330
1F
100
AcDbEntity
  8
2
  6
CONTINUOUS
370
25
 62
7
100
AcDbLine
 10
115.8915909496732
 20
8.842045251634232
 30
0.0
 11
116.9389393668846
 21
7.794696834422851
 31
0.0
  0
LINE
  5
B7D
330
1F
100
AcDbEntity
  8
2
  6
CONTINUOUS
370
25
 62
7
100
AcDbLine
 10
115.7855249324952
 20
9.372375337524133
 30
0.0
 11
117.0096500450032
 21
8.148250225016113
 31
0.0
  0
LINE
  5
B7E
330
1F
100
AcDbEntity
  8
2
  6
CONTINUOUS
370
25
 62
7
100
AcDbLine
 10
115.6794589153172
 20
9.902705423414034
 30
0.0
 11
117.0803607231219
 21
8.50180361560939
 31
0.0
  0
LINE
  5
B7F
330
1F
100
AcDbEntity
  8
2
  6
CONTINUOUS
370
25
 62
7
100
AcDbLine
 10
115.5733928981392
 20
10.43303550930396
 30
0.0
 11
117.1510714012405
 21
8.855357006202652
 31
0.0
  0
LINE
  5
B80
330
1F
100
AcDbEntity
  8
2
  6
CONTINUOUS
370
25
 62
7
100
AcDbLine
 10
115.7306924761551
 20
10.7
 30
0.0
 11
117.2217820793592
 21
9.208910396795929
 31
0.0
  0
LINE
  5
B81
330
1F
100
AcDbEntity
  8
2
  6
CONTINUOUS
370
25
 62
7
100
AcDbLine
 10
116.154956544867
 20
10.7
 30
0.0
 11
117.2924927574778
 21
9.562463787389206
 31
0.0
  0
LINE
  5
B82
330
1F
100
AcDbEntity
  8
2
  6
CONTINUOUS
370
25
 62
7
100
AcDbLine
 10
116.579220613579
 20
10.7
 30
0.0
 11
117.3632034355965
 21
9.916017177982468
 31
0.0
  0
LINE
  5
B83
330
1F
100
AcDbEntity
  8
2
  6
CONTINUOUS
370
25
 62
7
100
AcDbLine
 10
117.0034846822909
 20
10.7
 30
0.0
 11
117.4339141137151
 21
10.26957056857574
 31
0.0
  0
LINE
  5
B84
330
1F
100
AcDbEntity
  8
2
  6
CONTINUOUS
370
25
 62
7
100
AcDbLine
 10
117.4277487510028
 20
10.7
 30
0.0
 11
117.5046247918338
 21
10.62312395916899
 31
0.0
  0
TEXT
  5
B85
330
1F
100
AcDbEntity
  8
2
  6
CONTINUOUS
370
25
 62
7
100
AcDbText
 10
115.52
 20
-22.88958333333333
 30
0.0
 40
3.5
  1
11.4
 50
90.00000000000001
 72
     1
 11
115.52
 21
-18.80625
 31
0.0
100
AcDbText
  0
CIRCLE
  5
B86
330
1F
100
AcDbEntity
  8
2
  6
CONTINUOUS
370
25
 62
7
100
AcDbCircle
 10
113.98875
 20
-28.1775
 30
0.0
 40
1.53125
  0
LINE
  5
B87
330
1F
100
AcDbEntity
  8
2
  6
CONTINUOUS
370
25
 62
7
100
AcDbLine
 10
115.52
 20
-29.70875
 30
0.0
 11
112.4575
 21
-26.64625
 31
0.0
  0
LINE
  5
B88
330
1F
100
AcDbEntity
  8
SK2
  6
CONTINUOUS
370
25
 62
7
100
AcDbLine
 10
-54.48
 20
0.0
 30
0.0
 11
-54.48
 21
24.00001
 31
0.0
  0
LINE
  5
B89
330
1F
100
AcDbEntity
  8
SK2
  6
CONTINUOUS
370
25
 62
7
100
AcDbLine
 10
96.52000000000001
 20
24.00001
 30
0.0
 11
96.52000000000001
 21
5.699999999999999
 31
0.0
  0
LINE
  5
B8A
330
1F
100
AcDbEntity
  8
SK2
  6
CONTINUOUS
370
25
 62
7
100
AcDbLine
 10
-54.48
 20
23.00001
 30
0.0
 11
96.52000000000001
 21
23.00001
 31
0.0
  0
LINE
  5
B8B
330
1F
100
AcDbEntity
  8
SK2
  6
CONTINUOUS
370
25
 62
7
100
AcDbLine
 10
-54.48
 20
23.00001
 30
0.0
 11
-49.48
 21
24.00001
 31
0.0
  0
LINE
  5
B8C
330
1F
100
AcDbEntity
  8
SK2
  6
CONTINUOUS
370
25
 62
7
100
AcDbLine
 10
-49.48
 20
24.00001
 30
0.0
 11
-49.48
 21
22.00001
 31
0.0
  0
LINE
  5
B8D
330
1F
100
AcDbEntity
  8
SK2
  6
CONTINUOUS
370
25
 62
7
100
AcDbLine
 10
-49.48
 20
22.00001
 30
0.0
 11
-54.48
 21
23.00001
 31
0.0
  0
LINE
  5
B8E
330
1F
100
AcDbEntity
  8
SK2
  6
CONTINUOUS
370
25
 62
7
100
AcDbLine
 10
-49.66384801026327
 20
22.03677960205265
 30
0.0
 11
-49.48
 21
22.22062761231593
 31
0.0
  0
LINE
  5
B8F
330
1F
100
AcDbEntity
  8
SK2
  6
CONTINUOUS
370
25
 62
7
100
AcDbLine
 10
-50.01740140085655
 20
22.10749028017131
 30
0.0
 11
-49.48
 21
22.64489168102786
 31
0.0
  0
LINE
  5
B90
330
1F
100
AcDbEntity
  8
SK2
  6
CONTINUOUS
370
25
 62
7
100
AcDbLine
 10
-50.37095479144983
 20
22.17820095828997
 30
0.0
 11
-49.48
 21
23.0691557497398
 31
0.0
  0
LINE
  5
B91
330
1F
100
AcDbEntity
  8
SK2
  6
CONTINUOUS
370
25
 62
7
100
AcDbLine
 10
-50.7245081820431
 20
22.24891163640862
 30
0.0
 11
-49.48
 21
23.49341981845172
 31
0.0
  0
LINE
  5
B92
330
1F
100
AcDbEntity
  8
SK2
  6
CONTINUOUS
370
25
 62
7
100
AcDbLine
 10
-51.07806157263637
 20
22.31962231452728
 30
0.0
 11
-49.48
 21
23.91768388716365
 31
0.0
  0
LINE
  5
B93
330
1F
100
AcDbEntity
  8
SK2
  6
CONTINUOUS
370
25
 62
7
100
AcDbLine
 10
-51.43161496322966
 20
22.39033299264593
 30
0.0
 11
-49.90742244484449
 21
23.9145255110311
 31
0.0
  0
LINE
  5
B94
330
1F
100
AcDbEntity
  8
SK2
  6
CONTINUOUS
370
25
 62
7
100
AcDbLine
 10
-51.78516835382292
 20
22.46104367076459
 30
0.0
 11
-50.43775253073439
 21
23.80845949385312
 31
0.0
  0
LINE
  5
B95
330
1F
100
AcDbEntity
  8
SK2
  6
CONTINUOUS
370
25
 62
7
100
AcDbLine
 10
-52.1387217444162
 20
22.53175434888324
 30
0.0
 11
-50.96808261662431
 21
23.70239347667513
 31
0.0
  0
LINE
  5
B96
330
1F
100
AcDbEntity
  8
SK2
  6
CONTINUOUS
370
25
 62
7
100
AcDbLine
 10
-52.49227513500948
 20
22.6024650270019
 30
0.0
 11
-51.49841270251422
 21
23.59632745949715
 31
0.0
  0
LINE
  5
B97
330
1F
100
AcDbEntity
  8
SK2
  6
CONTINUOUS
370
25
 62
7
100
AcDbLine
 10
-52.84582852560276
 20
22.67317570512056
 30
0.0
 11
-52.02874278840414
 21
23.49026144231917
 31
0.0
  0
LINE
  5
B98
330
1F
100
AcDbEntity
  8
SK2
  6
CONTINUOUS
370
25
 62
7
100
AcDbLine
 10
-53.19938191619604
 20
22.74388638323921
 30
0.0
 11
-52.55907287429406
 21
23.38419542514119
 31
0.0
  0
LINE
  5
B99
330
1F
100
AcDbEntity
  8
SK2
  6
CONTINUOUS
370
25
 62
7
100
AcDbLine
 10
-53.5529353067893
 20
22.81459706135787
 30
0.0
 11
-53.08940296018396
 21
23.27812940796321
 31
0.0
  0
LINE
  5
B9A
330
1F
100
AcDbEntity
  8
SK2
  6
CONTINUOUS
370
25
 62
7
100
AcDbLine
 10
-53.90648869738258
 20
22.88530773947652
 30
0.0
 11
-53.61973304607388
 21
23.17206339078523
 31
0.0
  0
LINE
  5
B9B
330
1F
100
AcDbEntity
  8
SK2
  6
CONTINUOUS
370
25
 62
7
100
AcDbLine
 10
-54.26004208797586
 20
22.95601841759518
 30
0.0
 11
-54.1500631319638
 21
23.06599737360725
 31
0.0
  0
LINE
  5
B9C
330
1F
100
AcDbEntity
  8
SK2
  6
CONTINUOUS
370
25
 62
7
100
AcDbLine
 10
-54.18285563133211
 20
23.05943887373358
 30
0.0
 11
-54.03428344699816
 21
22.91086668939963
 31
0.0
  0
LINE
  5
B9D
330
1F
100
AcDbEntity
  8
SK2
  6
CONTINUOUS
370
25
 62
7
100
AcDbLine
 10
-53.82930224073883
 20
23.13014955185224
 30
0.0
 11
-53.50395336110824
 21
22.80480067222165
 31
0.0
  0
LINE
  5
B9E
330
1F
100
AcDbEntity
  8
SK2
  6
CONTINUOUS
370
25
 62
7
100
AcDbLine
 10
-53.47574885014555
 20
23.20086022997089
 30
0.0
 11
-52.97362327521834
 21
22.69873465504367
 31
0.0
  0
LINE
  5
B9F
330
1F
100
AcDbEntity
  8
SK2
  6
CONTINUOUS
370
25
 62
7
100
AcDbLine
 10
-53.12219545955227
 20
23.27157090808954
 30
0.0
 11
-52.44329318932841
 21
22.59266863786568
 31
0.0
  0
LINE
  5
BA0
330
1F
100
AcDbEntity
  8
SK2
  6
CONTINUOUS
370
25
 62
7
100
AcDbLine
 10
-52.768642068959
 20
23.3422815862082
 30
0.0
 11
-51.9129631034385
 21
22.4866026206877
 31
0.0
  0
LINE
  5
BA1
330
1F
100
AcDbEntity
  8
SK2
  6
CONTINUOUS
370
25
 62
7
100
AcDbLine
 10
-52.41508867836573
 20
23.41299226432686
 30
0.0
 11
-51.38263301754859
 21
22.38053660350971
 31
0.0
  0
LINE
  5
BA2
330
1F
100
AcDbEntity
  8
SK2
  6
CONTINUOUS
370
25
 62
7
100
AcDbLine
 10
-52.06153528777245
 20
23.48370294244551
 30
0.0
 11
-50.85230293165868
 21
22.27447058633174
 31
0.0
  0
LINE
  5
BA3
330
1F
100
AcDbEntity
  8
SK2
  6
CONTINUOUS
370
25
 62
7
100
AcDbLine
 10
-51.70798189717917
 20
23.55441362056416
 30
0.0
 11
-50.32197284576876
 21
22.16840456915375
 31
0.0
  0
LINE
  5
BA4
330
1F
100
AcDbEntity
  8
SK2
  6
CONTINUOUS
370
25
 62
7
100
AcDbLine
 10
-51.3544285065859
 20
23.62512429868282
 30
0.0
 11
-49.79164275987884
 21
22.06233855197577
 31
0.0
  0
LINE
  5
BA5
330
1F
100
AcDbEntity
  8
SK2
  6
CONTINUOUS
370
25
 62
7
100
AcDbLine
 10
-51.00087511599262
 20
23.69583497680147
 30
0.0
 11
-49.48
 21
22.17495986080886
 31
0.0
  0
LINE
  5
BA6
330
1F
100
AcDbEntity
  8
SK2
  6
CONTINUOUS
370
25
 62
7
100
AcDbLine
 10
-50.64732172539934
 20
23.76654565492013
 30
0.0
 11
-49.48
 21
22.59922392952079
 31
0.0
  0
LINE
  5
BA7
330
1F
100
AcDbEntity
  8
SK2
  6
CONTINUOUS
370
25
 62
7
100
AcDbLine
 10
-50.29376833480607
 20
23.83725633303878
 30
0.0
 11
-49.48
 21
23.02348799823272
 31
0.0
  0
LINE
  5
BA8
330
1F
100
AcDbEntity
  8
SK2
  6
CONTINUOUS
370
25
 62
7
100
AcDbLine
 10
-49.94021494421279
 20
23.90796701115745
 30
0.0
 11
-49.48
 21
23.44775206694465
 31
0.0
  0
LINE
  5
BA9
330
1F
100
AcDbEntity
  8
SK2
  6
CONTINUOUS
370
25
 62
7
100
AcDbLine
 10
-49.58666155361951
 20
23.9786776892761
 30
0.0
 11
-49.48
 21
23.87201613565658
 31
0.0
  0
LINE
  5
BAA
330
1F
100
AcDbEntity
  8
SK2
  6
CONTINUOUS
370
25
 62
7
100
AcDbLine
 10
96.52000000000001
 20
23.00001
 30
0.0
 11
91.52000000000001
 21
22.00001
 31
0.0
  0
LINE
  5
BAB
330
1F
100
AcDbEntity
  8
SK2
  6
CONTINUOUS
370
25
 62
7
100
AcDbLine
 10
91.52000000000001
 20
22.00001
 30
0.0
 11
91.52000000000001
 21
24.00001
 31
0.0
  0
LINE
  5
BAC
330
1F
100
AcDbEntity
  8
SK2
  6
CONTINUOUS
370
25
 62
7
100
AcDbLine
 10
91.52000000000001
 20
24.00001
 30
0.0
 11
96.52000000000001
 21
23.00001
 31
0.0
  0
LINE
  5
BAD
330
1F
100
AcDbEntity
  8
SK2
  6
CONTINUOUS
370
25
 62
7
100
AcDbLine
 10
96.12160494389634
 20
22.92033098877927
 30
0.0
 11
96.2544032959309
 21
23.05312934081383
 31
0.0
  0
LINE
  5
BAE
330
1F
100
AcDbEntity
  8
SK2
  6
CONTINUOUS
370
25
 62
7
100
AcDbLine
 10
95.59127485800641
 20
22.81426497160128
 30
0.0
 11
95.90084990533762
 21
23.12384001893248
 31
0.0
  0
LINE
  5
BAF
330
1F
100
AcDbEntity
  8
SK2
  6
CONTINUOUS
370
25
 62
7
100
AcDbLine
 10
95.06094477211651
 20
22.7081989544233
 30
0.0
 11
95.54729651474436
 21
23.19455069705114
 31
0.0
  0
LINE
  5
BB0
330
1F
100
AcDbEntity
  8
SK2
  6
CONTINUOUS
370
25
 62
7
100
AcDbLine
 10
94.53061468622661
 20
22.60213293724532
 30
0.0
 11
95.19374312415108
 21
23.26526137516979
 31
0.0
  0
LINE
  5
BB1
330
1F
100
AcDbEntity
  8
SK2
  6
CONTINUOUS
370
25
 62
7
100
AcDbLine
 10
94.0002846003367
 20
22.49606692006734
 30
0.0
 11
94.8401897335578
 21
23.33597205328844
 31
0.0
  0
LINE
  5
BB2
330
1F
100
AcDbEntity
  8
SK2
  6
CONTINUOUS
370
25
 62
7
100
AcDbLine
 10
93.4699545144468
 20
22.39000090288935
 30
0.0
 11
94.48663634296454
 21
23.4066827314071
 31
0.0
  0
LINE
  5
BB3
330
1F
100
AcDbEntity
  8
SK2
  6
CONTINUOUS
370
25
 62
7
100
AcDbLine
 10
92.9396244285569
 20
22.28393488571137
 30
0.0
 11
94.13308295237128
 21
23.47739340952576
 31
0.0
  0
LINE
  5
BB4
330
1F
100
AcDbEntity
  8
SK2
  6
CONTINUOUS
370
25
 62
7
100
AcDbLine
 10
92.409294342667
 20
22.17786886853339
 30
0.0
 11
93.779529561778
 21
23.5481040876444
 31
0.0
  0
LINE
  5
BB5
330
1F
100
AcDbEntity
  8
SK2
  6
CONTINUOUS
370
25
 62
7
100
AcDbLine
 10
91.8789642567771
 20
22.07180285135541
 30
0.0
 11
93.42597617118474
 21
23.61881476576306
 31
0.0
  0
LINE
  5
BB6
330
1F
100
AcDbEntity
  8
SK2
  6
CONTINUOUS
370
25
 62
7
100
AcDbLine
 10
91.52000000000001
 20
22.13710266329026
 30
0.0
 11
93.07242278059147
 21
23.68952544388172
 31
0.0
  0
LINE
  5
BB7
330
1F
100
AcDbEntity
  8
SK2
  6
CONTINUOUS
370
25
 62
7
100
AcDbLine
 10
91.52000000000001
 20
22.56136673200218
 30
0.0
 11
92.71886938999819
 21
23.76023612200036
 31
0.0
  0
LINE
  5
BB8
330
1F
100
AcDbEntity
  8
SK2
  6
CONTINUOUS
370
25
 62
7
100
AcDbLine
 10
91.52000000000001
 20
22.98563080071411
 30
0.0
 11
92.36531599940493
 21
23.83094680011902
 31
0.0
  0
LINE
  5
BB9
330
1F
100
AcDbEntity
  8
SK2
  6
CONTINUOUS
370
25
 62
7
100
AcDbLine
 10
91.52000000000001
 20
23.40989486942604
 30
0.0
 11
92.01176260881165
 21
23.90165747823768
 31
0.0
  0
LINE
  5
BBA
330
1F
100
AcDbEntity
  8
SK2
  6
CONTINUOUS
370
25
 62
7
100
AcDbLine
 10
91.52000000000001
 20
23.83415893813796
 30
0.0
 11
91.65820921821839
 21
23.97236815635634
 31
0.0
  0
LINE
  5
BBB
330
1F
100
AcDbEntity
  8
SK2
  6
CONTINUOUS
370
25
 62
7
100
AcDbLine
 10
91.52000000000001
 20
22.18277041479716
 30
0.0
 11
91.6723003456643
 21
22.03047006913287
 31
0.0
  0
LINE
  5
BBC
330
1F
100
AcDbEntity
  8
SK2
  6
CONTINUOUS
370
25
 62
7
100
AcDbLine
 10
91.52000000000001
 20
22.6070344835091
 30
0.0
 11
92.02585373625759
 21
22.10118074725152
 31
0.0
  0
LINE
  5
BBD
330
1F
100
AcDbEntity
  8
SK2
  6
CONTINUOUS
370
25
 62
7
100
AcDbLine
 10
91.52000000000001
 20
23.03129855222102
 30
0.0
 11
92.37940712685085
 21
22.17189142537018
 31
0.0
  0
LINE
  5
BBE
330
1F
100
AcDbEntity
  8
SK2
  6
CONTINUOUS
370
25
 62
7
100
AcDbLine
 10
91.52000000000001
 20
23.45556262093294
 30
0.0
 11
92.73296051744411
 21
22.24260210348884
 31
0.0
  0
LINE
  5
BBF
330
1F
100
AcDbEntity
  8
SK2
  6
CONTINUOUS
370
25
 62
7
100
AcDbLine
 10
91.52000000000001
 20
23.87982668964487
 30
0.0
 11
93.0865139080374
 21
22.31331278160748
 31
0.0
  0
LINE
  5
BC0
330
1F
100
AcDbEntity
  8
SK2
  6
CONTINUOUS
370
25
 62
7
100
AcDbLine
 10
91.900100947946
 20
23.9239898104108
 30
0.0
 11
93.44006729863067
 21
22.38402345972614
 31
0.0
  0
LINE
  5
BC1
330
1F
100
AcDbEntity
  8
SK2
  6
CONTINUOUS
370
25
 62
7
100
AcDbLine
 10
92.4304310338359
 20
23.81792379323282
 30
0.0
 11
93.79362068922393
 21
22.4547341378448
 31
0.0
  0
LINE
  5
BC2
330
1F
100
AcDbEntity
  8
SK2
  6
CONTINUOUS
370
25
 62
7
100
AcDbLine
 10
92.9607611197258
 20
23.71185777605484
 30
0.0
 11
94.1471740798172
 21
22.52544481596344
 31
0.0
  0
LINE
  5
BC3
330
1F
100
AcDbEntity
  8
SK2
  6
CONTINUOUS
370
25
 62
7
100
AcDbLine
 10
93.4910912056157
 20
23.60579175887686
 30
0.0
 11
94.50072747041047
 21
22.5961554940821
 31
0.0
  0
LINE
  5
BC4
330
1F
100
AcDbEntity
  8
SK2
  6
CONTINUOUS
370
25
 62
7
100
AcDbLine
 10
94.02142129150563
 20
23.49972574169887
 30
0.0
 11
94.85428086100374
 21
22.66686617220076
 31
0.0
  0
LINE
  5
BC5
330
1F
100
AcDbEntity
  8
SK2
  6
CONTINUOUS
370
25
 62
7
100
AcDbLine
 10
94.55175137739553
 20
23.39365972452089
 30
0.0
 11
95.207834251597
 21
22.73757685031941
 31
0.0
  0
LINE
  5
BC6
330
1F
100
AcDbEntity
  8
SK2
  6
CONTINUOUS
370
25
 62
7
100
AcDbLine
 10
95.08208146328543
 20
23.28759370734291
 30
0.0
 11
95.56138764219028
 21
22.80828752843806
 31
0.0
  0
LINE
  5
BC7
330
1F
100
AcDbEntity
  8
SK2
  6
CONTINUOUS
370
25
 62
7
100
AcDbLine
 10
95.61241154917535
 20
23.18152769016493
 30
0.0
 11
95.91494103278356
 21
22.87899820655672
 31
0.0
  0
LINE
  5
BC8
330
1F
100
AcDbEntity
  8
SK2
  6
CONTINUOUS
370
25
 62
7
100
AcDbLine
 10
96.14274163506525
 20
23.07546167298695
 30
0.0
 11
96.26849442337682
 21
22.94970888467537
 31
0.0
  0
TEXT
  5
BC9
330
1F
100
AcDbEntity
  8
SK2
  6
CONTINUOUS
370
25
 62
7
100
AcDbText
 10
17.52
 20
24.00001
 30
0.0
 40
3.5
  1
151
 72
     1
 11
21.02
 21
24.00001
 31
0.0
100
AcDbText
  0
LINE
  5
BCA
330
1F
100
AcDbEntity
  8
2
  6
CONTINUOUS
370
25
 62
7
100
AcDbLine
 10
-0.0000000000000004
 20
0.0
 30
0.0
 11
0.0000000000000007
 21
17.00001
 31
0.0
  0
LINE
  5
BCB
330
1F
100
AcDbEntity
  8
2
  6
CONTINUOUS
370
25
 62
7
100
AcDbLine
 10
96.52
 20
17.00001
 30
0.0
 11
96.52
 21
5.699999999999999
 31
0.0
  0
LINE
  5
BCC
330
1F
100
AcDbEntity
  8
2
  6
CONTINUOUS
370
25
 62
7
100
AcDbLine
 10
0.0
 20
16.00001
 30
0.0
 11
96.52
 21
16.00001
 31
0.0
  0
LINE
  5
BCD
330
1F
100
AcDbEntity
  8
2
  6
CONTINUOUS
370
25
 62
7
100
AcDbLine
 10
0.0
 20
16.00001
 30
0.0
 11
5.0
 21
17.00001
 31
0.0
  0
LINE
  5
BCE
330
1F
100
AcDbEntity
  8
2
  6
CONTINUOUS
370
25
 62
7
100
AcDbLine
 10
5.0
 20
17.00001
 30
0.0
 11
5.0
 21
15.00001
 31
0.0
  0
LINE
  5
BCF
330
1F
100
AcDbEntity
  8
2
  6
CONTINUOUS
370
25
 62
7
100
AcDbLine
 10
5.0
 20
15.00001
 30
0.0
 11
0.0
 21
16.00001
 31
0.0
  0
LINE
  5
BD0
330
1F
100
AcDbEntity
  8
2
  6
CONTINUOUS
370
25
 62
7
100
AcDbLine
 10
4.848060292428098
 20
15.03039794151438
 30
0.0
 11
5.0
 21
15.18233764908628
 31
0.0
  0
LINE
  5
BD1
330
1F
100
AcDbEntity
  8
2
  6
CONTINUOUS
370
25
 62
7
100
AcDbLine
 10
4.494506901834824
 20
15.10110861963303
 30
0.0
 11
5.0
 21
15.60660171779821
 31
0.0
  0
LINE
  5
BD2
330
1F
100
AcDbEntity
  8
2
  6
CONTINUOUS
370
25
 62
7
100
AcDbLine
 10
4.140953511241551
 20
15.17181929775169
 30
0.0
 11
5.0
 21
16.03086578651014
 31
0.0
  0
LINE
  5
BD3
330
1F
100
AcDbEntity
  8
2
  6
CONTINUOUS
370
25
 62
7
100
AcDbLine
 10
3.787400120648278
 20
15.24252997587034
 30
0.0
 11
5.0
 21
16.45512985522207
 31
0.0
  0
LINE
  5
BD4
330
1F
100
AcDbEntity
  8
2
  6
CONTINUOUS
370
25
 62
7
100
AcDbLine
 10
3.433846730055004
 20
15.313240653989
 30
0.0
 11
5.0
 21
16.879393923934
 31
0.0
  0
LINE
  5
BD5
330
1F
100
AcDbEntity
  8
2
  6
CONTINUOUS
370
25
 62
7
100
AcDbLine
 10
3.08029333946173
 20
15.38395133210765
 30
0.0
 11
4.620440009192597
 21
16.92409800183852
 31
0.0
  0
LINE
  5
BD6
330
1F
100
AcDbEntity
  8
2
  6
CONTINUOUS
370
25
 62
7
100
AcDbLine
 10
2.726739948868457
 20
15.45466201022631
 30
0.0
 11
4.090109923302687
 21
16.81803198466054
 31
0.0
  0
LINE
  5
BD7
330
1F
100
AcDbEntity
  8
2
  6
CONTINUOUS
370
25
 62
7
100
AcDbLine
 10
2.373186558275185
 20
15.52537268834496
 30
0.0
 11
3.559779837412778
 21
16.71196596748256
 31
0.0
  0
LINE
  5
BD8
330
1F
100
AcDbEntity
  8
2
  6
CONTINUOUS
370
25
 62
7
100
AcDbLine
 10
2.019633167681911
 20
15.59608336646362
 30
0.0
 11
3.029449751522868
 21
16.60589995030457
 31
0.0
  0
LINE
  5
BD9
330
1F
100
AcDbEntity
  8
2
  6
CONTINUOUS
370
25
 62
7
100
AcDbLine
 10
1.666079777088638
 20
15.66679404458227
 30
0.0
 11
2.499119665632958
 21
16.49983393312659
 31
0.0
  0
LINE
  5
BDA
330
1F
100
AcDbEntity
  8
2
  6
CONTINUOUS
370
25
 62
7
100
AcDbLine
 10
1.312526386495365
 20
15.73750472270093
 30
0.0
 11
1.968789579743048
 21
16.39376791594861
 31
0.0
  0
LINE
  5
BDB
330
1F
100
AcDbEntity
  8
2
  6
CONTINUOUS
370
25
 62
7
100
AcDbLine
 10
0.9589729959020918
 20
15.80821540081958
 30
0.0
 11
1.438459493853139
 21
16.28770189877063
 31
0.0
  0
LINE
  5
BDC
330
1F
100
AcDbEntity
  8
2
  6
CONTINUOUS
370
25
 62
7
100
AcDbLine
 10
0.6054196053088187
 20
15.87892607893824
 30
0.0
 11
0.9081294079632284
 21
16.18163588159264
 31
0.0
  0
LINE
  5
BDD
330
1F
100
AcDbEntity
  8
2
  6
CONTINUOUS
370
25
 62
7
100
AcDbLine
 10
0.2518662147155453
 20
15.94963675705689
 30
0.0
 11
0.3777993220733182
 21
16.07556986441466
 31
0.0
  0
LINE
  5
BDE
330
1F
100
AcDbEntity
  8
2
  6
CONTINUOUS
370
25
 62
7
100
AcDbLine
 10
0.1016871758777161
 20
16.02034743517554
 30
0.0
 11
0.1525307638165742
 21
15.96950384723668
 31
0.0
  0
LINE
  5
BDF
330
1F
100
AcDbEntity
  8
2
  6
CONTINUOUS
370
25
 62
7
100
AcDbLine
 10
0.4552405664709894
 20
16.0910581132942
 30
0.0
 11
0.6828608497064845
 21
15.8634378300587
 31
0.0
  0
LINE
  5
BE0
330
1F
100
AcDbEntity
  8
2
  6
CONTINUOUS
370
25
 62
7
100
AcDbLine
 10
0.8087939570642628
 20
16.16176879141285
 30
0.0
 11
1.213190935596395
 21
15.75737181288072
 31
0.0
  0
LINE
  5
BE1
330
1F
100
AcDbEntity
  8
2
  6
CONTINUOUS
370
25
 62
7
100
AcDbLine
 10
1.162347347657536
 20
16.23247946953151
 30
0.0
 11
1.743521021486305
 21
15.65130579570274
 31
0.0
  0
LINE
  5
BE2
330
1F
100
AcDbEntity
  8
2
  6
CONTINUOUS
370
25
 62
7
100
AcDbLine
 10
1.515900738250809
 20
16.30319014765016
 30
0.0
 11
2.273851107376215
 21
15.54523977852476
 31
0.0
  0
LINE
  5
BE3
330
1F
100
AcDbEntity
  8
2
  6
CONTINUOUS
370
25
 62
7
100
AcDbLine
 10
1.869454128844082
 20
16.37390082576882
 30
0.0
 11
2.804181193266125
 21
15.43917376134677
 31
0.0
  0
LINE
  5
BE4
330
1F
100
AcDbEntity
  8
2
  6
CONTINUOUS
370
25
 62
7
100
AcDbLine
 10
2.223007519437356
 20
16.44461150388747
 30
0.0
 11
3.334511279156035
 21
15.33310774416879
 31
0.0
  0
LINE
  5
BE5
330
1F
100
AcDbEntity
  8
2
  6
CONTINUOUS
370
25
 62
7
100
AcDbLine
 10
2.576560910030629
 20
16.51532218200613
 30
0.0
 11
3.864841365045945
 21
15.22704172699081
 31
0.0
  0
LINE
  5
BE6
330
1F
100
AcDbEntity
  8
2
  6
CONTINUOUS
370
25
 62
7
100
AcDbLine
 10
2.930114300623902
 20
16.58603286012478
 30
0.0
 11
4.395171450935855
 21
15.12097570981283
 31
0.0
  0
LINE
  5
BE7
330
1F
100
AcDbEntity
  8
2
  6
CONTINUOUS
370
25
 62
7
100
AcDbLine
 10
3.283667691217175
 20
16.65674353824344
 30
0.0
 11
4.925501536825766
 21
15.01490969263484
 31
0.0
  0
LINE
  5
BE8
330
1F
100
AcDbEntity
  8
2
  6
CONTINUOUS
370
25
 62
7
100
AcDbLine
 10
3.637221081810449
 20
16.72745421636209
 30
0.0
 11
5.0
 21
15.36467529817254
 31
0.0
  0
LINE
  5
BE9
330
1F
100
AcDbEntity
  8
2
  6
CONTINUOUS
370
25
 62
7
100
AcDbLine
 10
3.990774472403722
 20
16.79816489448075
 30
0.0
 11
5.0
 21
15.78893936688447
 31
0.0
  0
LINE
  5
BEA
330
1F
100
AcDbEntity
  8
2
  6
CONTINUOUS
370
25
 62
7
100
AcDbLine
 10
4.344327862996995
 20
16.8688755725994
 30
0.0
 11
5.0
 21
16.21320343559639
 31
0.0
  0
LINE
  5
BEB
330
1F
100
AcDbEntity
  8
2
  6
CONTINUOUS
370
25
 62
7
100
AcDbLine
 10
4.697881253590269
 20
16.93958625071805
 30
0.0
 11
5.0
 21
16.63746750430832
 31
0.0
  0
LINE
  5
BEC
330
1F
100
AcDbEntity
  8
2
  6
CONTINUOUS
370
25
 62
7
100
AcDbLine
 10
96.52
 20
16.00001
 30
0.0
 11
91.52
 21
15.00001
 31
0.0
  0
LINE
  5
BED
330
1F
100
AcDbEntity
  8
2
  6
CONTINUOUS
370
25
 62
7
100
AcDbLine
 10
91.52
 20
15.00001
 30
0.0
 11
91.52
 21
17.00001
 31
0.0
  0
LINE
  5
BEE
330
1F
100
AcDbEntity
  8
2
  6
CONTINUOUS
370
25
 62
7
100
AcDbLine
 10
91.52
 20
17.00001
 30
0.0
 11
96.52
 21
16.00001
 31
0.0
  0
LINE
  5
BEF
330
1F
100
AcDbEntity
  8
2
  6
CONTINUOUS
370
25
 62
7
100
AcDbLine
 10
96.38632356965797
 20
15.9732747139316
 30
0.0
 11
96.43088237977199
 21
16.01783352404561
 31
0.0
  0
LINE
  5
BF0
330
1F
100
AcDbEntity
  8
2
  6
CONTINUOUS
370
25
 62
7
100
AcDbLine
 10
95.85599348376807
 20
15.86720869675362
 30
0.0
 11
96.07732898917871
 21
16.08854420216426
 31
0.0
  0
LINE
  5
BF1
330
1F
100
AcDbEntity
  8
2
  6
CONTINUOUS
370
25
 62
7
100
AcDbLine
 10
95.32566339787816
 20
15.76114267957564
 30
0.0
 11
95.72377559858542
 21
16.1592548802829
 31
0.0
  0
LINE
  5
BF2
330
1F
100
AcDbEntity
  8
2
  6
CONTINUOUS
370
25
 62
7
100
AcDbLine
 10
94.79533331198826
 20
15.65507666239766
 30
0.0
 11
95.37022220799216
 21
16.22996555840156
 31
0.0
  0
LINE
  5
BF3
330
1F
100
AcDbEntity
  8
2
  6
CONTINUOUS
370
25
 62
7
100
AcDbLine
 10
94.26500322609836
 20
15.54901064521968
 30
0.0
 11
95.01666881739888
 21
16.3006762365202
 31
0.0
  0
LINE
  5
BF4
330
1F
100
AcDbEntity
  8
2
  6
CONTINUOUS
370
25
 62
7
100
AcDbLine
 10
93.73467314020844
 20
15.4429446280417
 30
0.0
 11
94.66311542680562
 21
16.37138691463888
 31
0.0
  0
LINE
  5
BF5
330
1F
100
AcDbEntity
  8
2
  6
CONTINUOUS
370
25
 62
7
100
AcDbLine
 10
93.20434305431854
 20
15.33687861086372
 30
0.0
 11
94.30956203621236
 21
16.44209759275753
 31
0.0
  0
LINE
  5
BF6
330
1F
100
AcDbEntity
  8
2
  6
CONTINUOUS
370
25
 62
7
100
AcDbLine
 10
92.67401296842864
 20
15.23081259368574
 30
0.0
 11
93.95600864561908
 21
16.51280827087618
 31
0.0
  0
LINE
  5
BF7
330
1F
100
AcDbEntity
  8
2
  6
CONTINUOUS
370
25
 62
7
100
AcDbLine
 10
92.14368288253874
 20
15.12474657650776
 30
0.0
 11
93.60245525502582
 21
16.58351894899484
 31
0.0
  0
LINE
  5
BF8
330
1F
100
AcDbEntity
  8
2
  6
CONTINUOUS
370
25
 62
7
100
AcDbLine
 10
91.61335279664884
 20
15.01868055932978
 30
0.0
 11
93.24890186443255
 21
16.65422962711349
 31
0.0
  0
LINE
  5
BF9
330
1F
100
AcDbEntity
  8
2
  6
CONTINUOUS
370
25
 62
7
100
AcDbLine
 10
91.52
 20
15.34959183139287
 30
0.0
 11
92.89534847383926
 21
16.72494030523214
 31
0.0
  0
LINE
  5
BFA
330
1F
100
AcDbEntity
  8
2
  6
CONTINUOUS
370
25
 62
7
100
AcDbLine
 10
91.52
 20
15.77385590010479
 30
0.0
 11
92.54179508324599
 21
16.79565098335078
 31
0.0
  0
LINE
  5
BFB
330
1F
100
AcDbEntity
  8
2
  6
CONTINUOUS
370
25
 62
7
100
AcDbLine
 10
91.52
 20
16.19811996881671
 30
0.0
 11
92.18824169265272
 21
16.86636166146944
 31
0.0
  0
LINE
  5
BFC
330
1F
100
AcDbEntity
  8
2
  6
CONTINUOUS
370
25
 62
7
100
AcDbLine
 10
91.52
 20
16.62238403752865
 30
0.0
 11
91.83468830205946
 21
16.93707233958811
 31
0.0
  0
LINE
  5
BFD
330
1F
100
AcDbEntity
  8
2
  6
CONTINUOUS
370
25
 62
7
100
AcDbLine
 10
91.52
 20
15.39454531540636
 30
0.0
 11
91.8487794295053
 21
15.06576588590106
 31
0.0
  0
LINE
  5
BFE
330
1F
100
AcDbEntity
  8
2
  6
CONTINUOUS
370
25
 62
7
100
AcDbLine
 10
91.52
 20
15.81880938411828
 30
0.0
 11
92.20233282009858
 21
15.1364765640197
 31
0.0
  0
LINE
  5
BFF
330
1F
100
AcDbEntity
  8
2
  6
CONTINUOUS
370
25
 62
7
100
AcDbLine
 10
91.52
 20
16.2430734528302
 30
0.0
 11
92.55588621069184
 21
15.20718724213836
 31
0.0
  0
LINE
  5
C00
330
1F
100
AcDbEntity
  8
2
  6
CONTINUOUS
370
25
 62
7
100
AcDbLine
 10
91.52
 20
16.66733752154214
 30
0.0
 11
92.90943960128511
 21
15.27789792025702
 31
0.0
  0
LINE
  5
C01
330
1F
100
AcDbEntity
  8
2
  6
CONTINUOUS
370
25
 62
7
100
AcDbLine
 10
91.63448948781758
 20
16.97711210243648
 30
0.0
 11
93.26299299187838
 21
15.34860859837568
 31
0.0
  0
LINE
  5
C02
330
1F
100
AcDbEntity
  8
2
  6
CONTINUOUS
370
25
 62
7
100
AcDbLine
 10
92.16481957370748
 20
16.8710460852585
 30
0.0
 11
93.61654638247165
 21
15.41931927649432
 31
0.0
  0
LINE
  5
C03
330
1F
100
AcDbEntity
  8
2
  6
CONTINUOUS
370
25
 62
7
100
AcDbLine
 10
92.69514965959738
 20
16.76498006808053
 30
0.0
 11
93.97009977306493
 21
15.49002995461298
 31
0.0
  0
LINE
  5
C04
330
1F
100
AcDbEntity
  8
2
  6
CONTINUOUS
370
25
 62
7
100
AcDbLine
 10
93.22547974548728
 20
16.65891405090255
 30
0.0
 11
94.3236531636582
 21
15.56074063273164
 31
0.0
  0
LINE
  5
C05
330
1F
100
AcDbEntity
  8
2
  6
CONTINUOUS
370
25
 62
7
100
AcDbLine
 10
93.75580983137718
 20
16.55284803372457
 30
0.0
 11
94.67720655425147
 21
15.63145131085028
 31
0.0
  0
LINE
  5
C06
330
1F
100
AcDbEntity
  8
2
  6
CONTINUOUS
370
25
 62
7
100
AcDbLine
 10
94.28613991726708
 20
16.44678201654659
 30
0.0
 11
95.03075994484473
 21
15.70216198896894
 31
0.0
  0
LINE
  5
C07
330
1F
100
AcDbEntity
  8
2
  6
CONTINUOUS
370
25
 62
7
100
AcDbLine
 10
94.81647000315698
 20
16.34071599936861
 30
0.0
 11
95.384313335438
 21
15.7728726670876
 31
0.0
  0
LINE
  5
C08
330
1F
100
AcDbEntity
  8
2
  6
CONTINUOUS
370
25
 62
7
100
AcDbLine
 10
95.34680008904692
 20
16.2346499821906
 30
0.0
 11
95.73786672603129
 21
15.84358334520624
 31
0.0
  0
LINE
  5
C09
330
1F
100
AcDbEntity
  8
2
  6
CONTINUOUS
370
25
 62
7
100
AcDbLine
 10
95.87713017493682
 20
16.12858396501262
 30
0.0
 11
96.09142011662455
 21
15.91429402332491
 31
0.0
  0
LINE
  5
C0A
330
1F
100
AcDbEntity
  8
2
  6
CONTINUOUS
370
25
 62
7
100
AcDbLine
 10
96.40746026082672
 20
16.02251794783466
 30
0.0
 11
96.44497350721781
 21
15.98500470144357
 31
0.0
  0
TEXT
  5
C0B
330
1F
100
AcDbEntity
  8
2
  6
CONTINUOUS
370
25
 62
7
100
AcDbText
 10
41.26
 20
17.00001
 30
0.0
 40
3.5
  1
96.52
 72
     1
 11
48.26
 21
17.00001
 31
0.0
100
AcDbText
  0
LINE
  5
C0C
330
1F
100
AcDbEntity
  8
2
  6
CONTINUOUS
370
25
 62
7
100
AcDbLine
 10
2.52
 20
-5.699999999999999
 30
0.0
 11
2.519999999999999
 21
-17.00001
 31
0.0
  0
LINE
  5
C0D
330
1F
100
AcDbEntity
  8
2
  6
CONTINUOUS
370
25
 62
7
100
AcDbLine
 10
96.52
 20
-17.00001
 30
0.0
 11
96.52
 21
-5.699999999999999
 31
0.0
  0
LINE
  5
C0E
330
1F
100
AcDbEntity
  8
2
  6
CONTINUOUS
370
25
 62
7
100
AcDbLine
 10
2.519999999999999
 20
-16.00001
 30
0.0
 11
96.52
 21
-16.00001
 31
0.0
  0
LINE
  5
C0F
330
1F
100
AcDbEntity
  8
2
  6
CONTINUOUS
370
25
 62
7
100
AcDbLine
 10
2.519999999999999
 20
-16.00001
 30
0.0
 11
7.52
 21
-15.00001
 31
0.0
  0
LINE
  5
C10
330
1F
100
AcDbEntity
  8
2
  6
CONTINUOUS
370
25
 62
7
100
AcDbLine
 10
7.52
 20
-15.00001
 30
0.0
 11
7.52
 21
-17.00001
 31
0.0
  0
LINE
  5
C11
330
1F
100
AcDbEntity
  8
2
  6
CONTINUOUS
370
25
 62
7
100
AcDbLine
 10
7.52
 20
-17.00001
 30
0.0
 11
2.519999999999999
 21
-16.00001
 31
0.0
  0
LINE
  5
C12
330
1F
100
AcDbEntity
  8
2
  6
CONTINUOUS
370
25
 62
7
100
AcDbLine
 10
7.180826833790882
 20
-16.93217536675818
 30
0.0
 11
7.52
 21
-16.59300220054906
 31
0.0
  0
LINE
  5
C13
330
1F
100
AcDbEntity
  8
2
  6
CONTINUOUS
370
25
 62
7
100
AcDbLine
 10
6.827273443197609
 20
-16.86146468863952
 30
0.0
 11
7.52
 21
-16.16873813183713
 31
0.0
  0
LINE
  5
C14
330
1F
100
AcDbEntity
  8
2
  6
CONTINUOUS
370
25
 62
7
100
AcDbLine
 10
6.473720052604336
 20
-16.79075401052087
 30
0.0
 11
7.52
 21
-15.7444740631252
 31
0.0
  0
LINE
  5
C15
330
1F
100
AcDbEntity
  8
2
  6
CONTINUOUS
370
25
 62
7
100
AcDbLine
 10
6.120166662011064
 20
-16.72004333240221
 30
0.0
 11
7.52
 21
-15.32020999441328
 31
0.0
  0
LINE
  5
C16
330
1F
100
AcDbEntity
  8
2
  6
CONTINUOUS
370
25
 62
7
100
AcDbLine
 10
5.766613271417787
 20
-16.64933265428356
 30
0.0
 11
7.38991990712668
 21
-15.02602601857467
 31
0.0
  0
LINE
  5
C17
330
1F
100
AcDbEntity
  8
2
  6
CONTINUOUS
370
25
 62
7
100
AcDbLine
 10
5.413059880824514
 20
-16.5786219761649
 30
0.0
 11
6.859589821236771
 21
-15.13209203575265
 31
0.0
  0
LINE
  5
C18
330
1F
100
AcDbEntity
  8
2
  6
CONTINUOUS
370
25
 62
7
100
AcDbLine
 10
5.059506490231241
 20
-16.50791129804625
 30
0.0
 11
6.329259735346863
 21
-15.23815805293063
 31
0.0
  0
LINE
  5
C19
330
1F
100
AcDbEntity
  8
2
  6
CONTINUOUS
370
25
 62
7
100
AcDbLine
 10
4.705953099637968
 20
-16.43720061992759
 30
0.0
 11
5.798929649456952
 21
-15.34422407010861
 31
0.0
  0
LINE
  5
C1A
330
1F
100
AcDbEntity
  8
2
  6
CONTINUOUS
370
25
 62
7
100
AcDbLine
 10
4.352399709044695
 20
-16.36648994180894
 30
0.0
 11
5.268599563567043
 21
-15.45029008728659
 31
0.0
  0
LINE
  5
C1B
330
1F
100
AcDbEntity
  8
2
  6
CONTINUOUS
370
25
 62
7
100
AcDbLine
 10
3.998846318451422
 20
-16.29577926369029
 30
0.0
 11
4.738269477677133
 21
-15.55635610446457
 31
0.0
  0
LINE
  5
C1C
330
1F
100
AcDbEntity
  8
2
  6
CONTINUOUS
370
25
 62
7
100
AcDbLine
 10
3.645292927858149
 20
-16.22506858557163
 30
0.0
 11
4.207939391787223
 21
-15.66242212164256
 31
0.0
  0
LINE
  5
C1D
330
1F
100
AcDbEntity
  8
2
  6
CONTINUOUS
370
25
 62
7
100
AcDbLine
 10
3.291739537264876
 20
-16.15435790745298
 30
0.0
 11
3.677609305897314
 21
-15.76848813882054
 31
0.0
  0
LINE
  5
C1E
330
1F
100
AcDbEntity
  8
2
  6
CONTINUOUS
370
25
 62
7
100
AcDbLine
 10
2.938186146671603
 20
-16.08364722933432
 30
0.0
 11
3.147279220007404
 21
-15.87455415599852
 31
0.0
  0
LINE
  5
C1F
330
1F
100
AcDbEntity
  8
2
  6
CONTINUOUS
370
25
 62
7
100
AcDbLine
 10
2.58463275607833
 20
-16.01293655121567
 30
0.0
 11
2.616949134117494
 21
-15.9806201731765
 31
0.0
  0
LINE
  5
C20
330
1F
100
AcDbEntity
  8
2
  6
CONTINUOUS
370
25
 62
7
100
AcDbLine
 10
2.614331906490413
 20
-15.98114361870192
 30
0.0
 11
2.661497859735619
 21
-16.02830957194712
 31
0.0
  0
LINE
  5
C21
330
1F
100
AcDbEntity
  8
2
  6
CONTINUOUS
370
25
 62
7
100
AcDbLine
 10
2.967885297083686
 20
-15.91043294058326
 30
0.0
 11
3.191827945625529
 21
-16.13437558912511
 31
0.0
  0
LINE
  5
C22
330
1F
100
AcDbEntity
  8
2
  6
CONTINUOUS
370
25
 62
7
100
AcDbLine
 10
3.321438687676959
 20
-15.83972226246461
 30
0.0
 11
3.722158031515439
 21
-16.24044160630309
 31
0.0
  0
LINE
  5
C23
330
1F
100
AcDbEntity
  8
2
  6
CONTINUOUS
370
25
 62
7
100
AcDbLine
 10
3.674992078270233
 20
-15.76901158434595
 30
0.0
 11
4.25248811740535
 21
-16.34650762348107
 31
0.0
  0
LINE
  5
C24
330
1F
100
AcDbEntity
  8
2
  6
CONTINUOUS
370
25
 62
7
100
AcDbLine
 10
4.028545468863507
 20
-15.6983009062273
 30
0.0
 11
4.78281820329526
 21
-16.45257364065905
 31
0.0
  0
LINE
  5
C25
330
1F
100
AcDbEntity
  8
2
  6
CONTINUOUS
370
25
 62
7
100
AcDbLine
 10
4.38209885945678
 20
-15.62759022810864
 30
0.0
 11
5.31314828918517
 21
-16.55863965783703
 31
0.0
  0
LINE
  5
C26
330
1F
100
AcDbEntity
  8
2
  6
CONTINUOUS
370
25
 62
7
100
AcDbLine
 10
4.735652250050053
 20
-15.55687954998999
 30
0.0
 11
5.84347837507508
 21
-16.66470567501501
 31
0.0
  0
LINE
  5
C27
330
1F
100
AcDbEntity
  8
2
  6
CONTINUOUS
370
25
 62
7
100
AcDbLine
 10
5.089205640643326
 20
-15.48616887187134
 30
0.0
 11
6.373808460964989
 21
-16.770771692193
 31
0.0
  0
LINE
  5
C28
330
1F
100
AcDbEntity
  8
2
  6
CONTINUOUS
370
25
 62
7
100
AcDbLine
 10
5.442759031236599
 20
-15.41545819375268
 30
0.0
 11
6.9041385468549
 21
-16.87683770937098
 31
0.0
  0
LINE
  5
C29
330
1F
100
AcDbEntity
  8
2
  6
CONTINUOUS
370
25
 62
7
100
AcDbLine
 10
5.796312421829872
 20
-15.34474751563403
 30
0.0
 11
7.434468632744809
 21
-16.98290372654896
 31
0.0
  0
LINE
  5
C2A
330
1F
100
AcDbEntity
  8
2
  6
CONTINUOUS
370
25
 62
7
100
AcDbLine
 10
6.149865812423145
 20
-15.27403683751537
 30
0.0
 11
7.52
 21
-16.64417102509222
 31
0.0
  0
LINE
  5
C2B
330
1F
100
AcDbEntity
  8
2
  6
CONTINUOUS
370
25
 62
7
100
AcDbLine
 10
6.503419203016419
 20
-15.20332615939672
 30
0.0
 11
7.52
 21
-16.2199069563803
 31
0.0
  0
LINE
  5
C2C
330
1F
100
AcDbEntity
  8
2
  6
CONTINUOUS
370
25
 62
7
100
AcDbLine
 10
6.856972593609692
 20
-15.13261548127806
 30
0.0
 11
7.52
 21
-15.79564288766837
 31
0.0
  0
LINE
  5
C2D
330
1F
100
AcDbEntity
  8
2
  6
CONTINUOUS
370
25
 62
7
100
AcDbLine
 10
7.210525984202965
 20
-15.06190480315941
 30
0.0
 11
7.52
 21
-15.37137881895644
 31
0.0
  0
LINE
  5
C2E
330
1F
100
AcDbEntity
  8
2
  6
CONTINUOUS
370
25
 62
7
100
AcDbLine
 10
96.52
 20
-16.00001
 30
0.0
 11
91.52
 21
-17.00001
 31
0.0
  0
LINE
  5
C2F
330
1F
100
AcDbEntity
  8
2
  6
CONTINUOUS
370
25
 62
7
100
AcDbLine
 10
91.52
 20
-17.00001
 30
0.0
 11
91.52
 21
-15.00001
 31
0.0
  0
LINE
  5
C30
330
1F
100
AcDbEntity
  8
2
  6
CONTINUOUS
370
25
 62
7
100
AcDbLine
 10
91.52
 20
-15.00001
 30
0.0
 11
96.52
 21
-16.00001
 31
0.0
  0
LINE
  5
C31
330
1F
100
AcDbEntity
  8
2
  6
CONTINUOUS
370
25
 62
7
100
AcDbLine
 10
96.08126204202476
 20
-16.08775759159505
 30
0.0
 11
96.2275080280165
 21
-15.94151160560331
 31
0.0
  0
LINE
  5
C32
330
1F
100
AcDbEntity
  8
2
  6
CONTINUOUS
370
25
 62
7
100
AcDbLine
 10
95.55093195613486
 20
-16.19382360877303
 30
0.0
 11
95.87395463742324
 21
-15.87080092748465
 31
0.0
  0
LINE
  5
C33
330
1F
100
AcDbEntity
  8
2
  6
CONTINUOUS
370
25
 62
7
100
AcDbLine
 10
95.02060187024495
 20
-16.29988962595101
 30
0.0
 11
95.52040124682995
 21
-15.80009024936601
 31
0.0
  0
LINE
  5
C34
330
1F
100
AcDbEntity
  8
2
  6
CONTINUOUS
370
25
 62
7
100
AcDbLine
 10
94.49027178435504
 20
-16.40595564312899
 30
0.0
 11
95.16684785623669
 21
-15.72937957124735
 31
0.0
  0
LINE
  5
C35
330
1F
100
AcDbEntity
  8
2
  6
CONTINUOUS
370
25
 62
7
100
AcDbLine
 10
93.95994169846514
 20
-16.51202166030697
 30
0.0
 11
94.81329446564342
 21
-15.65866889312869
 31
0.0
  0
LINE
  5
C36
330
1F
100
AcDbEntity
  8
2
  6
CONTINUOUS
370
25
 62
7
100
AcDbLine
 10
93.42961161257526
 20
-16.61808767748495
 30
0.0
 11
94.45974107505016
 21
-15.58795821501005
 31
0.0
  0
LINE
  5
C37
330
1F
100
AcDbEntity
  8
2
  6
CONTINUOUS
370
25
 62
7
100
AcDbLine
 10
92.89928152668534
 20
-16.72415369466293
 30
0.0
 11
94.10618768445688
 21
-15.51724753689139
 31
0.0
  0
LINE
  5
C38
330
1F
100
AcDbEntity
  8
2
  6
CONTINUOUS
370
25
 62
7
100
AcDbLine
 10
92.36895144079544
 20
-16.83021971184091
 30
0.0
 11
93.75263429386362
 21
-15.44653685877273
 31
0.0
  0
LINE
  5
C39
330
1F
100
AcDbEntity
  8
2
  6
CONTINUOUS
370
25
 62
7
100
AcDbLine
 10
91.83862135490554
 20
-16.93628572901889
 30
0.0
 11
93.39908090327035
 21
-15.37582618065409
 31
0.0
  0
LINE
  5
C3A
330
1F
100
AcDbEntity
  8
2
  6
CONTINUOUS
370
25
 62
7
100
AcDbLine
 10
91.52
 20
-16.83064301521252
 30
0.0
 11
93.04552751267708
 21
-15.30511550253543
 31
0.0
  0
LINE
  5
C3B
330
1F
100
AcDbEntity
  8
2
  6
CONTINUOUS
370
25
 62
7
100
AcDbLine
 10
91.52
 20
-16.4063789465006
 30
0.0
 11
92.69197412208382
 21
-15.23440482441677
 31
0.0
  0
LINE
  5
C3C
330
1F
100
AcDbEntity
  8
2
  6
CONTINUOUS
370
25
 62
7
100
AcDbLine
 10
91.52
 20
-15.98211487778866
 30
0.0
 11
92.33842073149053
 21
-15.16369414629813
 31
0.0
  0
LINE
  5
C3D
330
1F
100
AcDbEntity
  8
2
  6
CONTINUOUS
370
25
 62
7
100
AcDbLine
 10
91.52
 20
-15.55785080907674
 30
0.0
 11
91.98486734089727
 21
-15.09298346817947
 31
0.0
  0
LINE
  5
C3E
330
1F
100
AcDbEntity
  8
2
  6
CONTINUOUS
370
25
 62
7
100
AcDbLine
 10
91.52
 20
-15.13358674036482
 30
0.0
 11
91.631313950304
 21
-15.02227279006081
 31
0.0
  0
LINE
  5
C3F
330
1F
100
AcDbEntity
  8
2
  6
CONTINUOUS
370
25
 62
7
100
AcDbLine
 10
91.52
 20
-16.84952390670006
 30
0.0
 11
91.64540507774994
 21
-16.97492898445
 31
0.0
  0
LINE
  5
C40
330
1F
100
AcDbEntity
  8
2
  6
CONTINUOUS
370
25
 62
7
100
AcDbLine
 10
91.52
 20
-16.42525983798812
 30
0.0
 11
91.99895846834323
 21
-16.90421830633136
 31
0.0
  0
LINE
  5
C41
330
1F
100
AcDbEntity
  8
2
  6
CONTINUOUS
370
25
 62
7
100
AcDbLine
 10
91.52
 20
-16.0009957692762
 30
0.0
 11
92.3525118589365
 21
-16.8335076282127
 31
0.0
  0
LINE
  5
C42
330
1F
100
AcDbEntity
  8
2
  6
CONTINUOUS
370
25
 62
7
100
AcDbLine
 10
91.52
 20
-15.57673170056428
 30
0.0
 11
92.70606524952976
 21
-16.76279695009404
 31
0.0
  0
LINE
  5
C43
330
1F
100
AcDbEntity
  8
2
  6
CONTINUOUS
370
25
 62
7
100
AcDbLine
 10
91.52
 20
-15.15246763185235
 30
0.0
 11
93.05961864012305
 21
-16.6920862719754
 31
0.0
  0
LINE
  5
C44
330
1F
100
AcDbEntity
  8
2
  6
CONTINUOUS
370
25
 62
7
100
AcDbLine
 10
91.85975804607448
 20
-15.0679616092149
 30
0.0
 11
93.41317203071631
 21
-16.62137559385674
 31
0.0
  0
LINE
  5
C45
330
1F
100
AcDbEntity
  8
2
  6
CONTINUOUS
370
25
 62
7
100
AcDbLine
 10
92.39008813196438
 20
-15.17402762639288
 30
0.0
 11
93.76672542130957
 21
-16.55066491573808
 31
0.0
  0
LINE
  5
C46
330
1F
100
AcDbEntity
  8
2
  6
CONTINUOUS
370
25
 62
7
100
AcDbLine
 10
92.92041821785428
 20
-15.28009364357086
 30
0.0
 11
94.12027881190285
 21
-16.47995423761944
 31
0.0
  0
LINE
  5
C47
330
1F
100
AcDbEntity
  8
2
  6
CONTINUOUS
370
25
 62
7
100
AcDbLine
 10
93.45074830374418
 20
-15.38615966074885
 30
0.0
 11
94.47383220249611
 21
-16.40924355950078
 31
0.0
  0
LINE
  5
C48
330
1F
100
AcDbEntity
  8
2
  6
CONTINUOUS
370
25
 62
7
100
AcDbLine
 10
93.98107838963409
 20
-15.49222567792683
 30
0.0
 11
94.82738559308939
 21
-16.33853288138212
 31
0.0
  0
LINE
  5
C49
330
1F
100
AcDbEntity
  8
2
  6
CONTINUOUS
370
25
 62
7
100
AcDbLine
 10
94.511408475524
 20
-15.59829169510481
 30
0.0
 11
95.18093898368265
 21
-16.26782220326346
 31
0.0
  0
LINE
  5
C4A
330
1F
100
AcDbEntity
  8
2
  6
CONTINUOUS
370
25
 62
7
100
AcDbLine
 10
95.0417385614139
 20
-15.70435771228279
 30
0.0
 11
95.53449237427593
 21
-16.19711152514482
 31
0.0
  0
LINE
  5
C4B
330
1F
100
AcDbEntity
  8
2
  6
CONTINUOUS
370
25
 62
7
100
AcDbLine
 10
95.57206864730382
 20
-15.81042372946078
 30
0.0
 11
95.8880457648692
 21
-16.12640084702616
 31
0.0
  0
LINE
  5
C4C
330
1F
100
AcDbEntity
  8
2
  6
CONTINUOUS
370
25
 62
7
100
AcDbLine
 10
96.10239873319372
 20
-15.91648974663876
 30
0.0
 11
96.24159915546247
 21
-16.0556901689075
 31
0.0
  0
TEXT
  5
C4D
330
1F
100
AcDbEntity
  8
2
  6
CONTINUOUS
370
25
 62
7
100
AcDbText
 10
46.60333333333333
 20
-15.00001
 30
0.0
 40
3.5
  1
94
 72
     1
 11
49.52
 21
-15.00001
 31
0.0
100
AcDbText
  0
LINE
  5
C4E
330
1F
100
AcDbEntity
  8
4
  6
LONGDASH_DASH
370
25
 62
2
100
AcDbLine
 10
0.0
 20
0.0
 30
0.0
 11
96.52
 21
0.0
 31
0.0
  0
LINE
  5
C4F
330
1F
100
AcDbEntity
  8
SK4
  6
LONGDASH_DASH
370
25
 62
2
100
AcDbLine
 10
-59.48
 20
0.0
 30
0.0
 11
101.52
 21
0.0
 31
0.0
  0
LINE
  5
C50
330
1F
100
AcDbEntity
  8
2
  6
CONTINUOUS
370
25
 62
7
100
AcDbLine
 10
96.52
 20
0.0
 30
0.0
 11
104.52
 21
13.85640646055102
 31
0.0
  0
LINE
  5
C51
330
1F
100
AcDbEntity
  8
2
  6
CONTINUOUS
370
25
 62
7
100
AcDbLine
 10
96.52
 20
0.0
 30
0.0
 11
104.52
 21
-13.85640646055102
 31
0.0
  0
ARC
  5
C52
330
1F
100
AcDbEntity
  8
2
  6
CONTINUOUS
370
25
 62
7
100
AcDbCircle
 10
96.52000000000001
 20
-0.0000000000000009
 30
0.0
 40
14.99999999999999
100
AcDbArc
 50
300.0
 51
60.00000000000005
  0
LINE
  5
C53
330
1F
100
AcDbEntity
  8
2
  6
CONTINUOUS
370
25
 62
7
100
AcDbLine
 10
104.02
 20
12.99038105676658
 30
0.0
 11
108.4048547337458
 21
10.38787285044968
 31
0.0
  0
LINE
  5
C54
330
1F
100
AcDbEntity
  8
2
  6
CONTINUOUS
370
25
 62
7
100
AcDbLine
 10
108.4048547337458
 20
10.38787285044968
 30
0.0
 11
107.0665935210281
 21
8.901583199494894
 31
0.0
  0
LINE
  5
C55
330
1F
100
AcDbEntity
  8
2
  6
CONTINUOUS
370
25
 62
7
100
AcDbLine
 10
107.0665935210281
 20
8.901583199494894
 30
0.0
 11
104.02
 21
12.99038105676658
 31
0.0
  0
LINE
  5
C56
330
1F
100
AcDbEntity
  8
2
  6
CONTINUOUS
370
25
 62
7
100
AcDbLine
 10
107.01160552909
 20
8.975381946213204
 30
0.0
 11
108.2308988336349
 21
10.19467525075804
 31
0.0
  0
LINE
  5
C57
330
1F
100
AcDbEntity
  8
2
  6
CONTINUOUS
370
25
 62
7
100
AcDbLine
 10
106.8304577693646
 20
9.218498255199748
 30
0.0
 11
108.1506867067244
 21
10.53872719255955
 31
0.0
  0
LINE
  5
C58
330
1F
100
AcDbEntity
  8
2
  6
CONTINUOUS
370
25
 62
7
100
AcDbLine
 10
106.6493100096393
 20
9.461614564186306
 30
0.0
 11
107.8844437297949
 21
10.69674828434189
 31
0.0
  0
LINE
  5
C59
330
1F
100
AcDbEntity
  8
2
  6
CONTINUOUS
370
25
 62
7
100
AcDbLine
 10
106.4681622499139
 20
9.70473087317285
 30
0.0
 11
107.6182007528653
 21
10.85476937612422
 31
0.0
  0
LINE
  5
C5A
330
1F
100
AcDbEntity
  8
2
  6
CONTINUOUS
370
25
 62
7
100
AcDbLine
 10
106.2870144901885
 20
9.947847182159407
 30
0.0
 11
107.3519577759357
 21
11.01279046790657
 31
0.0
  0
LINE
  5
C5B
330
1F
100
AcDbEntity
  8
2
  6
CONTINUOUS
370
25
 62
7
100
AcDbLine
 10
106.1058667304631
 20
10.19096349114595
 30
0.0
 11
107.0857147990061
 21
11.1708115596889
 31
0.0
  0
LINE
  5
C5C
330
1F
100
AcDbEntity
  8
2
  6
CONTINUOUS
370
25
 62
7
100
AcDbLine
 10
105.9247189707378
 20
10.43407980013249
 30
0.0
 11
106.8194718220765
 21
11.32883265147125
 31
0.0
  0
LINE
  5
C5D
330
1F
100
AcDbEntity
  8
2
  6
CONTINUOUS
370
25
 62
7
100
AcDbLine
 10
105.7435712110124
 20
10.67719610911904
 30
0.0
 11
106.5532288451469
 21
11.48685374325359
 31
0.0
  0
LINE
  5
C5E
330
1F
100
AcDbEntity
  8
2
  6
CONTINUOUS
370
25
 62
7
100
AcDbLine
 10
105.562423451287
 20
10.9203124181056
 30
0.0
 11
106.2869858682173
 21
11.64487483503592
 31
0.0
  0
LINE
  5
C5F
330
1F
100
AcDbEntity
  8
2
  6
CONTINUOUS
370
25
 62
7
100
AcDbLine
 10
105.3812756915617
 20
11.16342872709215
 30
0.0
 11
106.0207428912878
 21
11.80289592681827
 31
0.0
  0
LINE
  5
C60
330
1F
100
AcDbEntity
  8
2
  6
CONTINUOUS
370
25
 62
7
100
AcDbLine
 10
105.2001279318363
 20
11.4065450360787
 30
0.0
 11
105.7544999143582
 21
11.9609170186006
 31
0.0
  0
LINE
  5
C61
330
1F
100
AcDbEntity
  8
2
  6
CONTINUOUS
370
25
 62
7
100
AcDbLine
 10
105.0189801721109
 20
11.64966134506524
 30
0.0
 11
105.4882569374286
 21
12.11893811038294
 31
0.0
  0
LINE
  5
C62
330
1F
100
AcDbEntity
  8
2
  6
CONTINUOUS
370
25
 62
7
100
AcDbLine
 10
104.8378324123855
 20
11.8927776540518
 30
0.0
 11
105.222013960499
 21
12.27695920216527
 31
0.0
  0
LINE
  5
C63
330
1F
100
AcDbEntity
  8
2
  6
CONTINUOUS
370
25
 62
7
100
AcDbLine
 10
104.6566846526601
 20
12.13589396303834
 30
0.0
 11
104.9557709835694
 21
12.43498029394762
 31
0.0
  0
LINE
  5
C64
330
1F
100
AcDbEntity
  8
2
  6
CONTINUOUS
370
25
 62
7
100
AcDbLine
 10
104.4755368929348
 20
12.37901027202489
 30
0.0
 11
104.6895280066398
 21
12.59300138572996
 31
0.0
  0
LINE
  5
C65
330
1F
100
AcDbEntity
  8
2
  6
CONTINUOUS
370
25
 62
7
100
AcDbLine
 10
104.2943891332094
 20
12.62212658101144
 30
0.0
 11
104.4232850297103
 21
12.75102247751229
 31
0.0
  0
LINE
  5
C66
330
1F
100
AcDbEntity
  8
2
  6
CONTINUOUS
370
25
 62
7
100
AcDbLine
 10
104.113241373484
 20
12.86524288999799
 30
0.0
 11
104.1570420527807
 21
12.90904356929465
 31
0.0
  0
LINE
  5
C67
330
1F
100
AcDbEntity
  8
2
  6
CONTINUOUS
370
25
 62
7
100
AcDbLine
 10
106.2475710180006
 20
10.00078380906821
 30
0.0
 11
107.1993408181171
 21
9.049014008951687
 31
0.0
  0
LINE
  5
C68
330
1F
100
AcDbEntity
  8
2
  6
CONTINUOUS
370
25
 62
7
100
AcDbLine
 10
105.007353415758
 20
11.6652654800227
 30
0.0
 11
107.4003554836377
 21
9.272263412143033
 31
0.0
  0
LINE
  5
C69
330
1F
100
AcDbEntity
  8
2
  6
CONTINUOUS
370
25
 62
7
100
AcDbLine
 10
104.2328083926069
 20
12.86407457188571
 30
0.0
 11
107.6013701491583
 21
9.495512815334394
 31
0.0
  0
LINE
  5
C6A
330
1F
100
AcDbEntity
  8
2
  6
CONTINUOUS
370
25
 62
7
100
AcDbLine
 10
105.2765651937792
 20
12.24458183942536
 30
0.0
 11
107.8023848146788
 21
9.71876221852574
 31
0.0
  0
LINE
  5
C6B
330
1F
100
AcDbEntity
  8
2
  6
CONTINUOUS
370
25
 62
7
100
AcDbLine
 10
106.3203219949515
 20
11.62508910696502
 30
0.0
 11
108.0033994801994
 21
9.942011621717086
 31
0.0
  0
LINE
  5
C6C
330
1F
100
AcDbEntity
  8
2
  6
CONTINUOUS
370
25
 62
7
100
AcDbLine
 10
107.3640787961238
 20
11.00559637450462
 30
0.0
 11
108.20441414572
 21
10.16526102490845
 31
0.0
  0
LINE
  5
C6D
330
1F
100
AcDbEntity
  8
2
  6
CONTINUOUS
370
25
 62
7
100
AcDbLine
 10
104.02
 20
-12.99038105676658
 30
0.0
 11
107.2355519365941
 21
-9.033080746824737
 31
0.0
  0
LINE
  5
C6E
330
1F
100
AcDbEntity
  8
2
  6
CONTINUOUS
370
25
 62
7
100
AcDbLine
 10
107.2355519365941
 20
-9.033080746824737
 30
0.0
 11
108.5102403683722
 21
-10.574239207818
 31
0.0
  0
LINE
  5
C6F
330
1F
100
AcDbEntity
  8
2
  6
CONTINUOUS
370
25
 62
7
100
AcDbLine
 10
108.5102403683722
 20
-10.574239207818
 30
0.0
 11
104.02
 21
-12.99038105676658
 31
0.0
  0
LINE
  5
C70
330
1F
100
AcDbEntity
  8
2
  6
CONTINUOUS
370
25
 62
7
100
AcDbLine
 10
107.6921100713876
 20
-11.01446482744419
 30
0.0
 11
108.339169021496
 21
-10.36740587733581
 31
0.0
  0
LINE
  5
C71
330
1F
100
AcDbEntity
  8
2
  6
CONTINUOUS
370
25
 62
7
100
AcDbLine
 10
106.7736157808129
 20
-11.50869504930699
 30
0.0
 11
108.1471115265397
 21
-10.13519930358021
 31
0.0
  0
LINE
  5
C72
330
1F
100
AcDbEntity
  8
2
  6
CONTINUOUS
370
25
 62
7
100
AcDbLine
 10
105.8551214902382
 20
-12.0029252711698
 30
0.0
 11
107.9550540315834
 21
-9.902992729824604
 31
0.0
  0
LINE
  5
C73
330
1F
100
AcDbEntity
  8
2
  6
CONTINUOUS
370
25
 62
7
100
AcDbLine
 10
104.9366271996634
 20
-12.49715549303261
 30
0.0
 11
107.7629965366271
 21
-9.670786156069
 31
0.0
  0
LINE
  5
C74
330
1F
100
AcDbEntity
  8
2
  6
CONTINUOUS
370
25
 62
7
100
AcDbLine
 10
104.0237387306847
 20
-12.98577989329944
 30
0.0
 11
107.5709390416707
 21
-9.438579582313395
 31
0.0
  0
LINE
  5
C75
330
1F
100
AcDbEntity
  8
2
  6
CONTINUOUS
370
25
 62
7
100
AcDbLine
 10
105.8629650731931
 20
-10.72228948207906
 30
0.0
 11
107.3788815467144
 21
-9.20637300855779
 31
0.0
  0
LINE
  5
C76
330
1F
100
AcDbEntity
  8
2
  6
CONTINUOUS
370
25
 62
7
100
AcDbLine
 10
104.1039009741698
 20
-12.88712620110459
 30
0.0
 11
104.1416808794884
 21
-12.92490610642324
 31
0.0
  0
LINE
  5
C77
330
1F
100
AcDbEntity
  8
2
  6
CONTINUOUS
370
25
 62
7
100
AcDbLine
 10
104.2940963247617
 20
-12.65305748298459
 30
0.0
 11
104.4175196020257
 21
-12.77648076024862
 31
0.0
  0
LINE
  5
C78
330
1F
100
AcDbEntity
  8
2
  6
CONTINUOUS
370
25
 62
7
100
AcDbLine
 10
104.4842916753536
 20
-12.41898876486458
 30
0.0
 11
104.6933583245631
 21
-12.62805541407398
 31
0.0
  0
LINE
  5
C79
330
1F
100
AcDbEntity
  8
2
  6
CONTINUOUS
370
25
 62
7
100
AcDbLine
 10
104.6744870259456
 20
-12.18492004674457
 30
0.0
 11
104.9691970471004
 21
-12.47963006789938
 31
0.0
  0
LINE
  5
C7A
330
1F
100
AcDbEntity
  8
2
  6
CONTINUOUS
370
25
 62
7
100
AcDbLine
 10
104.8646823765375
 20
-11.95085132862457
 30
0.0
 11
105.2450357696377
 21
-12.33120472172476
 31
0.0
  0
LINE
  5
C7B
330
1F
100
AcDbEntity
  8
2
  6
CONTINUOUS
370
25
 62
7
100
AcDbLine
 10
105.0548777271294
 20
-11.71678261050455
 30
0.0
 11
105.520874492175
 21
-12.18277937555013
 31
0.0
  0
LINE
  5
C7C
330
1F
100
AcDbEntity
  8
2
  6
CONTINUOUS
370
25
 62
7
100
AcDbLine
 10
105.2450730777213
 20
-11.48271389238455
 30
0.0
 11
105.7967132147123
 21
-12.03435402937551
 31
0.0
  0
LINE
  5
C7D
330
1F
100
AcDbEntity
  8
2
  6
CONTINUOUS
370
25
 62
7
100
AcDbLine
 10
105.4352684283132
 20
-11.24864517426454
 30
0.0
 11
106.0725519372496
 21
-11.88592868320089
 31
0.0
  0
LINE
  5
C7E
330
1F
100
AcDbEntity
  8
2
  6
CONTINUOUS
370
25
 62
7
100
AcDbLine
 10
105.6254637789051
 20
-11.01457645614452
 30
0.0
 11
106.3483906597869
 21
-11.73750333702627
 31
0.0
  0
LINE
  5
C7F
330
1F
100
AcDbEntity
  8
2
  6
CONTINUOUS
370
25
 62
7
100
AcDbLine
 10
105.8156591294971
 20
-10.78050773802453
 30
0.0
 11
106.6242293823242
 21
-11.58907799085164
 31
0.0
  0
LINE
  5
C80
330
1F
100
AcDbEntity
  8
2
  6
CONTINUOUS
370
25
 62
7
100
AcDbLine
 10
106.005854480089
 20
-10.54643901990454
 30
0.0
 11
106.9000681048615
 21
-11.44065264467703
 31
0.0
  0
LINE
  5
C81
330
1F
100
AcDbEntity
  8
2
  6
CONTINUOUS
370
25
 62
7
100
AcDbLine
 10
106.1960498306809
 20
-10.31237030178453
 30
0.0
 11
107.1759068273988
 21
-11.29222729850241
 31
0.0
  0
LINE
  5
C82
330
1F
100
AcDbEntity
  8
2
  6
CONTINUOUS
370
25
 62
7
100
AcDbLine
 10
106.3862451812728
 20
-10.07830158366451
 30
0.0
 11
107.4517455499361
 21
-11.14380195232779
 31
0.0
  0
LINE
  5
C83
330
1F
100
AcDbEntity
  8
2
  6
CONTINUOUS
370
25
 62
7
100
AcDbLine
 10
106.5764405318647
 20
-9.844232865544512
 30
0.0
 11
107.7275842724734
 21
-10.99537660615317
 31
0.0
  0
LINE
  5
C84
330
1F
100
AcDbEntity
  8
2
  6
CONTINUOUS
370
25
 62
7
100
AcDbLine
 10
106.7666358824567
 20
-9.610164147424499
 30
0.0
 11
108.0034229950107
 21
-10.84695125997854
 31
0.0
  0
LINE
  5
C85
330
1F
100
AcDbEntity
  8
2
  6
CONTINUOUS
370
25
 62
7
100
AcDbLine
 10
106.9568312330486
 20
-9.376095429304485
 30
0.0
 11
108.279261717548
 21
-10.69852591380393
 31
0.0
  0
LINE
  5
C86
330
1F
100
AcDbEntity
  8
2
  6
CONTINUOUS
370
25
 62
7
100
AcDbLine
 10
107.1470265836405
 20
-9.142026711184485
 30
0.0
 11
108.1801775086657
 21
-10.17517763620972
 31
0.0
  0
TEXT
  5
C87
330
1F
100
AcDbEntity
  8
2
  6
CONTINUOUS
370
25
 62
7
100
AcDbText
 10
110.52
 20
-4.958333333333333
 30
0.0
 40
3.5
  1
120°
 50
90.0
 72
     1
 11
110.52
 21
0.0
 31
0.0
100
AcDbText
  0
LINE
  5
C88
330
1F
100
AcDbEntity
  8
1
  6
CONTINUOUS
370
50
 62
4
100
AcDbLine
 10
0.0
 20
0.0
 30
0.0
 11
3.0625
 21
0.0
 31
0.0
  0
LINE
  5
C89
330
1F
100
AcDbEntity
  8
1
  6
CONTINUOUS
370
50
 62
4
100
AcDbLine
 10
0.0
 20
0.0
 30
0.0
 11
0.0
 21
3.0625
 31
0.0
  0
ARC
  5
C8A
330
1F
100
AcDbEntity
  8
1
  6
CONTINUOUS
370
50
 62
4
100
AcDbCircle
 10
0.0
 20
0.0
 30
0.0
 40
3.0625
100
AcDbArc
 50
0.0
 51
90.0
  0
LINE
  5
C8B
330
1F
100
AcDbEntity
  8
1
  6
CONTINUOUS
370
50
 62
4
100
AcDbLine
 10
0.0
 20
0.0
 30
0.0
 11
-3.0625
 21
0.0
 31
0.0
  0
ARC
  5
C8C
330
1F
100
AcDbEntity
  8
1
  6
CONTINUOUS
370
50
 62
4
100
AcDbCircle
 10
0.0
 20
0.0
 30
0.0
 40
3.0625
100
AcDbArc
 50
180.0
 51
270.0
  0
LINE
  5
C8D
330
1F
100
AcDbEntity
  8
1
  6
CONTINUOUS
370
50
 62
4
100
AcDbLine
 10
0.0
 20
-3.0625
 30
0.0
 11
0.0
 21
0.0
 31
0.0
  0
ARC
  5
C8E
330
1F
100
AcDbEntity
  8
1
  6
CONTINUOUS
370
50
 62
4
100
AcDbCircle
 10
0.0
 20
0.0
 30
0.0
 40
3.0625
100
AcDbArc
 50
270.0
 51
0.0
  0
ARC
  5
C8F
330
1F
100
AcDbEntity
  8
1
  6
CONTINUOUS
370
50
 62
4
100
AcDbCircle
 10
0.0
 20
0.0
 30
0.0
 40
3.0625
100
AcDbArc
 50
90.0
 51
180.0
  0
LINE
  5
C90
330
1F
100
AcDbEntity
  8
CUT
  6
CONTINUOUS
370
25
 62
1
100
AcDbLine
 10
2.519999999999996
 20
0.0
 30
0.0
 11
96.52
 21
0.0
 31
0.0
  0
LINE
  5
C91
330
1F
100
AcDbEntity
  8
CUT
  6
CONTINUOUS
370
25
 62
1
100
AcDbLine
 10
96.52
 20
0.0
 30
0.0
 11
93.22910346561913
 21
5.7
 31
0.0
  0
LINE
  5
C92
330
1F
100
AcDbEntity
  8
CUT
  6
CONTINUOUS
370
25
 62
1
100
AcDbLine
 10
93.22910346561913
 20
5.7
 30
0.0
 11
2.519999999999996
 21
5.7
 31
0.0
  0
LINE
  5
C93
330
1F
100
AcDbEntity
  8
CUT
  6
CONTINUOUS
370
25
 62
1
100
AcDbLine
 10
2.519999999999996
 20
5.7
 30
0.0
 11
2.519999999999996
 21
0.0
 31
0.0
  0
LINE
  5
C94
330
1F
100
AcDbEntity
  8
NOCUT
  6
CONTINUOUS
370
25
 62
7
100
AcDbLine
 10
1.0
 20
0.0
 30
0.0
 11
2.519999999999996
 21
0.0
 31
0.0
  0
LINE
  5
C95
330
1F
100
AcDbEntity
  8
NOCUT
  6
CONTINUOUS
370
25
 62
7
100
AcDbLine
 10
2.519999999999996
 20
0.0
 30
0.0
 11
2.519999999999996
 21
5.7
 31
0.0
  0
LINE
  5
C96
330
1F
100
AcDbEntity
  8
NOCUT
  6
CONTINUOUS
370
25
 62
7
100
AcDbLine
 10
2.519999999999996
 20
5.7
 30
0.0
 11
1.519615242270663
 21
5.7
 31
0.0
  0
LINE
  5
C97
330
1F
100
AcDbEntity
  8
NOCUT
  6
CONTINUOUS
370
25
 62
7
100
AcDbLine
 10
1.519615242270663
 20
5.7
 30
0.0
 11
1.0
 21
6.0
 31
0.0
  0
LINE
  5
C98
330
1F
100
AcDbEntity
  8
INFTOTAL
  6
CONTINUOUS
370
18
 62
9
100
AcDbLine
 10
-86.328011
 20
-40.700011
 30
0.0
 11
140.272011
 21
-40.700011
 31
0.0
  0
LINE
  5
C99
330
1F
100
AcDbEntity
  8
INFTOTAL
  6
CONTINUOUS
370
18
 62
9
100
AcDbLine
 10
140.272011
 20
-40.700011
 30
0.0
 11
140.272011
 21
40.700011
 31
0.0
  0
LINE
  5
C9A
330
1F
100
AcDbEntity
  8
INFTOTAL
  6
CONTINUOUS
370
18
 62
9
100
AcDbLine
 10
140.272011
 20
40.700011
 30
0.0
 11
-86.328011
 21
40.700011
 31
0.0
  0
LINE
  5
C9B
330
1F
100
AcDbEntity
  8
INFTOTAL
  6
CONTINUOUS
370
18
 62
9
100
AcDbLine
 10
-86.328011
 20
40.700011
 30
0.0
 11
-86.328011
 21
-40.700011
 31
0.0
  0
ARC
  5
C9C
330
1F
100
AcDbEntity
  8
SK6
  6
CONTINUOUS
370
25
 62
5
100
AcDbCircle
 10
193.8013910083765
 20
-34.34525475338786
 30
0.0
 40
2.76048912849221
100
AcDbArc
 50
338.9379403434233
 51
90.44457437511332
  0
LINE
  5
C9D
330
1F
100
AcDbEntity
  8
SK6
  6
CONTINUOUS
370
25
 62
5
100
AcDbLine
 10
193.7799717969598
 20
-31.58484872421281
 30
0.0
 11
193.7799717969598
 21
-32.68790735613463
 31
0.0
  0
ARC
  5
C9E
330
1F
100
AcDbEntity
  8
SK6
  6
CONTINUOUS
370
25
 62
5
100
AcDbCircle
 10
193.7905180293691
 20
-34.36524824566821
 30
0.0
 40
1.677374043771779
100
AcDbArc
 50
243.4214706017868
 51
90.36024081225986
  0
ARC
  5
C9F
330
1F
100
AcDbEntity
  8
SK6
  6
CONTINUOUS
370
25
 62
5
100
AcDbCircle
 10
196.3127688968496
 20
-33.93384099215561
 30
0.0
 40
3.800217030022758
100
AcDbArc
 50
210.5483731288539
 51
236.9780169366802
  0
LINE
  5
CA0
330
1F
100
AcDbEntity
  8
SK6
  6
CONTINUOUS
370
25
 62
5
100
AcDbLine
 10
194.2417996851249
 20
-37.12017681867535
 30
0.0
 11
198.3837399674267
 21
-37.12017681867535
 31
0.0
  0
ARC
  5
CA1
330
1F
100
AcDbEntity
  8
SK6
  6
CONTINUOUS
370
25
 62
5
100
AcDbCircle
 10
196.3127708387726
 20
-33.9338410937346
 30
0.0
 40
3.800216899582474
100
AcDbArc
 50
303.0219828477962
 51
326.3732153033476
  0
LINE
  5
CA2
330
1F
100
AcDbEntity
  8
SK6
  6
CONTINUOUS
370
25
 62
5
100
AcDbLine
 10
199.4770687513572
 20
-36.0383284907709
 30
0.0
 11
196.1197707057546
 21
-36.0383284907709
 31
0.0
  0
LINE
  5
CA3
330
1F
100
AcDbEntity
  8
SK6
  6
CONTINUOUS
370
25
 62
5
100
AcDbLine
 10
196.1197707057546
 20
-36.0383284907709
 30
0.0
 11
200.0396300977199
 21
-34.67692729641693
 31
0.0
  0
ARC
  5
CA4
330
1F
100
AcDbEntity
  8
SK6
  6
CONTINUOUS
370
25
 62
5
100
AcDbCircle
 10
196.3127715615721
 20
-33.9338416048594
 30
0.0
 40
3.800217216614709
100
AcDbArc
 50
348.7238644184696
 51
53.46910512608842
  0
LINE
  5
CA5
330
1F
100
AcDbEntity
  8
SK6
  6
CONTINUOUS
370
25
 62
5
100
AcDbLine
 10
198.5748742453854
 20
-30.88023024429967
 30
0.0
 11
196.3774594788273
 21
-35.33731873507057
 31
0.0
  0
LINE
  5
CA6
330
1F
100
AcDbEntity
  8
0
  6
Continuous
 62
     4
100
AcDbLine
 10
-0.048814392220427
 20
0.0
 30
0.0
 11
0.0
 21
-0.0488143922204269
 31
0.0
  0
LINE
  5
CA7
330
1F
100
AcDbEntity
  8
0
  6
Continuous
 62
     4
100
AcDbLine
 10
-3.060074868475705
 20
-0.0771689363588064
 30
0.0
 11
-2.982905932116899
 21
0.0
 31
0.0
  0
LINE
  5
CA8
330
1F
100
AcDbEntity
  8
0
  6
Continuous
 62
     4
100
AcDbLine
 10
0.0
 20
2.982905932116899
 30
0.0
 11
0.0771689363588069
 21
3.060074868475706
 31
0.0
  0
LINE
  5
CA9
330
1F
100
AcDbEntity
  8
0
  6
Continuous
 62
     4
100
AcDbLine
 10
0.0
 20
0.384288511256333
 30
0.0
 11
0.3842885112563335
 21
0.0
 31
0.0
  0
LINE
  5
CAA
330
1F
100
AcDbEntity
  8
0
  6
Continuous
 62
     4
100
AcDbLine
 10
-0.3899505408176486
 20
-3.037382353898634
 30
0.0
 11
0.0
 21
-2.647431813080986
 31
0.0
  0
LINE
  5
CAB
330
1F
100
AcDbEntity
  8
0
  6
Continuous
 62
     4
100
AcDbLine
 10
2.647431813080986
 20
0.0
 30
0.0
 11
3.037382353898634
 21
0.3899505408176478
 31
0.0
  0
LINE
  5
CAC
330
1F
100
AcDbEntity
  8
0
  6
Continuous
 62
     4
100
AcDbLine
 10
-3.024033693605082
 20
-0.4742306649649457
 30
0.0
 11
-2.549803028640137
 21
0.0
 31
0.0
  0
LINE
  5
CAD
330
1F
100
AcDbEntity
  8
0
  6
Continuous
 62
     4
100
AcDbLine
 10
0.0
 20
2.549803028640136
 30
0.0
 11
0.4742306649649455
 21
3.024033693605082
 31
0.0
  0
LINE
  5
CAE
330
1F
100
AcDbEntity
  8
0
  6
Continuous
 62
     4
100
AcDbLine
 10
-0.4819172956971874
 20
0.0
 30
0.0
 11
0.0
 21
-0.4819172956971869
 31
0.0
  0
LINE
  5
CAF
330
1F
100
AcDbEntity
  8
0
  6
Continuous
 62
     4
100
AcDbLine
 10
1.82018752194426
 20
2.462027120602918
 30
0.0
 11
2.462027120602917
 21
1.820187521944262
 31
0.0
  0
LINE
  5
CB0
330
1F
100
AcDbEntity
  8
0
  6
Continuous
 62
     4
100
AcDbLine
 10
-0.7537210351890704
 20
-2.968049944793296
 30
0.0
 11
0.0
 21
-2.214328909604226
 31
0.0
  0
LINE
  5
CB1
330
1F
100
AcDbEntity
  8
0
  6
Continuous
 62
     4
100
AcDbLine
 10
2.214328909604226
 20
0.0
 30
0.0
 11
2.968049944793296
 21
0.75372103518907
 31
0.0
  0
LINE
  5
CB2
330
1F
100
AcDbEntity
  8
0
  6
Continuous
 62
     4
100
AcDbLine
 10
0.0
 20
0.8173914147330921
 30
0.0
 11
0.817391414733093
 21
0.0
 31
0.0
  0
LINE
  5
CB3
330
1F
100
AcDbEntity
  8
0
  6
Continuous
 62
     4
100
AcDbLine
 10
-2.946481208032973
 20
-0.8297810828695971
 30
0.0
 11
-2.116700125163376
 21
0.0
 31
0.0
  0
LINE
  5
CB4
330
1F
100
AcDbEntity
  8
0
  6
Continuous
 62
     4
100
AcDbLine
 10
0.0
 20
2.116700125163375
 30
0.0
 11
0.829781082869597
 21
2.946481208032972
 31
0.0
  0
LINE
  5
CB5
330
1F
100
AcDbEntity
  8
0
  6
Continuous
 62
     4
100
AcDbLine
 10
-0.915020199173947
 20
0.0
 30
0.0
 11
0.0
 21
-0.915020199173946
 31
0.0
  0
LINE
  5
CB6
330
1F
100
AcDbEntity
  8
0
  6
Continuous
 62
     4
100
AcDbLine
 10
-1.082406468805194
 20
-2.863632474932658
 30
0.0
 11
0.0
 21
-1.781226006127464
 31
0.0
  0
LINE
  5
CB7
330
1F
100
AcDbEntity
  8
0
  6
Continuous
 62
     4
100
AcDbLine
 10
1.781226006127464
 20
0.0
 30
0.0
 11
2.863632474932658
 21
1.082406468805194
 31
0.0
  0
LINE
  5
CB8
330
1F
100
AcDbEntity
  8
0
  6
Continuous
 62
     4
100
AcDbLine
 10
-2.836427704795208
 20
-1.152830483108593
 30
0.0
 11
-1.683597221686615
 21
0.0
 31
0.0
  0
LINE
  5
CB9
330
1F
100
AcDbEntity
  8
0
  6
Continuous
 62
     4
100
AcDbLine
 10
0.0
 20
1.683597221686615
 30
0.0
 11
1.152830483108594
 21
2.836427704795208
 31
0.0
  0
LINE
  5
CBA
330
1F
100
AcDbEntity
  8
0
  6
Continuous
 62
     4
100
AcDbLine
 10
0.0
 20
1.250494318209852
 30
0.0
 11
1.250494318209853
 21
0.0
 31
0.0
  0
LINE
  5
CBB
330
1F
100
AcDbEntity
  8
0
  6
Continuous
 62
     4
100
AcDbLine
 10
-1.348123102650707
 20
0.0
 30
0.0
 11
0.0
 21
-1.348123102650706
 31
0.0
  0
LINE
  5
CBC
330
1F
100
AcDbEntity
  8
0
  6
Continuous
 62
     4
100
AcDbLine
 10
-1.382755744557608
 20
-2.730878847208312
 30
0.0
 11
0.0
 21
-1.348123102650704
 31
0.0
  0
LINE
  5
CBD
330
1F
100
AcDbEntity
  8
0
  6
Continuous
 62
     4
100
AcDbLine
 10
1.348123102650704
 20
0.0
 30
0.0
 11
2.730878847208312
 21
1.382755744557608
 31
0.0
  0
LINE
  5
CBE
330
1F
100
AcDbEntity
  8
0
  6
Continuous
 62
     4
100
AcDbLine
 10
-2.697925212479942
 20
-1.447430894270086
 30
0.0
 11
-1.250494318209856
 21
0.0
 31
0.0
  0
LINE
  5
CBF
330
1F
100
AcDbEntity
  8
0
  6
Continuous
 62
     4
100
AcDbLine
 10
0.0
 20
1.250494318209856
 30
0.0
 11
1.447430894270087
 21
2.697925212479942
 31
0.0
  0
LINE
  5
CC0
330
1F
100
AcDbEntity
  8
0
  6
Continuous
 62
     4
100
AcDbLine
 10
-1.658690758414022
 20
-2.573710957587966
 30
0.0
 11
0.0
 21
-0.9150201991739442
 31
0.0
  0
LINE
  5
CC1
330
1F
100
AcDbEntity
  8
0
  6
Continuous
 62
     4
100
AcDbLine
 10
0.9150201991739443
 20
0.0
 30
0.0
 11
2.573710957587966
 21
1.658690758414021
 31
0.0
  0
LINE
  5
CC2
330
1F
100
AcDbEntity
  8
0
  6
Continuous
 62
     4
100
AcDbLine
 10
0.0
 20
1.683597221686613
 30
0.0
 11
1.683597221686615
 21
0.0
 31
0.0
  0
LINE
  5
CC3
330
1F
100
AcDbEntity
  8
0
  6
Continuous
 62
     4
100
AcDbLine
 10
-2.534208408698686
 20
-1.71681699396559
 30
0.0
 11
-0.8173914147330957
 21
0.0
 31
0.0
  0
LINE
  5
CC4
330
1F
100
AcDbEntity
  8
0
  6
Continuous
 62
     4
100
AcDbLine
 10
0.0
 20
0.8173914147330956
 30
0.0
 11
1.71681699396559
 21
2.534208408698686
 31
0.0
  0
LINE
  5
CC5
330
1F
100
AcDbEntity
  8
0
  6
Continuous
 62
     4
100
AcDbLine
 10
-2.863237798364061
 20
-1.08350272514721
 30
0.0
 11
-1.083502725147208
 21
-2.863237798364062
 31
0.0
  0
LINE
  5
CC6
330
1F
100
AcDbEntity
  8
0
  6
Continuous
 62
     4
100
AcDbLine
 10
-1.781226006127468
 20
0.0
 30
0.0
 11
0.0
 21
-1.781226006127466
 31
0.0
  0
LINE
  5
CC7
330
1F
100
AcDbEntity
  8
0
  6
Continuous
 62
     4
100
AcDbLine
 10
-1.910250115991394
 20
-2.392167411688578
 30
0.0
 11
0.0
 21
-0.4819172956971842
 31
0.0
  0
LINE
  5
CC8
330
1F
100
AcDbEntity
  8
0
  6
Continuous
 62
     4
100
AcDbLine
 10
0.4819172956971843
 20
0.0
 30
0.0
 11
2.392167411688578
 21
1.910250115991393
 31
0.0
  0
LINE
  5
CC9
330
1F
100
AcDbEntity
  8
0
  6
Continuous
 62
     4
100
AcDbLine
 10
-2.348781014692249
 20
-1.964492503435912
 30
0.0
 11
-0.3842885112563357
 21
0.0
 31
0.0
  0
LINE
  5
CCA
330
1F
100
AcDbEntity
  8
0
  6
Continuous
 62
     4
100
AcDbLine
 10
0.0
 20
0.3842885112563357
 30
0.0
 11
1.964492503435913
 21
2.348781014692249
 31
0.0
  0
LINE
  5
CCB
330
1F
100
AcDbEntity
  8
0
  6
Continuous
 62
     4
100
AcDbLine
 10
0.9324621340962547
 20
2.916649604974163
 30
0.0
 11
2.916649604974161
 21
0.9324621340962582
 31
0.0
  0
LINE
  5
CCC
330
1F
100
AcDbEntity
  8
0
  6
Continuous
 62
     4
100
AcDbLine
 10
0.0
 20
2.116700125163374
 30
0.0
 11
2.116700125163376
 21
0.0
 31
0.0
  0
LINE
  5
CCD
330
1F
100
AcDbEntity
  8
0
  6
Continuous
 62
     4
100
AcDbLine
 10
-2.140038770582129
 20
-2.188853162802553
 30
0.0
 11
0.0
 21
-0.0488143922204243
 31
0.0
  0
LINE
  5
CCE
330
1F
100
AcDbEntity
  8
0
  6
Continuous
 62
     4
100
AcDbLine
 10
0.0488143922204243
 20
0.0
 30
0.0
 11
2.188853162802553
 21
2.140038770582128
 31
0.0
  0
LINE
  5
CCF
330
1F
100
AcDbEntity
  8
0
  6
Continuous
 62
     4
100
AcDbLine
 10
-2.214328909604228
 20
0.0
 30
0.0
 11
0.0
 21
-2.214328909604225
 31
0.0
  0
LINE
  5
CD0
330
1F
100
AcDbEntity
  8
0
  6
Continuous
 62
     4
100
AcDbLine
 10
-3.021140584768129
 20
-0.4924970352663824
 30
0.0
 11
-0.492497035266379
 21
-3.021140584768129
 31
0.0
  0
LINE
  5
CD1
330
1F
100
AcDbEntity
  8
0
  6
Continuous
 62
     4
100
AcDbLine
 10
0.0
 20
2.549803028640134
 30
0.0
 11
2.549803028640136
 21
0.0
 31
0.0
  0
LINE
  5
CD2
330
1F
100
AcDbEntity
  8
0
  6
Continuous
 62
     4
100
AcDbLine
 10
-2.647431813080989
 20
0.0
 30
0.0
 11
0.0
 21
-2.647431813080986
 31
0.0
  0
LINE
  5
CD3
330
1F
100
AcDbEntity
  8
0
  6
Continuous
 62
     4
100
AcDbLine
 10
0.3770128678948154
 20
3.038995967698841
 30
0.0
 11
3.038995967698841
 21
0.3770128678948184
 31
0.0
  0
LINE
  5
CD4
330
1F
100
AcDbEntity
  8
0
  6
Continuous
 62
     4
100
AcDbLine
 10
0.0
 20
2.982905932116894
 30
0.0
 11
2.982905932116897
 21
0.0
 31
0.0
  0
LINE
  5
CD5
330
1F
100
AcDbEntity
  8
0
  6
Continuous
 62
     4
100
AcDbLine
 10
-3.061914847026416
 20
-0.018619869531336
 30
0.0
 11
-0.0186198695313321
 21
-3.061914847026416
 31
0.0
  0
ENDSEC
  0
SECTION
  2
OBJECTS
  0
DICTIONARY
  5
C
330
0
100
AcDbDictionary
281
     1
  3
ACAD_GROUP
350
D
  3
ACAD_LAYOUT
350
1A
  3
ACAD_MATERIAL
350
3B
  3
ACAD_MLEADERSTYLE
350
CD8
  3
ACAD_MLINESTYLE
350
17
  3
ACAD_PLOTSETTINGS
350
19
  3
ACAD_PLOTSTYLENAME
350
E
  3
ACAD_SCALELIST
350
461
  3
ACAD_VISUALSTYLE
350
2A
  3
AcDbVariableDictionary
350
CD6
  0
DICTIONARY
  5
D
102
{ACAD_REACTORS
330
C
102
}
330
C
100
AcDbDictionary
281
     1
  0
DICTIONARY
  5
1A
102
{ACAD_REACTORS
330
C
102
}
330
C
100
AcDbDictionary
281
     1
  3
Layout1
350
1E
  3
Layout2
350
26
  3
Model
350
22
  0
DICTIONARY
  5
3B
102
{ACAD_REACTORS
330
C
102
}
330
C
100
AcDbDictionary
281
     1
  3
ByBlock
350
3D
  3
ByLayer
350
3C
  3
Global
350
3E
  0
DICTIONARY
  5
CD8
102
{ACAD_REACTORS
330
C
102
}
330
C
100
AcDbDictionary
281
     1
  0
DICTIONARY
  5
17
102
{ACAD_REACTORS
330
C
102
}
330
C
100
AcDbDictionary
281
     1
  3
Standard
350
18
  0
DICTIONARY
  5
19
102
{ACAD_REACTORS
330
C
102
}
330
C
100
AcDbDictionary
281
     1
  0
ACDBDICTIONARYWDFLT
  5
E
102
{ACAD_REACTORS
330
C
102
}
330
C
100
AcDbDictionary
281
     1
  3
Normal
350
F
100
AcDbDictionaryWithDefault
340
F
  0
DICTIONARY
  5
461
102
{ACAD_REACTORS
330
C
102
}
330
C
100
AcDbDictionary
281
     1
  3
A0
350
462
  3
A1
350
463
  3
A2
350
464
  3
A3
350
465
  3
A4
350
466
  3
A5
350
467
  3
A6
350
468
  3
A7
350
469
  3
A8
350
46A
  3
A9
350
46B
  3
B0
350
46C
  3
B1
350
46D
  3
B2
350
46E
  3
B3
350
46F
  3
B4
350
470
  3
B5
350
471
  3
B6
350
472
  3
B7
350
473
  3
B8
350
474
  3
B9
350
475
  3
C0
350
476
  3
C1
350
477
  3
C2
350
478
  3
C3
350
479
  3
C4
350
47A
  3
C5
350
47B
  3
C6
350
47C
  3
C7
350
47D
  3
C8
350
47E
  3
C9
350
47F
  3
D0
350
480
  3
D1
350
481
  3
D2
350
482
  0
DICTIONARY
  5
2A
102
{ACAD_REACTORS
330
C
102
}
330
C
100
AcDbDictionary
281
     1
  3
2dWireframe
350
2F
  3
3D Hidden
350
31
  3
3dWireframe
350
30
  3
Basic
350
32
  3
Brighten
350
36
  3
ColorChange
350
3A
  3
Conceptual
350
34
  3
Dim
350
35
  3
Facepattern
350
39
  3
Flat
350
2B
  3
FlatWithEdges
350
2C
  3
Gouraud
350
2D
  3
GouraudWithEdges
350
2E
  3
Linepattern
350
38
  3
Realistic
350
33
  3
Thicken
350
37
  0
DICTIONARY
  5
CD6
102
{ACAD_REACTORS
330
C
102
}
330
C
100
AcDbDictionary
281
     1
  3
CANNOSCALE
350
CDB
  3
DIMASSOC
350
CDC
  3
HIDETEXT
350
CDD
  3
PSOLHEIGHT
350
CDA
  3
PSOLWIDTH
350
CD9
  0
LAYOUT
  5
1E
102
{ACAD_REACTORS
330
1A
102
}
330
1A
100
AcDbPlotSettings
  1

  2
none_device
  4

  6

 40
0.0
 41
0.0
 42
0.0
 43
0.0
 44
0.0
 45
0.0
 46
0.0
 47
0.0
 48
0.0
 49
0.0
140
0.0
141
0.0
142
1.0
143
1.0
 70
   688
 72
     0
 73
     0
 74
     5
  7

 75
    16
147
1.0
148
0.0
149
0.0
100
AcDbLayout
  1
Layout1
 70
     1
 71
     1
 10
0.0
 20
0.0
 11
420.0
 21
297.0
 12
0.0
 22
0.0
 32
0.0
 14
1.000000000000000E+20
 24
1.000000000000000E+20
 34
1.000000000000000E+20
 15
-1.000000000000000E+20
 25
-1.000000000000000E+20
 35
-1.000000000000000E+20
146
0.0
 13
0.0
 23
0.0
 33
0.0
 16
1.0
 26
0.0
 36
0.0
 17
0.0
 27
1.0
 37
0.0
 76
     0
330
1B
  0
LAYOUT
  5
26
102
{ACAD_REACTORS
330
1A
102
}
330
1A
100
AcDbPlotSettings
  1

  2
none_device
  4

  6

 40
0.0
 41
0.0
 42
0.0
 43
0.0
 44
0.0
 45
0.0
 46
0.0
 47
0.0
 48
0.0
 49
0.0
140
0.0
141
0.0
142
1.0
143
1.0
 70
   688
 72
     0
 73
     0
 74
     5
  7

 75
    16
147
1.0
148
0.0
149
0.0
100
AcDbLayout
  1
Layout2
 70
     1
 71
     2
 10
0.0
 20
0.0
 11
0.0
 21
0.0
 12
0.0
 22
0.0
 32
0.0
 14
0.0
 24
0.0
 34
0.0
 15
0.0
 25
0.0
 35
0.0
146
0.0
 13
0.0
 23
0.0
 33
0.0
 16
1.0
 26
0.0
 36
0.0
 17
0.0
 27
1.0
 37
0.0
 76
     0
330
23
  0
LAYOUT
  5
22
102
{ACAD_REACTORS
330
1A
102
}
330
1A
100
AcDbPlotSettings
  1

  2
none_device
  4

  6

 40
0.0
 41
0.0
 42
0.0
 43
0.0
 44
0.0
 45
0.0
 46
0.0
 47
0.0
 48
0.0
 49
0.0
140
0.0
141
0.0
142
1.0
143
1.0
 70
  1712
 72
     0
 73
     0
 74
     0
  7

 75
     0
147
1.0
148
0.0
149
0.0
100
AcDbLayout
  1
Model
 70
     1
 71
     0
 10
0.0
 20
0.0
 11
420.0
 21
297.0
 12
0.0
 22
0.0
 32
0.0
 14
0.0
 24
0.0
 34
0.0
 15
25.0
 25
35.0
 35
0.0
146
0.0
 13
0.0
 23
0.0
 33
0.0
 16
1.0
 26
0.0
 36
0.0
 17
0.0
 27
1.0
 37
0.0
 76
     0
330
1F
331
29
  0
MATERIAL
  5
3D
102
{ACAD_REACTORS
330
3B
102
}
102
{ACAD_XDICTIONARY
360
D00
102
}
330
3B
100
AcDbMaterial
  1
ByBlock
  0
MATERIAL
  5
3C
102
{ACAD_REACTORS
330
3B
102
}
102
{ACAD_XDICTIONARY
360
CFE
102
}
330
3B
100
AcDbMaterial
  1
ByLayer
  0
MATERIAL
  5
3E
102
{ACAD_REACTORS
330
3B
102
}
102
{ACAD_XDICTIONARY
360
D02
102
}
330
3B
100
AcDbMaterial
  1
Global
  0
MLINESTYLE
  5
18
102
{ACAD_REACTORS
330
17
102
}
330
17
100
AcDbMlineStyle
  2
Standard
 70
     0
  3

 62
   256
 51
90.0
 52
90.0
 71
     2
 49
0.5
 62
   256
  6
BYLAYER
 49
-0.5
 62
   256
  6
BYLAYER
  0
ACDBPLACEHOLDER
  5
F
102
{ACAD_REACTORS
330
E
102
}
330
E
  0
SCALE
  5
462
102
{ACAD_REACTORS
330
461
102
}
330
461
100
AcDbScale
 70
     0
300
1:1
140
1.0
141
1.0
290
     1
  0
SCALE
  5
463
102
{ACAD_REACTORS
330
461
102
}
330
461
100
AcDbScale
 70
     0
300
1:2
140
1.0
141
2.0
290
     0
  0
SCALE
  5
464
102
{ACAD_REACTORS
330
461
102
}
330
461
100
AcDbScale
 70
     0
300
1:4
140
1.0
141
4.0
290
     0
  0
SCALE
  5
465
102
{ACAD_REACTORS
330
461
102
}
330
461
100
AcDbScale
 70
     0
300
1:5
140
1.0
141
5.0
290
     0
  0
SCALE
  5
466
102
{ACAD_REACTORS
330
461
102
}
330
461
100
AcDbScale
 70
     0
300
1:8
140
1.0
141
8.0
290
     0
  0
SCALE
  5
467
102
{ACAD_REACTORS
330
461
102
}
330
461
100
AcDbScale
 70
     0
300
1:10
140
1.0
141
10.0
290
     0
  0
SCALE
  5
468
102
{ACAD_REACTORS
330
461
102
}
330
461
100
AcDbScale
 70
     0
300
1:16
140
1.0
141
16.0
290
     0
  0
SCALE
  5
469
102
{ACAD_REACTORS
330
461
102
}
330
461
100
AcDbScale
 70
     0
300
1:20
140
1.0
141
20.0
290
     0
  0
SCALE
  5
46A
102
{ACAD_REACTORS
330
461
102
}
330
461
100
AcDbScale
 70
     0
300
1:30
140
1.0
141
30.0
290
     0
  0
SCALE
  5
46B
102
{ACAD_REACTORS
330
461
102
}
330
461
100
AcDbScale
 70
     0
300
1:40
140
1.0
141
40.0
290
     0
  0
SCALE
  5
46C
102
{ACAD_REACTORS
330
461
102
}
330
461
100
AcDbScale
 70
     0
300
1:50
140
1.0
141
50.0
290
     0
  0
SCALE
  5
46D
102
{ACAD_REACTORS
330
461
102
}
330
461
100
AcDbScale
 70
     0
300
1:100
140
1.0
141
100.0
290
     0
  0
SCALE
  5
46E
102
{ACAD_REACTORS
330
461
102
}
330
461
100
AcDbScale
 70
     0
300
2:1
140
2.0
141
1.0
290
     0
  0
SCALE
  5
46F
102
{ACAD_REACTORS
330
461
102
}
330
461
100
AcDbScale
 70
     0
300
4:1
140
4.0
141
1.0
290
     0
  0
SCALE
  5
470
102
{ACAD_REACTORS
330
461
102
}
330
461
100
AcDbScale
 70
     0
300
8:1
140
8.0
141
1.0
290
     0
  0
SCALE
  5
471
102
{ACAD_REACTORS
330
461
102
}
330
461
100
AcDbScale
 70
     0
300
10:1
140
10.0
141
1.0
290
     0
  0
SCALE
  5
472
102
{ACAD_REACTORS
330
461
102
}
330
461
100
AcDbScale
 70
     0
300
100:1
140
100.0
141
1.0
290
     0
  0
SCALE
  5
473
102
{ACAD_REACTORS
330
461
102
}
330
461
100
AcDbScale
 70
     0
300
1/128" = 1'-0"
140
0.0078125
141
12.0
290
     0
  0
SCALE
  5
474
102
{ACAD_REACTORS
330
461
102
}
330
461
100
AcDbScale
 70
     0
300
1/64" = 1'-0"
140
0.015625
141
12.0
290
     0
  0
SCALE
  5
475
102
{ACAD_REACTORS
330
461
102
}
330
461
100
AcDbScale
 70
     0
300
1/32" = 1'-0"
140
0.03125
141
12.0
290
     0
  0
SCALE
  5
476
102
{ACAD_REACTORS
330
461
102
}
330
461
100
AcDbScale
 70
     0
300
1/16" = 1'-0"
140
0.0625
141
12.0
290
     0
  0
SCALE
  5
477
102
{ACAD_REACTORS
330
461
102
}
330
461
100
AcDbScale
 70
     0
300
3/32" = 1'-0"
140
0.09375
141
12.0
290
     0
  0
SCALE
  5
478
102
{ACAD_REACTORS
330
461
102
}
330
461
100
AcDbScale
 70
     0
300
1/8" = 1'-0"
140
0.125
141
12.0
290
     0
  0
SCALE
  5
479
102
{ACAD_REACTORS
330
461
102
}
330
461
100
AcDbScale
 70
     0
300
3/16" = 1'-0"
140
0.1875
141
12.0
290
     0
  0
SCALE
  5
47A
102
{ACAD_REACTORS
330
461
102
}
330
461
100
AcDbScale
 70
     0
300
1/4" = 1'-0"
140
0.25
141
12.0
290
     0
  0
SCALE
  5
47B
102
{ACAD_REACTORS
330
461
102
}
330
461
100
AcDbScale
 70
     0
300
3/8" = 1'-0"
140
0.375
141
12.0
290
     0
  0
SCALE
  5
47C
102
{ACAD_REACTORS
330
461
102
}
330
461
100
AcDbScale
 70
     0
300
1/2" = 1'-0"
140
0.5
141
12.0
290
     0
  0
SCALE
  5
47D
102
{ACAD_REACTORS
330
461
102
}
330
461
100
AcDbScale
 70
     0
300
3/4" = 1'-0"
140
0.75
141
12.0
290
     0
  0
SCALE
  5
47E
102
{ACAD_REACTORS
330
461
102
}
330
461
100
AcDbScale
 70
     0
300
1" = 1'-0"
140
1.0
141
12.0
290
     0
  0
SCALE
  5
47F
102
{ACAD_REACTORS
330
461
102
}
330
461
100
AcDbScale
 70
     0
300
1-1/2" = 1'-0"
140
1.5
141
12.0
290
     0
  0
SCALE
  5
480
102
{ACAD_REACTORS
330
461
102
}
330
461
100
AcDbScale
 70
     0
300
3" = 1'-0"
140
3.0
141
12.0
290
     0
  0
SCALE
  5
481
102
{ACAD_REACTORS
330
461
102
}
330
461
100
AcDbScale
 70
     0
300
6" = 1'-0"
140
6.0
141
12.0
290
     0
  0
SCALE
  5
482
102
{ACAD_REACTORS
330
461
102
}
330
461
100
AcDbScale
 70
     0
300
1'-0" = 1'-0"
140
12.0
141
12.0
290
     0
  0
VISUALSTYLE
  5
2F
102
{ACAD_REACTORS
330
2A
102
}
102
{ACAD_XDICTIONARY
360
CE6
102
}
330
2A
100
AcDbVisualStyle
  2
2dWireframe
 70
     4
 71
     0
 72
     2
 73
     0
 90
        0
 40
-0.6
 41
-30.0
 62
     5
 63
     7
 74
     1
 91
        4
 64
     7
 65
   257
 75
     1
175
     1
 42
1.0
 92
        0
 66
   257
 43
1.0
 76
     1
 77
     6
 78
     2
 67
     7
 79
     5
170
     0
171
     0
290
     0
174
     0
 93
        1
 44
0.0
173
     0
291
     0
 45
0.0
1001
ACAD
1000
AcDbSavedByObjectVersion
1070
     0
  0
VISUALSTYLE
  5
31
102
{ACAD_REACTORS
330
2A
102
}
102
{ACAD_XDICTIONARY
360
CEA
102
}
330
2A
100
AcDbVisualStyle
  2
3D Hidden
 70
     6
 71
     1
 72
     2
 73
     2
 90
        0
 40
-0.6
 41
-30.0
 62
     5
 63
     7
 74
     2
 91
        2
 64
     7
 65
   257
 75
     2
175
     1
 42
40.0
 92
        0
 66
   257
 43
1.0
 76
     1
 77
     6
 78
     2
 67
     7
 79
     3
170
     0
171
     0
290
     0
174
     0
 93
        1
 44
0.0
173
     0
291
     0
 45
0.0
1001
ACAD
1000
AcDbSavedByObjectVersion
1070
     0
  0
VISUALSTYLE
  5
30
102
{ACAD_REACTORS
330
2A
102
}
102
{ACAD_XDICTIONARY
360
CE8
102
}
330
2A
100
AcDbVisualStyle
  2
3dWireframe
 70
     5
 71
     0
 72
     2
 73
     0
 90
        0
 40
-0.6
 41
-30.0
 62
     5
 63
     7
 74
     1
 91
        4
 64
     7
 65
   257
 75
     1
175
     1
 42
1.0
 92
        0
 66
   257
 43
1.0
 76
     1
 77
     6
 78
     2
 67
     7
 79
     5
170
     0
171
     0
290
     0
174
     0
 93
        1
 44
0.0
173
     0
291
     0
 45
0.0
1001
ACAD
1000
AcDbSavedByObjectVersion
1070
     0
  0
VISUALSTYLE
  5
32
102
{ACAD_REACTORS
330
2A
102
}
102
{ACAD_XDICTIONARY
360
CEC
102
}
330
2A
100
AcDbVisualStyle
  2
Basic
 70
     7
 71
     1
 72
     0
 73
     1
 90
        0
 40
-0.6
 41
-30.0
 62
     5
 63
     7
 74
     0
 91
        4
 64
     7
 65
   257
 75
     1
175
     1
 42
1.0
 92
        8
 66
     7
 43
1.0
 76
     1
 77
     6
 78
     2
 67
     7
 79
     5
170
     0
171
     0
290
     0
174
     0
 93
        1
 44
0.0
173
     0
291
     1
 45
0.0
1001
ACAD
1000
AcDbSavedByObjectVersion
1070
     0
  0
VISUALSTYLE
  5
36
102
{ACAD_REACTORS
330
2A
102
}
102
{ACAD_XDICTIONARY
360
CF4
102
}
330
2A
100
AcDbVisualStyle
  2
Brighten
 70
    12
 71
     2
 72
     2
 73
     0
 90
        0
 40
-0.6
 41
-30.0
 62
     5
 63
     7
 74
     1
 91
        4
 64
     7
 65
   257
 75
     1
175
     1
 42
1.0
 92
        8
 66
     7
 43
1.0
 76
     1
 77
     6
 78
     2
 67
     7
 79
     5
170
     0
171
     0
290
     0
174
     0
 93
        1
 44
50.0
173
     0
291
     1
 45
0.0
1001
ACAD
1000
AcDbSavedByObjectVersion
1070
     0
  0
VISUALSTYLE
  5
3A
102
{ACAD_REACTORS
330
2A
102
}
102
{ACAD_XDICTIONARY
360
CFC
102
}
330
2A
100
AcDbVisualStyle
  2
ColorChange
 70
    16
 71
     2
 72
     2
 73
     3
 90
        0
 40
-0.6
 41
-30.0
 62
     5
 63
     8
 74
     1
 91
        4
 64
     7
 65
   257
 75
     1
175
     1
 42
1.0
 92
        8
 66
     8
 43
1.0
 76
     1
 77
     6
 78
     2
 67
     7
 79
     5
170
     0
171
     0
290
     0
174
     0
 93
        1
 44
0.0
173
     0
291
     1
 45
0.0
1001
ACAD
1000
AcDbSavedByObjectVersion
1070
     0
  0
VISUALSTYLE
  5
34
102
{ACAD_REACTORS
330
2A
102
}
102
{ACAD_XDICTIONARY
360
CF0
102
}
330
2A
100
AcDbVisualStyle
  2
Conceptual
 70
     9
 71
     3
 72
     2
 73
     0
 90
        0
 40
-0.6
 41
-30.0
 62
     5
 63
     7
 74
     2
 91
        2
 64
     7
 65
   257
 75
     1
175
     1
 42
40.0
 92
        8
 66
     7
 43
1.0
 76
     1
 77
     6
 78
     2
 67
     7
 79
     3
170
     0
171
     0
290
     0
174
     0
 93
        1
 44
0.0
173
     0
291
     0
 45
0.0
1001
ACAD
1000
AcDbSavedByObjectVersion
1070
     0
  0
VISUALSTYLE
  5
35
102
{ACAD_REACTORS
330
2A
102
}
102
{ACAD_XDICTIONARY
360
CF2
102
}
330
2A
100
AcDbVisualStyle
  2
Dim
 70
    11
 71
     2
 72
     2
 73
     0
 90
        0
 40
-0.6
 41
-30.0
 62
     5
 63
     7
 74
     1
 91
        4
 64
     7
 65
   257
 75
     1
175
     1
 42
1.0
 92
        8
 66
     7
 43
1.0
 76
     1
 77
     6
 78
     2
 67
     7
 79
     5
170
     0
171
     0
290
     0
174
     0
 93
        1
 44
-50.0
173
     0
291
     1
 45
0.0
1001
ACAD
1000
AcDbSavedByObjectVersion
1070
     0
  0
VISUALSTYLE
  5
39
102
{ACAD_REACTORS
330
2A
102
}
102
{ACAD_XDICTIONARY
360
CFA
102
}
330
2A
100
AcDbVisualStyle
  2
Facepattern
 70
    15
 71
     2
 72
     2
 73
     0
 90
        0
 40
-0.6
 41
-30.0
 62
     5
 63
     7
 74
     1
 91
        4
 64
     7
 65
   257
 75
     1
175
     1
 42
1.0
 92
        8
 66
     7
 43
1.0
 76
     1
 77
     6
 78
     2
 67
     7
 79
     5
170
     0
171
     0
290
     0
174
     0
 93
        1
 44
0.0
173
     0
291
     1
 45
0.0
1001
ACAD
1000
AcDbSavedByObjectVersion
1070
     0
  0
VISUALSTYLE
  5
2B
102
{ACAD_REACTORS
330
2A
102
}
102
{ACAD_XDICTIONARY
360
CDE
102
}
330
2A
100
AcDbVisualStyle
  2
Flat
 70
     0
 71
     2
 72
     1
 73
     1
 90
        2
 40
-0.6
 41
30.0
 62
     5
 63
     7
 74
     0
 91
        4
 64
     7
 65
   257
 75
     1
175
     1
 42
1.0
 92
        8
 66
     7
 43
1.0
 76
     1
 77
     6
 78
     2
 67
     7
 79
     5
170
     0
171
     0
290
     0
174
     0
 93
       13
 44
0.0
173
     0
291
     1
 45
0.0
1001
ACAD
1000
AcDbSavedByObjectVersion
1070
     0
  0
VISUALSTYLE
  5
2C
102
{ACAD_REACTORS
330
2A
102
}
102
{ACAD_XDICTIONARY
360
CE0
102
}
330
2A
100
AcDbVisualStyle
  2
FlatWithEdges
 70
     1
 71
     2
 72
     1
 73
     1
 90
        2
 40
-0.6
 41
30.0
 62
     5
 63
     7
 74
     1
 91
        4
 64
     7
 65
   257
 75
     1
175
     1
 42
1.0
 92
        0
 66
   257
 43
1.0
 76
     1
 77
     6
 78
     2
 67
     7
 79
     5
170
     0
171
     0
290
     0
174
     0
 93
       13
 44
0.0
173
     0
291
     1
 45
0.0
1001
ACAD
1000
AcDbSavedByObjectVersion
1070
     0
  0
VISUALSTYLE
  5
2D
102
{ACAD_REACTORS
330
2A
102
}
102
{ACAD_XDICTIONARY
360
CE2
102
}
330
2A
100
AcDbVisualStyle
  2
Gouraud
 70
     2
 71
     2
 72
     2
 73
     1
 90
        2
 40
-0.6
 41
30.0
 62
     5
 63
     7
 74
     0
 91
        4
 64
     7
 65
   257
 75
     1
175
     1
 42
1.0
 92
        0
 66
     7
 43
1.0
 76
     1
 77
     6
 78
     2
 67
     7
 79
     5
170
     0
171
     0
290
     0
174
     0
 93
       13
 44
0.0
173
     0
291
     1
 45
0.0
1001
ACAD
1000
AcDbSavedByObjectVersion
1070
     0
  0
VISUALSTYLE
  5
2E
102
{ACAD_REACTORS
330
2A
102
}
102
{ACAD_XDICTIONARY
360
CE4
102
}
330
2A
100
AcDbVisualStyle
  2
GouraudWithEdges
 70
     3
 71
     2
 72
     2
 73
     1
 90
        2
 40
-0.6
 41
30.0
 62
     5
 63
     7
 74
     1
 91
        4
 64
     7
 65
   257
 75
     1
175
     1
 42
1.0
 92
        0
 66
   257
 43
1.0
 76
     1
 77
     6
 78
     2
 67
     7
 79
     5
170
     0
171
     0
290
     0
174
     0
 93
       13
 44
0.0
173
     0
291
     1
 45
0.0
1001
ACAD
1000
AcDbSavedByObjectVersion
1070
     0
  0
VISUALSTYLE
  5
38
102
{ACAD_REACTORS
330
2A
102
}
102
{ACAD_XDICTIONARY
360
CF8
102
}
330
2A
100
AcDbVisualStyle
  2
Linepattern
 70
    14
 71
     2
 72
     2
 73
     0
 90
        0
 40
-0.6
 41
-30.0
 62
     5
 63
     7
 74
     1
 91
        4
 64
     7
 65
   257
 75
     7
175
     7
 42
1.0
 92
        8
 66
     7
 43
1.0
 76
     1
 77
     6
 78
     2
 67
     7
 79
     5
170
     0
171
     0
290
     0
174
     0
 93
        1
 44
0.0
173
     0
291
     1
 45
0.0
1001
ACAD
1000
AcDbSavedByObjectVersion
1070
     0
  0
VISUALSTYLE
  5
33
102
{ACAD_REACTORS
330
2A
102
}
102
{ACAD_XDICTIONARY
360
CEE
102
}
330
2A
100
AcDbVisualStyle
  2
Realistic
 70
     8
 71
     2
 72
     2
 73
     0
 90
        0
 40
-0.6
 41
-30.0
 62
     5
 63
     7
 74
     1
 91
        0
 64
     7
 65
   257
 75
     1
175
     1
 42
1.0
 92
        8
 66
     8
 43
1.0
 76
     1
 77
     6
 78
     2
 67
     7
 79
     5
170
     0
171
     0
290
     0
174
     0
 93
       13
 44
0.0
173
     0
291
     0
 45
0.0
1001
ACAD
1000
AcDbSavedByObjectVersion
1070
     0
  0
VISUALSTYLE
  5
37
102
{ACAD_REACTORS
330
2A
102
}
102
{ACAD_XDICTIONARY
360
CF6
102
}
330
2A
100
AcDbVisualStyle
  2
Thicken
 70
    13
 71
     2
 72
     2
 73
     0
 90
        0
 40
-0.6
 41
-30.0
 62
     5
 63
     7
 74
     1
 91
        4
 64
     7
 65
   257
 75
     1
175
     1
 42
1.0
 92
       12
 66
     7
 43
1.0
 76
     1
 77
     6
 78
     2
 67
     7
 79
     5
170
     0
171
     0
290
     0
174
     0
 93
        1
 44
0.0
173
     0
291
     1
 45
0.0
1001
ACAD
1000
AcDbSavedByObjectVersion
1070
     0
  0
DICTIONARYVAR
  5
CDB
102
{ACAD_REACTORS
330
CD6
102
}
330
CD6
100
DictionaryVariables
280
     0
  1
1:1
  0
DICTIONARYVAR
  5
CDC
102
{ACAD_REACTORS
330
CD6
102
}
330
CD6
100
DictionaryVariables
280
     0
  1
2
  0
DICTIONARYVAR
  5
CDD
102
{ACAD_REACTORS
330
CD6
102
}
330
CD6
100
DictionaryVariables
280
     0
  1
1
  0
DICTIONARYVAR
  5
CDA
102
{ACAD_REACTORS
330
CD6
102
}
330
CD6
100
DictionaryVariables
280
     0
  1
80.000000
  0
DICTIONARYVAR
  5
CD9
102
{ACAD_REACTORS
330
CD6
102
}
330
CD6
100
DictionaryVariables
280
     0
  1
5.000000
  0
DICTIONARY
  5
D00
330
3D
100
AcDbDictionary
280
     1
281
     1
  3
ACAD_XREC_ROUNDTRIP
360
D01
  0
DICTIONARY
  5
CFE
330
3C
100
AcDbDictionary
280
     1
281
     1
  3
ACAD_XREC_ROUNDTRIP
360
CFF
  0
DICTIONARY
  5
D02
330
3E
100
AcDbDictionary
280
     1
281
     1
  3
ACAD_XREC_ROUNDTRIP
360
D03
  0
DICTIONARY
  5
CE6
330
2F
100
AcDbDictionary
280
     1
281
     1
  3
ACAD_XREC_ROUNDTRIP
360
CE7
  0
DICTIONARY
  5
CEA
330
31
100
AcDbDictionary
280
     1
281
     1
  3
ACAD_XREC_ROUNDTRIP
360
CEB
  0
DICTIONARY
  5
CE8
330
30
100
AcDbDictionary
280
     1
281
     1
  3
ACAD_XREC_ROUNDTRIP
360
CE9
  0
DICTIONARY
  5
CEC
330
32
100
AcDbDictionary
280
     1
281
     1
  3
ACAD_XREC_ROUNDTRIP
360
CED
  0
DICTIONARY
  5
CF4
330
36
100
AcDbDictionary
280
     1
281
     1
  3
ACAD_XREC_ROUNDTRIP
360
CF5
  0
DICTIONARY
  5
CFC
330
3A
100
AcDbDictionary
280
     1
281
     1
  3
ACAD_XREC_ROUNDTRIP
360
CFD
  0
DICTIONARY
  5
CF0
330
34
100
AcDbDictionary
280
     1
281
     1
  3
ACAD_XREC_ROUNDTRIP
360
CF1
  0
DICTIONARY
  5
CF2
330
35
100
AcDbDictionary
280
     1
281
     1
  3
ACAD_XREC_ROUNDTRIP
360
CF3
  0
DICTIONARY
  5
CFA
330
39
100
AcDbDictionary
280
     1
281
     1
  3
ACAD_XREC_ROUNDTRIP
360
CFB
  0
DICTIONARY
  5
CDE
330
2B
100
AcDbDictionary
280
     1
281
     1
  3
ACAD_XREC_ROUNDTRIP
360
CDF
  0
DICTIONARY
  5
CE0
330
2C
100
AcDbDictionary
280
     1
281
     1
  3
ACAD_XREC_ROUNDTRIP
360
CE1
  0
DICTIONARY
  5
CE2
330
2D
100
AcDbDictionary
280
     1
281
     1
  3
ACAD_XREC_ROUNDTRIP
360
CE3
  0
DICTIONARY
  5
CE4
330
2E
100
AcDbDictionary
280
     1
281
     1
  3
ACAD_XREC_ROUNDTRIP
360
CE5
  0
DICTIONARY
  5
CF8
330
38
100
AcDbDictionary
280
     1
281
     1
  3
ACAD_XREC_ROUNDTRIP
360
CF9
  0
DICTIONARY
  5
CEE
330
33
100
AcDbDictionary
280
     1
281
     1
  3
ACAD_XREC_ROUNDTRIP
360
CEF
  0
DICTIONARY
  5
CF6
330
37
100
AcDbDictionary
280
     1
281
     1
  3
ACAD_XREC_ROUNDTRIP
360
CF7
  0
XRECORD
  5
D01
102
{ACAD_REACTORS
330
D00
102
}
330
D00
100
AcDbXrecord
280
     1
102
MATERIAL
148
0.0
149
0.0
149
0.0
 93
        0
 94
      127
282
     0
 72
     1
 77
     1
171
     1
175
     1
179
     1
273
     0
  0
XRECORD
  5
CFF
102
{ACAD_REACTORS
330
CFE
102
}
330
CFE
100
AcDbXrecord
280
     1
102
MATERIAL
148
0.0
149
0.0
149
0.0
 93
        0
 94
      127
282
     0
 72
     1
 77
     1
171
     1
175
     1
179
     1
273
     0
  0
XRECORD
  5
D03
102
{ACAD_REACTORS
330
D02
102
}
330
D02
100
AcDbXrecord
280
     1
102
MATERIAL
148
0.0
149
0.0
149
0.0
 93
        0
 94
      127
282
     0
 72
     1
 77
     1
171
     1
175
     1
179
     1
273
     0
  0
XRECORD
  5
CE7
102
{ACAD_REACTORS
330
CE6
102
}
330
CE6
100
AcDbXrecord
280
     1
102
RTVSPropertyOp0
 70
     1
102
RTVSPropertyOp1
 70
     1
102
RTVSPropertyOp2
 70
     1
102
RTVSPropertyOp3
 70
     1
102
RTVSPropertyOp4
 70
     1
102
RTVSPropertyOp5
 70
     1
102
RTVSPropertyOp6
 70
     1
102
RTVSPropertyOp7
 70
     1
102
RTVSPropertyOp8
 70
     1
102
RTVSPropertyOp9
 70
     1
102
RTVSPropertyOp10
 70
     1
102
RTVSPropertyOp11
 70
     1
102
RTVSPropertyOp12
 70
     1
102
RTVSPropertyOp13
 70
     1
102
RTVSPropertyOp14
 70
     1
102
RTVSPropertyOp15
 70
     1
102
RTVSPropertyOp16
 70
     1
102
RTVSPropertyOp17
 70
     1
102
RTVSPropertyOp18
 70
     1
102
RTVSPropertyOp19
 70
     1
102
RTVSPropertyOp20
 70
     1
102
RTVSPropertyOp21
 70
     1
102
RTVSPropertyOp22
 70
     1
102
RTVSPropertyOp23
 70
     1
102
RTVSPropertyOp24
 70
     1
102
RTVSPropertyOp25
 70
     1
102
RTVSPropertyOp26
 70
     1
102
RTVSPropertyOp27
 70
     1
  0
XRECORD
  5
CEB
102
{ACAD_REACTORS
330
CEA
102
}
330
CEA
100
AcDbXrecord
280
     1
102
RTVSPropertyOp0
 70
     1
102
RTVSPropertyOp1
 70
     1
102
RTVSPropertyOp2
 70
     1
102
RTVSPropertyOp3
 70
     1
102
RTVSPropertyOp4
 70
     1
102
RTVSPropertyOp5
 70
     1
102
RTVSPropertyOp6
 70
     1
102
RTVSPropertyOp7
 70
     1
102
RTVSPropertyOp8
 70
     1
102
RTVSPropertyOp9
 70
     1
102
RTVSPropertyOp10
 70
     1
102
RTVSPropertyOp11
 70
     1
102
RTVSPropertyOp12
 70
     1
102
RTVSPropertyOp13
 70
     1
102
RTVSPropertyOp14
 70
     1
102
RTVSPropertyOp15
 70
     1
102
RTVSPropertyOp16
 70
     1
102
RTVSPropertyOp17
 70
     1
102
RTVSPropertyOp18
 70
     1
102
RTVSPropertyOp19
 70
     1
102
RTVSPropertyOp20
 70
     1
102
RTVSPropertyOp21
 70
     1
102
RTVSPropertyOp22
 70
     1
102
RTVSPropertyOp23
 70
     1
102
RTVSPropertyOp24
 70
     1
102
RTVSPropertyOp25
 70
     1
102
RTVSPropertyOp26
 70
     1
102
RTVSPropertyOp27
 70
     1
  0
XRECORD
  5
CE9
102
{ACAD_REACTORS
330
CE8
102
}
330
CE8
100
AcDbXrecord
280
     1
102
RTVSPropertyOp0
 70
     1
102
RTVSPropertyOp1
 70
     1
102
RTVSPropertyOp2
 70
     1
102
RTVSPropertyOp3
 70
     1
102
RTVSPropertyOp4
 70
     1
102
RTVSPropertyOp5
 70
     1
102
RTVSPropertyOp6
 70
     1
102
RTVSPropertyOp7
 70
     1
102
RTVSPropertyOp8
 70
     1
102
RTVSPropertyOp9
 70
     1
102
RTVSPropertyOp10
 70
     1
102
RTVSPropertyOp11
 70
     1
102
RTVSPropertyOp12
 70
     1
102
RTVSPropertyOp13
 70
     1
102
RTVSPropertyOp14
 70
     1
102
RTVSPropertyOp15
 70
     1
102
RTVSPropertyOp16
 70
     1
102
RTVSPropertyOp17
 70
     1
102
RTVSPropertyOp18
 70
     1
102
RTVSPropertyOp19
 70
     1
102
RTVSPropertyOp20
 70
     1
102
RTVSPropertyOp21
 70
     1
102
RTVSPropertyOp22
 70
     1
102
RTVSPropertyOp23
 70
     1
102
RTVSPropertyOp24
 70
     1
102
RTVSPropertyOp25
 70
     1
102
RTVSPropertyOp26
 70
     1
102
RTVSPropertyOp27
 70
     1
  0
XRECORD
  5
CED
102
{ACAD_REACTORS
330
CEC
102
}
330
CEC
100
AcDbXrecord
280
     1
102
RTVSPropertyOp0
 70
     1
102
RTVSPropertyOp1
 70
     1
102
RTVSPropertyOp2
 70
     1
102
RTVSPropertyOp3
 70
     1
102
RTVSPropertyOp4
 70
     1
102
RTVSPropertyOp5
 70
     1
102
RTVSPropertyOp6
 70
     1
102
RTVSPropertyOp7
 70
     1
102
RTVSPropertyOp8
 70
     1
102
RTVSPropertyOp9
 70
     1
102
RTVSPropertyOp10
 70
     1
102
RTVSPropertyOp11
 70
     1
102
RTVSPropertyOp12
 70
     1
102
RTVSPropertyOp13
 70
     1
102
RTVSPropertyOp14
 70
     1
102
RTVSPropertyOp15
 70
     1
102
RTVSPropertyOp16
 70
     1
102
RTVSPropertyOp17
 70
     1
102
RTVSPropertyOp18
 70
     1
102
RTVSPropertyOp19
 70
     1
102
RTVSPropertyOp20
 70
     1
102
RTVSPropertyOp21
 70
     1
102
RTVSPropertyOp22
 70
     1
102
RTVSPropertyOp23
 70
     1
102
RTVSPropertyOp24
 70
     1
102
RTVSPropertyOp25
 70
     1
102
RTVSPropertyOp26
 70
     1
102
RTVSPropertyOp27
 70
     1
  0
XRECORD
  5
CF5
102
{ACAD_REACTORS
330
CF4
102
}
330
CF4
100
AcDbXrecord
280
     1
102
RTVSPropertyOp0
 70
     1
102
RTVSPropertyOp1
 70
     1
102
RTVSPropertyOp2
 70
     1
102
RTVSPropertyOp3
 70
     1
102
RTVSPropertyOp4
 70
     1
102
RTVSPropertyOp5
 70
     1
102
RTVSPropertyOp6
 70
     1
102
RTVSPropertyOp7
 70
     1
102
RTVSPropertyOp8
 70
     1
102
RTVSPropertyOp9
 70
     1
102
RTVSPropertyOp10
 70
     1
102
RTVSPropertyOp11
 70
     1
102
RTVSPropertyOp12
 70
     1
102
RTVSPropertyOp13
 70
     1
102
RTVSPropertyOp14
 70
     1
102
RTVSPropertyOp15
 70
     1
102
RTVSPropertyOp16
 70
     1
102
RTVSPropertyOp17
 70
     1
102
RTVSPropertyOp18
 70
     1
102
RTVSPropertyOp19
 70
     1
102
RTVSPropertyOp20
 70
     1
102
RTVSPropertyOp21
 70
     1
102
RTVSPropertyOp22
 70
     1
102
RTVSPropertyOp23
 70
     1
102
RTVSPropertyOp24
 70
     1
102
RTVSPropertyOp25
 70
     1
102
RTVSPropertyOp26
 70
     1
102
RTVSPropertyOp27
 70
     1
  0
XRECORD
  5
CFD
102
{ACAD_REACTORS
330
CFC
102
}
330
CFC
100
AcDbXrecord
280
     1
102
RTVSPropertyOp0
 70
     1
102
RTVSPropertyOp1
 70
     1
102
RTVSPropertyOp2
 70
     1
102
RTVSPropertyOp3
 70
     1
102
RTVSPropertyOp4
 70
     1
102
RTVSPropertyOp5
 70
     1
102
RTVSPropertyOp6
 70
     1
102
RTVSPropertyOp7
 70
     1
102
RTVSPropertyOp8
 70
     1
102
RTVSPropertyOp9
 70
     1
102
RTVSPropertyOp10
 70
     1
102
RTVSPropertyOp11
 70
     1
102
RTVSPropertyOp12
 70
     1
102
RTVSPropertyOp13
 70
     1
102
RTVSPropertyOp14
 70
     1
102
RTVSPropertyOp15
 70
     1
102
RTVSPropertyOp16
 70
     1
102
RTVSPropertyOp17
 70
     1
102
RTVSPropertyOp18
 70
     1
102
RTVSPropertyOp19
 70
     1
102
RTVSPropertyOp20
 70
     1
102
RTVSPropertyOp21
 70
     1
102
RTVSPropertyOp22
 70
     1
102
RTVSPropertyOp23
 70
     1
102
RTVSPropertyOp24
 70
     1
102
RTVSPropertyOp25
 70
     1
102
RTVSPropertyOp26
 70
     1
102
RTVSPropertyOp27
 70
     1
  0
XRECORD
  5
CF1
102
{ACAD_REACTORS
330
CF0
102
}
330
CF0
100
AcDbXrecord
280
     1
102
RTVSPropertyOp0
 70
     1
102
RTVSPropertyOp1
 70
     1
102
RTVSPropertyOp2
 70
     1
102
RTVSPropertyOp3
 70
     1
102
RTVSPropertyOp4
 70
     1
102
RTVSPropertyOp5
 70
     1
102
RTVSPropertyOp6
 70
     1
102
RTVSPropertyOp7
 70
     1
102
RTVSPropertyOp8
 70
     1
102
RTVSPropertyOp9
 70
     1
102
RTVSPropertyOp10
 70
     1
102
RTVSPropertyOp11
 70
     1
102
RTVSPropertyOp12
 70
     1
102
RTVSPropertyOp13
 70
     1
102
RTVSPropertyOp14
 70
     1
102
RTVSPropertyOp15
 70
     1
102
RTVSPropertyOp16
 70
     1
102
RTVSPropertyOp17
 70
     1
102
RTVSPropertyOp18
 70
     1
102
RTVSPropertyOp19
 70
     1
102
RTVSPropertyOp20
 70
     1
102
RTVSPropertyOp21
 70
     1
102
RTVSPropertyOp22
 70
     1
102
RTVSPropertyOp23
 70
     1
102
RTVSPropertyOp24
 70
     1
102
RTVSPropertyOp25
 70
     1
102
RTVSPropertyOp26
 70
     1
102
RTVSPropertyOp27
 70
     1
  0
XRECORD
  5
CF3
102
{ACAD_REACTORS
330
CF2
102
}
330
CF2
100
AcDbXrecord
280
     1
102
RTVSPropertyOp0
 70
     1
102
RTVSPropertyOp1
 70
     1
102
RTVSPropertyOp2
 70
     1
102
RTVSPropertyOp3
 70
     1
102
RTVSPropertyOp4
 70
     1
102
RTVSPropertyOp5
 70
     1
102
RTVSPropertyOp6
 70
     1
102
RTVSPropertyOp7
 70
     1
102
RTVSPropertyOp8
 70
     1
102
RTVSPropertyOp9
 70
     1
102
RTVSPropertyOp10
 70
     1
102
RTVSPropertyOp11
 70
     1
102
RTVSPropertyOp12
 70
     1
102
RTVSPropertyOp13
 70
     1
102
RTVSPropertyOp14
 70
     1
102
RTVSPropertyOp15
 70
     1
102
RTVSPropertyOp16
 70
     1
102
RTVSPropertyOp17
 70
     1
102
RTVSPropertyOp18
 70
     1
102
RTVSPropertyOp19
 70
     1
102
RTVSPropertyOp20
 70
     1
102
RTVSPropertyOp21
 70
     1
102
RTVSPropertyOp22
 70
     1
102
RTVSPropertyOp23
 70
     1
102
RTVSPropertyOp24
 70
     1
102
RTVSPropertyOp25
 70
     1
102
RTVSPropertyOp26
 70
     1
102
RTVSPropertyOp27
 70
     1
  0
XRECORD
  5
CFB
102
{ACAD_REACTORS
330
CFA
102
}
330
CFA
100
AcDbXrecord
280
     1
102
RTVSPropertyOp0
 70
     1
102
RTVSPropertyOp1
 70
     1
102
RTVSPropertyOp2
 70
     1
102
RTVSPropertyOp3
 70
     1
102
RTVSPropertyOp4
 70
     1
102
RTVSPropertyOp5
 70
     1
102
RTVSPropertyOp6
 70
     1
102
RTVSPropertyOp7
 70
     1
102
RTVSPropertyOp8
 70
     1
102
RTVSPropertyOp9
 70
     1
102
RTVSPropertyOp10
 70
     1
102
RTVSPropertyOp11
 70
     1
102
RTVSPropertyOp12
 70
     1
102
RTVSPropertyOp13
 70
     1
102
RTVSPropertyOp14
 70
     1
102
RTVSPropertyOp15
 70
     1
102
RTVSPropertyOp16
 70
     1
102
RTVSPropertyOp17
 70
     1
102
RTVSPropertyOp18
 70
     1
102
RTVSPropertyOp19
 70
     1
102
RTVSPropertyOp20
 70
     1
102
RTVSPropertyOp21
 70
     1
102
RTVSPropertyOp22
 70
     1
102
RTVSPropertyOp23
 70
     1
102
RTVSPropertyOp24
 70
     1
102
RTVSPropertyOp25
 70
     1
102
RTVSPropertyOp26
 70
     1
102
RTVSPropertyOp27
 70
     1
  0
XRECORD
  5
CDF
102
{ACAD_REACTORS
330
CDE
102
}
330
CDE
100
AcDbXrecord
280
     1
102
RTVSPropertyOp0
 70
     1
102
RTVSPropertyOp1
 70
     1
102
RTVSPropertyOp2
 70
     1
102
RTVSPropertyOp3
 70
     1
102
RTVSPropertyOp4
 70
     1
102
RTVSPropertyOp5
 70
     1
102
RTVSPropertyOp6
 70
     1
102
RTVSPropertyOp7
 70
     1
102
RTVSPropertyOp8
 70
     1
102
RTVSPropertyOp9
 70
     1
102
RTVSPropertyOp10
 70
     1
102
RTVSPropertyOp11
 70
     1
102
RTVSPropertyOp12
 70
     1
102
RTVSPropertyOp13
 70
     1
102
RTVSPropertyOp14
 70
     1
102
RTVSPropertyOp15
 70
     1
102
RTVSPropertyOp16
 70
     1
102
RTVSPropertyOp17
 70
     1
102
RTVSPropertyOp18
 70
     1
102
RTVSPropertyOp19
 70
     1
102
RTVSPropertyOp20
 70
     1
102
RTVSPropertyOp21
 70
     1
102
RTVSPropertyOp22
 70
     1
102
RTVSPropertyOp23
 70
     1
102
RTVSPropertyOp24
 70
     1
102
RTVSPropertyOp25
 70
     1
102
RTVSPropertyOp26
 70
     1
102
RTVSPropertyOp27
 70
     1
  0
XRECORD
  5
CE1
102
{ACAD_REACTORS
330
CE0
102
}
330
CE0
100
AcDbXrecord
280
     1
102
RTVSPropertyOp0
 70
     1
102
RTVSPropertyOp1
 70
     1
102
RTVSPropertyOp2
 70
     1
102
RTVSPropertyOp3
 70
     1
102
RTVSPropertyOp4
 70
     1
102
RTVSPropertyOp5
 70
     1
102
RTVSPropertyOp6
 70
     1
102
RTVSPropertyOp7
 70
     1
102
RTVSPropertyOp8
 70
     1
102
RTVSPropertyOp9
 70
     1
102
RTVSPropertyOp10
 70
     1
102
RTVSPropertyOp11
 70
     1
102
RTVSPropertyOp12
 70
     1
102
RTVSPropertyOp13
 70
     1
102
RTVSPropertyOp14
 70
     1
102
RTVSPropertyOp15
 70
     1
102
RTVSPropertyOp16
 70
     1
102
RTVSPropertyOp17
 70
     1
102
RTVSPropertyOp18
 70
     1
102
RTVSPropertyOp19
 70
     1
102
RTVSPropertyOp20
 70
     1
102
RTVSPropertyOp21
 70
     1
102
RTVSPropertyOp22
 70
     1
102
RTVSPropertyOp23
 70
     1
102
RTVSPropertyOp24
 70
     1
102
RTVSPropertyOp25
 70
     1
102
RTVSPropertyOp26
 70
     1
102
RTVSPropertyOp27
 70
     1
  0
XRECORD
  5
CE3
102
{ACAD_REACTORS
330
CE2
102
}
330
CE2
100
AcDbXrecord
280
     1
102
RTVSPropertyOp0
 70
     1
102
RTVSPropertyOp1
 70
     1
102
RTVSPropertyOp2
 70
     1
102
RTVSPropertyOp3
 70
     1
102
RTVSPropertyOp4
 70
     1
102
RTVSPropertyOp5
 70
     1
102
RTVSPropertyOp6
 70
     1
102
RTVSPropertyOp7
 70
     1
102
RTVSPropertyOp8
 70
     1
102
RTVSPropertyOp9
 70
     1
102
RTVSPropertyOp10
 70
     1
102
RTVSPropertyOp11
 70
     1
102
RTVSPropertyOp12
 70
     1
102
RTVSPropertyOp13
 70
     1
102
RTVSPropertyOp14
 70
     1
102
RTVSPropertyOp15
 70
     1
102
RTVSPropertyOp16
 70
     1
102
RTVSPropertyOp17
 70
     1
102
RTVSPropertyOp18
 70
     1
102
RTVSPropertyOp19
 70
     1
102
RTVSPropertyOp20
 70
     1
102
RTVSPropertyOp21
 70
     1
102
RTVSPropertyOp22
 70
     1
102
RTVSPropertyOp23
 70
     1
102
RTVSPropertyOp24
 70
     1
102
RTVSPropertyOp25
 70
     1
102
RTVSPropertyOp26
 70
     1
102
RTVSPropertyOp27
 70
     1
  0
XRECORD
  5
CE5
102
{ACAD_REACTORS
330
CE4
102
}
330
CE4
100
AcDbXrecord
280
     1
102
RTVSPropertyOp0
 70
     1
102
RTVSPropertyOp1
 70
     1
102
RTVSPropertyOp2
 70
     1
102
RTVSPropertyOp3
 70
     1
102
RTVSPropertyOp4
 70
     1
102
RTVSPropertyOp5
 70
     1
102
RTVSPropertyOp6
 70
     1
102
RTVSPropertyOp7
 70
     1
102
RTVSPropertyOp8
 70
     1
102
RTVSPropertyOp9
 70
     1
102
RTVSPropertyOp10
 70
     1
102
RTVSPropertyOp11
 70
     1
102
RTVSPropertyOp12
 70
     1
102
RTVSPropertyOp13
 70
     1
102
RTVSPropertyOp14
 70
     1
102
RTVSPropertyOp15
 70
     1
102
RTVSPropertyOp16
 70
     1
102
RTVSPropertyOp17
 70
     1
102
RTVSPropertyOp18
 70
     1
102
RTVSPropertyOp19
 70
     1
102
RTVSPropertyOp20
 70
     1
102
RTVSPropertyOp21
 70
     1
102
RTVSPropertyOp22
 70
     1
102
RTVSPropertyOp23
 70
     1
102
RTVSPropertyOp24
 70
     1
102
RTVSPropertyOp25
 70
     1
102
RTVSPropertyOp26
 70
     1
102
RTVSPropertyOp27
 70
     1
  0
XRECORD
  5
CF9
102
{ACAD_REACTORS
330
CF8
102
}
330
CF8
100
AcDbXrecord
280
     1
102
RTVSPropertyOp0
 70
     1
102
RTVSPropertyOp1
 70
     1
102
RTVSPropertyOp2
 70
     1
102
RTVSPropertyOp3
 70
     1
102
RTVSPropertyOp4
 70
     1
102
RTVSPropertyOp5
 70
     1
102
RTVSPropertyOp6
 70
     1
102
RTVSPropertyOp7
 70
     1
102
RTVSPropertyOp8
 70
     1
102
RTVSPropertyOp9
 70
     1
102
RTVSPropertyOp10
 70
     1
102
RTVSPropertyOp11
 70
     1
102
RTVSPropertyOp12
 70
     1
102
RTVSPropertyOp13
 70
     1
102
RTVSPropertyOp14
 70
     1
102
RTVSPropertyOp15
 70
     1
102
RTVSPropertyOp16
 70
     1
102
RTVSPropertyOp17
 70
     1
102
RTVSPropertyOp18
 70
     1
102
RTVSPropertyOp19
 70
     1
102
RTVSPropertyOp20
 70
     1
102
RTVSPropertyOp21
 70
     1
102
RTVSPropertyOp22
 70
     1
102
RTVSPropertyOp23
 70
     1
102
RTVSPropertyOp24
 70
     1
102
RTVSPropertyOp25
 70
     1
102
RTVSPropertyOp26
 70
     1
102
RTVSPropertyOp27
 70
     1
  0
XRECORD
  5
CEF
102
{ACAD_REACTORS
330
CEE
102
}
330
CEE
100
AcDbXrecord
280
     1
102
RTVSPropertyOp0
 70
     1
102
RTVSPropertyOp1
 70
     1
102
RTVSPropertyOp2
 70
     1
102
RTVSPropertyOp3
 70
     1
102
RTVSPropertyOp4
 70
     1
102
RTVSPropertyOp5
 70
     1
102
RTVSPropertyOp6
 70
     1
102
RTVSPropertyOp7
 70
     1
102
RTVSPropertyOp8
 70
     1
102
RTVSPropertyOp9
 70
     1
102
RTVSPropertyOp10
 70
     1
102
RTVSPropertyOp11
 70
     1
102
RTVSPropertyOp12
 70
     1
102
RTVSPropertyOp13
 70
     1
102
RTVSPropertyOp14
 70
     1
102
RTVSPropertyOp15
 70
     1
102
RTVSPropertyOp16
 70
     1
102
RTVSPropertyOp17
 70
     1
102
RTVSPropertyOp18
 70
     1
102
RTVSPropertyOp19
 70
     1
102
RTVSPropertyOp20
 70
     1
102
RTVSPropertyOp21
 70
     1
102
RTVSPropertyOp22
 70
     1
102
RTVSPropertyOp23
 70
     1
102
RTVSPropertyOp24
 70
     1
102
RTVSPropertyOp25
 70
     1
102
RTVSPropertyOp26
 70
     1
102
RTVSPropertyOp27
 70
     1
  0
XRECORD
  5
CF7
102
{ACAD_REACTORS
330
CF6
102
}
330
CF6
100
AcDbXrecord
280
     1
102
RTVSPropertyOp0
 70
     1
102
RTVSPropertyOp1
 70
     1
102
RTVSPropertyOp2
 70
     1
102
RTVSPropertyOp3
 70
     1
102
RTVSPropertyOp4
 70
     1
102
RTVSPropertyOp5
 70
     1
102
RTVSPropertyOp6
 70
     1
102
RTVSPropertyOp7
 70
     1
102
RTVSPropertyOp8
 70
     1
102
RTVSPropertyOp9
 70
     1
102
RTVSPropertyOp10
 70
     1
102
RTVSPropertyOp11
 70
     1
102
RTVSPropertyOp12
 70
     1
102
RTVSPropertyOp13
 70
     1
102
RTVSPropertyOp14
 70
     1
102
RTVSPropertyOp15
 70
     1
102
RTVSPropertyOp16
 70
     1
102
RTVSPropertyOp17
 70
     1
102
RTVSPropertyOp18
 70
     1
102
RTVSPropertyOp19
 70
     1
102
RTVSPropertyOp20
 70
     1
102
RTVSPropertyOp21
 70
     1
102
RTVSPropertyOp22
 70
     1
102
RTVSPropertyOp23
 70
     1
102
RTVSPropertyOp24
 70
     1
102
RTVSPropertyOp25
 70
     1
102
RTVSPropertyOp26
 70
     1
102
RTVSPropertyOp27
 70
     1
  0
ENDSEC
  0
EOF
