  0
SECTION
  2
HEADER
  9
$ACADVER
  1
AC1015
  9
$ACADMAINTVER
 70
     6
  9
$DWGCODEPAGE
  3
ANSI_1252
  9
$INSBASE
 10
0.0
 20
0.0
 30
0.0
  9
$EXTMIN
 10
0.0
 20
0.0
 30
0.0
  9
$EXTMAX
 10
25.0
 20
35.0
 30
0.0
  9
$LIMMIN
 10
0.0
 20
0.0
  9
$LIMMAX
 10
420.0
 20
297.0
  9
$ORTHOMODE
 70
     0
  9
$REGENMODE
 70
     1
  9
$FILLMODE
 70
     1
  9
$QTEXTMODE
 70
     0
  9
$MIRRTEXT
 70
     1
  9
$LTSCALE
 40
4.45
  9
$ATTMODE
 70
     1
  9
$TEXTSIZE
 40
2.5
  9
$TRACEWID
 40
1.0
  9
$TEXTSTYLE
  7
Standard
  9
$CLAYER
  8
0
  9
$CELTYPE
  6
ByLayer
  9
$CECOLOR
 62
   256
  9
$CELTSCALE
 40
1.0
  9
$DISPSILH
 70
     0
  9
$DIMSCALE
 40
1.0
  9
$DIMASZ
 40
2.5
  9
$DIMEXO
 40
0.625
  9
$DIMDLI
 40
3.75
  9
$DIMRND
 40
0.0
  9
$DIMDLE
 40
0.0
  9
$DIMEXE
 40
1.25
  9
$DIMTP
 40
0.0
  9
$DIMTM
 40
0.0
  9
$DIMTXT
 40
2.5
  9
$DIMCEN
 40
2.5
  9
$DIMTSZ
 40
0.0
  9
$DIMTOL
 70
     0
  9
$DIMLIM
 70
     0
  9
$DIMTIH
 70
     0
  9
$DIMTOH
 70
     0
  9
$DIMSE1
 70
     0
  9
$DIMSE2
 70
     0
  9
$DIMTAD
 70
     1
  9
$DIMZIN
 70
     8
  9
$DIMBLK
  1

  9
$DIMASO
 70
     1
  9
$DIMSHO
 70
     1
  9
$DIMPOST
  1

  9
$DIMAPOST
  1

  9
$DIMALT
 70
     0
  9
$DIMALTD
 70
     3
  9
$DIMALTF
 40
0.03937007874016
  9
$DIMLFAC
 40
1.0
  9
$DIMTOFL
 70
     1
  9
$DIMTVP
 40
0.0
  9
$DIMTIX
 70
     0
  9
$DIMSOXD
 70
     0
  9
$DIMSAH
 70
     0
  9
$DIMBLK1
  1

  9
$DIMBLK2
  1

  9
$DIMSTYLE
  2
ISO-25
  9
$DIMCLRD
 70
     0
  9
$DIMCLRE
 70
     0
  9
$DIMCLRT
 70
     0
  9
$DIMTFAC
 40
1.0
  9
$DIMGAP
 40
0.625
  9
$DIMJUST
 70
     0
  9
$DIMSD1
 70
     0
  9
$DIMSD2
 70
     0
  9
$DIMTOLJ
 70
     0
  9
$DIMTZIN
 70
     8
  9
$DIMALTZ
 70
     0
  9
$DIMALTTZ
 70
     0
  9
$DIMUPT
 70
     0
  9
$DIMDEC
 70
     2
  9
$DIMTDEC
 70
     2
  9
$DIMALTU
 70
     2
  9
$DIMALTTD
 70
     3
  9
$DIMTXSTY
  7
Standard
  9
$DIMAUNIT
 70
     0
  9
$DIMADEC
 70
     0
  9
$DIMALTRND
 40
0.0
  9
$DIMAZIN
 70
     0
  9
$DIMDSEP
 70
    44
  9
$DIMATFIT
 70
     3
  9
$DIMFRAC
 70
     0
  9
$DIMLDRBLK
  1

  9
$DIMLUNIT
 70
     2
  9
$DIMLWD
 70
    -2
  9
$DIMLWE
 70
    -2
  9
$DIMTMOVE
 70
     0
  9
$LUNITS
 70
     2
  9
$LUPREC
 70
     4
  9
$SKETCHINC
 40
1.0
  9
$FILLETRAD
 40
10.0
  9
$AUNITS
 70
     0
  9
$AUPREC
 70
     0
  9
$MENU
  1
.
  9
$ELEVATION
 40
0.0
  9
$PELEVATION
 40
0.0
  9
$THICKNESS
 40
0.0
  9
$LIMCHECK
 70
     0
  9
$CHAMFERA
 40
10.0
  9
$CHAMFERB
 40
10.0
  9
$CHAMFERC
 40
20.0
  9
$CHAMFERD
 40
0.0
  9
$SKPOLY
 70
     0
  9
$TDCREATE
 40
2457250.377777778
  9
$TDUCREATE
 40
2457250.294444445
  9
$TDUPDATE
 40
2457250.38125
  9
$TDUUPDATE
 40
2457250.297916667
  9
$TDINDWG
 40
0.0000000116
  9
$TDUSRTIMER
 40
0.0000000116
  9
$USRTIMER
 70
     1
  9
$ANGBASE
 50
0.0
  9
$ANGDIR
 70
     0
  9
$PDMODE
 70
     0
  9
$PDSIZE
 40
0.0
  9
$PLINEWID
 40
0.0
  9
$SPLFRAME
 70
     0
  9
$SPLINETYPE
 70
     6
  9
$SPLINESEGS
 70
     8
  9
$HANDSEED
  5
AE8
  9
$SURFTAB1
 70
     6
  9
$SURFTAB2
 70
     6
  9
$SURFTYPE
 70
     6
  9
$SURFU
 70
     6
  9
$SURFV
 70
     6
  9
$UCSBASE
  2

  9
$UCSNAME
  2

  9
$UCSORG
 10
0.0
 20
0.0
 30
0.0
  9
$UCSXDIR
 10
1.0
 20
0.0
 30
0.0
  9
$UCSYDIR
 10
0.0
 20
1.0
 30
0.0
  9
$UCSORTHOREF
  2

  9
$UCSORTHOVIEW
 70
     0
  9
$UCSORGTOP
 10
0.0
 20
0.0
 30
0.0
  9
$UCSORGBOTTOM
 10
0.0
 20
0.0
 30
0.0
  9
$UCSORGLEFT
 10
0.0
 20
0.0
 30
0.0
  9
$UCSORGRIGHT
 10
0.0
 20
0.0
 30
0.0
  9
$UCSORGFRONT
 10
0.0
 20
0.0
 30
0.0
  9
$UCSORGBACK
 10
0.0
 20
0.0
 30
0.0
  9
$PUCSBASE
  2

  9
$PUCSNAME
  2

  9
$PUCSORG
 10
0.0
 20
0.0
 30
0.0
  9
$PUCSXDIR
 10
1.0
 20
0.0
 30
0.0
  9
$PUCSYDIR
 10
0.0
 20
1.0
 30
0.0
  9
$PUCSORTHOREF
  2

  9
$PUCSORTHOVIEW
 70
     0
  9
$PUCSORGTOP
 10
0.0
 20
0.0
 30
0.0
  9
$PUCSORGBOTTOM
 10
0.0
 20
0.0
 30
0.0
  9
$PUCSORGLEFT
 10
0.0
 20
0.0
 30
0.0
  9
$PUCSORGRIGHT
 10
0.0
 20
0.0
 30
0.0
  9
$PUCSORGFRONT
 10
0.0
 20
0.0
 30
0.0
  9
$PUCSORGBACK
 10
0.0
 20
0.0
 30
0.0
  9
$USERI1
 70
     0
  9
$USERI2
 70
     0
  9
$USERI3
 70
     0
  9
$USERI4
 70
     0
  9
$USERI5
 70
     0
  9
$USERR1
 40
0.0
  9
$USERR2
 40
0.0
  9
$USERR3
 40
0.0
  9
$USERR4
 40
0.0
  9
$USERR5
 40
0.0
  9
$WORLDVIEW
 70
     1
  9
$SHADEDGE
 70
     3
  9
$SHADEDIF
 70
    70
  9
$TILEMODE
 70
     1
  9
$MAXACTVP
 70
    64
  9
$PINSBASE
 10
0.0
 20
0.0
 30
0.0
  9
$PLIMCHECK
 70
     0
  9
$PEXTMIN
 10
1.000000000000000E+20
 20
1.000000000000000E+20
 30
1.000000000000000E+20
  9
$PEXTMAX
 10
-1.000000000000000E+20
 20
-1.000000000000000E+20
 30
-1.000000000000000E+20
  9
$PLIMMIN
 10
0.0
 20
0.0
  9
$PLIMMAX
 10
420.0
 20
297.0
  9
$UNITMODE
 70
     0
  9
$VISRETAIN
 70
     1
  9
$PLINEGEN
 70
     0
  9
$PSLTSCALE
 70
     1
  9
$TREEDEPTH
 70
  3020
  9
$CMLSTYLE
  2
Standard
  9
$CMLJUST
 70
     0
  9
$CMLSCALE
 40
20.0
  9
$PROXYGRAPHICS
 70
     1
  9
$MEASUREMENT
 70
     1
  9
$CELWEIGHT
370
    -1
  9
$ENDCAPS
280
     0
  9
$JOINSTYLE
280
     0
  9
$LWDISPLAY
290
     0
  9
$INSUNITS
 70
     4
  9
$HYPERLINKBASE
  1

  9
$STYLESHEET
  1

  9
$XEDIT
290
     1
  9
$CEPSNTYPE
380
     0
  9
$PSTYLEMODE
290
     1
  9
$FINGERPRINTGUID
  2
{1FEF06BC-DB7F-44D2-B223-D0EC5825E0A7}
  9
$VERSIONGUID
  2
{FAEB1C32-E019-11D5-929B-00C0DF256EC4}
  9
$EXTNAMES
290
     1
  9
$PSVPSCALE
 40
0.0
  9
$OLESTARTUP
290
     0
  0
ENDSEC
  0
SECTION
  2
CLASSES
  0
CLASS
  1
ACDBDICTIONARYWDFLT
  2
AcDbDictionaryWithDefault
  3
ObjectDBX Classes
 90
        0
280
     0
281
     0
  0
CLASS
  1
VISUALSTYLE
  2
AcDbVisualStyle
  3
ObjectDBX Classes
 90
     4095
280
     0
281
     0
  0
CLASS
  1
MATERIAL
  2
AcDbMaterial
  3
ObjectDBX Classes
 90
     1153
280
     0
281
     0
  0
CLASS
  1
SCALE
  2
AcDbScale
  3
ObjectDBX Classes
 90
     1153
280
     0
281
     0
  0
CLASS
  1
DICTIONARYVAR
  2
AcDbDictionaryVar
  3
ObjectDBX Classes
 90
        0
280
     0
281
     0
  0
CLASS
  1
ACDBPLACEHOLDER
  2
AcDbPlaceHolder
  3
ObjectDBX Classes
 90
        0
280
     0
281
     0
  0
CLASS
  1
LAYOUT
  2
AcDbLayout
  3
ObjectDBX Classes
 90
        0
280
     0
281
     0
  0
ENDSEC
  0
SECTION
  2
TABLES
  0
TABLE
  2
VPORT
  5
8
330
0
100
AcDbSymbolTable
 70
     1
  0
VPORT
  5
29
330
8
100
AcDbSymbolTableRecord
100
AcDbViewportTableRecord
  2
*Active
 70
     0
 10
0.0
 20
0.0
 11
1.0
 21
1.0
 12
11.26
 22
4.5
 13
0.0
 23
0.0
 14
10.0
 24
10.0
 15
10.0
 25
10.0
 16
0.0
 26
0.0
 36
1.0
 17
0.0
 27
0.0
 37
0.0
 40
9.0
 41
2.503333333333333
 42
50.0
 43
0.0
 44
0.0
 50
0.0
 51
0.0
 71
     0
 72
   100
 73
     1
 74
     3
 75
     0
 76
     0
 77
     0
 78
     0
281
     0
 65
     1
110
0.0
120
0.0
130
0.0
111
1.0
121
0.0
131
0.0
112
0.0
122
1.0
132
0.0
 79
     0
146
0.0
  0
ENDTAB
  0
TABLE
  2
LTYPE
  5
5
330
0
100
AcDbSymbolTable
 70
     8
  0
LTYPE
  5
14
330
5
100
AcDbSymbolTableRecord
100
AcDbLinetypeTableRecord
  2
ByBlock
 70
     0
  3

 72
    65
 73
     0
 40
0.0
  0
LTYPE
  5
15
330
5
100
AcDbSymbolTableRecord
100
AcDbLinetypeTableRecord
  2
ByLayer
 70
     0
  3

 72
    65
 73
     0
 40
0.0
  0
LTYPE
  5
16
330
5
100
AcDbSymbolTableRecord
100
AcDbLinetypeTableRecord
  2
Continuous
 70
     0
  3
Solid line
 72
    65
 73
     0
 40
0.0
  0
LTYPE
  5
2FC
330
5
100
AcDbSymbolTableRecord
100
AcDbLinetypeTableRecord
  2
SK1
 70
     0
  3
THICK
 72
    65
 73
     0
 40
0.0
  0
LTYPE
  5
309
330
5
100
AcDbSymbolTableRecord
100
AcDbLinetypeTableRecord
  2
NOCUT
 70
     0
  3
THICK
 72
    65
 73
     0
 40
0.0
  0
LTYPE
  5
30E
330
5
100
AcDbSymbolTableRecord
100
AcDbLinetypeTableRecord
  2
SK2
 70
     0
  3
THIN
 72
    65
 73
     0
 40
0.0
  0
LTYPE
  5
3BA
330
5
100
AcDbSymbolTableRecord
100
AcDbLinetypeTableRecord
  2
L2
 70
     0
  3
THIN
 72
    65
 73
     0
 40
0.0
  0
LTYPE
  5
508
330
5
100
AcDbSymbolTableRecord
100
AcDbLinetypeTableRecord
  2
LONGDASH_DASH
 70
     0
  3
THIN_DASHDOT
 72
    65
 73
     4
 40
0.85
 49
0.4
 74
     0
 49
-0.2
 74
     0
 49
0.05
 74
     0
 49
-0.2
 74
     0
  0
LTYPE
  5
550
330
5
100
AcDbSymbolTableRecord
100
AcDbLinetypeTableRecord
  2
ls1
 70
     0
  3
THIN
 72
    65
 73
     0
 40
0.0
  0
LTYPE
  5
559
330
5
100
AcDbSymbolTableRecord
100
AcDbLinetypeTableRecord
  2
INFTOTAL
 70
     0
  3
THIN
 72
    65
 73
     0
 40
0.0
  0
ENDTAB
  0
TABLE
  2
LAYER
  5
2
330
0
100
AcDbSymbolTable
 70
    11
  0
LAYER
  5
10
330
2
100
AcDbSymbolTableRecord
100
AcDbLayerTableRecord
  2
0
 70
     0
 62
     7
  6
Continuous
370
    -3
390
F
  0
LAYER
  5
44
330
2
100
AcDbSymbolTableRecord
100
AcDbLayerTableRecord
  2
1
 70
     0
 62
4
  6
CONTINUOUS
370
50
370
    -3
390
F
  0
LAYER
  5
2FB
330
2
100
AcDbSymbolTableRecord
100
AcDbLayerTableRecord
  2
SK1
 70
     0
 62
4
  6
CONTINUOUS
370
50
370
    -3
390
F
  0
LAYER
  5
308
330
2
100
AcDbSymbolTableRecord
100
AcDbLayerTableRecord
  2
NOCUT
 70
     0
 62
7
  6
CONTINUOUS
370
25
370
    -3
390
F
  0
LAYER
  5
30D
330
2
100
AcDbSymbolTableRecord
100
AcDbLayerTableRecord
  2
SK2
 70
     0
 62
7
  6
CONTINUOUS
370
25
370
    -3
390
F
  0
LAYER
  5
3B9
330
2
100
AcDbSymbolTableRecord
100
AcDbLayerTableRecord
  2
2
 70
     0
 62
7
  6
CONTINUOUS
370
25
370
    -3
390
F
  0
LAYER
  5
509
330
2
100
AcDbSymbolTableRecord
100
AcDbLayerTableRecord
  2
4
 70
     0
 62
2
  6
LONGDASH_DASH
370
25
370
    -3
390
F
  0
LAYER
  5
50B
330
2
100
AcDbSymbolTableRecord
100
AcDbLayerTableRecord
  2
SK4
 70
     0
 62
2
  6
LONGDASH_DASH
370
25
370
    -3
390
F
  0
LAYER
  5
54F
330
2
100
AcDbSymbolTableRecord
100
AcDbLayerTableRecord
  2
CUT
 70
     0
 62
1
  6
CONTINUOUS
370
25
370
    -3
390
F
  0
LAYER
  5
558
330
2
100
AcDbSymbolTableRecord
100
AcDbLayerTableRecord
  2
INFTOTAL
 70
     0
 62
9
  6
CONTINUOUS
370
18
370
    -3
390
F
  0
LAYER
  5
55E
330
2
100
AcDbSymbolTableRecord
100
AcDbLayerTableRecord
  2
SK6
 70
     0
 62
5
  6
CONTINUOUS
370
25
370
    -3
390
F
  0
ENDTAB
  0
TABLE
  2
STYLE
  5
3
330
0
100
AcDbSymbolTable
 70
     1
  0
STYLE
  5
11
330
3
100
AcDbSymbolTableRecord
100
AcDbTextStyleTableRecord
  2
Standard
 70
     0
 40
0.0
 41
1.0
 50
0.0
 71
     0
 42
2.5
  3
Monospac821 BT
  4

  0
ENDTAB
  0
TABLE
  2
VIEW
  5
6
330
0
100
AcDbSymbolTable
 70
     0
  0
ENDTAB
  0
TABLE
  2
UCS
  5
7
330
0
100
AcDbSymbolTable
 70
     0
  0
ENDTAB
  0
TABLE
  2
APPID
  5
9
330
0
100
AcDbSymbolTable
 70
     2
  0
APPID
  5
12
330
9
100
AcDbSymbolTableRecord
100
AcDbRegAppTableRecord
  2
ACAD
 70
     0
  0
APPID
  5
3F
330
9
100
AcDbSymbolTableRecord
100
AcDbRegAppTableRecord
  2
ccLab
 70
     0
  0
ENDTAB
  0
TABLE
  2
DIMSTYLE
  5
A
330
0
100
AcDbSymbolTable
 70
     1
100
AcDbDimStyleTable
  0
DIMSTYLE
105
27
330
A
100
AcDbSymbolTableRecord
100
AcDbDimStyleTableRecord
  2
ISO-25
 70
     0
 41
2.5
 42
0.625
 43
3.75
 44
1.25
 73
     0
 74
     0
 77
     1
 78
     8
140
2.5
141
2.5
143
0.03937007874016
147
0.625
171
     3
172
     1
271
     2
272
     2
274
     3
278
    44
283
     0
284
     8
340
11
  0
ENDTAB
  0
TABLE
  2
BLOCK_RECORD
  5
1
330
0
100
AcDbSymbolTable
 70
     2
  0
BLOCK_RECORD
  5
1F
330
1
100
AcDbSymbolTableRecord
100
AcDbBlockTableRecord
  2
*Model_Space
340
22
  0
BLOCK_RECORD
  5
1B
330
1
100
AcDbSymbolTableRecord
100
AcDbBlockTableRecord
  2
*Paper_Space
340
1E
  0
BLOCK_RECORD
  5
23
330
1
100
AcDbSymbolTableRecord
100
AcDbBlockTableRecord
  2
*Paper_Space0
340
26
  0
ENDTAB
  0
ENDSEC
  0
SECTION
  2
BLOCKS
  0
BLOCK
  5
20
330
1F
100
AcDbEntity
  8
0
100
AcDbBlockBegin
  2
*Model_Space
 70
     0
 10
0.0
 20
0.0
 30
0.0
  3
*Model_Space
  1

  0
ENDBLK
  5
21
330
1F
100
AcDbEntity
  8
0
100
AcDbBlockEnd
  0
BLOCK
  5
1C
330
1B
100
AcDbEntity
 67
     1
  8
0
100
AcDbBlockBegin
  2
*Paper_Space
 70
     0
 10
0.0
 20
0.0
 30
0.0
  3
*Paper_Space
  1

  0
ENDBLK
  5
1D
330
1B
100
AcDbEntity
 67
     1
  8
0
100
AcDbBlockEnd
  0
BLOCK
  5
24
330
23
100
AcDbEntity
  8
0
100
AcDbBlockBegin
  2
*Paper_Space0
 70
     0
 10
0.0
 20
0.0
 30
0.0
  3
*Paper_Space0
  1

  0
ENDBLK
  5
25
330
23
100
AcDbEntity
  8
0
100
AcDbBlockEnd
  0
ENDSEC
  0
SECTION
  2
ENTITIES
  0
LINE
  5
598
330
1F
100
AcDbEntity
  8
1
  6
CONTINUOUS
370
50
 62
4
100
AcDbLine
 10
34.835705
 20
-0.262195
 30
0.0
 11
34.834591
 21
-0.203231
 31
0.0
  0
LINE
  5
599
330
1F
100
AcDbEntity
  8
1
  6
CONTINUOUS
370
50
 62
4
100
AcDbLine
 10
0.291099
 20
1.767976
 30
0.0
 11
0.288316
 21
1.814852
 31
0.0
  0
LINE
  5
59A
330
1F
100
AcDbEntity
  8
1
  6
CONTINUOUS
370
50
 62
4
100
AcDbLine
 10
34.834591
 20
-0.203231
 30
0.0
 11
34.825161
 21
-0.140632
 31
0.0
  0
LINE
  5
59B
330
1F
100
AcDbEntity
  8
1
  6
CONTINUOUS
370
50
 62
4
100
AcDbLine
 10
0.299556
 20
1.7212
 30
0.0
 11
0.291099
 21
1.767976
 31
0.0
  0
LINE
  5
59C
330
1F
100
AcDbEntity
  8
1
  6
CONTINUOUS
370
50
 62
4
100
AcDbLine
 10
34.825161
 20
-0.140632
 30
0.0
 11
34.806244
 21
-0.073196
 31
0.0
  0
LINE
  5
59D
330
1F
100
AcDbEntity
  8
1
  6
CONTINUOUS
370
50
 62
4
100
AcDbLine
 10
0.313412
 20
1.674753
 30
0.0
 11
0.299556
 21
1.7212
 31
0.0
  0
LINE
  5
59E
330
1F
100
AcDbEntity
  8
1
  6
CONTINUOUS
370
50
 62
4
100
AcDbLine
 10
34.806244
 20
-0.073196
 30
0.0
 11
34.776955
 21
0.0
 31
0.0
  0
LINE
  5
59F
330
1F
100
AcDbEntity
  8
1
  6
CONTINUOUS
370
50
 62
4
100
AcDbLine
 10
0.332389
 20
1.628778
 30
0.0
 11
0.313412
 21
1.674753
 31
0.0
  0
LINE
  5
5A0
330
1F
100
AcDbEntity
  8
1
  6
CONTINUOUS
370
50
 62
4
100
AcDbLine
 10
35.042999
 20
0.0
 30
0.0
 11
34.355198
 21
1.475
 31
0.0
  0
LINE
  5
5A1
330
1F
100
AcDbEntity
  8
1
  6
CONTINUOUS
370
50
 62
4
100
AcDbLine
 10
34.776966
 20
0.000004
 30
0.0
 11
34.758114
 21
0.039401
 31
0.0
  0
LINE
  5
5A2
330
1F
100
AcDbEntity
  8
1
  6
CONTINUOUS
370
50
 62
4
100
AcDbLine
 10
0.356176
 20
1.583476
 30
0.0
 11
0.332389
 21
1.628778
 31
0.0
  0
LINE
  5
5A3
330
1F
100
AcDbEntity
  8
1
  6
CONTINUOUS
370
50
 62
4
100
AcDbLine
 10
34.758114
 20
0.039401
 30
0.0
 11
34.737179
 21
0.079213
 31
0.0
  0
LINE
  5
5A4
330
1F
100
AcDbEntity
  8
1
  6
CONTINUOUS
370
50
 62
4
100
AcDbLine
 10
34.391209
 20
0.6146849999999999
 30
0.0
 11
34.355198
 21
0.678819
 31
0.0
  0
LINE
  5
5A5
330
1F
100
AcDbEntity
  8
1
  6
CONTINUOUS
370
50
 62
4
100
AcDbLine
 10
34.737179
 20
0.079213
 30
0.0
 11
34.714409
 21
0.119183
 31
0.0
  0
LINE
  5
5A6
330
1F
100
AcDbEntity
  8
1
  6
CONTINUOUS
370
50
 62
4
100
AcDbLine
 10
34.427361
 20
0.552599
 30
0.0
 11
34.391209
 21
0.6146849999999999
 31
0.0
  0
LINE
  5
5A7
330
1F
100
AcDbEntity
  8
1
  6
CONTINUOUS
370
50
 62
4
100
AcDbLine
 10
34.463654
 20
0.492634
 30
0.0
 11
34.427361
 21
0.552599
 31
0.0
  0
LINE
  5
5A8
330
1F
100
AcDbEntity
  8
1
  6
CONTINUOUS
370
50
 62
4
100
AcDbLine
 10
34.714409
 20
0.119183
 30
0.0
 11
34.69006
 21
0.159051
 31
0.0
  0
LINE
  5
5A9
330
1F
100
AcDbEntity
  8
1
  6
CONTINUOUS
370
50
 62
4
100
AcDbLine
 10
34.500072
 20
0.434865
 30
0.0
 11
34.463654
 21
0.492634
 31
0.0
  0
LINE
  5
5AA
330
1F
100
AcDbEntity
  8
1
  6
CONTINUOUS
370
50
 62
4
100
AcDbLine
 10
0.384185
 20
1.539416
 30
0.0
 11
0.356176
 21
1.583476
 31
0.0
  0
LINE
  5
5AB
330
1F
100
AcDbEntity
  8
1
  6
CONTINUOUS
370
50
 62
4
100
AcDbLine
 10
2.043
 20
1.118393
 30
0.0
 11
1.983548
 21
1.210035
 31
0.0
  0
LINE
  5
5AC
330
1F
100
AcDbEntity
  8
1
  6
CONTINUOUS
370
50
 62
4
100
AcDbLine
 10
34.69006
 20
0.159051
 30
0.0
 11
34.664383
 21
0.198559
 31
0.0
  0
LINE
  5
5AD
330
1F
100
AcDbEntity
  8
1
  6
CONTINUOUS
370
50
 62
4
100
AcDbLine
 10
34.536617
 20
0.379364
 30
0.0
 11
34.500072
 21
0.434865
 31
0.0
  0
LINE
  5
5AE
330
1F
100
AcDbEntity
  8
1
  6
CONTINUOUS
370
50
 62
4
100
AcDbLine
 10
2.043
 20
1.475
 30
0.0
 11
1.0
 21
3.0
 31
0.0
  0
LINE
  5
5AF
330
1F
100
AcDbEntity
  8
1
  6
CONTINUOUS
370
50
 62
4
100
AcDbLine
 10
1.983548
 20
1.210035
 30
0.0
 11
1.916337
 21
1.30789
 31
0.0
  0
LINE
  5
5B0
330
1F
100
AcDbEntity
  8
1
  6
CONTINUOUS
370
50
 62
4
100
AcDbLine
 10
34.664383
 20
0.198559
 30
0.0
 11
34.637634
 21
0.237449
 31
0.0
  0
LINE
  5
5B1
330
1F
100
AcDbEntity
  8
1
  6
CONTINUOUS
370
50
 62
4
100
AcDbLine
 10
34.573284
 20
0.326205
 30
0.0
 11
34.536617
 21
0.379364
 31
0.0
  0
LINE
  5
5B2
330
1F
100
AcDbEntity
  8
1
  6
CONTINUOUS
370
50
 62
4
100
AcDbLine
 10
1.916337
 20
1.30789
 30
0.0
 11
1.84113
 21
1.412003
 31
0.0
  0
LINE
  5
5B3
330
1F
100
AcDbEntity
  8
1
  6
CONTINUOUS
370
50
 62
4
100
AcDbLine
 10
34.610065
 20
0.275463
 30
0.0
 11
34.573284
 21
0.326205
 31
0.0
  0
LINE
  5
5B4
330
1F
100
AcDbEntity
  8
1
  6
CONTINUOUS
370
50
 62
4
100
AcDbLine
 10
34.637634
 20
0.237449
 30
0.0
 11
34.610065
 21
0.275463
 31
0.0
  0
LINE
  5
5B5
330
1F
100
AcDbEntity
  8
1
  6
CONTINUOUS
370
50
 62
4
100
AcDbLine
 10
0.415957
 20
1.496773
 30
0.0
 11
0.384185
 21
1.539416
 31
0.0
  0
LINE
  5
5B6
330
1F
100
AcDbEntity
  8
1
  6
CONTINUOUS
370
50
 62
4
100
AcDbLine
 10
1.84113
 20
1.412003
 30
0.0
 11
1.758133
 21
1.521654
 31
0.0
  0
LINE
  5
5B7
330
1F
100
AcDbEntity
  8
1
  6
CONTINUOUS
370
50
 62
4
100
AcDbLine
 10
1.758133
 20
1.521654
 30
0.0
 11
1.667552
 21
1.636128
 31
0.0
  0
LINE
  5
5B8
330
1F
100
AcDbEntity
  8
1
  6
CONTINUOUS
370
50
 62
4
100
AcDbLine
 10
1.667552
 20
1.636128
 30
0.0
 11
1.569591
 21
1.754706
 31
0.0
  0
LINE
  5
5B9
330
1F
100
AcDbEntity
  8
1
  6
CONTINUOUS
370
50
 62
4
100
AcDbLine
 10
0.451079
 20
1.455626
 30
0.0
 11
0.415957
 21
1.496773
 31
0.0
  0
LINE
  5
5BA
330
1F
100
AcDbEntity
  8
1
  6
CONTINUOUS
370
50
 62
4
100
AcDbLine
 10
1.569591
 20
1.754706
 30
0.0
 11
1.464457
 21
1.876671
 31
0.0
  0
LINE
  5
5BB
330
1F
100
AcDbEntity
  8
1
  6
CONTINUOUS
370
50
 62
4
100
AcDbLine
 10
1.464457
 20
1.876671
 30
0.0
 11
1.352354
 21
2.001304
 31
0.0
  0
LINE
  5
5BC
330
1F
100
AcDbEntity
  8
1
  6
CONTINUOUS
370
50
 62
4
100
AcDbLine
 10
1.352354
 20
2.001304
 30
0.0
 11
1.235024
 21
2.1262
 31
0.0
  0
LINE
  5
5BD
330
1F
100
AcDbEntity
  8
1
  6
CONTINUOUS
370
50
 62
4
100
AcDbLine
 10
0.489142
 20
1.416051
 30
0.0
 11
0.451079
 21
1.455626
 31
0.0
  0
LINE
  5
5BE
330
1F
100
AcDbEntity
  8
1
  6
CONTINUOUS
370
50
 62
4
100
AcDbLine
 10
1.235024
 20
2.1262
 30
0.0
 11
1.117374
 21
2.245797
 31
0.0
  0
LINE
  5
5BF
330
1F
100
AcDbEntity
  8
1
  6
CONTINUOUS
370
50
 62
4
100
AcDbLine
 10
1.117374
 20
2.245797
 30
0.0
 11
0.99998
 21
2.359672
 31
0.0
  0
LINE
  5
5C0
330
1F
100
AcDbEntity
  8
1
  6
CONTINUOUS
370
50
 62
4
100
AcDbLine
 10
2.127108
 20
0.421184
 30
0.0
 11
2.043
 21
0.5010209999999999
 31
0.0
  0
LINE
  5
5C1
330
1F
100
AcDbEntity
  8
1
  6
CONTINUOUS
370
50
 62
4
100
AcDbLine
 10
0.529735
 20
1.378126
 30
0.0
 11
0.489142
 21
1.416051
 31
0.0
  0
LINE
  5
5C2
330
1F
100
AcDbEntity
  8
1
  6
CONTINUOUS
370
50
 62
4
100
AcDbLine
 10
2.216716
 20
0.345178
 30
0.0
 11
2.127108
 21
0.421184
 31
0.0
  0
LINE
  5
5C3
330
1F
100
AcDbEntity
  8
1
  6
CONTINUOUS
370
50
 62
4
100
AcDbLine
 10
0.572761
 20
1.341672
 30
0.0
 11
0.529735
 21
1.378126
 31
0.0
  0
LINE
  5
5C4
330
1F
100
AcDbEntity
  8
1
  6
CONTINUOUS
370
50
 62
4
100
AcDbLine
 10
32.583427
 20
-0.096105
 30
0.0
 11
32.461433
 21
0.0
 31
0.0
  0
LINE
  5
5C5
330
1F
100
AcDbEntity
  8
1
  6
CONTINUOUS
370
50
 62
4
100
AcDbLine
 10
11.650793
 20
-0.017695
 30
0.0
 11
11.628286
 21
0.0
 31
0.0
  0
LINE
  5
5C6
330
1F
100
AcDbEntity
  8
1
  6
CONTINUOUS
370
50
 62
4
100
AcDbLine
 10
17.557005
 20
-0.017585
 30
0.0
 11
17.534636
 21
0.0
 31
0.0
  0
LINE
  5
5C7
330
1F
100
AcDbEntity
  8
1
  6
CONTINUOUS
370
50
 62
4
100
AcDbLine
 10
17.579378
 20
-0.035171
 30
0.0
 11
17.557005
 21
-0.017585
 31
0.0
  0
LINE
  5
5C8
330
1F
100
AcDbEntity
  8
1
  6
CONTINUOUS
370
50
 62
4
100
AcDbLine
 10
23.462927
 20
-0.017289
 30
0.0
 11
23.440924
 21
0.0
 31
0.0
  0
LINE
  5
5C9
330
1F
100
AcDbEntity
  8
1
  6
CONTINUOUS
370
50
 62
4
100
AcDbLine
 10
17.601759
 20
-0.052756
 30
0.0
 11
17.579378
 21
-0.035171
 31
0.0
  0
LINE
  5
5CA
330
1F
100
AcDbEntity
  8
1
  6
CONTINUOUS
370
50
 62
4
100
AcDbLine
 10
23.48494
 20
-0.034581
 30
0.0
 11
23.462927
 21
-0.017289
 31
0.0
  0
LINE
  5
5CB
330
1F
100
AcDbEntity
  8
1
  6
CONTINUOUS
370
50
 62
4
100
AcDbLine
 10
26.67757
 20
-0.096185
 30
0.0
 11
26.55512
 21
0.0
 31
0.0
  0
LINE
  5
5CC
330
1F
100
AcDbEntity
  8
1
  6
CONTINUOUS
370
50
 62
4
100
AcDbLine
 10
17.624134
 20
-0.070329
 30
0.0
 11
17.601759
 21
-0.052756
 31
0.0
  0
LINE
  5
5CD
330
1F
100
AcDbEntity
  8
1
  6
CONTINUOUS
370
50
 62
4
100
AcDbLine
 10
8.83334
 20
0.0
 30
0.0
 11
8.632990999999999
 21
0.15734
 31
0.0
  0
LINE
  5
5CE
330
1F
100
AcDbEntity
  8
1
  6
CONTINUOUS
370
50
 62
4
100
AcDbLine
 10
11.673312
 20
-0.035379
 30
0.0
 11
11.650793
 21
-0.017695
 31
0.0
  0
LINE
  5
5CF
330
1F
100
AcDbEntity
  8
1
  6
CONTINUOUS
370
50
 62
4
100
AcDbLine
 10
11.695836
 20
-0.053065
 30
0.0
 11
11.673312
 21
-0.035379
 31
0.0
  0
LINE
  5
5D0
330
1F
100
AcDbEntity
  8
1
  6
CONTINUOUS
370
50
 62
4
100
AcDbLine
 10
23.506956
 20
-0.051865
 30
0.0
 11
23.48494
 21
-0.034581
 31
0.0
  0
LINE
  5
5D1
330
1F
100
AcDbEntity
  8
1
  6
CONTINUOUS
370
50
 62
4
100
AcDbLine
 10
11.718365
 20
-0.07075
 30
0.0
 11
11.695836
 21
-0.053065
 31
0.0
  0
LINE
  5
5D2
330
1F
100
AcDbEntity
  8
1
  6
CONTINUOUS
370
50
 62
4
100
AcDbLine
 10
23.440924
 20
0.0
 30
0.0
 11
23.267464
 21
0.136139
 31
0.0
  0
LINE
  5
5D3
330
1F
100
AcDbEntity
  8
1
  6
CONTINUOUS
370
50
 62
4
100
AcDbLine
 10
17.646505
 20
-0.087885
 30
0.0
 11
17.624134
 21
-0.070329
 31
0.0
  0
LINE
  5
5D4
330
1F
100
AcDbEntity
  8
1
  6
CONTINUOUS
370
50
 62
4
100
AcDbLine
 10
32.705166
 20
-0.191641
 30
0.0
 11
32.583427
 21
-0.096105
 31
0.0
  0
LINE
  5
5D5
330
1F
100
AcDbEntity
  8
1
  6
CONTINUOUS
370
50
 62
4
100
AcDbLine
 10
11.740899
 20
-0.088433
 30
0.0
 11
11.718365
 21
-0.07075
 31
0.0
  0
LINE
  5
5D6
330
1F
100
AcDbEntity
  8
1
  6
CONTINUOUS
370
50
 62
4
100
AcDbLine
 10
26.799715
 20
-0.192006
 30
0.0
 11
26.67757
 21
-0.096185
 31
0.0
  0
LINE
  5
5D7
330
1F
100
AcDbEntity
  8
1
  6
CONTINUOUS
370
50
 62
4
100
AcDbLine
 10
17.534636
 20
0.0
 30
0.0
 11
17.350084
 21
0.144758
 31
0.0
  0
LINE
  5
5D8
330
1F
100
AcDbEntity
  8
1
  6
CONTINUOUS
370
50
 62
4
100
AcDbLine
 10
23.52898
 20
-0.06914
 30
0.0
 11
23.506956
 21
-0.051865
 31
0.0
  0
LINE
  5
5D9
330
1F
100
AcDbEntity
  8
1
  6
CONTINUOUS
370
50
 62
4
100
AcDbLine
 10
11.76344
 20
-0.106112
 30
0.0
 11
11.740899
 21
-0.088433
 31
0.0
  0
LINE
  5
5DA
330
1F
100
AcDbEntity
  8
1
  6
CONTINUOUS
370
50
 62
4
100
AcDbLine
 10
5.765987
 20
-0.035027
 30
0.0
 11
5.743656
 21
-0.017513
 31
0.0
  0
LINE
  5
5DB
330
1F
100
AcDbEntity
  8
1
  6
CONTINUOUS
370
50
 62
4
100
AcDbLine
 10
29.347404
 20
0.0
 30
0.0
 11
29.17214
 21
0.137453
 31
0.0
  0
LINE
  5
5DC
330
1F
100
AcDbEntity
  8
1
  6
CONTINUOUS
370
50
 62
4
100
AcDbLine
 10
5.743656
 20
-0.017513
 30
0.0
 11
5.721323
 21
0.0
 31
0.0
  0
LINE
  5
5DD
330
1F
100
AcDbEntity
  8
1
  6
CONTINUOUS
370
50
 62
4
100
AcDbLine
 10
17.668873
 20
-0.105423
 30
0.0
 11
17.646505
 21
-0.087885
 31
0.0
  0
LINE
  5
5DE
330
1F
100
AcDbEntity
  8
1
  6
CONTINUOUS
370
50
 62
4
100
AcDbLine
 10
5.78832
 20
-0.052537
 30
0.0
 11
5.765987
 21
-0.035027
 31
0.0
  0
LINE
  5
5DF
330
1F
100
AcDbEntity
  8
1
  6
CONTINUOUS
370
50
 62
4
100
AcDbLine
 10
32.461433
 20
0.0
 30
0.0
 11
32.279045
 21
0.142993
 31
0.0
  0
LINE
  5
5E0
330
1F
100
AcDbEntity
  8
1
  6
CONTINUOUS
370
50
 62
4
100
AcDbLine
 10
29.391233
 20
-0.034324
 30
0.0
 11
29.369324
 21
-0.017151
 31
0.0
  0
LINE
  5
5E1
330
1F
100
AcDbEntity
  8
1
  6
CONTINUOUS
370
50
 62
4
100
AcDbLine
 10
5.810654
 20
-0.070042
 30
0.0
 11
5.78832
 21
-0.052537
 31
0.0
  0
LINE
  5
5E2
330
1F
100
AcDbEntity
  8
1
  6
CONTINUOUS
370
50
 62
4
100
AcDbLine
 10
5.721323
 20
0.0
 30
0.0
 11
5.590883
 21
0.102236
 31
0.0
  0
LINE
  5
5E3
330
1F
100
AcDbEntity
  8
1
  6
CONTINUOUS
370
50
 62
4
100
AcDbLine
 10
23.551014
 20
-0.086403
 30
0.0
 11
23.52898
 21
-0.06914
 31
0.0
  0
LINE
  5
5E4
330
1F
100
AcDbEntity
  8
1
  6
CONTINUOUS
370
50
 62
4
100
AcDbLine
 10
29.413153
 20
-0.051495
 30
0.0
 11
29.391233
 21
-0.034324
 31
0.0
  0
LINE
  5
5E5
330
1F
100
AcDbEntity
  8
1
  6
CONTINUOUS
370
50
 62
4
100
AcDbLine
 10
5.832991
 20
-0.087539
 30
0.0
 11
5.810654
 21
-0.070042
 31
0.0
  0
LINE
  5
5E6
330
1F
100
AcDbEntity
  8
1
  6
CONTINUOUS
370
50
 62
4
100
AcDbLine
 10
11.628286
 20
0.0
 30
0.0
 11
11.443894
 21
0.144416
 31
0.0
  0
LINE
  5
5E7
330
1F
100
AcDbEntity
  8
1
  6
CONTINUOUS
370
50
 62
4
100
AcDbLine
 10
5.855329999999999
 20
-0.105027
 30
0.0
 11
5.832991
 21
-0.087539
 31
0.0
  0
LINE
  5
5E8
330
1F
100
AcDbEntity
  8
1
  6
CONTINUOUS
370
50
 62
4
100
AcDbLine
 10
29.435085
 20
-0.068662
 30
0.0
 11
29.413153
 21
-0.051495
 31
0.0
  0
LINE
  5
5E9
330
1F
100
AcDbEntity
  8
1
  6
CONTINUOUS
370
50
 62
4
100
AcDbLine
 10
23.573053
 20
-0.10365
 30
0.0
 11
23.551014
 21
-0.086403
 31
0.0
  0
LINE
  5
5EA
330
1F
100
AcDbEntity
  8
1
  6
CONTINUOUS
370
50
 62
4
100
AcDbLine
 10
29.369324
 20
-0.017151
 30
0.0
 11
29.347404
 21
0.0
 31
0.0
  0
LINE
  5
5EB
330
1F
100
AcDbEntity
  8
1
  6
CONTINUOUS
370
50
 62
4
100
AcDbLine
 10
8.955726
 20
-0.095723
 30
0.0
 11
8.83334
 21
0.0
 31
0.0
  0
LINE
  5
5EC
330
1F
100
AcDbEntity
  8
1
  6
CONTINUOUS
370
50
 62
4
100
AcDbLine
 10
14.740267
 20
0.0
 30
0.0
 11
14.55792
 21
0.14261
 31
0.0
  0
LINE
  5
5ED
330
1F
100
AcDbEntity
  8
1
  6
CONTINUOUS
370
50
 62
4
100
AcDbLine
 10
29.457031
 20
-0.085822
 30
0.0
 11
29.435085
 21
-0.068662
 31
0.0
  0
LINE
  5
5EE
330
1F
100
AcDbEntity
  8
1
  6
CONTINUOUS
370
50
 62
4
100
AcDbLine
 10
20.892771
 20
-0.191203
 30
0.0
 11
20.770691
 21
-0.095771
 31
0.0
  0
LINE
  5
5EF
330
1F
100
AcDbEntity
  8
1
  6
CONTINUOUS
370
50
 62
4
100
AcDbLine
 10
29.478979
 20
-0.102969
 30
0.0
 11
29.457031
 21
-0.085822
 31
0.0
  0
LINE
  5
5F0
330
1F
100
AcDbEntity
  8
1
  6
CONTINUOUS
370
50
 62
4
100
AcDbLine
 10
26.55512
 20
0.0
 30
0.0
 11
26.37537
 21
0.140335
 31
0.0
  0
LINE
  5
5F1
330
1F
100
AcDbEntity
  8
1
  6
CONTINUOUS
370
50
 62
4
100
AcDbLine
 10
2.309542
 20
0.272711
 30
0.0
 11
2.216716
 21
0.345178
 31
0.0
  0
LINE
  5
5F2
330
1F
100
AcDbEntity
  8
1
  6
CONTINUOUS
370
50
 62
4
100
AcDbLine
 10
20.770691
 20
-0.095771
 30
0.0
 11
20.647966
 21
0.0
 31
0.0
  0
LINE
  5
5F3
330
1F
100
AcDbEntity
  8
1
  6
CONTINUOUS
370
50
 62
4
100
AcDbLine
 10
11.939347
 20
-0.243315
 30
0.0
 11
11.76344
 21
-0.106112
 31
0.0
  0
LINE
  5
5F4
330
1F
100
AcDbEntity
  8
1
  6
CONTINUOUS
370
50
 62
4
100
AcDbLine
 10
5.590883
 20
0.102236
 30
0.0
 11
5.460437
 21
0.203963
 31
0.0
  0
LINE
  5
5F5
330
1F
100
AcDbEntity
  8
1
  6
CONTINUOUS
370
50
 62
4
100
AcDbLine
 10
17.844984
 20
-0.242614
 30
0.0
 11
17.668873
 21
-0.105423
 31
0.0
  0
LINE
  5
5F6
330
1F
100
AcDbEntity
  8
1
  6
CONTINUOUS
370
50
 62
4
100
AcDbLine
 10
6.032584
 20
-0.243104
 30
0.0
 11
5.855329999999999
 21
-0.105027
 31
0.0
  0
LINE
  5
5F7
330
1F
100
AcDbEntity
  8
1
  6
CONTINUOUS
370
50
 62
4
100
AcDbLine
 10
14.55792
 20
0.14261
 30
0.0
 11
14.376012
 21
0.284286
 31
0.0
  0
LINE
  5
5F8
330
1F
100
AcDbEntity
  8
1
  6
CONTINUOUS
370
50
 62
4
100
AcDbLine
 10
14.863033
 20
-0.095572
 30
0.0
 11
14.740267
 21
0.0
 31
0.0
  0
LINE
  5
5F9
330
1F
100
AcDbEntity
  8
1
  6
CONTINUOUS
370
50
 62
4
100
AcDbLine
 10
26.921822
 20
-0.287026
 30
0.0
 11
26.799715
 21
-0.192006
 31
0.0
  0
LINE
  5
5FA
330
1F
100
AcDbEntity
  8
1
  6
CONTINUOUS
370
50
 62
4
100
AcDbLine
 10
8.632990999999999
 20
0.15734
 30
0.0
 11
8.432475
 21
0.313359
 31
0.0
  0
LINE
  5
5FB
330
1F
100
AcDbEntity
  8
1
  6
CONTINUOUS
370
50
 62
4
100
AcDbLine
 10
29.631081
 20
-0.221306
 30
0.0
 11
29.478979
 21
-0.102969
 31
0.0
  0
LINE
  5
5FC
330
1F
100
AcDbEntity
  8
1
  6
CONTINUOUS
370
50
 62
4
100
AcDbLine
 10
29.17214
 20
0.137453
 30
0.0
 11
28.996723
 21
0.273922
 31
0.0
  0
LINE
  5
5FD
330
1F
100
AcDbEntity
  8
1
  6
CONTINUOUS
370
50
 62
4
100
AcDbLine
 10
23.267464
 20
0.136139
 30
0.0
 11
23.094042
 21
0.271017
 31
0.0
  0
LINE
  5
5FE
330
1F
100
AcDbEntity
  8
1
  6
CONTINUOUS
370
50
 62
4
100
AcDbLine
 10
20.647966
 20
0.0
 30
0.0
 11
20.45076
 21
0.153375
 31
0.0
  0
LINE
  5
5FF
330
1F
100
AcDbEntity
  8
1
  6
CONTINUOUS
370
50
 62
4
100
AcDbLine
 10
21.014647
 20
-0.285988
 30
0.0
 11
20.892771
 21
-0.191203
 31
0.0
  0
LINE
  5
600
330
1F
100
AcDbEntity
  8
1
  6
CONTINUOUS
370
50
 62
4
100
AcDbLine
 10
23.749622
 20
-0.240927
 30
0.0
 11
23.573053
 21
-0.10365
 31
0.0
  0
LINE
  5
601
330
1F
100
AcDbEntity
  8
1
  6
CONTINUOUS
370
50
 62
4
100
AcDbLine
 10
32.827034
 20
-0.286313
 30
0.0
 11
32.705166
 21
-0.191641
 31
0.0
  0
LINE
  5
602
330
1F
100
AcDbEntity
  8
1
  6
CONTINUOUS
370
50
 62
4
100
AcDbLine
 10
14.986078
 20
-0.191055
 30
0.0
 11
14.863033
 21
-0.095572
 31
0.0
  0
LINE
  5
603
330
1F
100
AcDbEntity
  8
1
  6
CONTINUOUS
370
50
 62
4
100
AcDbLine
 10
17.350084
 20
0.144758
 30
0.0
 11
17.165279
 21
0.288044
 31
0.0
  0
LINE
  5
604
330
1F
100
AcDbEntity
  8
1
  6
CONTINUOUS
370
50
 62
4
100
AcDbLine
 10
9.078733999999999
 20
-0.191091
 30
0.0
 11
8.955726
 21
-0.095723
 31
0.0
  0
LINE
  5
605
330
1F
100
AcDbEntity
  8
1
  6
CONTINUOUS
370
50
 62
4
100
AcDbLine
 10
20.45076
 20
0.153375
 30
0.0
 11
20.254087
 21
0.305802
 31
0.0
  0
LINE
  5
606
330
1F
100
AcDbEntity
  8
1
  6
CONTINUOUS
370
50
 62
4
100
AcDbLine
 10
11.443894
 20
0.144416
 30
0.0
 11
11.259223
 21
0.287457
 31
0.0
  0
LINE
  5
607
330
1F
100
AcDbEntity
  8
1
  6
CONTINUOUS
370
50
 62
4
100
AcDbLine
 10
15.108757
 20
-0.286042
 30
0.0
 11
14.986078
 21
-0.191055
 31
0.0
  0
LINE
  5
608
330
1F
100
AcDbEntity
  8
1
  6
CONTINUOUS
370
50
 62
4
100
AcDbLine
 10
0.618696
 20
1.306155
 30
0.0
 11
0.572761
 21
1.341672
 31
0.0
  0
LINE
  5
609
330
1F
100
AcDbEntity
  8
1
  6
CONTINUOUS
370
50
 62
4
100
AcDbLine
 10
32.279045
 20
0.142993
 30
0.0
 11
32.096252
 21
0.284277
 31
0.0
  0
LINE
  5
60A
330
1F
100
AcDbEntity
  8
1
  6
CONTINUOUS
370
50
 62
4
100
AcDbLine
 10
26.37537
 20
0.140335
 30
0.0
 11
26.195526
 21
0.279307
 31
0.0
  0
LINE
  5
60B
330
1F
100
AcDbEntity
  8
1
  6
CONTINUOUS
370
50
 62
4
100
AcDbLine
 10
5.460437
 20
0.203963
 30
0.0
 11
5.330009
 21
0.304704
 31
0.0
  0
LINE
  5
60C
330
1F
100
AcDbEntity
  8
1
  6
CONTINUOUS
370
50
 62
4
100
AcDbLine
 10
29.783134
 20
-0.338275
 30
0.0
 11
29.631081
 21
-0.221306
 31
0.0
  0
LINE
  5
60D
330
1F
100
AcDbEntity
  8
1
  6
CONTINUOUS
370
50
 62
4
100
AcDbLine
 10
9.202060999999999
 20
-0.285922
 30
0.0
 11
9.078733999999999
 21
-0.191091
 31
0.0
  0
LINE
  5
60E
330
1F
100
AcDbEntity
  8
1
  6
CONTINUOUS
370
50
 62
4
100
AcDbLine
 10
21.136757
 20
-0.379816
 30
0.0
 11
21.014647
 21
-0.285988
 31
0.0
  0
LINE
  5
60F
330
1F
100
AcDbEntity
  8
1
  6
CONTINUOUS
370
50
 62
4
100
AcDbLine
 10
15.231043
 20
-0.379899
 30
0.0
 11
15.108757
 21
-0.286042
 31
0.0
  0
LINE
  5
610
330
1F
100
AcDbEntity
  8
1
  6
CONTINUOUS
370
50
 62
4
100
AcDbLine
 10
6.209857
 20
-0.379058
 30
0.0
 11
6.032584
 21
-0.243104
 31
0.0
  0
LINE
  5
611
330
1F
100
AcDbEntity
  8
1
  6
CONTINUOUS
370
50
 62
4
100
AcDbLine
 10
27.044106
 20
-0.380784
 30
0.0
 11
26.921822
 21
-0.287026
 31
0.0
  0
LINE
  5
612
330
1F
100
AcDbEntity
  8
1
  6
CONTINUOUS
370
50
 62
4
100
AcDbLine
 10
12.115355
 20
-0.378216
 30
0.0
 11
11.939347
 21
-0.243315
 31
0.0
  0
LINE
  5
613
330
1F
100
AcDbEntity
  8
1
  6
CONTINUOUS
370
50
 62
4
100
AcDbLine
 10
23.926016
 20
-0.375981
 30
0.0
 11
23.749622
 21
-0.240927
 31
0.0
  0
LINE
  5
614
330
1F
100
AcDbEntity
  8
1
  6
CONTINUOUS
370
50
 62
4
100
AcDbLine
 10
4.535856
 20
0.494241
 30
0.0
 11
4.2732
 21
0.695322
 31
0.0
  0
LINE
  5
615
330
1F
100
AcDbEntity
  8
1
  6
CONTINUOUS
370
50
 62
4
100
AcDbLine
 10
14.376012
 20
0.284286
 30
0.0
 11
14.193986
 21
0.423583
 31
0.0
  0
LINE
  5
616
330
1F
100
AcDbEntity
  8
1
  6
CONTINUOUS
370
50
 62
4
100
AcDbLine
 10
18.0214
 20
-0.377607
 30
0.0
 11
17.844984
 21
-0.242614
 31
0.0
  0
LINE
  5
617
330
1F
100
AcDbEntity
  8
1
  6
CONTINUOUS
370
50
 62
4
100
AcDbLine
 10
32.949409
 20
-0.379826
 30
0.0
 11
32.827034
 21
-0.286313
 31
0.0
  0
LINE
  5
618
330
1F
100
AcDbEntity
  8
1
  6
CONTINUOUS
370
50
 62
4
100
AcDbLine
 10
9.325004999999999
 20
-0.379846
 30
0.0
 11
9.202060999999999
 21
-0.285922
 31
0.0
  0
LINE
  5
619
330
1F
100
AcDbEntity
  8
1
  6
CONTINUOUS
370
50
 62
4
100
AcDbLine
 10
28.996723
 20
0.273922
 30
0.0
 11
28.821199
 21
0.407949
 31
0.0
  0
LINE
  5
61A
330
1F
100
AcDbEntity
  8
1
  6
CONTINUOUS
370
50
 62
4
100
AcDbLine
 10
23.094042
 20
0.271017
 30
0.0
 11
22.920143
 21
0.4037
 31
0.0
  0
LINE
  5
61B
330
1F
100
AcDbEntity
  8
1
  6
CONTINUOUS
370
50
 62
4
100
AcDbLine
 10
5.330009
 20
0.304704
 30
0.0
 11
5.199558
 21
0.404074
 31
0.0
  0
LINE
  5
61C
330
1F
100
AcDbEntity
  8
1
  6
CONTINUOUS
370
50
 62
4
100
AcDbLine
 10
20.254087
 20
0.305802
 30
0.0
 11
20.058115
 21
0.455024
 31
0.0
  0
LINE
  5
61D
330
1F
100
AcDbEntity
  8
1
  6
CONTINUOUS
370
50
 62
4
100
AcDbLine
 10
26.195526
 20
0.279307
 30
0.0
 11
26.015924
 21
0.41597
 31
0.0
  0
LINE
  5
61E
330
1F
100
AcDbEntity
  8
1
  6
CONTINUOUS
370
50
 62
4
100
AcDbLine
 10
11.259223
 20
0.287457
 30
0.0
 11
11.074324
 21
0.42786
 31
0.0
  0
LINE
  5
61F
330
1F
100
AcDbEntity
  8
1
  6
CONTINUOUS
370
50
 62
4
100
AcDbLine
 10
17.165279
 20
0.288044
 30
0.0
 11
16.980404
 21
0.428401
 31
0.0
  0
LINE
  5
620
330
1F
100
AcDbEntity
  8
1
  6
CONTINUOUS
370
50
 62
4
100
AcDbLine
 10
32.096252
 20
0.284277
 30
0.0
 11
31.913439
 21
0.422876
 31
0.0
  0
LINE
  5
621
330
1F
100
AcDbEntity
  8
1
  6
CONTINUOUS
370
50
 62
4
100
AcDbLine
 10
8.432475
 20
0.313359
 30
0.0
 11
8.231519
 21
0.465457
 31
0.0
  0
LINE
  5
622
330
1F
100
AcDbEntity
  8
1
  6
CONTINUOUS
370
50
 62
4
100
AcDbLine
 10
29.935062
 20
-0.453145
 30
0.0
 11
29.783134
 21
-0.338275
 31
0.0
  0
LINE
  5
623
330
1F
100
AcDbEntity
  8
1
  6
CONTINUOUS
370
50
 62
4
100
AcDbLine
 10
15.353366
 20
-0.472258
 30
0.0
 11
15.231043
 21
-0.379899
 31
0.0
  0
LINE
  5
624
330
1F
100
AcDbEntity
  8
1
  6
CONTINUOUS
370
50
 62
4
100
AcDbLine
 10
9.447581999999999
 20
-0.472275
 30
0.0
 11
9.325004999999999
 21
-0.379846
 31
0.0
  0
LINE
  5
625
330
1F
100
AcDbEntity
  8
1
  6
CONTINUOUS
370
50
 62
4
100
AcDbLine
 10
21.259377
 20
-0.472253
 30
0.0
 11
21.136757
 21
-0.379816
 31
0.0
  0
LINE
  5
626
330
1F
100
AcDbEntity
  8
1
  6
CONTINUOUS
370
50
 62
4
100
AcDbLine
 10
27.166414
 20
-0.472613
 30
0.0
 11
27.044106
 21
-0.380784
 31
0.0
  0
LINE
  5
627
330
1F
100
AcDbEntity
  8
1
  6
CONTINUOUS
370
50
 62
4
100
AcDbLine
 10
24.102018
 20
-0.5076539999999999
 30
0.0
 11
23.926016
 21
-0.375981
 31
0.0
  0
LINE
  5
628
330
1F
100
AcDbEntity
  8
1
  6
CONTINUOUS
370
50
 62
4
100
AcDbLine
 10
5.199558
 20
0.404074
 30
0.0
 11
5.069224
 21
0.501575
 31
0.0
  0
LINE
  5
629
330
1F
100
AcDbEntity
  8
1
  6
CONTINUOUS
370
50
 62
4
100
AcDbLine
 10
33.072361
 20
-0.471797
 30
0.0
 11
32.949409
 21
-0.379826
 31
0.0
  0
LINE
  5
62A
330
1F
100
AcDbEntity
  8
1
  6
CONTINUOUS
370
50
 62
4
100
AcDbLine
 10
18.197792
 20
-0.509323
 30
0.0
 11
18.0214
 21
-0.377607
 31
0.0
  0
LINE
  5
62B
330
1F
100
AcDbEntity
  8
1
  6
CONTINUOUS
370
50
 62
4
100
AcDbLine
 10
6.387343
 20
-0.5115609999999999
 30
0.0
 11
6.209857
 21
-0.379058
 31
0.0
  0
LINE
  5
62C
330
1F
100
AcDbEntity
  8
1
  6
CONTINUOUS
370
50
 62
4
100
AcDbLine
 10
12.291692
 20
-0.509807
 30
0.0
 11
12.115355
 21
-0.378216
 31
0.0
  0
LINE
  5
62D
330
1F
100
AcDbEntity
  8
1
  6
CONTINUOUS
370
50
 62
4
100
AcDbLine
 10
26.015924
 20
0.41597
 30
0.0
 11
25.836905
 21
0.549217
 31
0.0
  0
LINE
  5
62E
330
1F
100
AcDbEntity
  8
1
  6
CONTINUOUS
370
50
 62
4
100
AcDbLine
 10
22.920143
 20
0.4037
 30
0.0
 11
22.746111
 21
0.5328499999999999
 31
0.0
  0
LINE
  5
62F
330
1F
100
AcDbEntity
  8
1
  6
CONTINUOUS
370
50
 62
4
100
AcDbLine
 10
28.821199
 20
0.407949
 30
0.0
 11
28.645479
 21
0.538314
 31
0.0
  0
LINE
  5
630
330
1F
100
AcDbEntity
  8
1
  6
CONTINUOUS
370
50
 62
4
100
AcDbLine
 10
14.193986
 20
0.423583
 30
0.0
 11
14.011612
 21
0.558573
 31
0.0
  0
LINE
  5
631
330
1F
100
AcDbEntity
  8
1
  6
CONTINUOUS
370
50
 62
4
100
AcDbLine
 10
31.913439
 20
0.422876
 30
0.0
 11
31.730986
 21
0.557831
 31
0.0
  0
LINE
  5
632
330
1F
100
AcDbEntity
  8
1
  6
CONTINUOUS
370
50
 62
4
100
AcDbLine
 10
11.074324
 20
0.42786
 30
0.0
 11
10.889784
 21
0.564253
 31
0.0
  0
LINE
  5
633
330
1F
100
AcDbEntity
  8
1
  6
CONTINUOUS
370
50
 62
4
100
AcDbLine
 10
9.570191999999999
 20
-0.5628219999999999
 30
0.0
 11
9.447581999999999
 21
-0.472275
 31
0.0
  0
LINE
  5
634
330
1F
100
AcDbEntity
  8
1
  6
CONTINUOUS
370
50
 62
4
100
AcDbLine
 10
16.980404
 20
0.428401
 30
0.0
 11
16.7957
 21
0.564642
 31
0.0
  0
LINE
  5
635
330
1F
100
AcDbEntity
  8
1
  6
CONTINUOUS
370
50
 62
4
100
AcDbLine
 10
15.475707
 20
-0.562483
 30
0.0
 11
15.353366
 21
-0.472258
 31
0.0
  0
LINE
  5
636
330
1F
100
AcDbEntity
  8
1
  6
CONTINUOUS
370
50
 62
4
100
AcDbLine
 10
30.086884
 20
-0.565097
 30
0.0
 11
29.935062
 21
-0.453145
 31
0.0
  0
LINE
  5
637
330
1F
100
AcDbEntity
  8
1
  6
CONTINUOUS
370
50
 62
4
100
AcDbLine
 10
20.058115
 20
0.455024
 30
0.0
 11
19.862713
 21
0.5986779999999999
 31
0.0
  0
LINE
  5
638
330
1F
100
AcDbEntity
  8
1
  6
CONTINUOUS
370
50
 62
4
100
AcDbLine
 10
21.382061
 20
-0.562403
 30
0.0
 11
21.259377
 21
-0.472253
 31
0.0
  0
LINE
  5
639
330
1F
100
AcDbEntity
  8
1
  6
CONTINUOUS
370
50
 62
4
100
AcDbLine
 10
2.406459
 20
0.201684
 30
0.0
 11
2.309542
 21
0.272711
 31
0.0
  0
LINE
  5
63A
330
1F
100
AcDbEntity
  8
1
  6
CONTINUOUS
370
50
 62
4
100
AcDbLine
 10
27.289009
 20
-0.5622349999999999
 30
0.0
 11
27.166414
 21
-0.472613
 31
0.0
  0
LINE
  5
63B
330
1F
100
AcDbEntity
  8
1
  6
CONTINUOUS
370
50
 62
4
100
AcDbLine
 10
33.195518
 20
-0.561819
 30
0.0
 11
33.072361
 21
-0.471797
 31
0.0
  0
LINE
  5
63C
330
1F
100
AcDbEntity
  8
1
  6
CONTINUOUS
370
50
 62
4
100
AcDbLine
 10
5.069224
 20
0.501575
 30
0.0
 11
4.938397999999999
 21
0.596718
 31
0.0
  0
LINE
  5
63D
330
1F
100
AcDbEntity
  8
1
  6
CONTINUOUS
370
50
 62
4
100
AcDbLine
 10
8.231519
 20
0.465457
 30
0.0
 11
8.029961
 21
0.611552
 31
0.0
  0
LINE
  5
63E
330
1F
100
AcDbEntity
  8
1
  6
CONTINUOUS
370
50
 62
4
100
AcDbLine
 10
24.278049
 20
-0.635066
 30
0.0
 11
24.102018
 21
-0.5076539999999999
 31
0.0
  0
LINE
  5
63F
330
1F
100
AcDbEntity
  8
1
  6
CONTINUOUS
370
50
 62
4
100
AcDbLine
 10
18.373856
 20
-0.636591
 30
0.0
 11
18.197792
 21
-0.509323
 31
0.0
  0
LINE
  5
640
330
1F
100
AcDbEntity
  8
1
  6
CONTINUOUS
370
50
 62
4
100
AcDbLine
 10
12.467967
 20
-0.636994
 30
0.0
 11
12.291692
 21
-0.509807
 31
0.0
  0
LINE
  5
641
330
1F
100
AcDbEntity
  8
1
  6
CONTINUOUS
370
50
 62
4
100
AcDbLine
 10
6.564881
 20
-0.639492
 30
0.0
 11
6.387343
 21
-0.5115609999999999
 31
0.0
  0
LINE
  5
642
330
1F
100
AcDbEntity
  8
1
  6
CONTINUOUS
370
50
 62
4
100
AcDbLine
 10
22.746111
 20
0.5328499999999999
 30
0.0
 11
22.572191
 21
0.657484
 31
0.0
  0
LINE
  5
643
330
1F
100
AcDbEntity
  8
1
  6
CONTINUOUS
370
50
 62
4
100
AcDbLine
 10
25.836905
 20
0.549217
 30
0.0
 11
25.658045
 21
0.6773089999999999
 31
0.0
  0
LINE
  5
644
330
1F
100
AcDbEntity
  8
1
  6
CONTINUOUS
370
50
 62
4
100
AcDbLine
 10
31.730986
 20
0.557831
 30
0.0
 11
31.549156
 21
0.6877559999999999
 31
0.0
  0
LINE
  5
645
330
1F
100
AcDbEntity
  8
1
  6
CONTINUOUS
370
50
 62
4
100
AcDbLine
 10
28.645479
 20
0.538314
 30
0.0
 11
28.469715
 21
0.6639039999999999
 31
0.0
  0
LINE
  5
646
330
1F
100
AcDbEntity
  8
1
  6
CONTINUOUS
370
50
 62
4
100
AcDbLine
 10
30.238766
 20
-0.673357
 30
0.0
 11
30.086884
 21
-0.565097
 31
0.0
  0
LINE
  5
647
330
1F
100
AcDbEntity
  8
1
  6
CONTINUOUS
370
50
 62
4
100
AcDbLine
 10
10.889784
 20
0.564253
 30
0.0
 11
10.705707
 21
0.6949949999999999
 31
0.0
  0
LINE
  5
648
330
1F
100
AcDbEntity
  8
1
  6
CONTINUOUS
370
50
 62
4
100
AcDbLine
 10
9.774481
 20
-0.707836
 30
0.0
 11
9.570191999999999
 21
-0.5628219999999999
 31
0.0
  0
LINE
  5
649
330
1F
100
AcDbEntity
  8
1
  6
CONTINUOUS
370
50
 62
4
100
AcDbLine
 10
16.7957
 20
0.564642
 30
0.0
 11
16.611305
 21
0.6955239999999999
 31
0.0
  0
LINE
  5
64A
330
1F
100
AcDbEntity
  8
1
  6
CONTINUOUS
370
50
 62
4
100
AcDbLine
 10
0.667453
 20
1.271607
 30
0.0
 11
0.618696
 21
1.306155
 31
0.0
  0
LINE
  5
64B
330
1F
100
AcDbEntity
  8
1
  6
CONTINUOUS
370
50
 62
4
100
AcDbLine
 10
15.678013
 20
-0.705608
 30
0.0
 11
15.475707
 21
-0.562483
 31
0.0
  0
LINE
  5
64C
330
1F
100
AcDbEntity
  8
1
  6
CONTINUOUS
370
50
 62
4
100
AcDbLine
 10
33.388844
 20
-0.6985669999999999
 30
0.0
 11
33.195518
 21
-0.561819
 31
0.0
  0
LINE
  5
64D
330
1F
100
AcDbEntity
  8
1
  6
CONTINUOUS
370
50
 62
4
100
AcDbLine
 10
14.011612
 20
0.558573
 30
0.0
 11
13.828517
 21
0.68777
 31
0.0
  0
LINE
  5
64E
330
1F
100
AcDbEntity
  8
1
  6
CONTINUOUS
370
50
 62
4
100
AcDbLine
 10
21.577785
 20
-0.700274
 30
0.0
 11
21.382061
 21
-0.562403
 31
0.0
  0
LINE
  5
64F
330
1F
100
AcDbEntity
  8
1
  6
CONTINUOUS
370
50
 62
4
100
AcDbLine
 10
27.477932
 20
-0.695276
 30
0.0
 11
27.289009
 21
-0.5622349999999999
 31
0.0
  0
LINE
  5
650
330
1F
100
AcDbEntity
  8
1
  6
CONTINUOUS
370
50
 62
4
100
AcDbLine
 10
4.938397999999999
 20
0.596718
 30
0.0
 11
4.806738999999999
 21
0.688997
 31
0.0
  0
LINE
  5
651
330
1F
100
AcDbEntity
  8
1
  6
CONTINUOUS
370
50
 62
4
100
AcDbLine
 10
1.196671
 20
0.9559179999999999
 30
0.0
 11
1.1003
 21
1.023263
 31
0.0
  0
LINE
  5
652
330
1F
100
AcDbEntity
  8
1
  6
CONTINUOUS
370
50
 62
4
100
AcDbLine
 10
1.1003
 20
1.023263
 30
0.0
 11
0.9999899999999999
 21
1.093316
 31
0.0
  0
LINE
  5
653
330
1F
100
AcDbEntity
  8
1
  6
CONTINUOUS
370
50
 62
4
100
AcDbLine
 10
2.505819
 20
0.132365
 30
0.0
 11
2.406459
 21
0.201684
 31
0.0
  0
LINE
  5
654
330
1F
100
AcDbEntity
  8
1
  6
CONTINUOUS
370
50
 62
4
100
AcDbLine
 10
19.862713
 20
0.5986779999999999
 30
0.0
 11
19.666088
 21
0.7356199999999999
 31
0.0
  0
LINE
  5
655
330
1F
100
AcDbEntity
  8
1
  6
CONTINUOUS
370
50
 62
4
100
AcDbLine
 10
8.029961
 20
0.611552
 30
0.0
 11
7.829810999999999
 21
0.750455
 31
0.0
  0
LINE
  5
656
330
1F
100
AcDbEntity
  8
1
  6
CONTINUOUS
370
50
 62
4
100
AcDbLine
 10
1.28906
 20
0.891813
 30
0.0
 11
1.196671
 21
0.9559179999999999
 31
0.0
  0
LINE
  5
657
330
1F
100
AcDbEntity
  8
1
  6
CONTINUOUS
370
50
 62
4
100
AcDbLine
 10
24.454252
 20
-0.757061
 30
0.0
 11
24.278049
 21
-0.635066
 31
0.0
  0
LINE
  5
658
330
1F
100
AcDbEntity
  8
1
  6
CONTINUOUS
370
50
 62
4
100
AcDbLine
 10
18.549635
 20
-0.7582369999999999
 30
0.0
 11
18.373856
 21
-0.636591
 31
0.0
  0
LINE
  5
659
330
1F
100
AcDbEntity
  8
1
  6
CONTINUOUS
370
50
 62
4
100
AcDbLine
 10
12.644059
 20
-0.758709
 30
0.0
 11
12.467967
 21
-0.636994
 31
0.0
  0
LINE
  5
65A
330
1F
100
AcDbEntity
  8
1
  6
CONTINUOUS
370
50
 62
4
100
AcDbLine
 10
6.742173999999999
 20
-0.7617729999999999
 30
0.0
 11
6.564881
 21
-0.639492
 31
0.0
  0
LINE
  5
65B
330
1F
100
AcDbEntity
  8
1
  6
CONTINUOUS
370
50
 62
4
100
AcDbLine
 10
22.572191
 20
0.657484
 30
0.0
 11
22.398556
 21
0.776601
 31
0.0
  0
LINE
  5
65C
330
1F
100
AcDbEntity
  8
1
  6
CONTINUOUS
370
50
 62
4
100
AcDbLine
 10
4.806738999999999
 20
0.688997
 30
0.0
 11
4.674766
 21
0.779368
 31
0.0
  0
LINE
  5
65D
330
1F
100
AcDbEntity
  8
1
  6
CONTINUOUS
370
50
 62
4
100
AcDbLine
 10
1.378518
 20
0.8307129999999999
 30
0.0
 11
1.28906
 21
0.891813
 31
0.0
  0
LINE
  5
65E
330
1F
100
AcDbEntity
  8
1
  6
CONTINUOUS
370
50
 62
4
100
AcDbLine
 10
28.469715
 20
0.6639039999999999
 30
0.0
 11
28.294163
 21
0.7837729999999999
 31
0.0
  0
LINE
  5
65F
330
1F
100
AcDbEntity
  8
1
  6
CONTINUOUS
370
50
 62
4
100
AcDbLine
 10
30.39076
 20
-0.7770819999999999
 30
0.0
 11
30.238766
 21
-0.673357
 31
0.0
  0
LINE
  5
660
330
1F
100
AcDbEntity
  8
1
  6
CONTINUOUS
370
50
 62
4
100
AcDbLine
 10
34.355198
 20
0.678819
 30
0.0
 11
34.204468
 21
0.7812319999999999
 31
0.0
  0
LINE
  5
661
330
1F
100
AcDbEntity
  8
1
  6
CONTINUOUS
370
50
 62
4
100
AcDbLine
 10
25.658045
 20
0.6773089999999999
 30
0.0
 11
25.478397
 21
0.799048
 31
0.0
  0
LINE
  5
662
330
1F
100
AcDbEntity
  8
1
  6
CONTINUOUS
370
50
 62
4
100
AcDbLine
 10
31.549156
 20
0.6877559999999999
 30
0.0
 11
31.367096
 21
0.811032
 31
0.0
  0
LINE
  5
663
330
1F
100
AcDbEntity
  8
1
  6
CONTINUOUS
370
50
 62
4
100
AcDbLine
 10
33.581318
 20
-0.8282349999999999
 30
0.0
 11
33.388844
 21
-0.6985669999999999
 31
0.0
  0
LINE
  5
664
330
1F
100
AcDbEntity
  8
1
  6
CONTINUOUS
370
50
 62
4
100
AcDbLine
 10
16.611305
 20
0.6955239999999999
 30
0.0
 11
16.426781
 21
0.819813
 31
0.0
  0
LINE
  5
665
330
1F
100
AcDbEntity
  8
1
  6
CONTINUOUS
370
50
 62
4
100
AcDbLine
 10
27.665382
 20
-0.821494
 30
0.0
 11
27.477932
 21
-0.695276
 31
0.0
  0
LINE
  5
666
330
1F
100
AcDbEntity
  8
1
  6
CONTINUOUS
370
50
 62
4
100
AcDbLine
 10
10.705707
 20
0.6949949999999999
 30
0.0
 11
10.521376
 21
0.8190879999999999
 31
0.0
  0
LINE
  5
667
330
1F
100
AcDbEntity
  8
1
  6
CONTINUOUS
370
50
 62
4
100
AcDbLine
 10
13.828517
 20
0.68777
 30
0.0
 11
13.646493
 21
0.8102499999999999
 31
0.0
  0
LINE
  5
668
330
1F
100
AcDbEntity
  8
1
  6
CONTINUOUS
370
50
 62
4
100
AcDbLine
 10
2.605875
 20
0.065107
 30
0.0
 11
2.505819
 21
0.132365
 31
0.0
  0
LINE
  5
669
330
1F
100
AcDbEntity
  8
1
  6
CONTINUOUS
370
50
 62
4
100
AcDbLine
 10
21.770399
 20
-0.8287909999999999
 30
0.0
 11
21.577785
 21
-0.700274
 31
0.0
  0
LINE
  5
66A
330
1F
100
AcDbEntity
  8
1
  6
CONTINUOUS
370
50
 62
4
100
AcDbLine
 10
1.466439
 20
0.772204
 30
0.0
 11
1.378518
 21
0.8307129999999999
 31
0.0
  0
LINE
  5
66B
330
1F
100
AcDbEntity
  8
1
  6
CONTINUOUS
370
50
 62
4
100
AcDbLine
 10
9.979548999999999
 20
-0.8440989999999999
 30
0.0
 11
9.774481
 21
-0.707836
 31
0.0
  0
LINE
  5
66C
330
1F
100
AcDbEntity
  8
1
  6
CONTINUOUS
370
50
 62
4
100
AcDbLine
 10
4.674766
 20
0.779368
 30
0.0
 11
4.542981
 21
0.866899
 31
0.0
  0
LINE
  5
66D
330
1F
100
AcDbEntity
  8
1
  6
CONTINUOUS
370
50
 62
4
100
AcDbLine
 10
15.881095
 20
-0.8401489999999999
 30
0.0
 11
15.678013
 21
-0.705608
 31
0.0
  0
LINE
  5
66E
330
1F
100
AcDbEntity
  8
1
  6
CONTINUOUS
370
50
 62
4
100
AcDbLine
 10
7.829810999999999
 20
0.750455
 30
0.0
 11
7.630258
 21
0.881249
 31
0.0
  0
LINE
  5
66F
330
1F
100
AcDbEntity
  8
1
  6
CONTINUOUS
370
50
 62
4
100
AcDbLine
 10
2.705314
 20
0.0
 30
0.0
 11
2.605875
 21
0.065107
 31
0.0
  0
LINE
  5
670
330
1F
100
AcDbEntity
  8
1
  6
CONTINUOUS
370
50
 62
4
100
AcDbLine
 10
19.666088
 20
0.7356199999999999
 30
0.0
 11
19.46854
 21
0.864873
 31
0.0
  0
LINE
  5
671
330
1F
100
AcDbEntity
  8
1
  6
CONTINUOUS
370
50
 62
4
100
AcDbLine
 10
12.820089
 20
-0.87385
 30
0.0
 11
12.644059
 21
-0.758709
 31
0.0
  0
LINE
  5
672
330
1F
100
AcDbEntity
  8
1
  6
CONTINUOUS
370
50
 62
4
100
AcDbLine
 10
18.725729
 20
-0.873397
 30
0.0
 11
18.549635
 21
-0.7582369999999999
 31
0.0
  0
LINE
  5
673
330
1F
100
AcDbEntity
  8
1
  6
CONTINUOUS
370
50
 62
4
100
AcDbLine
 10
24.63061
 20
-0.8722439999999999
 30
0.0
 11
24.454252
 21
-0.757061
 31
0.0
  0
LINE
  5
674
330
1F
100
AcDbEntity
  8
1
  6
CONTINUOUS
370
50
 62
4
100
AcDbLine
 10
6.919397
 20
-0.877431
 30
0.0
 11
6.742173999999999
 21
-0.7617729999999999
 31
0.0
  0
LINE
  5
675
330
1F
100
AcDbEntity
  8
1
  6
CONTINUOUS
370
50
 62
4
100
AcDbLine
 10
0.7189139999999999
 20
1.238088
 30
0.0
 11
0.667453
 21
1.271607
 31
0.0
  0
LINE
  5
676
330
1F
100
AcDbEntity
  8
1
  6
CONTINUOUS
370
50
 62
4
100
AcDbLine
 10
30.542923
 20
-0.875697
 30
0.0
 11
30.39076
 21
-0.7770819999999999
 31
0.0
  0
LINE
  5
677
330
1F
100
AcDbEntity
  8
1
  6
CONTINUOUS
370
50
 62
4
100
AcDbLine
 10
22.398556
 20
0.776601
 30
0.0
 11
22.224874
 21
0.88916
 31
0.0
  0
LINE
  5
678
330
1F
100
AcDbEntity
  8
1
  6
CONTINUOUS
370
50
 62
4
100
AcDbLine
 10
34.204468
 20
0.7812319999999999
 30
0.0
 11
34.05397
 21
0.8787109999999999
 31
0.0
  0
LINE
  5
679
330
1F
100
AcDbEntity
  8
1
  6
CONTINUOUS
370
50
 62
4
100
AcDbLine
 10
28.294163
 20
0.7837729999999999
 30
0.0
 11
28.118731
 21
0.8969729999999999
 31
0.0
  0
LINE
  5
67A
330
1F
100
AcDbEntity
  8
1
  6
CONTINUOUS
370
50
 62
4
100
AcDbLine
 10
1.552473
 20
0.717119
 30
0.0
 11
1.466439
 21
0.772204
 31
0.0
  0
LINE
  5
67B
330
1F
100
AcDbEntity
  8
1
  6
CONTINUOUS
370
50
 62
4
100
AcDbLine
 10
2.933708
 20
-0.145634
 30
0.0
 11
2.705311
 21
-0.000004
 31
0.0
  0
LINE
  5
67C
330
1F
100
AcDbEntity
  8
1
  6
CONTINUOUS
370
50
 62
4
100
AcDbLine
 10
13.646493
 20
0.8102499999999999
 30
0.0
 11
13.465257
 21
0.9253969999999999
 31
0.0
  0
LINE
  5
67D
330
1F
100
AcDbEntity
  8
1
  6
CONTINUOUS
370
50
 62
4
100
AcDbLine
 10
25.478397
 20
0.799048
 30
0.0
 11
25.298309
 21
0.913361
 31
0.0
  0
LINE
  5
67E
330
1F
100
AcDbEntity
  8
1
  6
CONTINUOUS
370
50
 62
4
100
AcDbLine
 10
27.852615
 20
-0.939834
 30
0.0
 11
27.665382
 21
-0.821494
 31
0.0
  0
LINE
  5
67F
330
1F
100
AcDbEntity
  8
1
  6
CONTINUOUS
370
50
 62
4
100
AcDbLine
 10
31.367096
 20
0.811032
 30
0.0
 11
31.18417
 21
0.926441
 31
0.0
  0
LINE
  5
680
330
1F
100
AcDbEntity
  8
1
  6
CONTINUOUS
370
50
 62
4
100
AcDbLine
 10
16.426781
 20
0.819813
 30
0.0
 11
16.242361
 21
0.935951
 31
0.0
  0
LINE
  5
681
330
1F
100
AcDbEntity
  8
1
  6
CONTINUOUS
370
50
 62
4
100
AcDbLine
 10
10.521376
 20
0.8190879999999999
 30
0.0
 11
10.336575
 21
0.9353469999999999
 31
0.0
  0
LINE
  5
682
330
1F
100
AcDbEntity
  8
1
  6
CONTINUOUS
370
50
 62
4
100
AcDbLine
 10
21.961788
 20
-0.948897
 30
0.0
 11
21.770399
 21
-0.8287909999999999
 31
0.0
  0
LINE
  5
683
330
1F
100
AcDbEntity
  8
1
  6
CONTINUOUS
370
50
 62
4
100
AcDbLine
 10
33.773689
 20
-0.948954
 30
0.0
 11
33.581318
 21
-0.8282349999999999
 31
0.0
  0
LINE
  5
684
330
1F
100
AcDbEntity
  8
1
  6
CONTINUOUS
370
50
 62
4
100
AcDbLine
 10
3.162475
 20
-0.289106
 30
0.0
 11
2.933708
 21
-0.145634
 31
0.0
  0
LINE
  5
685
330
1F
100
AcDbEntity
  8
1
  6
CONTINUOUS
370
50
 62
4
100
AcDbLine
 10
4.2732
 20
0.695322
 30
0.0
 11
3.465666
 21
1.200031
 31
0.0
  0
LINE
  5
686
330
1F
100
AcDbEntity
  8
1
  6
CONTINUOUS
370
50
 62
4
100
AcDbLine
 10
3.390341
 20
-0.431448
 30
0.0
 11
3.162475
 21
-0.289106
 31
0.0
  0
LINE
  5
687
330
1F
100
AcDbEntity
  8
1
  6
CONTINUOUS
370
50
 62
4
100
AcDbLine
 10
3.61558
 20
-0.571162
 30
0.0
 11
3.390341
 21
-0.431448
 31
0.0
  0
LINE
  5
688
330
1F
100
AcDbEntity
  8
1
  6
CONTINUOUS
370
50
 62
4
100
AcDbLine
 10
4.542981
 20
0.866899
 30
0.0
 11
4.409901
 21
0.949375
 31
0.0
  0
LINE
  5
689
330
1F
100
AcDbEntity
  8
1
  6
CONTINUOUS
370
50
 62
4
100
AcDbLine
 10
16.082542
 20
-0.964904
 30
0.0
 11
15.881095
 21
-0.8401489999999999
 31
0.0
  0
LINE
  5
68A
330
1F
100
AcDbEntity
  8
1
  6
CONTINUOUS
370
50
 62
4
100
AcDbLine
 10
4.668876
 20
-1.18351
 30
0.0
 11
4.2732
 21
-0.939866
 31
0.0
  0
LINE
  5
68B
330
1F
100
AcDbEntity
  8
1
  6
CONTINUOUS
370
50
 62
4
100
AcDbLine
 10
10.185927
 20
-0.970727
 30
0.0
 11
9.979548999999999
 21
-0.8440989999999999
 31
0.0
  0
LINE
  5
68C
330
1F
100
AcDbEntity
  8
1
  6
CONTINUOUS
370
50
 62
4
100
AcDbLine
 10
34.05397
 20
0.8787109999999999
 30
0.0
 11
33.903473
 21
0.970764
 31
0.0
  0
LINE
  5
68D
330
1F
100
AcDbEntity
  8
1
  6
CONTINUOUS
370
50
 62
4
100
AcDbLine
 10
19.46854
 20
0.864873
 30
0.0
 11
19.271648
 21
0.985174
 31
0.0
  0
LINE
  5
68E
330
1F
100
AcDbEntity
  8
1
  6
CONTINUOUS
370
50
 62
4
100
AcDbLine
 10
30.695051
 20
-0.968634
 30
0.0
 11
30.542923
 21
-0.875697
 31
0.0
  0
LINE
  5
68F
330
1F
100
AcDbEntity
  8
1
  6
CONTINUOUS
370
50
 62
4
100
AcDbLine
 10
12.996121
 20
-0.9812029999999999
 30
0.0
 11
12.820089
 21
-0.87385
 31
0.0
  0
LINE
  5
690
330
1F
100
AcDbEntity
  8
1
  6
CONTINUOUS
370
50
 62
4
100
AcDbLine
 10
7.096375999999999
 20
-0.9851719999999999
 30
0.0
 11
6.919397
 21
-0.877431
 31
0.0
  0
LINE
  5
691
330
1F
100
AcDbEntity
  8
1
  6
CONTINUOUS
370
50
 62
4
100
AcDbLine
 10
24.807175
 20
-0.9797269999999999
 30
0.0
 11
24.63061
 21
-0.8722439999999999
 31
0.0
  0
LINE
  5
692
330
1F
100
AcDbEntity
  8
1
  6
CONTINUOUS
370
50
 62
4
100
AcDbLine
 10
18.902143
 20
-0.9807849999999999
 30
0.0
 11
18.725729
 21
-0.873397
 31
0.0
  0
LINE
  5
693
330
1F
100
AcDbEntity
  8
1
  6
CONTINUOUS
370
50
 62
4
100
AcDbLine
 10
7.630258
 20
0.881249
 30
0.0
 11
7.430516
 21
1.002277
 31
0.0
  0
LINE
  5
694
330
1F
100
AcDbEntity
  8
1
  6
CONTINUOUS
370
50
 62
4
100
AcDbLine
 10
1.640881
 20
0.6635989999999999
 30
0.0
 11
1.552473
 21
0.717119
 31
0.0
  0
LINE
  5
695
330
1F
100
AcDbEntity
  8
1
  6
CONTINUOUS
370
50
 62
4
100
AcDbLine
 10
0.761968
 20
1.212043
 30
0.0
 11
0.7189139999999999
 21
1.238088
 31
0.0
  0
LINE
  5
696
330
1F
100
AcDbEntity
  8
1
  6
CONTINUOUS
370
50
 62
4
100
AcDbLine
 10
3.837532
 20
-0.7052809999999999
 30
0.0
 11
3.61558
 21
-0.571162
 31
0.0
  0
LINE
  5
697
330
1F
100
AcDbEntity
  8
1
  6
CONTINUOUS
370
50
 62
4
100
AcDbLine
 10
22.224874
 20
0.88916
 30
0.0
 11
22.051092
 21
0.99403
 31
0.0
  0
LINE
  5
698
330
1F
100
AcDbEntity
  8
1
  6
CONTINUOUS
370
50
 62
4
100
AcDbLine
 10
28.118731
 20
0.8969729999999999
 30
0.0
 11
27.943361
 21
1.002291
 31
0.0
  0
LINE
  5
699
330
1F
100
AcDbEntity
  8
1
  6
CONTINUOUS
370
50
 62
4
100
AcDbLine
 10
25.298309
 20
0.913361
 30
0.0
 11
25.118418
 21
1.019508
 31
0.0
  0
LINE
  5
69A
330
1F
100
AcDbEntity
  8
1
  6
CONTINUOUS
370
50
 62
4
100
AcDbLine
 10
13.465257
 20
0.9253969999999999
 30
0.0
 11
13.283882
 21
1.032261
 31
0.0
  0
LINE
  5
69B
330
1F
100
AcDbEntity
  8
1
  6
CONTINUOUS
370
50
 62
4
100
AcDbLine
 10
31.18417
 20
0.926441
 30
0.0
 11
31.001038
 21
1.033103
 31
0.0
  0
LINE
  5
69C
330
1F
100
AcDbEntity
  8
1
  6
CONTINUOUS
370
50
 62
4
100
AcDbLine
 10
28.040815
 20
-1.04909
 30
0.0
 11
27.852615
 21
-0.939834
 31
0.0
  0
LINE
  5
69D
330
1F
100
AcDbEntity
  8
1
  6
CONTINUOUS
370
50
 62
4
100
AcDbLine
 10
10.336575
 20
0.9353469999999999
 30
0.0
 11
10.15175
 21
1.042564
 31
0.0
  0
LINE
  5
69E
330
1F
100
AcDbEntity
  8
1
  6
CONTINUOUS
370
50
 62
4
100
AcDbLine
 10
16.242361
 20
0.935951
 30
0.0
 11
16.057646
 21
1.043094
 31
0.0
  0
LINE
  5
69F
330
1F
100
AcDbEntity
  8
1
  6
CONTINUOUS
370
50
 62
4
100
AcDbLine
 10
22.153667
 20
-1.059562
 30
0.0
 11
21.961788
 21
-0.948897
 31
0.0
  0
LINE
  5
6A0
330
1F
100
AcDbEntity
  8
1
  6
CONTINUOUS
370
50
 62
4
100
AcDbLine
 10
33.967266
 20
-1.059589
 30
0.0
 11
33.773689
 21
-0.948954
 31
0.0
  0
LINE
  5
6A1
330
1F
100
AcDbEntity
  8
1
  6
CONTINUOUS
370
50
 62
4
100
AcDbLine
 10
33.903473
 20
0.970764
 30
0.0
 11
33.753082
 21
1.056572
 31
0.0
  0
LINE
  5
6A2
330
1F
100
AcDbEntity
  8
1
  6
CONTINUOUS
370
50
 62
4
100
AcDbLine
 10
30.847048
 20
-1.055321
 30
0.0
 11
30.695051
 21
-0.968634
 31
0.0
  0
LINE
  5
6A3
330
1F
100
AcDbEntity
  8
1
  6
CONTINUOUS
370
50
 62
4
100
AcDbLine
 10
4.054079
 20
-0.828286
 30
0.0
 11
3.837532
 21
-0.7052809999999999
 31
0.0
  0
LINE
  5
6A4
330
1F
100
AcDbEntity
  8
1
  6
CONTINUOUS
370
50
 62
4
100
AcDbLine
 10
16.28323
 20
-1.078809
 30
0.0
 11
16.082542
 21
-0.964904
 31
0.0
  0
LINE
  5
6A5
330
1F
100
AcDbEntity
  8
1
  6
CONTINUOUS
370
50
 62
4
100
AcDbLine
 10
0.80662
 20
1.186723
 30
0.0
 11
0.761968
 21
1.212043
 31
0.0
  0
LINE
  5
6A6
330
1F
100
AcDbEntity
  8
1
  6
CONTINUOUS
370
50
 62
4
100
AcDbLine
 10
10.39143
 20
-1.086318
 30
0.0
 11
10.185927
 21
-0.970727
 31
0.0
  0
LINE
  5
6A7
330
1F
100
AcDbEntity
  8
1
  6
CONTINUOUS
370
50
 62
4
100
AcDbLine
 10
24.983685
 20
-1.078681
 30
0.0
 11
24.807175
 21
-0.9797269999999999
 31
0.0
  0
LINE
  5
6A8
330
1F
100
AcDbEntity
  8
1
  6
CONTINUOUS
370
50
 62
4
100
AcDbLine
 10
13.172462
 20
-1.079877
 30
0.0
 11
12.996121
 21
-0.9812029999999999
 31
0.0
  0
LINE
  5
6A9
330
1F
100
AcDbEntity
  8
1
  6
CONTINUOUS
370
50
 62
4
100
AcDbLine
 10
19.078617
 20
-1.079528
 30
0.0
 11
18.902143
 21
-0.9807849999999999
 31
0.0
  0
LINE
  5
6AA
330
1F
100
AcDbEntity
  8
1
  6
CONTINUOUS
370
50
 62
4
100
AcDbLine
 10
1.726349
 20
0.6158399999999999
 30
0.0
 11
1.640881
 21
0.6635989999999999
 31
0.0
  0
LINE
  5
6AB
330
1F
100
AcDbEntity
  8
1
  6
CONTINUOUS
370
50
 62
4
100
AcDbLine
 10
7.273466
 20
-1.08406
 30
0.0
 11
7.096375999999999
 21
-0.9851719999999999
 31
0.0
  0
LINE
  5
6AC
330
1F
100
AcDbEntity
  8
1
  6
CONTINUOUS
370
50
 62
4
100
AcDbLine
 10
19.271648
 20
0.985174
 30
0.0
 11
19.074986
 21
1.094944
 31
0.0
  0
LINE
  5
6AD
330
1F
100
AcDbEntity
  8
1
  6
CONTINUOUS
370
50
 62
4
100
AcDbLine
 10
4.409901
 20
0.949375
 30
0.0
 11
4.2732
 21
1.025173
 31
0.0
  0
LINE
  5
6AE
330
1F
100
AcDbEntity
  8
1
  6
CONTINUOUS
370
50
 62
4
100
AcDbLine
 10
22.051092
 20
0.99403
 30
0.0
 11
21.877148
 21
1.090316
 31
0.0
  0
LINE
  5
6AF
330
1F
100
AcDbEntity
  8
1
  6
CONTINUOUS
370
50
 62
4
100
AcDbLine
 10
27.943361
 20
1.002291
 30
0.0
 11
27.767759
 21
1.098829
 31
0.0
  0
LINE
  5
6B0
330
1F
100
AcDbEntity
  8
1
  6
CONTINUOUS
370
50
 62
4
100
AcDbLine
 10
7.430516
 20
1.002277
 30
0.0
 11
7.230113999999999
 21
1.111578
 31
0.0
  0
LINE
  5
6B1
330
1F
100
AcDbEntity
  8
1
  6
CONTINUOUS
370
50
 62
4
100
AcDbLine
 10
25.118418
 20
1.019508
 30
0.0
 11
24.939421
 21
1.11656
 31
0.0
  0
LINE
  5
6B2
330
1F
100
AcDbEntity
  8
1
  6
CONTINUOUS
370
50
 62
4
100
AcDbLine
 10
13.283882
 20
1.032261
 30
0.0
 11
13.102357
 21
1.129294
 31
0.0
  0
LINE
  5
6B3
330
1F
100
AcDbEntity
  8
1
  6
CONTINUOUS
370
50
 62
4
100
AcDbLine
 10
31.001038
 20
1.033103
 30
0.0
 11
30.818483
 21
1.130286
 31
0.0
  0
LINE
  5
6B4
330
1F
100
AcDbEntity
  8
1
  6
CONTINUOUS
370
50
 62
4
100
AcDbLine
 10
0.8528089999999999
 20
1.162159
 30
0.0
 11
0.80662
 21
1.186723
 31
0.0
  0
LINE
  5
6B5
330
1F
100
AcDbEntity
  8
1
  6
CONTINUOUS
370
50
 62
4
100
AcDbLine
 10
10.15175
 20
1.042564
 30
0.0
 11
9.967323
 21
1.139772
 31
0.0
  0
LINE
  5
6B6
330
1F
100
AcDbEntity
  8
1
  6
CONTINUOUS
370
50
 62
4
100
AcDbLine
 10
30.998928
 20
-1.135156
 30
0.0
 11
30.847048
 21
-1.055321
 31
0.0
  0
LINE
  5
6B7
330
1F
100
AcDbEntity
  8
1
  6
CONTINUOUS
370
50
 62
4
100
AcDbLine
 10
16.057646
 20
1.043094
 30
0.0
 11
15.872736
 21
1.14029
 31
0.0
  0
LINE
  5
6B8
330
1F
100
AcDbEntity
  8
1
  6
CONTINUOUS
370
50
 62
4
100
AcDbLine
 10
33.753082
 20
1.056572
 30
0.0
 11
33.602711
 21
1.135505
 31
0.0
  0
LINE
  5
6B9
330
1F
100
AcDbEntity
  8
1
  6
CONTINUOUS
370
50
 62
4
100
AcDbLine
 10
28.229391
 20
-1.147393
 30
0.0
 11
28.040815
 21
-1.04909
 31
0.0
  0
LINE
  5
6BA
330
1F
100
AcDbEntity
  8
1
  6
CONTINUOUS
370
50
 62
4
100
AcDbLine
 10
22.346792
 20
-1.159144
 30
0.0
 11
22.153667
 21
-1.059562
 31
0.0
  0
LINE
  5
6BB
330
1F
100
AcDbEntity
  8
1
  6
CONTINUOUS
370
50
 62
4
100
AcDbLine
 10
34.16153
 20
-1.159022
 30
0.0
 11
33.967266
 21
-1.059589
 31
0.0
  0
LINE
  5
6BC
330
1F
100
AcDbEntity
  8
1
  6
CONTINUOUS
370
50
 62
4
100
AcDbLine
 10
4.2732
 20
-0.939866
 30
0.0
 11
4.054079
 21
-0.828286
 31
0.0
  0
LINE
  5
6BD
330
1F
100
AcDbEntity
  8
1
  6
CONTINUOUS
370
50
 62
4
100
AcDbLine
 10
25.159937
 20
-1.168191
 30
0.0
 11
24.983685
 21
-1.078681
 31
0.0
  0
LINE
  5
6BE
330
1F
100
AcDbEntity
  8
1
  6
CONTINUOUS
370
50
 62
4
100
AcDbLine
 10
19.254766
 20
-1.168784
 30
0.0
 11
19.078617
 21
-1.079528
 31
0.0
  0
LINE
  5
6BF
330
1F
100
AcDbEntity
  8
1
  6
CONTINUOUS
370
50
 62
4
100
AcDbLine
 10
13.348827
 20
-1.169083
 30
0.0
 11
13.172462
 21
-1.079877
 31
0.0
  0
LINE
  5
6C0
330
1F
100
AcDbEntity
  8
1
  6
CONTINUOUS
370
50
 62
4
100
AcDbLine
 10
16.484892
 20
-1.180663
 30
0.0
 11
16.28323
 21
-1.078809
 31
0.0
  0
LINE
  5
6C1
330
1F
100
AcDbEntity
  8
1
  6
CONTINUOUS
370
50
 62
4
100
AcDbLine
 10
7.451042999999999
 20
-1.173365
 30
0.0
 11
7.273466
 21
-1.08406
 31
0.0
  0
LINE
  5
6C2
330
1F
100
AcDbEntity
  8
1
  6
CONTINUOUS
370
50
 62
4
100
AcDbLine
 10
10.596648
 20
-1.189036
 30
0.0
 11
10.39143
 21
-1.086318
 31
0.0
  0
LINE
  5
6C3
330
1F
100
AcDbEntity
  8
1
  6
CONTINUOUS
370
50
 62
4
100
AcDbLine
 10
21.877148
 20
1.090316
 30
0.0
 11
21.703157
 21
1.177284
 31
0.0
  0
LINE
  5
6C4
330
1F
100
AcDbEntity
  8
1
  6
CONTINUOUS
370
50
 62
4
100
AcDbLine
 10
1.808447
 20
0.574839
 30
0.0
 11
1.726349
 21
0.6158399999999999
 31
0.0
  0
LINE
  5
6C5
330
1F
100
AcDbEntity
  8
1
  6
CONTINUOUS
370
50
 62
4
100
AcDbLine
 10
0.9004749999999999
 20
1.138381
 30
0.0
 11
0.8528089999999999
 21
1.162159
 31
0.0
  0
LINE
  5
6C6
330
1F
100
AcDbEntity
  8
1
  6
CONTINUOUS
370
50
 62
4
100
AcDbLine
 10
19.074986
 20
1.094944
 30
0.0
 11
18.87804
 21
1.192561
 31
0.0
  0
LINE
  5
6C7
330
1F
100
AcDbEntity
  8
1
  6
CONTINUOUS
370
50
 62
4
100
AcDbLine
 10
11.763421
 20
-0.106151
 30
0.0
 11
11.493518
 21
0.027593
 31
0.0
  0
LINE
  5
6C8
330
1F
100
AcDbEntity
  8
1
  6
CONTINUOUS
370
50
 62
4
100
AcDbLine
 10
17.399452
 20
0.027387
 30
0.0
 11
17.129522
 21
0.161065
 31
0.0
  0
LINE
  5
6C9
330
1F
100
AcDbEntity
  8
1
  6
CONTINUOUS
370
50
 62
4
100
AcDbLine
 10
27.767759
 20
1.098829
 30
0.0
 11
27.592091
 21
1.185692
 31
0.0
  0
LINE
  5
6CA
330
1F
100
AcDbEntity
  8
1
  6
CONTINUOUS
370
50
 62
4
100
AcDbLine
 10
11.493518
 20
0.027593
 30
0.0
 11
11.223415
 21
0.161093
 31
0.0
  0
LINE
  5
6CB
330
1F
100
AcDbEntity
  8
1
  6
CONTINUOUS
370
50
 62
4
100
AcDbLine
 10
23.303741
 20
0.028163
 30
0.0
 11
23.034063
 21
0.161395
 31
0.0
  0
LINE
  5
6CC
330
1F
100
AcDbEntity
  8
1
  6
CONTINUOUS
370
50
 62
4
100
AcDbLine
 10
17.66927
 20
-0.105735
 30
0.0
 11
17.399452
 21
0.027387
 31
0.0
  0
LINE
  5
6CD
330
1F
100
AcDbEntity
  8
1
  6
CONTINUOUS
370
50
 62
4
100
AcDbLine
 10
5.855639
 20
-0.105236
 30
0.0
 11
5.591737999999999
 21
0.024702
 31
0.0
  0
LINE
  5
6CE
330
1F
100
AcDbEntity
  8
1
  6
CONTINUOUS
370
50
 62
4
100
AcDbLine
 10
5.591737999999999
 20
0.024702
 30
0.0
 11
5.327866999999999
 21
0.154387
 31
0.0
  0
LINE
  5
6CF
330
1F
100
AcDbEntity
  8
1
  6
CONTINUOUS
370
50
 62
4
100
AcDbLine
 10
29.209225
 20
0.028887
 30
0.0
 11
28.939617
 21
0.161244
 31
0.0
  0
LINE
  5
6D0
330
1F
100
AcDbEntity
  8
1
  6
CONTINUOUS
370
50
 62
4
100
AcDbLine
 10
23.573471
 20
-0.103957
 30
0.0
 11
23.303741
 21
0.028163
 31
0.0
  0
LINE
  5
6D1
330
1F
100
AcDbEntity
  8
1
  6
CONTINUOUS
370
50
 62
4
100
AcDbLine
 10
29.479012
 20
-0.103054
 30
0.0
 11
29.209225
 21
0.028887
 31
0.0
  0
LINE
  5
6D2
330
1F
100
AcDbEntity
  8
1
  6
CONTINUOUS
370
50
 62
4
100
AcDbLine
 10
5.327866999999999
 20
0.154387
 30
0.0
 11
5.064435
 21
0.283089
 31
0.0
  0
LINE
  5
6D3
330
1F
100
AcDbEntity
  8
1
  6
CONTINUOUS
370
50
 62
4
100
AcDbLine
 10
24.939421
 20
1.11656
 30
0.0
 11
24.761389
 21
1.20311
 31
0.0
  0
LINE
  5
6D4
330
1F
100
AcDbEntity
  8
1
  6
CONTINUOUS
370
50
 62
4
100
AcDbLine
 10
28.939617
 20
0.161244
 30
0.0
 11
28.669895
 21
0.291732
 31
0.0
  0
LINE
  5
6D5
330
1F
100
AcDbEntity
  8
1
  6
CONTINUOUS
370
50
 62
4
100
AcDbLine
 10
23.034063
 20
0.161395
 30
0.0
 11
22.764189
 21
0.291675
 31
0.0
  0
LINE
  5
6D6
330
1F
100
AcDbEntity
  8
1
  6
CONTINUOUS
370
50
 62
4
100
AcDbLine
 10
7.230113999999999
 20
1.111578
 30
0.0
 11
7.0295
 21
1.20781
 31
0.0
  0
LINE
  5
6D7
330
1F
100
AcDbEntity
  8
1
  6
CONTINUOUS
370
50
 62
4
100
AcDbLine
 10
17.129522
 20
0.161065
 30
0.0
 11
16.859455
 21
0.290365
 31
0.0
  0
LINE
  5
6D8
330
1F
100
AcDbEntity
  8
1
  6
CONTINUOUS
370
50
 62
4
100
AcDbLine
 10
31.150785
 20
-1.207569
 30
0.0
 11
30.998928
 21
-1.135156
 31
0.0
  0
LINE
  5
6D9
330
1F
100
AcDbEntity
  8
1
  6
CONTINUOUS
370
50
 62
4
100
AcDbLine
 10
30.818483
 20
1.130286
 30
0.0
 11
30.637186
 21
1.216696
 31
0.0
  0
LINE
  5
6DA
330
1F
100
AcDbEntity
  8
1
  6
CONTINUOUS
370
50
 62
4
100
AcDbLine
 10
33.602711
 20
1.135505
 30
0.0
 11
33.452095
 21
1.20717
 31
0.0
  0
LINE
  5
6DB
330
1F
100
AcDbEntity
  8
1
  6
CONTINUOUS
370
50
 62
4
100
AcDbLine
 10
11.223415
 20
0.161093
 30
0.0
 11
10.953339
 21
0.28879
 31
0.0
  0
LINE
  5
6DC
330
1F
100
AcDbEntity
  8
1
  6
CONTINUOUS
370
50
 62
4
100
AcDbLine
 10
13.102357
 20
1.129294
 30
0.0
 11
12.919976
 21
1.215445
 31
0.0
  0
LINE
  5
6DD
330
1F
100
AcDbEntity
  8
1
  6
CONTINUOUS
370
50
 62
4
100
AcDbLine
 10
9.967323
 20
1.139772
 30
0.0
 11
9.782886999999999
 21
1.22613
 31
0.0
  0
LINE
  5
6DE
330
1F
100
AcDbEntity
  8
1
  6
CONTINUOUS
370
50
 62
4
100
AcDbLine
 10
0.9495589999999999
 20
1.115419
 30
0.0
 11
0.9004749999999999
 21
1.138381
 31
0.0
  0
LINE
  5
6DF
330
1F
100
AcDbEntity
  8
1
  6
CONTINUOUS
370
50
 62
4
100
AcDbLine
 10
15.872736
 20
1.14029
 30
0.0
 11
15.688196
 21
1.226569
 31
0.0
  0
LINE
  5
6E0
330
1F
100
AcDbEntity
  8
1
  6
CONTINUOUS
370
50
 62
4
100
AcDbLine
 10
34.610065
 20
0.275463
 30
0.0
 11
34.337391
 21
0.40267
 31
0.0
  0
LINE
  5
6E1
330
1F
100
AcDbEntity
  8
1
  6
CONTINUOUS
370
50
 62
4
100
AcDbLine
 10
28.418196
 20
-1.233925
 30
0.0
 11
28.229391
 21
-1.147393
 31
0.0
  0
LINE
  5
6E2
330
1F
100
AcDbEntity
  8
1
  6
CONTINUOUS
370
50
 62
4
100
AcDbLine
 10
28.669895
 20
0.291732
 30
0.0
 11
28.400038
 21
0.414962
 31
0.0
  0
LINE
  5
6E3
330
1F
100
AcDbEntity
  8
1
  6
CONTINUOUS
370
50
 62
4
100
AcDbLine
 10
10.953339
 20
0.28879
 30
0.0
 11
10.683449
 21
0.411768
 31
0.0
  0
LINE
  5
6E4
330
1F
100
AcDbEntity
  8
1
  6
CONTINUOUS
370
50
 62
4
100
AcDbLine
 10
5.064435
 20
0.283089
 30
0.0
 11
4.800351
 21
0.40244
 31
0.0
  0
LINE
  5
6E5
330
1F
100
AcDbEntity
  8
1
  6
CONTINUOUS
370
50
 62
4
100
AcDbLine
 10
34.355198
 20
-1.246509
 30
0.0
 11
34.16153
 21
-1.159022
 31
0.0
  0
LINE
  5
6E6
330
1F
100
AcDbEntity
  8
1
  6
CONTINUOUS
370
50
 62
4
100
AcDbLine
 10
22.540367
 20
-1.246336
 30
0.0
 11
22.346792
 21
-1.159144
 31
0.0
  0
LINE
  5
6E7
330
1F
100
AcDbEntity
  8
1
  6
CONTINUOUS
370
50
 62
4
100
AcDbLine
 10
25.336185
 20
-1.247495
 30
0.0
 11
25.159937
 21
-1.168191
 31
0.0
  0
LINE
  5
6E8
330
1F
100
AcDbEntity
  8
1
  6
CONTINUOUS
370
50
 62
4
100
AcDbLine
 10
22.764189
 20
0.291675
 30
0.0
 11
22.494337
 21
0.413044
 31
0.0
  0
LINE
  5
6E9
330
1F
100
AcDbEntity
  8
1
  6
CONTINUOUS
370
50
 62
4
100
AcDbLine
 10
19.430815
 20
-1.247871
 30
0.0
 11
19.254766
 21
-1.168784
 31
0.0
  0
LINE
  5
6EA
330
1F
100
AcDbEntity
  8
1
  6
CONTINUOUS
370
50
 62
4
100
AcDbLine
 10
16.859455
 20
0.290365
 30
0.0
 11
16.589558
 21
0.41161
 31
0.0
  0
LINE
  5
6EB
330
1F
100
AcDbEntity
  8
1
  6
CONTINUOUS
370
50
 62
4
100
AcDbLine
 10
13.524965
 20
-1.248083
 30
0.0
 11
13.348827
 21
-1.169083
 31
0.0
  0
LINE
  5
6EC
330
1F
100
AcDbEntity
  8
1
  6
CONTINUOUS
370
50
 62
4
100
AcDbLine
 10
7.628596
 20
-1.252283
 30
0.0
 11
7.451042999999999
 21
-1.173365
 31
0.0
  0
LINE
  5
6ED
330
1F
100
AcDbEntity
  8
1
  6
CONTINUOUS
370
50
 62
4
100
AcDbLine
 10
21.703157
 20
1.177284
 30
0.0
 11
21.529404
 21
1.254269
 31
0.0
  0
LINE
  5
6EE
330
1F
100
AcDbEntity
  8
1
  6
CONTINUOUS
370
50
 62
4
100
AcDbLine
 10
1.0
 20
1.093302
 30
0.0
 11
0.9495589999999999
 21
1.115419
 31
0.0
  0
LINE
  5
6EF
330
1F
100
AcDbEntity
  8
1
  6
CONTINUOUS
370
50
 62
4
100
AcDbLine
 10
27.592091
 20
1.185692
 30
0.0
 11
27.416475
 21
1.262252
 31
0.0
  0
LINE
  5
6F0
330
1F
100
AcDbEntity
  8
1
  6
CONTINUOUS
370
50
 62
4
100
AcDbLine
 10
16.687099
 20
-1.268554
 30
0.0
 11
16.484892
 21
-1.180663
 31
0.0
  0
LINE
  5
6F1
330
1F
100
AcDbEntity
  8
1
  6
CONTINUOUS
370
50
 62
4
100
AcDbLine
 10
10.683449
 20
0.411768
 30
0.0
 11
10.413464
 21
0.5284
 31
0.0
  0
LINE
  5
6F2
330
1F
100
AcDbEntity
  8
1
  6
CONTINUOUS
370
50
 62
4
100
AcDbLine
 10
10.8018
 20
-1.277151
 30
0.0
 11
10.596648
 21
-1.189036
 31
0.0
  0
LINE
  5
6F3
330
1F
100
AcDbEntity
  8
1
  6
CONTINUOUS
370
50
 62
4
100
AcDbLine
 10
16.589558
 20
0.41161
 30
0.0
 11
16.319731
 21
0.527502
 31
0.0
  0
LINE
  5
6F4
330
1F
100
AcDbEntity
  8
1
  6
CONTINUOUS
370
50
 62
4
100
AcDbLine
 10
18.87804
 20
1.192561
 30
0.0
 11
18.680431
 21
1.27681
 31
0.0
  0
LINE
  5
6F5
330
1F
100
AcDbEntity
  8
1
  6
CONTINUOUS
370
50
 62
4
100
AcDbLine
 10
1.886746
 20
0.541592
 30
0.0
 11
1.808447
 21
0.574839
 31
0.0
  0
LINE
  5
6F6
330
1F
100
AcDbEntity
  8
1
  6
CONTINUOUS
370
50
 62
4
100
AcDbLine
 10
33.452095
 20
1.20717
 30
0.0
 11
33.301895
 21
1.270941
 31
0.0
  0
LINE
  5
6F7
330
1F
100
AcDbEntity
  8
1
  6
CONTINUOUS
370
50
 62
4
100
AcDbLine
 10
31.302679
 20
-1.272001
 30
0.0
 11
31.150785
 21
-1.207569
 31
0.0
  0
LINE
  5
6F8
330
1F
100
AcDbEntity
  8
1
  6
CONTINUOUS
370
50
 62
4
100
AcDbLine
 10
22.494337
 20
0.413044
 30
0.0
 11
22.224672
 21
0.527257
 31
0.0
  0
LINE
  5
6F9
330
1F
100
AcDbEntity
  8
1
  6
CONTINUOUS
370
50
 62
4
100
AcDbLine
 10
24.761389
 20
1.20311
 30
0.0
 11
24.58304
 21
1.278592
 31
0.0
  0
LINE
  5
6FA
330
1F
100
AcDbEntity
  8
1
  6
CONTINUOUS
370
50
 62
4
100
AcDbLine
 10
34.337391
 20
0.40267
 30
0.0
 11
34.064777
 21
0.517551
 31
0.0
  0
LINE
  5
6FB
330
1F
100
AcDbEntity
  8
1
  6
CONTINUOUS
370
50
 62
4
100
AcDbLine
 10
28.400038
 20
0.414962
 30
0.0
 11
28.130346
 21
0.527245
 31
0.0
  0
LINE
  5
6FC
330
1F
100
AcDbEntity
  8
1
  6
CONTINUOUS
370
50
 62
4
100
AcDbLine
 10
7.0295
 20
1.20781
 30
0.0
 11
6.830276
 21
1.290482
 31
0.0
  0
LINE
  5
6FD
330
1F
100
AcDbEntity
  8
1
  6
CONTINUOUS
370
50
 62
4
100
AcDbLine
 10
30.637186
 20
1.216696
 30
0.0
 11
30.456211
 21
1.291485
 31
0.0
  0
LINE
  5
6FE
330
1F
100
AcDbEntity
  8
1
  6
CONTINUOUS
370
50
 62
4
100
AcDbLine
 10
12.919976
 20
1.215445
 30
0.0
 11
12.738271
 21
1.290023
 31
0.0
  0
LINE
  5
6FF
330
1F
100
AcDbEntity
  8
1
  6
CONTINUOUS
370
50
 62
4
100
AcDbLine
 10
15.688196
 20
1.226569
 30
0.0
 11
15.504088
 21
1.300902
 31
0.0
  0
LINE
  5
700
330
1F
100
AcDbEntity
  8
1
  6
CONTINUOUS
370
50
 62
4
100
AcDbLine
 10
9.782886999999999
 20
1.22613
 30
0.0
 11
9.598433
 21
1.300595
 31
0.0
  0
LINE
  5
701
330
1F
100
AcDbEntity
  8
1
  6
CONTINUOUS
370
50
 62
4
100
AcDbLine
 10
4.916142
 20
-1.283178
 30
0.0
 11
4.668876
 21
-1.18351
 31
0.0
  0
LINE
  5
702
330
1F
100
AcDbEntity
  8
1
  6
CONTINUOUS
370
50
 62
4
100
AcDbLine
 10
28.605402
 20
-1.308192
 30
0.0
 11
28.418196
 21
-1.233925
 31
0.0
  0
LINE
  5
703
330
1F
100
AcDbEntity
  8
1
  6
CONTINUOUS
370
50
 62
4
100
AcDbLine
 10
22.224672
 20
0.527257
 30
0.0
 11
21.954914
 21
0.6330199999999999
 31
0.0
  0
LINE
  5
704
330
1F
100
AcDbEntity
  8
1
  6
CONTINUOUS
370
50
 62
4
100
AcDbLine
 10
16.319731
 20
0.527502
 30
0.0
 11
16.049706
 21
0.633169
 31
0.0
  0
LINE
  5
705
330
1F
100
AcDbEntity
  8
1
  6
CONTINUOUS
370
50
 62
4
100
AcDbLine
 10
28.130346
 20
0.527245
 30
0.0
 11
27.860727
 21
0.632168
 31
0.0
  0
LINE
  5
706
330
1F
100
AcDbEntity
  8
1
  6
CONTINUOUS
370
50
 62
4
100
AcDbLine
 10
19.60688
 20
-1.316052
 30
0.0
 11
19.430815
 21
-1.247871
 31
0.0
  0
LINE
  5
707
330
1F
100
AcDbEntity
  8
1
  6
CONTINUOUS
370
50
 62
4
100
AcDbLine
 10
25.512384
 20
-1.315711
 30
0.0
 11
25.336185
 21
-1.247495
 31
0.0
  0
LINE
  5
708
330
1F
100
AcDbEntity
  8
1
  6
CONTINUOUS
370
50
 62
4
100
AcDbLine
 10
13.700659
 20
-1.31608
 30
0.0
 11
13.524965
 21
-1.248083
 31
0.0
  0
LINE
  5
709
330
1F
100
AcDbEntity
  8
1
  6
CONTINUOUS
370
50
 62
4
100
AcDbLine
 10
10.413464
 20
0.5284
 30
0.0
 11
10.143331
 21
0.6327539999999999
 31
0.0
  0
LINE
  5
70A
330
1F
100
AcDbEntity
  8
1
  6
CONTINUOUS
370
50
 62
4
100
AcDbLine
 10
22.733688
 20
-1.32051
 30
0.0
 11
22.540367
 21
-1.246336
 31
0.0
  0
LINE
  5
70B
330
1F
100
AcDbEntity
  8
1
  6
CONTINUOUS
370
50
 62
4
100
AcDbLine
 10
34.064777
 20
0.517551
 30
0.0
 11
33.792416
 21
0.621925
 31
0.0
  0
LINE
  5
70C
330
1F
100
AcDbEntity
  8
1
  6
CONTINUOUS
370
50
 62
4
100
AcDbLine
 10
7.805942
 20
-1.320131
 30
0.0
 11
7.628596
 21
-1.252283
 31
0.0
  0
LINE
  5
70D
330
1F
100
AcDbEntity
  8
1
  6
CONTINUOUS
370
50
 62
4
100
AcDbLine
 10
21.529404
 20
1.254269
 30
0.0
 11
21.355772
 21
1.320606
 31
0.0
  0
LINE
  5
70E
330
1F
100
AcDbEntity
  8
1
  6
CONTINUOUS
370
50
 62
4
100
AcDbLine
 10
27.416475
 20
1.262252
 30
0.0
 11
27.241251
 21
1.327843
 31
0.0
  0
LINE
  5
70F
330
1F
100
AcDbEntity
  8
1
  6
CONTINUOUS
370
50
 62
4
100
AcDbLine
 10
33.301895
 20
1.270941
 30
0.0
 11
33.152142
 21
1.326487
 31
0.0
  0
LINE
  5
710
330
1F
100
AcDbEntity
  8
1
  6
CONTINUOUS
370
50
 62
4
100
AcDbLine
 10
31.45488
 20
-1.328123
 30
0.0
 11
31.302679
 21
-1.272001
 31
0.0
  0
LINE
  5
711
330
1F
100
AcDbEntity
  8
1
  6
CONTINUOUS
370
50
 62
4
100
AcDbLine
 10
16.889339
 20
-1.34153
 30
0.0
 11
16.687099
 21
-1.268554
 31
0.0
  0
LINE
  5
712
330
1F
100
AcDbEntity
  8
1
  6
CONTINUOUS
370
50
 62
4
100
AcDbLine
 10
24.58304
 20
1.278592
 30
0.0
 11
24.403191
 21
1.342556
 31
0.0
  0
LINE
  5
713
330
1F
100
AcDbEntity
  8
1
  6
CONTINUOUS
370
50
 62
4
100
AcDbLine
 10
18.680431
 20
1.27681
 30
0.0
 11
18.482679
 21
1.346992
 31
0.0
  0
LINE
  5
714
330
1F
100
AcDbEntity
  8
1
  6
CONTINUOUS
370
50
 62
4
100
AcDbLine
 10
11.0082
 20
-1.349942
 30
0.0
 11
10.8018
 21
-1.277151
 31
0.0
  0
LINE
  5
715
330
1F
100
AcDbEntity
  8
1
  6
CONTINUOUS
370
50
 62
4
100
AcDbLine
 10
5.140844
 20
-1.362122
 30
0.0
 11
4.916142
 21
-1.283178
 31
0.0
  0
LINE
  5
716
330
1F
100
AcDbEntity
  8
1
  6
CONTINUOUS
370
50
 62
4
100
AcDbLine
 10
33.792416
 20
0.621925
 30
0.0
 11
33.519943
 21
0.7166659999999999
 31
0.0
  0
LINE
  5
717
330
1F
100
AcDbEntity
  8
1
  6
CONTINUOUS
370
50
 62
4
100
AcDbLine
 10
12.738271
 20
1.290023
 30
0.0
 11
12.557613
 21
1.352739
 31
0.0
  0
LINE
  5
718
330
1F
100
AcDbEntity
  8
1
  6
CONTINUOUS
370
50
 62
4
100
AcDbLine
 10
4.800351
 20
0.40244
 30
0.0
 11
4.535856
 21
0.494241
 31
0.0
  0
LINE
  5
719
330
1F
100
AcDbEntity
  8
1
  6
CONTINUOUS
370
50
 62
4
100
AcDbLine
 10
30.456211
 20
1.291485
 30
0.0
 11
30.274155
 21
1.35418
 31
0.0
  0
LINE
  5
71A
330
1F
100
AcDbEntity
  8
1
  6
CONTINUOUS
370
50
 62
4
100
AcDbLine
 10
6.830276
 20
1.290482
 30
0.0
 11
6.631359
 21
1.358961
 31
0.0
  0
LINE
  5
71B
330
1F
100
AcDbEntity
  8
1
  6
CONTINUOUS
370
50
 62
4
100
AcDbLine
 10
27.860727
 20
0.632168
 30
0.0
 11
27.590916
 21
0.72478
 31
0.0
  0
LINE
  5
71C
330
1F
100
AcDbEntity
  8
1
  6
CONTINUOUS
370
50
 62
4
100
AcDbLine
 10
21.954914
 20
0.6330199999999999
 30
0.0
 11
21.685003
 21
0.724289
 31
0.0
  0
LINE
  5
71D
330
1F
100
AcDbEntity
  8
1
  6
CONTINUOUS
370
50
 62
4
100
AcDbLine
 10
15.504088
 20
1.300902
 30
0.0
 11
15.319699
 21
1.362742
 31
0.0
  0
LINE
  5
71E
330
1F
100
AcDbEntity
  8
1
  6
CONTINUOUS
370
50
 62
4
100
AcDbLine
 10
9.598433
 20
1.300595
 30
0.0
 11
9.413706999999999
 21
1.362497
 31
0.0
  0
LINE
  5
71F
330
1F
100
AcDbEntity
  8
1
  6
CONTINUOUS
370
50
 62
4
100
AcDbLine
 10
16.049706
 20
0.633169
 30
0.0
 11
15.779685
 21
0.722088
 31
0.0
  0
LINE
  5
720
330
1F
100
AcDbEntity
  8
1
  6
CONTINUOUS
370
50
 62
4
100
AcDbLine
 10
28.792286
 20
-1.369636
 30
0.0
 11
28.605402
 21
-1.308192
 31
0.0
  0
LINE
  5
721
330
1F
100
AcDbEntity
  8
1
  6
CONTINUOUS
370
50
 62
4
100
AcDbLine
 10
1.964713
 20
0.5160629999999999
 30
0.0
 11
1.886746
 21
0.541592
 31
0.0
  0
LINE
  5
722
330
1F
100
AcDbEntity
  8
1
  6
CONTINUOUS
370
50
 62
4
100
AcDbLine
 10
10.143331
 20
0.6327539999999999
 30
0.0
 11
9.873353
 21
0.720939
 31
0.0
  0
LINE
  5
723
330
1F
100
AcDbEntity
  8
1
  6
CONTINUOUS
370
50
 62
4
100
AcDbLine
 10
13.876542
 20
-1.372613
 30
0.0
 11
13.700659
 21
-1.31608
 31
0.0
  0
LINE
  5
724
330
1F
100
AcDbEntity
  8
1
  6
CONTINUOUS
370
50
 62
4
100
AcDbLine
 10
19.783039
 20
-1.372594
 30
0.0
 11
19.60688
 21
-1.316052
 31
0.0
  0
LINE
  5
725
330
1F
100
AcDbEntity
  8
1
  6
CONTINUOUS
370
50
 62
4
100
AcDbLine
 10
25.688971
 20
-1.372348
 30
0.0
 11
25.512384
 21
-1.315711
 31
0.0
  0
LINE
  5
726
330
1F
100
AcDbEntity
  8
1
  6
CONTINUOUS
370
50
 62
4
100
AcDbLine
 10
21.355772
 20
1.320606
 30
0.0
 11
21.182362
 21
1.375556
 31
0.0
  0
LINE
  5
727
330
1F
100
AcDbEntity
  8
1
  6
CONTINUOUS
370
50
 62
4
100
AcDbLine
 10
7.983206999999999
 20
-1.376284
 30
0.0
 11
7.805942
 21
-1.320131
 31
0.0
  0
LINE
  5
728
330
1F
100
AcDbEntity
  8
1
  6
CONTINUOUS
370
50
 62
4
100
AcDbLine
 10
33.152142
 20
1.326487
 30
0.0
 11
33.002541
 21
1.373583
 31
0.0
  0
LINE
  5
729
330
1F
100
AcDbEntity
  8
1
  6
CONTINUOUS
370
50
 62
4
100
AcDbLine
 10
22.926159
 20
-1.380936
 30
0.0
 11
22.733688
 21
-1.32051
 31
0.0
  0
LINE
  5
72A
330
1F
100
AcDbEntity
  8
1
  6
CONTINUOUS
370
50
 62
4
100
AcDbLine
 10
31.607075
 20
-1.375579
 30
0.0
 11
31.45488
 21
-1.328123
 31
0.0
  0
LINE
  5
72B
330
1F
100
AcDbEntity
  8
1
  6
CONTINUOUS
370
50
 62
4
100
AcDbLine
 10
27.241251
 20
1.327843
 30
0.0
 11
27.065895
 21
1.381967
 31
0.0
  0
LINE
  5
72C
330
1F
100
AcDbEntity
  8
1
  6
CONTINUOUS
370
50
 62
4
100
AcDbLine
 10
24.403191
 20
1.342556
 30
0.0
 11
24.223391
 21
1.394585
 31
0.0
  0
LINE
  5
72D
330
1F
100
AcDbEntity
  8
1
  6
CONTINUOUS
370
50
 62
4
100
AcDbLine
 10
33.519943
 20
0.7166659999999999
 30
0.0
 11
33.247238
 21
0.7955059999999999
 31
0.0
  0
LINE
  5
72E
330
1F
100
AcDbEntity
  8
1
  6
CONTINUOUS
370
50
 62
4
100
AcDbLine
 10
17.089712
 20
-1.399192
 30
0.0
 11
16.889339
 21
-1.34153
 31
0.0
  0
LINE
  5
72F
330
1F
100
AcDbEntity
  8
1
  6
CONTINUOUS
370
50
 62
4
100
AcDbLine
 10
9.873353
 20
0.720939
 30
0.0
 11
9.603461
 21
0.798188
 31
0.0
  0
LINE
  5
730
330
1F
100
AcDbEntity
  8
1
  6
CONTINUOUS
370
50
 62
4
100
AcDbLine
 10
18.482679
 20
1.346992
 30
0.0
 11
18.285301
 21
1.40252
 31
0.0
  0
LINE
  5
731
330
1F
100
AcDbEntity
  8
1
  6
CONTINUOUS
370
50
 62
4
100
AcDbLine
 10
12.557613
 20
1.352739
 30
0.0
 11
12.376983
 21
1.403103
 31
0.0
  0
LINE
  5
732
330
1F
100
AcDbEntity
  8
1
  6
CONTINUOUS
370
50
 62
4
100
AcDbLine
 10
15.779685
 20
0.722088
 30
0.0
 11
15.509858
 21
0.797217
 31
0.0
  0
LINE
  5
733
330
1F
100
AcDbEntity
  8
1
  6
CONTINUOUS
370
50
 62
4
100
AcDbLine
 10
11.215241
 20
-1.406868
 30
0.0
 11
11.0082
 21
-1.349942
 31
0.0
  0
LINE
  5
734
330
1F
100
AcDbEntity
  8
1
  6
CONTINUOUS
370
50
 62
4
100
AcDbLine
 10
27.590916
 20
0.72478
 30
0.0
 11
27.321102
 21
0.798665
 31
0.0
  0
LINE
  5
735
330
1F
100
AcDbEntity
  8
1
  6
CONTINUOUS
370
50
 62
4
100
AcDbLine
 10
30.274155
 20
1.35418
 30
0.0
 11
30.091461
 21
1.404188
 31
0.0
  0
LINE
  5
736
330
1F
100
AcDbEntity
  8
1
  6
CONTINUOUS
370
50
 62
4
100
AcDbLine
 10
21.685003
 20
0.724289
 30
0.0
 11
21.415249
 21
0.7973119999999999
 31
0.0
  0
LINE
  5
737
330
1F
100
AcDbEntity
  8
1
  6
CONTINUOUS
370
50
 62
4
100
AcDbLine
 10
6.631359
 20
1.358961
 30
0.0
 11
6.432573
 21
1.412122
 31
0.0
  0
LINE
  5
738
330
1F
100
AcDbEntity
  8
1
  6
CONTINUOUS
370
50
 62
4
100
AcDbLine
 10
9.413706999999999
 20
1.362497
 30
0.0
 11
9.22892
 21
1.411256
 31
0.0
  0
LINE
  5
739
330
1F
100
AcDbEntity
  8
1
  6
CONTINUOUS
370
50
 62
4
100
AcDbLine
 10
15.319699
 20
1.362742
 30
0.0
 11
15.1349
 21
1.411474
 31
0.0
  0
LINE
  5
73A
330
1F
100
AcDbEntity
  8
1
  6
CONTINUOUS
370
50
 62
4
100
AcDbLine
 10
33.002541
 20
1.373583
 30
0.0
 11
32.852821
 21
1.412004
 31
0.0
  0
LINE
  5
73B
330
1F
100
AcDbEntity
  8
1
  6
CONTINUOUS
370
50
 62
4
100
AcDbLine
 10
4.2732
 20
1.025173
 30
0.0
 11
4.159193999999999
 21
1.054406
 31
0.0
  0
LINE
  5
73C
330
1F
100
AcDbEntity
  8
1
  6
CONTINUOUS
370
50
 62
4
100
AcDbLine
 10
5.373024
 20
-1.421424
 30
0.0
 11
5.140844
 21
-1.362122
 31
0.0
  0
LINE
  5
73D
330
1F
100
AcDbEntity
  8
1
  6
CONTINUOUS
370
50
 62
4
100
AcDbLine
 10
28.98027
 20
-1.417575
 30
0.0
 11
28.792286
 21
-1.369636
 31
0.0
  0
LINE
  5
73E
330
1F
100
AcDbEntity
  8
1
  6
CONTINUOUS
370
50
 62
4
100
AcDbLine
 10
31.75919
 20
-1.414091
 30
0.0
 11
31.607075
 21
-1.375579
 31
0.0
  0
LINE
  5
73F
330
1F
100
AcDbEntity
  8
1
  6
CONTINUOUS
370
50
 62
4
100
AcDbLine
 10
25.865566
 20
-1.416934
 30
0.0
 11
25.688971
 21
-1.372348
 31
0.0
  0
LINE
  5
740
330
1F
100
AcDbEntity
  8
1
  6
CONTINUOUS
370
50
 62
4
100
AcDbLine
 10
14.052913
 20
-1.417117
 30
0.0
 11
13.876542
 21
-1.372613
 31
0.0
  0
LINE
  5
741
330
1F
100
AcDbEntity
  8
1
  6
CONTINUOUS
370
50
 62
4
100
AcDbLine
 10
19.959545
 20
-1.417083
 30
0.0
 11
19.783039
 21
-1.372594
 31
0.0
  0
LINE
  5
742
330
1F
100
AcDbEntity
  8
1
  6
CONTINUOUS
370
50
 62
4
100
AcDbLine
 10
21.182362
 20
1.375556
 30
0.0
 11
21.008698
 21
1.41878
 31
0.0
  0
LINE
  5
743
330
1F
100
AcDbEntity
  8
1
  6
CONTINUOUS
370
50
 62
4
100
AcDbLine
 10
8.160357
 20
-1.420124
 30
0.0
 11
7.983206999999999
 21
-1.376284
 31
0.0
  0
LINE
  5
744
330
1F
100
AcDbEntity
  8
1
  6
CONTINUOUS
370
50
 62
4
100
AcDbLine
 10
4.159193999999999
 20
1.054406
 30
0.0
 11
4.044487
 21
1.082136
 31
0.0
  0
LINE
  5
745
330
1F
100
AcDbEntity
  8
1
  6
CONTINUOUS
370
50
 62
4
100
AcDbLine
 10
27.065895
 20
1.381967
 30
0.0
 11
26.890579
 21
1.423985
 31
0.0
  0
LINE
  5
746
330
1F
100
AcDbEntity
  8
1
  6
CONTINUOUS
370
50
 62
4
100
AcDbLine
 10
23.118549
 20
-1.42684
 30
0.0
 11
22.926159
 21
-1.380936
 31
0.0
  0
LINE
  5
747
330
1F
100
AcDbEntity
  8
1
  6
CONTINUOUS
370
50
 62
4
100
AcDbLine
 10
15.509858
 20
0.797217
 30
0.0
 11
15.239955
 21
0.8589859999999999
 31
0.0
  0
LINE
  5
748
330
1F
100
AcDbEntity
  8
1
  6
CONTINUOUS
370
50
 62
4
100
AcDbLine
 10
9.603461
 20
0.798188
 30
0.0
 11
9.333376999999999
 21
0.8598659999999999
 31
0.0
  0
LINE
  5
749
330
1F
100
AcDbEntity
  8
1
  6
CONTINUOUS
370
50
 62
4
100
AcDbLine
 10
4.044487
 20
1.082136
 30
0.0
 11
3.929228
 21
1.108413
 31
0.0
  0
LINE
  5
74A
330
1F
100
AcDbEntity
  8
1
  6
CONTINUOUS
370
50
 62
4
100
AcDbLine
 10
21.415249
 20
0.7973119999999999
 30
0.0
 11
21.145584
 21
0.857957
 31
0.0
  0
LINE
  5
74B
330
1F
100
AcDbEntity
  8
1
  6
CONTINUOUS
370
50
 62
4
100
AcDbLine
 10
24.223391
 20
1.394585
 30
0.0
 11
24.043943
 21
1.434091
 31
0.0
  0
LINE
  5
74C
330
1F
100
AcDbEntity
  8
1
  6
CONTINUOUS
370
50
 62
4
100
AcDbLine
 10
27.321102
 20
0.798665
 30
0.0
 11
27.051485
 21
0.857127
 31
0.0
  0
LINE
  5
74D
330
1F
100
AcDbEntity
  8
1
  6
CONTINUOUS
370
50
 62
4
100
AcDbLine
 10
3.929228
 20
1.108413
 30
0.0
 11
3.813566
 21
1.13329
 31
0.0
  0
LINE
  5
74E
330
1F
100
AcDbEntity
  8
1
  6
CONTINUOUS
370
50
 62
4
100
AcDbLine
 10
33.247238
 20
0.7955059999999999
 30
0.0
 11
32.974613
 21
0.853857
 31
0.0
  0
LINE
  5
74F
330
1F
100
AcDbEntity
  8
1
  6
CONTINUOUS
370
50
 62
4
100
AcDbLine
 10
17.28997
 20
-1.441053
 30
0.0
 11
17.089712
 21
-1.399192
 31
0.0
  0
LINE
  5
750
330
1F
100
AcDbEntity
  8
1
  6
CONTINUOUS
370
50
 62
4
100
AcDbLine
 10
12.376983
 20
1.403103
 30
0.0
 11
12.196295
 21
1.440391
 31
0.0
  0
LINE
  5
751
330
1F
100
AcDbEntity
  8
1
  6
CONTINUOUS
370
50
 62
4
100
AcDbLine
 10
18.285301
 20
1.40252
 30
0.0
 11
18.088657
 21
1.442686
 31
0.0
  0
LINE
  5
752
330
1F
100
AcDbEntity
  8
1
  6
CONTINUOUS
370
50
 62
4
100
AcDbLine
 10
30.091461
 20
1.404188
 30
0.0
 11
29.909672
 21
1.441204
 31
0.0
  0
LINE
  5
753
330
1F
100
AcDbEntity
  8
1
  6
CONTINUOUS
370
50
 62
4
100
AcDbLine
 10
3.813566
 20
1.13329
 30
0.0
 11
3.697652
 21
1.156818
 31
0.0
  0
LINE
  5
754
330
1F
100
AcDbEntity
  8
1
  6
CONTINUOUS
370
50
 62
4
100
AcDbLine
 10
32.852821
 20
1.412004
 30
0.0
 11
32.702698
 21
1.441522
 31
0.0
  0
LINE
  5
755
330
1F
100
AcDbEntity
  8
1
  6
CONTINUOUS
370
50
 62
4
100
AcDbLine
 10
11.421292
 20
-1.446999
 30
0.0
 11
11.215241
 21
-1.406868
 31
0.0
  0
LINE
  5
756
330
1F
100
AcDbEntity
  8
1
  6
CONTINUOUS
370
50
 62
4
100
AcDbLine
 10
2.043039
 20
0.500961
 30
0.0
 11
1.964713
 21
0.5160629999999999
 31
0.0
  0
LINE
  5
757
330
1F
100
AcDbEntity
  8
1
  6
CONTINUOUS
370
50
 62
4
100
AcDbLine
 10
31.911196
 20
-1.443379
 30
0.0
 11
31.75919
 21
-1.414091
 31
0.0
  0
LINE
  5
758
330
1F
100
AcDbEntity
  8
1
  6
CONTINUOUS
370
50
 62
4
100
AcDbLine
 10
3.697652
 20
1.156818
 30
0.0
 11
3.581635
 21
1.179047
 31
0.0
  0
LINE
  5
759
330
1F
100
AcDbEntity
  8
1
  6
CONTINUOUS
370
50
 62
4
100
AcDbLine
 10
9.22892
 20
1.411256
 30
0.0
 11
9.044447
 21
1.446455
 31
0.0
  0
LINE
  5
75A
330
1F
100
AcDbEntity
  8
1
  6
CONTINUOUS
370
50
 62
4
100
AcDbLine
 10
15.1349
 20
1.411474
 30
0.0
 11
14.950089
 21
1.446612
 31
0.0
  0
LINE
  5
75B
330
1F
100
AcDbEntity
  8
1
  6
CONTINUOUS
370
50
 62
4
100
AcDbLine
 10
6.432573
 20
1.412122
 30
0.0
 11
6.232989
 21
1.449277
 31
0.0
  0
LINE
  5
75C
330
1F
100
AcDbEntity
  8
1
  6
CONTINUOUS
370
50
 62
4
100
AcDbLine
 10
26.041861
 20
-1.449076
 30
0.0
 11
25.865566
 21
-1.416934
 31
0.0
  0
LINE
  5
75D
330
1F
100
AcDbEntity
  8
1
  6
CONTINUOUS
370
50
 62
4
100
AcDbLine
 10
20.136
 20
-1.449152
 30
0.0
 11
19.959545
 21
-1.417083
 31
0.0
  0
LINE
  5
75E
330
1F
100
AcDbEntity
  8
1
  6
CONTINUOUS
370
50
 62
4
100
AcDbLine
 10
14.229357
 20
-1.449149
 30
0.0
 11
14.052913
 21
-1.417117
 31
0.0
  0
LINE
  5
75F
330
1F
100
AcDbEntity
  8
1
  6
CONTINUOUS
370
50
 62
4
100
AcDbLine
 10
3.581635
 20
1.179047
 30
0.0
 11
3.465666
 21
1.200031
 31
0.0
  0
LINE
  5
760
330
1F
100
AcDbEntity
  8
1
  6
CONTINUOUS
370
50
 62
4
100
AcDbLine
 10
21.008698
 20
1.41878
 30
0.0
 11
20.834682
 21
1.449922
 31
0.0
  0
LINE
  5
761
330
1F
100
AcDbEntity
  8
1
  6
CONTINUOUS
370
50
 62
4
100
AcDbLine
 10
29.169128
 20
-1.451204
 30
0.0
 11
28.98027
 21
-1.417575
 31
0.0
  0
LINE
  5
762
330
1F
100
AcDbEntity
  8
1
  6
CONTINUOUS
370
50
 62
4
100
AcDbLine
 10
8.337861
 20
-1.45132
 30
0.0
 11
8.160357
 21
-1.420124
 31
0.0
  0
LINE
  5
763
330
1F
100
AcDbEntity
  8
1
  6
CONTINUOUS
370
50
 62
4
100
AcDbLine
 10
26.890579
 20
1.423985
 30
0.0
 11
26.715048
 21
1.453603
 31
0.0
  0
LINE
  5
764
330
1F
100
AcDbEntity
  8
1
  6
CONTINUOUS
370
50
 62
4
100
AcDbLine
 10
27.051485
 20
0.857127
 30
0.0
 11
26.781792
 21
0.9010809999999999
 31
0.0
  0
LINE
  5
765
330
1F
100
AcDbEntity
  8
1
  6
CONTINUOUS
370
50
 62
4
100
AcDbLine
 10
21.145584
 20
0.857957
 30
0.0
 11
20.875731
 21
0.90187
 31
0.0
  0
LINE
  5
766
330
1F
100
AcDbEntity
  8
1
  6
CONTINUOUS
370
50
 62
4
100
AcDbLine
 10
3.465666
 20
1.200031
 30
0.0
 11
3.381011
 21
1.213801
 31
0.0
  0
LINE
  5
767
330
1F
100
AcDbEntity
  8
1
  6
CONTINUOUS
370
50
 62
4
100
AcDbLine
 10
5.604125
 20
-1.458954
 30
0.0
 11
5.373024
 21
-1.421424
 31
0.0
  0
LINE
  5
768
330
1F
100
AcDbEntity
  8
1
  6
CONTINUOUS
370
50
 62
4
100
AcDbLine
 10
32.974613
 20
0.853857
 30
0.0
 11
32.702114
 21
0.89808
 31
0.0
  0
LINE
  5
769
330
1F
100
AcDbEntity
  8
1
  6
CONTINUOUS
370
50
 62
4
100
AcDbLine
 10
23.311659
 20
-1.457615
 30
0.0
 11
23.118549
 21
-1.42684
 31
0.0
  0
LINE
  5
76A
330
1F
100
AcDbEntity
  8
1
  6
CONTINUOUS
370
50
 62
4
100
AcDbLine
 10
15.239955
 20
0.8589859999999999
 30
0.0
 11
14.96989
 21
0.9017229999999999
 31
0.0
  0
LINE
  5
76B
330
1F
100
AcDbEntity
  8
1
  6
CONTINUOUS
370
50
 62
4
100
AcDbLine
 10
9.333376999999999
 20
0.8598659999999999
 30
0.0
 11
9.063274
 21
0.9000699999999999
 31
0.0
  0
LINE
  5
76C
330
1F
100
AcDbEntity
  8
1
  6
CONTINUOUS
370
50
 62
4
100
AcDbLine
 10
24.043943
 20
1.434091
 30
0.0
 11
23.864738
 21
1.460507
 31
0.0
  0
LINE
  5
76D
330
1F
100
AcDbEntity
  8
1
  6
CONTINUOUS
370
50
 62
4
100
AcDbLine
 10
3.381011
 20
1.213801
 30
0.0
 11
3.295786
 21
1.225456
 31
0.0
  0
LINE
  5
76E
330
1F
100
AcDbEntity
  8
1
  6
CONTINUOUS
370
50
 62
4
100
AcDbLine
 10
32.702698
 20
1.441522
 30
0.0
 11
32.55201
 21
1.461897
 31
0.0
  0
LINE
  5
76F
330
1F
100
AcDbEntity
  8
1
  6
CONTINUOUS
370
50
 62
4
100
AcDbLine
 10
12.196295
 20
1.440391
 30
0.0
 11
12.014833
 21
1.464221
 31
0.0
  0
LINE
  5
770
330
1F
100
AcDbEntity
  8
1
  6
CONTINUOUS
370
50
 62
4
100
AcDbLine
 10
32.062973
 20
-1.4632
 30
0.0
 11
31.911196
 21
-1.443379
 31
0.0
  0
LINE
  5
771
330
1F
100
AcDbEntity
  8
1
  6
CONTINUOUS
370
50
 62
4
100
AcDbLine
 10
29.909672
 20
1.441204
 30
0.0
 11
29.728012
 21
1.464835
 31
0.0
  0
LINE
  5
772
330
1F
100
AcDbEntity
  8
1
  6
CONTINUOUS
370
50
 62
4
100
AcDbLine
 10
17.491596
 20
-1.466456
 30
0.0
 11
17.28997
 21
-1.441053
 31
0.0
  0
LINE
  5
773
330
1F
100
AcDbEntity
  8
1
  6
CONTINUOUS
370
50
 62
4
100
AcDbLine
 10
18.088657
 20
1.442686
 30
0.0
 11
17.891718
 21
1.466901
 31
0.0
  0
LINE
  5
774
330
1F
100
AcDbEntity
  8
1
  6
CONTINUOUS
370
50
 62
4
100
AcDbLine
 10
9.044447
 20
1.446455
 30
0.0
 11
8.860089
 21
1.467764
 31
0.0
  0
LINE
  5
775
330
1F
100
AcDbEntity
  8
1
  6
CONTINUOUS
370
50
 62
4
100
AcDbLine
 10
14.950089
 20
1.446612
 30
0.0
 11
14.765687
 21
1.467839
 31
0.0
  0
LINE
  5
776
330
1F
100
AcDbEntity
  8
1
  6
CONTINUOUS
370
50
 62
4
100
AcDbLine
 10
3.295786
 20
1.225456
 30
0.0
 11
3.210041
 21
1.235008
 31
0.0
  0
LINE
  5
777
330
1F
100
AcDbEntity
  8
1
  6
CONTINUOUS
370
50
 62
4
100
AcDbLine
 10
26.217785
 20
-1.468472
 30
0.0
 11
26.041861
 21
-1.449076
 31
0.0
  0
LINE
  5
778
330
1F
100
AcDbEntity
  8
1
  6
CONTINUOUS
370
50
 62
4
100
AcDbLine
 10
20.311934
 20
-1.468489
 30
0.0
 11
20.136
 21
-1.449152
 31
0.0
  0
LINE
  5
779
330
1F
100
AcDbEntity
  8
1
  6
CONTINUOUS
370
50
 62
4
100
AcDbLine
 10
11.627224
 20
-1.469622
 30
0.0
 11
11.421292
 21
-1.446999
 31
0.0
  0
LINE
  5
77A
330
1F
100
AcDbEntity
  8
1
  6
CONTINUOUS
370
50
 62
4
100
AcDbLine
 10
14.405421
 20
-1.468468
 30
0.0
 11
14.229357
 21
-1.449149
 31
0.0
  0
LINE
  5
77B
330
1F
100
AcDbEntity
  8
1
  6
CONTINUOUS
370
50
 62
4
100
AcDbLine
 10
20.834682
 20
1.449922
 30
0.0
 11
20.660719
 21
1.468705
 31
0.0
  0
LINE
  5
77C
330
1F
100
AcDbEntity
  8
1
  6
CONTINUOUS
370
50
 62
4
100
AcDbLine
 10
6.232989
 20
1.449277
 30
0.0
 11
6.033284
 21
1.470082
 31
0.0
  0
LINE
  5
77D
330
1F
100
AcDbEntity
  8
1
  6
CONTINUOUS
370
50
 62
4
100
AcDbLine
 10
8.515464999999999
 20
-1.469615
 30
0.0
 11
8.337861
 21
-1.45132
 31
0.0
  0
LINE
  5
77E
330
1F
100
AcDbEntity
  8
1
  6
CONTINUOUS
370
50
 62
4
100
AcDbLine
 10
29.358107
 20
-1.47029
 30
0.0
 11
29.169128
 21
-1.451204
 31
0.0
  0
LINE
  5
77F
330
1F
100
AcDbEntity
  8
1
  6
CONTINUOUS
370
50
 62
4
100
AcDbLine
 10
32.702114
 20
0.89808
 30
0.0
 11
32.429455
 21
0.9245749999999999
 31
0.0
  0
LINE
  5
780
330
1F
100
AcDbEntity
  8
1
  6
CONTINUOUS
370
50
 62
4
100
AcDbLine
 10
26.715048
 20
1.453603
 30
0.0
 11
26.539312
 21
1.470586
 31
0.0
  0
LINE
  5
781
330
1F
100
AcDbEntity
  8
1
  6
CONTINUOUS
370
50
 62
4
100
AcDbLine
 10
26.781792
 20
0.9010809999999999
 30
0.0
 11
26.511934
 21
0.9252119999999999
 31
0.0
  0
LINE
  5
782
330
1F
100
AcDbEntity
  8
1
  6
CONTINUOUS
370
50
 62
4
100
AcDbLine
 10
3.210041
 20
1.235008
 30
0.0
 11
3.123827
 21
1.242469
 31
0.0
  0
LINE
  5
783
330
1F
100
AcDbEntity
  8
1
  6
CONTINUOUS
370
50
 62
4
100
AcDbLine
 10
9.063274
 20
0.9000699999999999
 30
0.0
 11
8.793372999999999
 21
0.9222229999999999
 31
0.0
  0
LINE
  5
784
330
1F
100
AcDbEntity
  8
1
  6
CONTINUOUS
370
50
 62
4
100
AcDbLine
 10
20.875731
 20
0.90187
 30
0.0
 11
20.605856
 21
0.923626
 31
0.0
  0
LINE
  5
785
330
1F
100
AcDbEntity
  8
1
  6
CONTINUOUS
370
50
 62
4
100
AcDbLine
 10
23.505079
 20
-1.473043
 30
0.0
 11
23.311659
 21
-1.457615
 31
0.0
  0
LINE
  5
786
330
1F
100
AcDbEntity
  8
1
  6
CONTINUOUS
370
50
 62
4
100
AcDbLine
 10
14.96989
 20
0.9017229999999999
 30
0.0
 11
14.699964
 21
0.92224
 31
0.0
  0
LINE
  5
787
330
1F
100
AcDbEntity
  8
1
  6
CONTINUOUS
370
50
 62
4
100
AcDbLine
 10
32.55201
 20
1.461897
 30
0.0
 11
32.401222
 21
1.472897
 31
0.0
  0
LINE
  5
788
330
1F
100
AcDbEntity
  8
1
  6
CONTINUOUS
370
50
 62
4
100
AcDbLine
 10
23.864738
 20
1.460507
 30
0.0
 11
23.68519
 21
1.473517
 31
0.0
  0
LINE
  5
789
330
1F
100
AcDbEntity
  8
1
  6
CONTINUOUS
370
50
 62
4
100
AcDbLine
 10
32.214664
 20
-1.473448
 30
0.0
 11
32.062973
 21
-1.4632
 31
0.0
  0
LINE
  5
78A
330
1F
100
AcDbEntity
  8
1
  6
CONTINUOUS
370
50
 62
4
100
AcDbLine
 10
5.834802
 20
-1.474466
 30
0.0
 11
5.604125
 21
-1.458954
 31
0.0
  0
LINE
  5
78B
330
1F
100
AcDbEntity
  8
1
  6
CONTINUOUS
370
50
 62
4
100
AcDbLine
 10
3.123827
 20
1.242469
 30
0.0
 11
3.037193
 21
1.247851
 31
0.0
  0
LINE
  5
78C
330
1F
100
AcDbEntity
  8
1
  6
CONTINUOUS
370
50
 62
4
100
AcDbLine
 10
12.014833
 20
1.464221
 30
0.0
 11
11.83342
 21
1.474478
 31
0.0
  0
LINE
  5
78D
330
1F
100
AcDbEntity
  8
1
  6
CONTINUOUS
370
50
 62
4
100
AcDbLine
 10
29.728012
 20
1.464835
 30
0.0
 11
29.546509
 21
1.474679
 31
0.0
  0
LINE
  5
78E
330
1F
100
AcDbEntity
  8
1
  6
CONTINUOUS
370
50
 62
4
100
AcDbLine
 10
17.693947
 20
-1.474955
 30
0.0
 11
17.491596
 21
-1.466456
 31
0.0
  0
LINE
  5
78F
330
1F
100
AcDbEntity
  8
1
  6
CONTINUOUS
370
50
 62
4
100
AcDbLine
 10
17.891718
 20
1.466901
 30
0.0
 11
17.693939
 21
1.474955
 31
0.0
  0
LINE
  5
790
330
1F
100
AcDbEntity
  8
1
  6
CONTINUOUS
370
50
 62
4
100
AcDbLine
 10
8.860089
 20
1.467764
 30
0.0
 11
8.675701
 21
1.474921
 31
0.0
  0
LINE
  5
791
330
1F
100
AcDbEntity
  8
1
  6
CONTINUOUS
370
50
 62
4
100
AcDbLine
 10
14.765687
 20
1.467839
 30
0.0
 11
14.581261
 21
1.474939
 31
0.0
  0
LINE
  5
792
330
1F
100
AcDbEntity
  8
1
  6
CONTINUOUS
370
50
 62
4
100
AcDbLine
 10
3.037193
 20
1.247851
 30
0.0
 11
2.950189
 21
1.251167
 31
0.0
  0
LINE
  5
793
330
1F
100
AcDbEntity
  8
1
  6
CONTINUOUS
370
50
 62
4
100
AcDbLine
 10
26.39398
 20
-1.474975
 30
0.0
 11
26.217785
 21
-1.468472
 31
0.0
  0
LINE
  5
794
330
1F
100
AcDbEntity
  8
1
  6
CONTINUOUS
370
50
 62
4
100
AcDbLine
 10
20.487684
 20
-1.474957
 30
0.0
 11
20.311934
 21
-1.468489
 31
0.0
  0
LINE
  5
795
330
1F
100
AcDbEntity
  8
1
  6
CONTINUOUS
370
50
 62
4
100
AcDbLine
 10
14.581374
 20
-1.474939
 30
0.0
 11
14.405421
 21
-1.468468
 31
0.0
  0
LINE
  5
796
330
1F
100
AcDbEntity
  8
1
  6
CONTINUOUS
370
50
 62
4
100
AcDbLine
 10
20.660719
 20
1.468705
 30
0.0
 11
20.487024
 21
1.474957
 31
0.0
  0
LINE
  5
797
330
1F
100
AcDbEntity
  8
1
  6
CONTINUOUS
370
50
 62
4
100
AcDbLine
 10
8.69296
 20
-1.474854
 30
0.0
 11
8.515464999999999
 21
-1.469615
 31
0.0
  0
LINE
  5
798
330
1F
100
AcDbEntity
  8
1
  6
CONTINUOUS
370
50
 62
4
100
AcDbLine
 10
26.539312
 20
1.470586
 30
0.0
 11
26.363726
 21
1.474782
 31
0.0
  0
LINE
  5
799
330
1F
100
AcDbEntity
  8
1
  6
CONTINUOUS
370
50
 62
4
100
AcDbLine
 10
11.833419
 20
-1.474478
 30
0.0
 11
11.627224
 21
-1.469622
 31
0.0
  0
LINE
  5
79A
330
1F
100
AcDbEntity
  8
1
  6
CONTINUOUS
370
50
 62
4
100
AcDbLine
 10
8.793372999999999
 20
0.9222229999999999
 30
0.0
 11
8.52342
 21
0.928561
 31
0.0
  0
LINE
  5
79B
330
1F
100
AcDbEntity
  8
1
  6
CONTINUOUS
370
50
 62
4
100
AcDbLine
 10
29.546509
 20
-1.474679
 30
0.0
 11
29.358107
 21
-1.47029
 31
0.0
  0
LINE
  5
79C
330
1F
100
AcDbEntity
  8
1
  6
CONTINUOUS
370
50
 62
4
100
AcDbLine
 10
6.033284
 20
1.470082
 30
0.0
 11
5.834798999999999
 21
1.474466
 31
0.0
  0
LINE
  5
79D
330
1F
100
AcDbEntity
  8
1
  6
CONTINUOUS
370
50
 62
4
100
AcDbLine
 10
14.699964
 20
0.92224
 30
0.0
 11
14.430145
 21
0.927512
 31
0.0
  0
LINE
  5
79E
330
1F
100
AcDbEntity
  8
1
  6
CONTINUOUS
370
50
 62
4
100
AcDbLine
 10
2.950189
 20
1.251167
 30
0.0
 11
2.862865
 21
1.252428
 31
0.0
  0
LINE
  5
79F
330
1F
100
AcDbEntity
  8
1
  6
CONTINUOUS
370
50
 62
4
100
AcDbLine
 10
32.429455
 20
0.9245749999999999
 30
0.0
 11
32.156773
 21
0.9283669999999999
 31
0.0
  0
LINE
  5
7A0
330
1F
100
AcDbEntity
  8
1
  6
CONTINUOUS
370
50
 62
4
100
AcDbLine
 10
20.605856
 20
0.923626
 30
0.0
 11
20.336178
 21
0.926708
 31
0.0
  0
LINE
  5
7A1
330
1F
100
AcDbEntity
  8
1
  6
CONTINUOUS
370
50
 62
4
100
AcDbLine
 10
32.401222
 20
1.472897
 30
0.0
 11
32.250443
 21
1.474467
 31
0.0
  0
LINE
  5
7A2
330
1F
100
AcDbEntity
  8
1
  6
CONTINUOUS
370
50
 62
4
100
AcDbLine
 10
26.511934
 20
0.9252119999999999
 30
0.0
 11
26.242214
 21
0.926759
 31
0.0
  0
LINE
  5
7A3
330
1F
100
AcDbEntity
  8
1
  6
CONTINUOUS
370
50
 62
4
100
AcDbLine
 10
32.36668
 20
-1.474091
 30
0.0
 11
32.214664
 21
-1.473448
 31
0.0
  0
LINE
  5
7A4
330
1F
100
AcDbEntity
  8
1
  6
CONTINUOUS
370
50
 62
4
100
AcDbLine
 10
23.692516
 20
-1.473251
 30
0.0
 11
23.505079
 21
-1.473043
 31
0.0
  0
LINE
  5
7A5
330
1F
100
AcDbEntity
  8
1
  6
CONTINUOUS
370
50
 62
4
100
AcDbLine
 10
5.880908
 20
-1.474912
 30
0.0
 11
2.043
 21
-1.4749
 31
0.0
  0
LINE
  5
7A6
330
1F
100
AcDbEntity
  8
1
  6
CONTINUOUS
370
50
 62
4
100
AcDbLine
 10
17.694042
 20
-1.474948
 30
0.0
 11
14.581477
 21
-1.474939
 31
0.0
  0
LINE
  5
7A7
330
1F
100
AcDbEntity
  8
1
  6
CONTINUOUS
370
50
 62
4
100
AcDbLine
 10
11.787313
 20
-1.47493
 30
0.0
 11
8.674966
 21
-1.474921
 31
0.0
  0
LINE
  5
7A8
330
1F
100
AcDbEntity
  8
1
  6
CONTINUOUS
370
50
 62
4
100
AcDbLine
 10
23.60067
 20
-1.474967
 30
0.0
 11
20.487904
 21
-1.474957
 31
0.0
  0
LINE
  5
7A9
330
1F
100
AcDbEntity
  8
1
  6
CONTINUOUS
370
50
 62
4
100
AcDbLine
 10
34.355198
 20
-1.475
 30
0.0
 11
32.30085
 21
-1.474994
 31
0.0
  0
LINE
  5
7AA
330
1F
100
AcDbEntity
  8
1
  6
CONTINUOUS
370
50
 62
4
100
AcDbLine
 10
29.507959
 20
-1.474985
 30
0.0
 11
26.39398
 21
-1.474975
 31
0.0
  0
LINE
  5
7AB
330
1F
100
AcDbEntity
  8
1
  6
CONTINUOUS
370
50
 62
4
100
AcDbLine
 10
0.0
 20
-3.0
 30
0.0
 11
1.0
 21
-3.0
 31
0.0
  0
LINE
  5
7AC
330
1F
100
AcDbEntity
  8
1
  6
CONTINUOUS
370
50
 62
4
100
AcDbLine
 10
0.0
 20
3.0
 30
0.0
 11
1.0
 21
3.0
 31
0.0
  0
LINE
  5
7AD
330
1F
100
AcDbEntity
  8
1
  6
CONTINUOUS
370
50
 62
4
100
AcDbLine
 10
8.674938
 20
1.474921
 30
0.0
 11
11.787313
 21
1.47493
 31
0.0
  0
LINE
  5
7AE
330
1F
100
AcDbEntity
  8
1
  6
CONTINUOUS
370
50
 62
4
100
AcDbLine
 10
32.300964
 20
1.474994
 30
0.0
 11
34.355198
 21
1.475
 31
0.0
  0
LINE
  5
7AF
330
1F
100
AcDbEntity
  8
1
  6
CONTINUOUS
370
50
 62
4
100
AcDbLine
 10
20.48778
 20
1.474957
 30
0.0
 11
23.60067
 21
1.474967
 31
0.0
  0
LINE
  5
7B0
330
1F
100
AcDbEntity
  8
1
  6
CONTINUOUS
370
50
 62
4
100
AcDbLine
 10
2.043
 20
1.4749
 30
0.0
 11
5.880908
 21
1.474912
 31
0.0
  0
LINE
  5
7B1
330
1F
100
AcDbEntity
  8
1
  6
CONTINUOUS
370
50
 62
4
100
AcDbLine
 10
14.581305
 20
1.474939
 30
0.0
 11
17.694042
 21
1.474948
 31
0.0
  0
LINE
  5
7B2
330
1F
100
AcDbEntity
  8
1
  6
CONTINUOUS
370
50
 62
4
100
AcDbLine
 10
26.394308
 20
1.474975
 30
0.0
 11
29.507959
 21
1.474985
 31
0.0
  0
LINE
  5
7B3
330
1F
100
AcDbEntity
  8
1
  6
CONTINUOUS
370
50
 62
4
100
AcDbLine
 10
23.505075
 20
1.473043
 30
0.0
 11
23.68519
 21
1.473517
 31
0.0
  0
LINE
  5
7B4
330
1F
100
AcDbEntity
  8
1
  6
CONTINUOUS
370
50
 62
4
100
AcDbLine
 10
2.776046
 20
1.25164
 30
0.0
 11
2.862865
 21
1.252428
 31
0.0
  0
LINE
  5
7B5
330
1F
100
AcDbEntity
  8
1
  6
CONTINUOUS
370
50
 62
4
100
AcDbLine
 10
5.834802
 20
-1.474466
 30
0.0
 11
6.074440999999999
 21
-1.467129
 31
0.0
  0
LINE
  5
7B6
330
1F
100
AcDbEntity
  8
1
  6
CONTINUOUS
370
50
 62
4
100
AcDbLine
 10
2.691957
 20
1.248816
 30
0.0
 11
2.776046
 21
1.25164
 31
0.0
  0
LINE
  5
7B7
330
1F
100
AcDbEntity
  8
1
  6
CONTINUOUS
370
50
 62
4
100
AcDbLine
 10
8.475957
 20
1.46667
 30
0.0
 11
8.675701
 21
1.474921
 31
0.0
  0
LINE
  5
7B8
330
1F
100
AcDbEntity
  8
1
  6
CONTINUOUS
370
50
 62
4
100
AcDbLine
 10
14.381964
 20
1.466632
 30
0.0
 11
14.581261
 21
1.474939
 31
0.0
  0
LINE
  5
7B9
330
1F
100
AcDbEntity
  8
1
  6
CONTINUOUS
370
50
 62
4
100
AcDbLine
 10
20.287947
 20
1.466605
 30
0.0
 11
20.487024
 21
1.474957
 31
0.0
  0
LINE
  5
7BA
330
1F
100
AcDbEntity
  8
1
  6
CONTINUOUS
370
50
 62
4
100
AcDbLine
 10
14.160145
 20
0.9146529999999999
 30
0.0
 11
14.430145
 21
0.927512
 31
0.0
  0
LINE
  5
7BB
330
1F
100
AcDbEntity
  8
1
  6
CONTINUOUS
370
50
 62
4
100
AcDbLine
 10
20.066448
 20
0.913794
 30
0.0
 11
20.336178
 21
0.926708
 31
0.0
  0
LINE
  5
7BC
330
1F
100
AcDbEntity
  8
1
  6
CONTINUOUS
370
50
 62
4
100
AcDbLine
 10
17.693947
 20
-1.474955
 30
0.0
 11
17.927351
 21
-1.463722
 31
0.0
  0
LINE
  5
7BD
330
1F
100
AcDbEntity
  8
1
  6
CONTINUOUS
370
50
 62
4
100
AcDbLine
 10
8.253301
 20
0.9147529999999999
 30
0.0
 11
8.52342
 21
0.928561
 31
0.0
  0
LINE
  5
7BE
330
1F
100
AcDbEntity
  8
1
  6
CONTINUOUS
370
50
 62
4
100
AcDbLine
 10
25.972607
 20
0.9127649999999999
 30
0.0
 11
26.242214
 21
0.926759
 31
0.0
  0
LINE
  5
7BF
330
1F
100
AcDbEntity
  8
1
  6
CONTINUOUS
370
50
 62
4
100
AcDbLine
 10
26.16876
 20
1.464356
 30
0.0
 11
26.363726
 21
1.474782
 31
0.0
  0
LINE
  5
7C0
330
1F
100
AcDbEntity
  8
1
  6
CONTINUOUS
370
50
 62
4
100
AcDbLine
 10
32.082119
 20
1.465026
 30
0.0
 11
32.250443
 21
1.474467
 31
0.0
  0
LINE
  5
7C1
330
1F
100
AcDbEntity
  8
1
  6
CONTINUOUS
370
50
 62
4
100
AcDbLine
 10
29.546509
 20
-1.474679
 30
0.0
 11
29.740156
 21
-1.463682
 31
0.0
  0
LINE
  5
7C2
330
1F
100
AcDbEntity
  8
1
  6
CONTINUOUS
370
50
 62
4
100
AcDbLine
 10
31.884296
 20
0.9125219999999999
 30
0.0
 11
32.156773
 21
0.9283669999999999
 31
0.0
  0
LINE
  5
7C3
330
1F
100
AcDbEntity
  8
1
  6
CONTINUOUS
370
50
 62
4
100
AcDbLine
 10
2.610907
 20
1.244015
 30
0.0
 11
2.691957
 21
1.248816
 31
0.0
  0
LINE
  5
7C4
330
1F
100
AcDbEntity
  8
1
  6
CONTINUOUS
370
50
 62
4
100
AcDbLine
 10
11.833419
 20
-1.474478
 30
0.0
 11
12.058899
 21
-1.459693
 31
0.0
  0
LINE
  5
7C5
330
1F
100
AcDbEntity
  8
1
  6
CONTINUOUS
370
50
 62
4
100
AcDbLine
 10
23.692516
 20
-1.473251
 30
0.0
 11
23.879326
 21
-1.458855
 31
0.0
  0
LINE
  5
7C6
330
1F
100
AcDbEntity
  8
1
  6
CONTINUOUS
370
50
 62
4
100
AcDbLine
 10
2.533086
 20
1.237298
 30
0.0
 11
2.610907
 21
1.244015
 31
0.0
  0
LINE
  5
7C7
330
1F
100
AcDbEntity
  8
1
  6
CONTINUOUS
370
50
 62
4
100
AcDbLine
 10
2.458688
 20
1.228723
 30
0.0
 11
2.533086
 21
1.237298
 31
0.0
  0
LINE
  5
7C8
330
1F
100
AcDbEntity
  8
1
  6
CONTINUOUS
370
50
 62
4
100
AcDbLine
 10
31.611771
 20
0.8805489999999999
 30
0.0
 11
31.884296
 21
0.9125219999999999
 31
0.0
  0
LINE
  5
7C9
330
1F
100
AcDbEntity
  8
1
  6
CONTINUOUS
370
50
 62
4
100
AcDbLine
 10
25.70282
 20
0.880926
 30
0.0
 11
25.972607
 21
0.9127649999999999
 31
0.0
  0
LINE
  5
7CA
330
1F
100
AcDbEntity
  8
1
  6
CONTINUOUS
370
50
 62
4
100
AcDbLine
 10
19.796541
 20
0.881169
 30
0.0
 11
20.066448
 21
0.913794
 31
0.0
  0
LINE
  5
7CB
330
1F
100
AcDbEntity
  8
1
  6
CONTINUOUS
370
50
 62
4
100
AcDbLine
 10
8.276114999999999
 20
1.441927
 30
0.0
 11
8.475957
 21
1.46667
 31
0.0
  0
LINE
  5
7CC
330
1F
100
AcDbEntity
  8
1
  6
CONTINUOUS
370
50
 62
4
100
AcDbLine
 10
14.182453
 20
1.441861
 30
0.0
 11
14.381964
 21
1.466632
 31
0.0
  0
LINE
  5
7CD
330
1F
100
AcDbEntity
  8
1
  6
CONTINUOUS
370
50
 62
4
100
AcDbLine
 10
20.088493
 20
1.441755
 30
0.0
 11
20.287947
 21
1.466605
 31
0.0
  0
LINE
  5
7CE
330
1F
100
AcDbEntity
  8
1
  6
CONTINUOUS
370
50
 62
4
100
AcDbLine
 10
31.913801
 20
1.4438
 30
0.0
 11
32.082119
 21
1.465026
 31
0.0
  0
LINE
  5
7CF
330
1F
100
AcDbEntity
  8
1
  6
CONTINUOUS
370
50
 62
4
100
AcDbLine
 10
13.890104
 20
0.8802139999999999
 30
0.0
 11
14.160145
 21
0.9146529999999999
 31
0.0
  0
LINE
  5
7D0
330
1F
100
AcDbEntity
  8
1
  6
CONTINUOUS
370
50
 62
4
100
AcDbLine
 10
6.074440999999999
 20
-1.467129
 30
0.0
 11
6.315572
 21
-1.435903
 31
0.0
  0
LINE
  5
7D1
330
1F
100
AcDbEntity
  8
1
  6
CONTINUOUS
370
50
 62
4
100
AcDbLine
 10
7.983308
 20
0.8789579999999999
 30
0.0
 11
8.253301
 21
0.9147529999999999
 31
0.0
  0
LINE
  5
7D2
330
1F
100
AcDbEntity
  8
1
  6
CONTINUOUS
370
50
 62
4
100
AcDbLine
 10
25.973917
 20
1.438175
 30
0.0
 11
26.16876
 21
1.464356
 31
0.0
  0
LINE
  5
7D3
330
1F
100
AcDbEntity
  8
1
  6
CONTINUOUS
370
50
 62
4
100
AcDbLine
 10
29.740156
 20
-1.463682
 30
0.0
 11
29.933971
 21
-1.437018
 31
0.0
  0
LINE
  5
7D4
330
1F
100
AcDbEntity
  8
1
  6
CONTINUOUS
370
50
 62
4
100
AcDbLine
 10
17.927351
 20
-1.463722
 30
0.0
 11
18.159597
 21
-1.430012
 31
0.0
  0
LINE
  5
7D5
330
1F
100
AcDbEntity
  8
1
  6
CONTINUOUS
370
50
 62
4
100
AcDbLine
 10
2.387902
 20
1.218351
 30
0.0
 11
2.458688
 21
1.228723
 31
0.0
  0
LINE
  5
7D6
330
1F
100
AcDbEntity
  8
1
  6
CONTINUOUS
370
50
 62
4
100
AcDbLine
 10
23.879326
 20
-1.458855
 30
0.0
 11
24.065861
 21
-1.429955
 31
0.0
  0
LINE
  5
7D7
330
1F
100
AcDbEntity
  8
1
  6
CONTINUOUS
370
50
 62
4
100
AcDbLine
 10
12.058899
 20
-1.459693
 30
0.0
 11
12.283911
 21
-1.423982
 31
0.0
  0
LINE
  5
7D8
330
1F
100
AcDbEntity
  8
1
  6
CONTINUOUS
370
50
 62
4
100
AcDbLine
 10
2.320921
 20
1.206242
 30
0.0
 11
2.387902
 21
1.218351
 31
0.0
  0
LINE
  5
7D9
330
1F
100
AcDbEntity
  8
1
  6
CONTINUOUS
370
50
 62
4
100
AcDbLine
 10
31.339058
 20
0.829294
 30
0.0
 11
31.611771
 21
0.8805489999999999
 31
0.0
  0
LINE
  5
7DA
330
1F
100
AcDbEntity
  8
1
  6
CONTINUOUS
370
50
 62
4
100
AcDbLine
 10
7.713417
 20
0.827819
 30
0.0
 11
7.983308
 21
0.8789579999999999
 31
0.0
  0
LINE
  5
7DB
330
1F
100
AcDbEntity
  8
1
  6
CONTINUOUS
370
50
 62
4
100
AcDbLine
 10
25.432985
 20
0.8286159999999999
 30
0.0
 11
25.70282
 21
0.880926
 31
0.0
  0
LINE
  5
7DC
330
1F
100
AcDbEntity
  8
1
  6
CONTINUOUS
370
50
 62
4
100
AcDbLine
 10
31.745443
 20
1.410985
 30
0.0
 11
31.913801
 21
1.4438
 31
0.0
  0
LINE
  5
7DD
330
1F
100
AcDbEntity
  8
1
  6
CONTINUOUS
370
50
 62
4
100
AcDbLine
 10
13.620263
 20
0.827375
 30
0.0
 11
13.890104
 21
0.8802139999999999
 31
0.0
  0
LINE
  5
7DE
330
1F
100
AcDbEntity
  8
1
  6
CONTINUOUS
370
50
 62
4
100
AcDbLine
 10
19.526756
 20
0.8275859999999999
 30
0.0
 11
19.796541
 21
0.881169
 31
0.0
  0
LINE
  5
7DF
330
1F
100
AcDbEntity
  8
1
  6
CONTINUOUS
370
50
 62
4
100
AcDbLine
 10
0.9437359999999999
 20
2.348218
 30
0.0
 11
1.0
 21
2.359677
 31
0.0
  0
LINE
  5
7E0
330
1F
100
AcDbEntity
  8
1
  6
CONTINUOUS
370
50
 62
4
100
AcDbLine
 10
13.982564
 20
1.400855
 30
0.0
 11
14.182453
 21
1.441861
 31
0.0
  0
LINE
  5
7E1
330
1F
100
AcDbEntity
  8
1
  6
CONTINUOUS
370
50
 62
4
100
AcDbLine
 10
8.076604999999999
 20
1.40096
 30
0.0
 11
8.276114999999999
 21
1.441927
 31
0.0
  0
LINE
  5
7E2
330
1F
100
AcDbEntity
  8
1
  6
CONTINUOUS
370
50
 62
4
100
AcDbLine
 10
19.888725
 20
1.400714
 30
0.0
 11
20.088493
 21
1.441755
 31
0.0
  0
LINE
  5
7E3
330
1F
100
AcDbEntity
  8
1
  6
CONTINUOUS
370
50
 62
4
100
AcDbLine
 10
25.778543
 20
1.396491
 30
0.0
 11
25.973917
 21
1.438175
 31
0.0
  0
LINE
  5
7E4
330
1F
100
AcDbEntity
  8
1
  6
CONTINUOUS
370
50
 62
4
100
AcDbLine
 10
29.933971
 20
-1.437018
 30
0.0
 11
30.128036
 21
-1.395181
 31
0.0
  0
LINE
  5
7E5
330
1F
100
AcDbEntity
  8
1
  6
CONTINUOUS
370
50
 62
4
100
AcDbLine
 10
2.257695
 20
1.192386
 30
0.0
 11
2.320921
 21
1.206242
 31
0.0
  0
LINE
  5
7E6
330
1F
100
AcDbEntity
  8
1
  6
CONTINUOUS
370
50
 62
4
100
AcDbLine
 10
6.315572
 20
-1.435903
 30
0.0
 11
6.555752
 21
-1.381037
 31
0.0
  0
LINE
  5
7E7
330
1F
100
AcDbEntity
  8
1
  6
CONTINUOUS
370
50
 62
4
100
AcDbLine
 10
24.065861
 20
-1.429955
 30
0.0
 11
24.252613
 21
-1.386955
 31
0.0
  0
LINE
  5
7E8
330
1F
100
AcDbEntity
  8
1
  6
CONTINUOUS
370
50
 62
4
100
AcDbLine
 10
0.8882829999999999
 20
2.335134
 30
0.0
 11
0.9437359999999999
 21
2.348218
 31
0.0
  0
LINE
  5
7E9
330
1F
100
AcDbEntity
  8
1
  6
CONTINUOUS
370
50
 62
4
100
AcDbLine
 10
18.159597
 20
-1.430012
 30
0.0
 11
18.392109
 21
-1.374304
 31
0.0
  0
LINE
  5
7EA
330
1F
100
AcDbEntity
  8
1
  6
CONTINUOUS
370
50
 62
4
100
AcDbLine
 10
12.283911
 20
-1.423982
 30
0.0
 11
12.508366
 21
-1.367729
 31
0.0
  0
LINE
  5
7EB
330
1F
100
AcDbEntity
  8
1
  6
CONTINUOUS
370
50
 62
4
100
AcDbLine
 10
31.576969
 20
1.366894
 30
0.0
 11
31.745443
 21
1.410985
 31
0.0
  0
LINE
  5
7EC
330
1F
100
AcDbEntity
  8
1
  6
CONTINUOUS
370
50
 62
4
100
AcDbLine
 10
2.198068
 20
1.176685
 30
0.0
 11
2.257695
 21
1.192386
 31
0.0
  0
LINE
  5
7ED
330
1F
100
AcDbEntity
  8
1
  6
CONTINUOUS
370
50
 62
4
100
AcDbLine
 10
0.833824
 20
2.320376
 30
0.0
 11
0.8882829999999999
 21
2.335134
 31
0.0
  0
LINE
  5
7EE
330
1F
100
AcDbEntity
  8
1
  6
CONTINUOUS
370
50
 62
4
100
AcDbLine
 10
19.689018
 20
1.343915
 30
0.0
 11
19.888725
 21
1.400714
 31
0.0
  0
LINE
  5
7EF
330
1F
100
AcDbEntity
  8
1
  6
CONTINUOUS
370
50
 62
4
100
AcDbLine
 10
13.783018
 20
1.344028
 30
0.0
 11
13.982564
 21
1.400855
 31
0.0
  0
LINE
  5
7F0
330
1F
100
AcDbEntity
  8
1
  6
CONTINUOUS
370
50
 62
4
100
AcDbLine
 10
7.877211
 20
1.344146
 30
0.0
 11
8.076604999999999
 21
1.40096
 31
0.0
  0
LINE
  5
7F1
330
1F
100
AcDbEntity
  8
1
  6
CONTINUOUS
370
50
 62
4
100
AcDbLine
 10
25.583059
 20
1.339807
 30
0.0
 11
25.778543
 21
1.396491
 31
0.0
  0
LINE
  5
7F2
330
1F
100
AcDbEntity
  8
1
  6
CONTINUOUS
370
50
 62
4
100
AcDbLine
 10
30.128036
 20
-1.395181
 30
0.0
 11
30.323055
 21
-1.338616
 31
0.0
  0
LINE
  5
7F3
330
1F
100
AcDbEntity
  8
1
  6
CONTINUOUS
370
50
 62
4
100
AcDbLine
 10
24.252613
 20
-1.386955
 30
0.0
 11
24.439901
 21
-1.330477
 31
0.0
  0
LINE
  5
7F4
330
1F
100
AcDbEntity
  8
1
  6
CONTINUOUS
370
50
 62
4
100
AcDbLine
 10
0.780543
 20
2.303896
 30
0.0
 11
0.833824
 21
2.320376
 31
0.0
  0
LINE
  5
7F5
330
1F
100
AcDbEntity
  8
1
  6
CONTINUOUS
370
50
 62
4
100
AcDbLine
 10
2.14226
 20
1.159112
 30
0.0
 11
2.198068
 21
1.176685
 31
0.0
  0
LINE
  5
7F6
330
1F
100
AcDbEntity
  8
1
  6
CONTINUOUS
370
50
 62
4
100
AcDbLine
 10
6.555752
 20
-1.381037
 30
0.0
 11
6.795716
 21
-1.303426
 31
0.0
  0
LINE
  5
7F7
330
1F
100
AcDbEntity
  8
1
  6
CONTINUOUS
370
50
 62
4
100
AcDbLine
 10
31.408421
 20
1.311898
 30
0.0
 11
31.576969
 21
1.366894
 31
0.0
  0
LINE
  5
7F8
330
1F
100
AcDbEntity
  8
1
  6
CONTINUOUS
370
50
 62
4
100
AcDbLine
 10
18.392109
 20
-1.374304
 30
0.0
 11
18.625452
 21
-1.297756
 31
0.0
  0
LINE
  5
7F9
330
1F
100
AcDbEntity
  8
1
  6
CONTINUOUS
370
50
 62
4
100
AcDbLine
 10
12.508366
 20
-1.367729
 30
0.0
 11
12.732756
 21
-1.292111
 31
0.0
  0
LINE
  5
7FA
330
1F
100
AcDbEntity
  8
1
  6
CONTINUOUS
370
50
 62
4
100
AcDbLine
 10
0.7286239999999999
 20
2.285648
 30
0.0
 11
0.780543
 21
2.303896
 31
0.0
  0
LINE
  5
7FB
330
1F
100
AcDbEntity
  8
1
  6
CONTINUOUS
370
50
 62
4
100
AcDbLine
 10
7.677752
 20
1.272218
 30
0.0
 11
7.877211
 21
1.344146
 31
0.0
  0
LINE
  5
7FC
330
1F
100
AcDbEntity
  8
1
  6
CONTINUOUS
370
50
 62
4
100
AcDbLine
 10
13.584009
 20
1.272177
 30
0.0
 11
13.783018
 21
1.344028
 31
0.0
  0
LINE
  5
7FD
330
1F
100
AcDbEntity
  8
1
  6
CONTINUOUS
370
50
 62
4
100
AcDbLine
 10
19.48974
 20
1.271955
 30
0.0
 11
19.689018
 21
1.343915
 31
0.0
  0
LINE
  5
7FE
330
1F
100
AcDbEntity
  8
1
  6
CONTINUOUS
370
50
 62
4
100
AcDbLine
 10
25.387835
 20
1.268673
 30
0.0
 11
25.583059
 21
1.339807
 31
0.0
  0
LINE
  5
7FF
330
1F
100
AcDbEntity
  8
1
  6
CONTINUOUS
370
50
 62
4
100
AcDbLine
 10
30.323055
 20
-1.338616
 30
0.0
 11
30.516798
 21
-1.267791
 31
0.0
  0
LINE
  5
800
330
1F
100
AcDbEntity
  8
1
  6
CONTINUOUS
370
50
 62
4
100
AcDbLine
 10
24.439901
 20
-1.330477
 30
0.0
 11
24.626694
 21
-1.261207
 31
0.0
  0
LINE
  5
801
330
1F
100
AcDbEntity
  8
1
  6
CONTINUOUS
370
50
 62
4
100
AcDbLine
 10
2.090497
 20
1.139643
 30
0.0
 11
2.14226
 21
1.159112
 31
0.0
  0
LINE
  5
802
330
1F
100
AcDbEntity
  8
1
  6
CONTINUOUS
370
50
 62
4
100
AcDbLine
 10
31.240057
 20
1.246417
 30
0.0
 11
31.408421
 21
1.311898
 31
0.0
  0
LINE
  5
803
330
1F
100
AcDbEntity
  8
1
  6
CONTINUOUS
370
50
 62
4
100
AcDbLine
 10
0.678248
 20
2.265581
 30
0.0
 11
0.7286239999999999
 21
2.285648
 31
0.0
  0
LINE
  5
804
330
1F
100
AcDbEntity
  8
1
  6
CONTINUOUS
370
50
 62
4
100
AcDbLine
 10
6.795716
 20
-1.303426
 30
0.0
 11
7.036044
 21
-1.204872
 31
0.0
  0
LINE
  5
805
330
1F
100
AcDbEntity
  8
1
  6
CONTINUOUS
370
50
 62
4
100
AcDbLine
 10
18.625452
 20
-1.297756
 30
0.0
 11
18.858797
 21
-1.201376
 31
0.0
  0
LINE
  5
806
330
1F
100
AcDbEntity
  8
1
  6
CONTINUOUS
370
50
 62
4
100
AcDbLine
 10
12.732756
 20
-1.292111
 30
0.0
 11
12.95864
 21
-1.198142
 31
0.0
  0
LINE
  5
807
330
1F
100
AcDbEntity
  8
1
  6
CONTINUOUS
370
50
 62
4
100
AcDbLine
 10
7.478003999999999
 20
1.186031
 30
0.0
 11
7.677752
 21
1.272218
 31
0.0
  0
LINE
  5
808
330
1F
100
AcDbEntity
  8
1
  6
CONTINUOUS
370
50
 62
4
100
AcDbLine
 10
13.384673
 20
1.185999
 30
0.0
 11
13.584009
 21
1.272177
 31
0.0
  0
LINE
  5
809
330
1F
100
AcDbEntity
  8
1
  6
CONTINUOUS
370
50
 62
4
100
AcDbLine
 10
19.290783
 20
1.185812
 30
0.0
 11
19.48974
 21
1.271955
 31
0.0
  0
LINE
  5
80A
330
1F
100
AcDbEntity
  8
1
  6
CONTINUOUS
370
50
 62
4
100
AcDbLine
 10
25.192726
 20
1.183744
 30
0.0
 11
25.387835
 21
1.268673
 31
0.0
  0
LINE
  5
80B
330
1F
100
AcDbEntity
  8
1
  6
CONTINUOUS
370
50
 62
4
100
AcDbLine
 10
30.516798
 20
-1.267791
 30
0.0
 11
30.709839
 21
-1.183382
 31
0.0
  0
LINE
  5
80C
330
1F
100
AcDbEntity
  8
1
  6
CONTINUOUS
370
50
 62
4
100
AcDbLine
 10
24.626694
 20
-1.261207
 30
0.0
 11
24.81208
 21
-1.17956
 31
0.0
  0
LINE
  5
80D
330
1F
100
AcDbEntity
  8
1
  6
CONTINUOUS
370
50
 62
4
100
AcDbLine
 10
31.07205
 20
1.170975
 30
0.0
 11
31.240057
 21
1.246417
 31
0.0
  0
LINE
  5
80E
330
1F
100
AcDbEntity
  8
1
  6
CONTINUOUS
370
50
 62
4
100
AcDbLine
 10
2.043
 20
1.11825
 30
0.0
 11
2.090497
 21
1.139643
 31
0.0
  0
LINE
  5
80F
330
1F
100
AcDbEntity
  8
1
  6
CONTINUOUS
370
50
 62
4
100
AcDbLine
 10
0.629489
 20
2.243576
 30
0.0
 11
0.678248
 21
2.265581
 31
0.0
  0
LINE
  5
810
330
1F
100
AcDbEntity
  8
1
  6
CONTINUOUS
370
50
 62
4
100
AcDbLine
 10
7.036044
 20
-1.204872
 30
0.0
 11
7.278194999999999
 21
-1.086574
 31
0.0
  0
LINE
  5
811
330
1F
100
AcDbEntity
  8
1
  6
CONTINUOUS
370
50
 62
4
100
AcDbLine
 10
12.95864
 20
-1.198142
 30
0.0
 11
13.184903
 21
-1.086492
 31
0.0
  0
LINE
  5
812
330
1F
100
AcDbEntity
  8
1
  6
CONTINUOUS
370
50
 62
4
100
AcDbLine
 10
18.858797
 20
-1.201376
 30
0.0
 11
19.091301
 21
-1.086279
 31
0.0
  0
LINE
  5
813
330
1F
100
AcDbEntity
  8
1
  6
CONTINUOUS
370
50
 62
4
100
AcDbLine
 10
7.278200999999999
 20
1.086572
 30
0.0
 11
7.478003999999999
 21
1.186031
 31
0.0
  0
LINE
  5
814
330
1F
100
AcDbEntity
  8
1
  6
CONTINUOUS
370
50
 62
4
100
AcDbLine
 10
13.18491
 20
1.086492
 30
0.0
 11
13.384673
 21
1.185999
 31
0.0
  0
LINE
  5
815
330
1F
100
AcDbEntity
  8
1
  6
CONTINUOUS
370
50
 62
4
100
AcDbLine
 10
19.091309
 20
1.086279
 30
0.0
 11
19.290783
 21
1.185812
 31
0.0
  0
LINE
  5
816
330
1F
100
AcDbEntity
  8
1
  6
CONTINUOUS
370
50
 62
4
100
AcDbLine
 10
24.997553
 20
1.086072
 30
0.0
 11
25.192726
 21
1.183744
 31
0.0
  0
LINE
  5
817
330
1F
100
AcDbEntity
  8
1
  6
CONTINUOUS
370
50
 62
4
100
AcDbLine
 10
30.709839
 20
-1.183382
 30
0.0
 11
30.903845
 21
-1.086007
 31
0.0
  0
LINE
  5
818
330
1F
100
AcDbEntity
  8
1
  6
CONTINUOUS
370
50
 62
4
100
AcDbLine
 10
24.81208
 20
-1.17956
 30
0.0
 11
24.997545
 21
-1.086072
 31
0.0
  0
LINE
  5
819
330
1F
100
AcDbEntity
  8
1
  6
CONTINUOUS
370
50
 62
4
100
AcDbLine
 10
30.903849
 20
1.086004
 30
0.0
 11
31.07205
 21
1.170975
 31
0.0
  0
LINE
  5
81A
330
1F
100
AcDbEntity
  8
1
  6
CONTINUOUS
370
50
 62
4
100
AcDbLine
 10
0.5825819999999999
 20
2.219543
 30
0.0
 11
0.629489
 21
2.243576
 31
0.0
  0
LINE
  5
81B
330
1F
100
AcDbEntity
  8
1
  6
CONTINUOUS
370
50
 62
4
100
AcDbLine
 10
0.537844
 20
2.193423
 30
0.0
 11
0.5825819999999999
 21
2.219543
 31
0.0
  0
LINE
  5
81C
330
1F
100
AcDbEntity
  8
1
  6
CONTINUOUS
370
50
 62
4
100
AcDbLine
 10
0.495594
 20
2.165158
 30
0.0
 11
0.537844
 21
2.193423
 31
0.0
  0
LINE
  5
81D
330
1F
100
AcDbEntity
  8
1
  6
CONTINUOUS
370
50
 62
4
100
AcDbLine
 10
0.45615
 20
2.134689
 30
0.0
 11
0.495594
 21
2.165158
 31
0.0
  0
LINE
  5
81E
330
1F
100
AcDbEntity
  8
1
  6
CONTINUOUS
370
50
 62
4
100
AcDbLine
 10
0.419856
 20
2.101972
 30
0.0
 11
0.45615
 21
2.134689
 31
0.0
  0
LINE
  5
81F
330
1F
100
AcDbEntity
  8
1
  6
CONTINUOUS
370
50
 62
4
100
AcDbLine
 10
34.355198
 20
-1.246509
 30
0.0
 11
34.370075
 21
-1.232214
 31
0.0
  0
LINE
  5
820
330
1F
100
AcDbEntity
  8
1
  6
CONTINUOUS
370
50
 62
4
100
AcDbLine
 10
34.370075
 20
-1.232214
 30
0.0
 11
34.385178
 21
-1.216444
 31
0.0
  0
LINE
  5
821
330
1F
100
AcDbEntity
  8
1
  6
CONTINUOUS
370
50
 62
4
100
AcDbLine
 10
0.387132
 20
2.067007
 30
0.0
 11
0.419856
 21
2.101972
 31
0.0
  0
LINE
  5
822
330
1F
100
AcDbEntity
  8
1
  6
CONTINUOUS
370
50
 62
4
100
AcDbLine
 10
34.385178
 20
-1.216444
 30
0.0
 11
34.400509
 21
-1.199207
 31
0.0
  0
LINE
  5
823
330
1F
100
AcDbEntity
  8
1
  6
CONTINUOUS
370
50
 62
4
100
AcDbLine
 10
34.400509
 20
-1.199207
 30
0.0
 11
34.416065
 21
-1.180512
 31
0.0
  0
LINE
  5
824
330
1F
100
AcDbEntity
  8
1
  6
CONTINUOUS
370
50
 62
4
100
AcDbLine
 10
34.416065
 20
-1.180512
 30
0.0
 11
34.43185
 21
-1.160366
 31
0.0
  0
LINE
  5
825
330
1F
100
AcDbEntity
  8
1
  6
CONTINUOUS
370
50
 62
4
100
AcDbLine
 10
0.358373
 20
2.029792
 30
0.0
 11
0.387132
 21
2.067007
 31
0.0
  0
LINE
  5
826
330
1F
100
AcDbEntity
  8
1
  6
CONTINUOUS
370
50
 62
4
100
AcDbLine
 10
34.43185
 20
-1.160366
 30
0.0
 11
34.447872
 21
-1.138777
 31
0.0
  0
LINE
  5
827
330
1F
100
AcDbEntity
  8
1
  6
CONTINUOUS
370
50
 62
4
100
AcDbLine
 10
34.447872
 20
-1.138777
 30
0.0
 11
34.46413
 21
-1.115753
 31
0.0
  0
LINE
  5
828
330
1F
100
AcDbEntity
  8
1
  6
CONTINUOUS
370
50
 62
4
100
AcDbLine
 10
1.0
 20
-3.0
 30
0.0
 11
2.043
 21
-1.475
 31
0.0
  0
LINE
  5
829
330
1F
100
AcDbEntity
  8
1
  6
CONTINUOUS
370
50
 62
4
100
AcDbLine
 10
34.46413
 20
-1.115753
 30
0.0
 11
34.480625
 21
-1.091303
 31
0.0
  0
LINE
  5
82A
330
1F
100
AcDbEntity
  8
1
  6
CONTINUOUS
370
50
 62
4
100
AcDbLine
 10
34.480625
 20
-1.091303
 30
0.0
 11
34.497356
 21
-1.065454
 31
0.0
  0
LINE
  5
82B
330
1F
100
AcDbEntity
  8
1
  6
CONTINUOUS
370
50
 62
4
100
AcDbLine
 10
34.497356
 20
-1.065454
 30
0.0
 11
34.514278
 21
-1.038287
 31
0.0
  0
LINE
  5
82C
330
1F
100
AcDbEntity
  8
1
  6
CONTINUOUS
370
50
 62
4
100
AcDbLine
 10
0.333977
 20
1.990324
 30
0.0
 11
0.358373
 21
2.029792
 31
0.0
  0
LINE
  5
82D
330
1F
100
AcDbEntity
  8
1
  6
CONTINUOUS
370
50
 62
4
100
AcDbLine
 10
34.514278
 20
-1.038287
 30
0.0
 11
34.531387
 21
-1.009845
 31
0.0
  0
LINE
  5
82E
330
1F
100
AcDbEntity
  8
1
  6
CONTINUOUS
370
50
 62
4
100
AcDbLine
 10
34.531387
 20
-1.009845
 30
0.0
 11
34.548668
 21
-0.9801679999999999
 31
0.0
  0
LINE
  5
82F
330
1F
100
AcDbEntity
  8
1
  6
CONTINUOUS
370
50
 62
4
100
AcDbLine
 10
34.548668
 20
-0.9801679999999999
 30
0.0
 11
34.566116
 21
-0.949295
 31
0.0
  0
LINE
  5
830
330
1F
100
AcDbEntity
  8
1
  6
CONTINUOUS
370
50
 62
4
100
AcDbLine
 10
34.566116
 20
-0.949295
 30
0.0
 11
34.583714
 21
-0.917264
 31
0.0
  0
LINE
  5
831
330
1F
100
AcDbEntity
  8
1
  6
CONTINUOUS
370
50
 62
4
100
AcDbLine
 10
34.583714
 20
-0.917264
 30
0.0
 11
34.601456
 21
-0.8841169999999999
 31
0.0
  0
LINE
  5
832
330
1F
100
AcDbEntity
  8
1
  6
CONTINUOUS
370
50
 62
4
100
AcDbLine
 10
34.601456
 20
-0.8841169999999999
 30
0.0
 11
34.619331
 21
-0.849893
 31
0.0
  0
LINE
  5
833
330
1F
100
AcDbEntity
  8
1
  6
CONTINUOUS
370
50
 62
4
100
AcDbLine
 10
34.619331
 20
-0.849893
 30
0.0
 11
34.637287
 21
-0.814731
 31
0.0
  0
LINE
  5
834
330
1F
100
AcDbEntity
  8
1
  6
CONTINUOUS
370
50
 62
4
100
AcDbLine
 10
34.637287
 20
-0.814731
 30
0.0
 11
34.655243
 21
-0.778758
 31
0.0
  0
LINE
  5
835
330
1F
100
AcDbEntity
  8
1
  6
CONTINUOUS
370
50
 62
4
100
AcDbLine
 10
34.655243
 20
-0.778758
 30
0.0
 11
34.673134
 21
-0.742051
 31
0.0
  0
LINE
  5
836
330
1F
100
AcDbEntity
  8
1
  6
CONTINUOUS
370
50
 62
4
100
AcDbLine
 10
34.673134
 20
-0.742051
 30
0.0
 11
34.690887
 21
-0.704687
 31
0.0
  0
LINE
  5
837
330
1F
100
AcDbEntity
  8
1
  6
CONTINUOUS
370
50
 62
4
100
AcDbLine
 10
0.314369
 20
1.948676
 30
0.0
 11
0.333977
 21
1.990324
 31
0.0
  0
LINE
  5
838
330
1F
100
AcDbEntity
  8
1
  6
CONTINUOUS
370
50
 62
4
100
AcDbLine
 10
34.355198
 20
-1.475
 30
0.0
 11
35.042999
 21
0.0
 31
0.0
  0
LINE
  5
839
330
1F
100
AcDbEntity
  8
1
  6
CONTINUOUS
370
50
 62
4
100
AcDbLine
 10
34.690887
 20
-0.704687
 30
0.0
 11
34.708439
 21
-0.666743
 31
0.0
  0
LINE
  5
83A
330
1F
100
AcDbEntity
  8
1
  6
CONTINUOUS
370
50
 62
4
100
AcDbLine
 10
34.708439
 20
-0.666743
 30
0.0
 11
34.725716
 21
-0.6282949999999999
 31
0.0
  0
LINE
  5
83B
330
1F
100
AcDbEntity
  8
1
  6
CONTINUOUS
370
50
 62
4
100
AcDbLine
 10
34.725716
 20
-0.6282949999999999
 30
0.0
 11
34.742489
 21
-0.589766
 31
0.0
  0
LINE
  5
83C
330
1F
100
AcDbEntity
  8
1
  6
CONTINUOUS
370
50
 62
4
100
AcDbLine
 10
34.742489
 20
-0.589766
 30
0.0
 11
34.75835
 21
-0.551841
 31
0.0
  0
LINE
  5
83D
330
1F
100
AcDbEntity
  8
1
  6
CONTINUOUS
370
50
 62
4
100
AcDbLine
 10
34.75835
 20
-0.551841
 30
0.0
 11
34.773159
 21
-0.514573
 31
0.0
  0
LINE
  5
83E
330
1F
100
AcDbEntity
  8
1
  6
CONTINUOUS
370
50
 62
4
100
AcDbLine
 10
34.773159
 20
-0.514573
 30
0.0
 11
34.786774
 21
-0.478002
 31
0.0
  0
LINE
  5
83F
330
1F
100
AcDbEntity
  8
1
  6
CONTINUOUS
370
50
 62
4
100
AcDbLine
 10
34.786774
 20
-0.478002
 30
0.0
 11
34.799053
 21
-0.442168
 31
0.0
  0
LINE
  5
840
330
1F
100
AcDbEntity
  8
1
  6
CONTINUOUS
370
50
 62
4
100
AcDbLine
 10
0.300092
 20
1.90543
 30
0.0
 11
0.314369
 21
1.948676
 31
0.0
  0
LINE
  5
841
330
1F
100
AcDbEntity
  8
1
  6
CONTINUOUS
370
50
 62
4
100
AcDbLine
 10
34.799053
 20
-0.442168
 30
0.0
 11
34.810143
 21
-0.406278
 31
0.0
  0
LINE
  5
842
330
1F
100
AcDbEntity
  8
1
  6
CONTINUOUS
370
50
 62
4
100
AcDbLine
 10
34.810143
 20
-0.406278
 30
0.0
 11
34.821194
 21
-0.364528
 31
0.0
  0
LINE
  5
843
330
1F
100
AcDbEntity
  8
1
  6
CONTINUOUS
370
50
 62
4
100
AcDbLine
 10
0.291355
 20
1.860787
 30
0.0
 11
0.300092
 21
1.90543
 31
0.0
  0
LINE
  5
844
330
1F
100
AcDbEntity
  8
1
  6
CONTINUOUS
370
50
 62
4
100
AcDbLine
 10
34.821194
 20
-0.364528
 30
0.0
 11
34.830467
 21
-0.316295
 31
0.0
  0
LINE
  5
845
330
1F
100
AcDbEntity
  8
1
  6
CONTINUOUS
370
50
 62
4
100
AcDbLine
 10
34.830467
 20
-0.316295
 30
0.0
 11
34.835705
 21
-0.262195
 31
0.0
  0
LINE
  5
846
330
1F
100
AcDbEntity
  8
1
  6
CONTINUOUS
370
50
 62
4
100
AcDbLine
 10
0.288316
 20
1.814852
 30
0.0
 11
0.291355
 21
1.860787
 31
0.0
  0
LINE
  5
847
330
1F
100
AcDbEntity
  8
1
  6
CONTINUOUS
370
50
 62
4
100
AcDbLine
 10
0.0
 20
-3.0
 30
0.0
 11
0.0
 21
3.0
 31
0.0
  0
LINE
  5
848
330
1F
100
AcDbEntity
  8
1
  6
CONTINUOUS
370
50
 62
4
100
AcDbLine
 10
1.0
 20
-3.0
 30
0.0
 11
1.0
 21
1.093302
 31
0.0
  0
LINE
  5
849
330
1F
100
AcDbEntity
  8
1
  6
CONTINUOUS
370
50
 62
4
100
AcDbLine
 10
1.0
 20
2.359677
 30
0.0
 11
1.0
 21
3.0
 31
0.0
  0
LINE
  5
84A
330
1F
100
AcDbEntity
  8
1
  6
CONTINUOUS
370
50
 62
4
100
AcDbLine
 10
2.043
 20
-1.475
 30
0.0
 11
2.043
 21
1.475
 31
0.0
  0
LINE
  5
84B
330
1F
100
AcDbEntity
  8
1
  6
CONTINUOUS
370
50
 62
4
100
AcDbLine
 10
4.2732
 20
-0.939866
 30
0.0
 11
4.2732
 21
1.025173
 31
0.0
  0
LINE
  5
84C
330
1F
100
AcDbEntity
  8
1
  6
CONTINUOUS
370
50
 62
4
100
AcDbLine
 10
34.355198
 20
0.678819
 30
0.0
 11
34.355198
 21
1.475
 31
0.0
  0
LINE
  5
84D
330
1F
100
AcDbEntity
  8
1
  6
CONTINUOUS
370
50
 62
4
100
AcDbLine
 10
34.355198
 20
-1.475
 30
0.0
 11
34.355198
 21
-1.246509
 31
0.0
  0
LINE
  5
84E
330
1F
100
AcDbEntity
  8
SK1
  6
CONTINUOUS
370
50
 62
4
100
AcDbLine
 10
0.0
 20
3.0
 30
0.0
 11
-29.157
 21
3.0
 31
0.0
  0
LINE
  5
84F
330
1F
100
AcDbEntity
  8
SK1
  6
CONTINUOUS
370
50
 62
4
100
AcDbLine
 10
-29.157
 20
3.0
 30
0.0
 11
-29.957
 21
2.538119784648299
 31
0.0
  0
LINE
  5
850
330
1F
100
AcDbEntity
  8
SK1
  6
CONTINUOUS
370
50
 62
4
100
AcDbLine
 10
-29.957
 20
2.538119784648299
 30
0.0
 11
-29.957
 21
-2.538119784648299
 31
0.0
  0
LINE
  5
851
330
1F
100
AcDbEntity
  8
SK1
  6
CONTINUOUS
370
50
 62
4
100
AcDbLine
 10
-29.957
 20
-2.538119784648299
 30
0.0
 11
-29.157
 21
-3.0
 31
0.0
  0
LINE
  5
852
330
1F
100
AcDbEntity
  8
SK1
  6
CONTINUOUS
370
50
 62
4
100
AcDbLine
 10
-29.157
 20
-3.0
 30
0.0
 11
0.0
 21
-3.0
 31
0.0
  0
LINE
  5
853
330
1F
100
AcDbEntity
  8
SK1
  6
CONTINUOUS
370
50
 62
4
100
AcDbLine
 10
-14.057
 20
-2.4
 30
0.0
 11
-14.057
 21
2.4
 31
0.0
  0
LINE
  5
854
330
1F
100
AcDbEntity
  8
SK1
  6
CONTINUOUS
370
50
 62
4
100
AcDbLine
 10
-14.057
 20
2.4
 30
0.0
 11
-9.857
 21
2.4
 31
0.0
  0
LINE
  5
855
330
1F
100
AcDbEntity
  8
SK1
  6
CONTINUOUS
370
50
 62
4
100
AcDbLine
 10
-9.857
 20
2.4
 30
0.0
 11
-9.857
 21
-2.4
 31
0.0
  0
LINE
  5
856
330
1F
100
AcDbEntity
  8
SK1
  6
CONTINUOUS
370
50
 62
4
100
AcDbLine
 10
-9.857
 20
-2.4
 30
0.0
 11
-14.057
 21
-2.4
 31
0.0
  0
ARC
  5
857
330
1F
100
AcDbEntity
  8
SK1
  6
CONTINUOUS
370
50
 62
4
100
AcDbCircle
 10
-12.25700000000001
 20
0.0
 30
0.0
 40
2.999999999999998
100
AcDbArc
 50
126.8698976458439
 51
233.1301023541561
  0
ARC
  5
858
330
1F
100
AcDbEntity
  8
SK1
  6
CONTINUOUS
370
50
 62
4
100
AcDbCircle
 10
-11.657
 20
0.0
 30
0.0
 40
3.000000000000002
100
AcDbArc
 50
306.869897645844
 51
53.13010235415595
  0
LINE
  5
859
330
1F
100
AcDbEntity
  8
NOCUT
  6
CONTINUOUS
370
25
 62
7
100
AcDbLine
 10
0.0
 20
0.0
 30
0.0
 11
0.0
 21
3.0
 31
0.0
  0
LINE
  5
85A
330
1F
100
AcDbEntity
  8
NOCUT
  6
CONTINUOUS
370
25
 62
7
100
AcDbLine
 10
0.0
 20
3.0
 30
0.0
 11
1.0
 21
3.0
 31
0.0
  0
LINE
  5
85B
330
1F
100
AcDbEntity
  8
NOCUT
  6
CONTINUOUS
370
25
 62
7
100
AcDbLine
 10
1.0
 20
0.0
 30
0.0
 11
0.0
 21
0.0
 31
0.0
  0
LINE
  5
85C
330
1F
100
AcDbEntity
  8
SK2
  6
CONTINUOUS
370
25
 62
7
100
AcDbLine
 10
-29.957
 20
2.07623957
 30
0.0
 11
-29.957
 21
13.00001
 31
0.0
  0
LINE
  5
85D
330
1F
100
AcDbEntity
  8
SK2
  6
CONTINUOUS
370
25
 62
7
100
AcDbLine
 10
0.0000000000000001
 20
14.00001
 30
0.0
 11
-0.0000000000000006
 21
3.0
 31
0.0
  0
LINE
  5
85E
330
1F
100
AcDbEntity
  8
SK2
  6
CONTINUOUS
370
25
 62
7
100
AcDbLine
 10
10.0
 20
13.00001
 30
0.0
 11
-39.957
 21
13.00001
 31
0.0
  0
LINE
  5
85F
330
1F
100
AcDbEntity
  8
SK2
  6
CONTINUOUS
370
25
 62
7
100
AcDbLine
 10
-29.957
 20
13.00001
 30
0.0
 11
-34.957
 21
12.00001
 31
0.0
  0
LINE
  5
860
330
1F
100
AcDbEntity
  8
SK2
  6
CONTINUOUS
370
25
 62
7
100
AcDbLine
 10
-34.957
 20
12.00001
 30
0.0
 11
-34.957
 21
14.00001
 31
0.0
  0
LINE
  5
861
330
1F
100
AcDbEntity
  8
SK2
  6
CONTINUOUS
370
25
 62
7
100
AcDbLine
 10
-34.957
 20
14.00001
 30
0.0
 11
-29.957
 21
13.00001
 31
0.0
  0
LINE
  5
862
330
1F
100
AcDbEntity
  8
SK2
  6
CONTINUOUS
370
25
 62
7
100
AcDbLine
 10
-30.35440626077086
 20
12.92052874784583
 30
0.0
 11
-30.22193750718057
 21
13.05299750143611
 31
0.0
  0
LINE
  5
863
330
1F
100
AcDbEntity
  8
SK2
  6
CONTINUOUS
370
25
 62
7
100
AcDbLine
 10
-30.88473634666077
 20
12.81446273066785
 30
0.0
 11
-30.57549089777385
 21
13.12370817955477
 31
0.0
  0
LINE
  5
864
330
1F
100
AcDbEntity
  8
SK2
  6
CONTINUOUS
370
25
 62
7
100
AcDbLine
 10
-31.41506643255069
 20
12.70839671348986
 30
0.0
 11
-30.92904428836713
 21
13.19441885767342
 31
0.0
  0
LINE
  5
865
330
1F
100
AcDbEntity
  8
SK2
  6
CONTINUOUS
370
25
 62
7
100
AcDbLine
 10
-31.9453965184406
 20
12.60233069631188
 30
0.0
 11
-31.2825976789604
 21
13.26512953579208
 31
0.0
  0
LINE
  5
866
330
1F
100
AcDbEntity
  8
SK2
  6
CONTINUOUS
370
25
 62
7
100
AcDbLine
 10
-32.4757266043305
 20
12.4962646791339
 30
0.0
 11
-31.63615106955367
 21
13.33584021391073
 31
0.0
  0
LINE
  5
867
330
1F
100
AcDbEntity
  8
SK2
  6
CONTINUOUS
370
25
 62
7
100
AcDbLine
 10
-33.00605669022043
 20
12.39019866195592
 30
0.0
 11
-31.98970446014695
 21
13.40655089202939
 31
0.0
  0
LINE
  5
868
330
1F
100
AcDbEntity
  8
SK2
  6
CONTINUOUS
370
25
 62
7
100
AcDbLine
 10
-33.53638677611034
 20
12.28413264477793
 30
0.0
 11
-32.34325785074022
 21
13.47726157014804
 31
0.0
  0
LINE
  5
869
330
1F
100
AcDbEntity
  8
SK2
  6
CONTINUOUS
370
25
 62
7
100
AcDbLine
 10
-34.06671686200026
 20
12.17806662759995
 30
0.0
 11
-32.6968112413335
 21
13.5479722482667
 31
0.0
  0
LINE
  5
86A
330
1F
100
AcDbEntity
  8
SK2
  6
CONTINUOUS
370
25
 62
7
100
AcDbLine
 10
-34.59704694789017
 20
12.07200061042197
 30
0.0
 11
-33.05036463192678
 21
13.61868292638535
 31
0.0
  0
LINE
  5
86B
330
1F
100
AcDbEntity
  8
SK2
  6
CONTINUOUS
370
25
 62
7
100
AcDbLine
 10
-34.957
 20
12.13631162702406
 30
0.0
 11
-33.40391802252005
 21
13.689393604504
 31
0.0
  0
LINE
  5
86C
330
1F
100
AcDbEntity
  8
SK2
  6
CONTINUOUS
370
25
 62
7
100
AcDbLine
 10
-34.957
 20
12.56057569573599
 30
0.0
 11
-33.75747141311332
 21
13.76010428262266
 31
0.0
  0
LINE
  5
86D
330
1F
100
AcDbEntity
  8
SK2
  6
CONTINUOUS
370
25
 62
7
100
AcDbLine
 10
-34.957
 20
12.98483976444792
 30
0.0
 11
-34.1110248037066
 21
13.83081496074132
 31
0.0
  0
LINE
  5
86E
330
1F
100
AcDbEntity
  8
SK2
  6
CONTINUOUS
370
25
 62
7
100
AcDbLine
 10
-34.957
 20
13.40910383315985
 30
0.0
 11
-34.46457819429988
 21
13.90152563885997
 31
0.0
  0
LINE
  5
86F
330
1F
100
AcDbEntity
  8
SK2
  6
CONTINUOUS
370
25
 62
7
100
AcDbLine
 10
-34.957
 20
13.83336790187178
 30
0.0
 11
-34.81813158489316
 21
13.97223631697862
 31
0.0
  0
LINE
  5
870
330
1F
100
AcDbEntity
  8
SK2
  6
CONTINUOUS
370
25
 62
7
100
AcDbLine
 10
-34.957
 20
12.27298152460319
 30
0.0
 11
-34.72952372949734
 21
12.04550525410053
 31
0.0
  0
LINE
  5
871
330
1F
100
AcDbEntity
  8
SK2
  6
CONTINUOUS
370
25
 62
7
100
AcDbLine
 10
-34.957
 20
12.69724559331512
 30
0.0
 11
-34.37597033890407
 21
12.11621593221918
 31
0.0
  0
LINE
  5
872
330
1F
100
AcDbEntity
  8
SK2
  6
CONTINUOUS
370
25
 62
7
100
AcDbLine
 10
-34.957
 20
13.12150966202705
 30
0.0
 11
-34.02241694831079
 21
12.18692661033784
 31
0.0
  0
LINE
  5
873
330
1F
100
AcDbEntity
  8
SK2
  6
CONTINUOUS
370
25
 62
7
100
AcDbLine
 10
-34.957
 20
13.54577373073899
 30
0.0
 11
-33.66886355771752
 21
12.2576372884565
 31
0.0
  0
LINE
  5
874
330
1F
100
AcDbEntity
  8
SK2
  6
CONTINUOUS
370
25
 62
7
100
AcDbLine
 10
-34.957
 20
13.97003779945092
 30
0.0
 11
-33.31531016712425
 21
12.32834796657515
 31
0.0
  0
LINE
  5
875
330
1F
100
AcDbEntity
  8
SK2
  6
CONTINUOUS
370
25
 62
7
100
AcDbLine
 10
-34.46413516479645
 20
13.90143703295929
 30
0.0
 11
-32.96175677653098
 21
12.39905864469381
 31
0.0
  0
LINE
  5
876
330
1F
100
AcDbEntity
  8
SK2
  6
CONTINUOUS
370
25
 62
7
100
AcDbLine
 10
-33.93380507890654
 20
13.79537101578131
 30
0.0
 11
-32.60820338593769
 21
12.46976932281246
 31
0.0
  0
LINE
  5
877
330
1F
100
AcDbEntity
  8
SK2
  6
CONTINUOUS
370
25
 62
7
100
AcDbLine
 10
-33.40347499301662
 20
13.68930499860333
 30
0.0
 11
-32.25464999534442
 21
12.54048000093112
 31
0.0
  0
LINE
  5
878
330
1F
100
AcDbEntity
  8
SK2
  6
CONTINUOUS
370
25
 62
7
100
AcDbLine
 10
-32.87314490712671
 20
13.58323898142534
 30
0.0
 11
-31.90109660475115
 21
12.61119067904978
 31
0.0
  0
LINE
  5
879
330
1F
100
AcDbEntity
  8
SK2
  6
CONTINUOUS
370
25
 62
7
100
AcDbLine
 10
-32.34281482123679
 20
13.47717296424735
 30
0.0
 11
-31.54754321415787
 21
12.68190135716843
 31
0.0
  0
LINE
  5
87A
330
1F
100
AcDbEntity
  8
SK2
  6
CONTINUOUS
370
25
 62
7
100
AcDbLine
 10
-31.81248473534689
 20
13.37110694706938
 30
0.0
 11
-31.1939898235646
 21
12.75261203528709
 31
0.0
  0
LINE
  5
87B
330
1F
100
AcDbEntity
  8
SK2
  6
CONTINUOUS
370
25
 62
7
100
AcDbLine
 10
-31.28215464945698
 20
13.26504092989139
 30
0.0
 11
-30.84043643297133
 21
12.82332271340574
 31
0.0
  0
LINE
  5
87C
330
1F
100
AcDbEntity
  8
SK2
  6
CONTINUOUS
370
25
 62
7
100
AcDbLine
 10
-30.75182456356708
 20
13.15897491271341
 30
0.0
 11
-30.48688304237806
 21
12.8940333915244
 31
0.0
  0
LINE
  5
87D
330
1F
100
AcDbEntity
  8
SK2
  6
CONTINUOUS
370
25
 62
7
100
AcDbLine
 10
-30.22149447767716
 20
13.05290889553543
 30
0.0
 11
-30.13332965178478
 21
12.96474406964305
 31
0.0
  0
LINE
  5
87E
330
1F
100
AcDbEntity
  8
SK2
  6
CONTINUOUS
370
25
 62
7
100
AcDbLine
 10
0.0
 20
13.00001
 30
0.0
 11
5.0
 21
14.00001
 31
0.0
  0
LINE
  5
87F
330
1F
100
AcDbEntity
  8
SK2
  6
CONTINUOUS
370
25
 62
7
100
AcDbLine
 10
5.0
 20
14.00001
 30
0.0
 11
5.0
 21
12.00001
 31
0.0
  0
LINE
  5
880
330
1F
100
AcDbEntity
  8
SK2
  6
CONTINUOUS
370
25
 62
7
100
AcDbLine
 10
5.0
 20
12.00001
 30
0.0
 11
0.0
 21
13.00001
 31
0.0
  0
LINE
  5
881
330
1F
100
AcDbEntity
  8
SK2
  6
CONTINUOUS
370
25
 62
7
100
AcDbLine
 10
4.822934026581015
 20
12.0354231946838
 30
0.0
 11
5.0
 21
12.21248916810278
 31
0.0
  0
LINE
  5
882
330
1F
100
AcDbEntity
  8
SK2
  6
CONTINUOUS
370
25
 62
7
100
AcDbLine
 10
4.469380635987742
 20
12.10613387280245
 30
0.0
 11
5.0
 21
12.63675323681471
 31
0.0
  0
LINE
  5
883
330
1F
100
AcDbEntity
  8
SK2
  6
CONTINUOUS
370
25
 62
7
100
AcDbLine
 10
4.115827245394469
 20
12.17684455092111
 30
0.0
 11
5.0
 21
13.06101730552664
 31
0.0
  0
LINE
  5
884
330
1F
100
AcDbEntity
  8
SK2
  6
CONTINUOUS
370
25
 62
7
100
AcDbLine
 10
3.762273854801196
 20
12.24755522903976
 30
0.0
 11
5.0
 21
13.48528137423856
 31
0.0
  0
LINE
  5
885
330
1F
100
AcDbEntity
  8
SK2
  6
CONTINUOUS
370
25
 62
7
100
AcDbLine
 10
3.408720464207922
 20
12.31826590715842
 30
0.0
 11
5.0
 21
13.90954544295049
 31
0.0
  0
LINE
  5
886
330
1F
100
AcDbEntity
  8
SK2
  6
CONTINUOUS
370
25
 62
7
100
AcDbLine
 10
3.055167073614648
 20
12.38897658527707
 30
0.0
 11
4.582750610421974
 21
13.91656012208439
 31
0.0
  0
LINE
  5
887
330
1F
100
AcDbEntity
  8
SK2
  6
CONTINUOUS
370
25
 62
7
100
AcDbLine
 10
2.701613683021375
 20
12.45968726339573
 30
0.0
 11
4.052420524532065
 21
13.81049410490641
 31
0.0
  0
LINE
  5
888
330
1F
100
AcDbEntity
  8
SK2
  6
CONTINUOUS
370
25
 62
7
100
AcDbLine
 10
2.348060292428102
 20
12.53039794151438
 30
0.0
 11
3.522090438642155
 21
13.70442808772843
 31
0.0
  0
LINE
  5
889
330
1F
100
AcDbEntity
  8
SK2
  6
CONTINUOUS
370
25
 62
7
100
AcDbLine
 10
1.994506901834829
 20
12.60110861963303
 30
0.0
 11
2.991760352752245
 21
13.59836207055045
 31
0.0
  0
LINE
  5
88A
330
1F
100
AcDbEntity
  8
SK2
  6
CONTINUOUS
370
25
 62
7
100
AcDbLine
 10
1.640953511241556
 20
12.67181929775169
 30
0.0
 11
2.461430266862335
 21
13.49229605337247
 31
0.0
  0
LINE
  5
88B
330
1F
100
AcDbEntity
  8
SK2
  6
CONTINUOUS
370
25
 62
7
100
AcDbLine
 10
1.287400120648283
 20
12.74252997587034
 30
0.0
 11
1.931100180972425
 21
13.38623003619449
 31
0.0
  0
LINE
  5
88C
330
1F
100
AcDbEntity
  8
SK2
  6
CONTINUOUS
370
25
 62
7
100
AcDbLine
 10
0.9338467300550093
 20
12.813240653989
 30
0.0
 11
1.400770095082515
 21
13.2801640190165
 31
0.0
  0
LINE
  5
88D
330
1F
100
AcDbEntity
  8
SK2
  6
CONTINUOUS
370
25
 62
7
100
AcDbLine
 10
0.5802933394617361
 20
12.88395133210765
 30
0.0
 11
0.8704400091926046
 21
13.17409800183852
 31
0.0
  0
LINE
  5
88E
330
1F
100
AcDbEntity
  8
SK2
  6
CONTINUOUS
370
25
 62
7
100
AcDbLine
 10
0.2267399488684627
 20
12.95466201022631
 30
0.0
 11
0.3401099233026943
 21
13.06803198466054
 31
0.0
  0
LINE
  5
88F
330
1F
100
AcDbEntity
  8
SK2
  6
CONTINUOUS
370
25
 62
7
100
AcDbLine
 10
0.1268134417248166
 20
13.02537268834496
 30
0.0
 11
0.190220162587225
 21
12.96196596748255
 31
0.0
  0
LINE
  5
890
330
1F
100
AcDbEntity
  8
SK2
  6
CONTINUOUS
370
25
 62
7
100
AcDbLine
 10
0.4803668323180901
 20
13.09608336646362
 30
0.0
 11
0.7205502484771356
 21
12.85589995030457
 31
0.0
  0
LINE
  5
891
330
1F
100
AcDbEntity
  8
SK2
  6
CONTINUOUS
370
25
 62
7
100
AcDbLine
 10
0.8339202229113637
 20
13.16679404458227
 30
0.0
 11
1.250880334367046
 21
12.74983393312659
 31
0.0
  0
LINE
  5
892
330
1F
100
AcDbEntity
  8
SK2
  6
CONTINUOUS
370
25
 62
7
100
AcDbLine
 10
1.187473613504639
 20
13.23750472270093
 30
0.0
 11
1.781210420256959
 21
12.64376791594861
 31
0.0
  0
LINE
  5
893
330
1F
100
AcDbEntity
  8
SK2
  6
CONTINUOUS
370
25
 62
7
100
AcDbLine
 10
1.541027004097913
 20
13.30821540081958
 30
0.0
 11
2.31154050614687
 21
12.53770189877063
 31
0.0
  0
LINE
  5
894
330
1F
100
AcDbEntity
  8
SK2
  6
CONTINUOUS
370
25
 62
7
100
AcDbLine
 10
1.894580394691186
 20
13.37892607893824
 30
0.0
 11
2.84187059203678
 21
12.43163588159264
 31
0.0
  0
LINE
  5
895
330
1F
100
AcDbEntity
  8
SK2
  6
CONTINUOUS
370
25
 62
7
100
AcDbLine
 10
2.248133785284459
 20
13.44963675705689
 30
0.0
 11
3.372200677926691
 21
12.32556986441466
 31
0.0
  0
LINE
  5
896
330
1F
100
AcDbEntity
  8
SK2
  6
CONTINUOUS
370
25
 62
7
100
AcDbLine
 10
2.601687175877731
 20
13.52034743517555
 30
0.0
 11
3.902530763816599
 21
12.21950384723668
 31
0.0
  0
LINE
  5
897
330
1F
100
AcDbEntity
  8
SK2
  6
CONTINUOUS
370
25
 62
7
100
AcDbLine
 10
2.955240566471005
 20
13.5910581132942
 30
0.0
 11
4.432860849706509
 21
12.1134378300587
 31
0.0
  0
LINE
  5
898
330
1F
100
AcDbEntity
  8
SK2
  6
CONTINUOUS
370
25
 62
7
100
AcDbLine
 10
3.308793957064279
 20
13.66176879141286
 30
0.0
 11
4.963190935596421
 21
12.00737181288072
 31
0.0
  0
LINE
  5
899
330
1F
100
AcDbEntity
  8
SK2
  6
CONTINUOUS
370
25
 62
7
100
AcDbLine
 10
3.662347347657551
 20
13.73247946953151
 30
0.0
 11
5.0
 21
12.39482681718906
 31
0.0
  0
LINE
  5
89A
330
1F
100
AcDbEntity
  8
SK2
  6
CONTINUOUS
370
25
 62
7
100
AcDbLine
 10
4.015900738250825
 20
13.80319014765016
 30
0.0
 11
5.0
 21
12.81909088590099
 31
0.0
  0
LINE
  5
89B
330
1F
100
AcDbEntity
  8
SK2
  6
CONTINUOUS
370
25
 62
7
100
AcDbLine
 10
4.369454128844098
 20
13.87390082576882
 30
0.0
 11
5.0
 21
13.24335495461292
 31
0.0
  0
LINE
  5
89C
330
1F
100
AcDbEntity
  8
SK2
  6
CONTINUOUS
370
25
 62
7
100
AcDbLine
 10
4.723007519437371
 20
13.94461150388747
 30
0.0
 11
5.0
 21
13.66761902332485
 31
0.0
  0
TEXT
  5
89D
330
1F
100
AcDbEntity
  8
SK2
  6
CONTINUOUS
370
25
 62
7
100
AcDbText
 10
-23.7285
 20
14.00001
 30
0.0
 40
3.5
  1
29.957
 72
     1
 11
-14.9785
 21
14.00001
 31
0.0
100
AcDbText
  0
LINE
  5
89E
330
1F
100
AcDbEntity
  8
SK2
  6
CONTINUOUS
370
25
 62
7
100
AcDbLine
 10
-39.9570002
 20
-3.000001
 30
0.0
 11
-40.95700000000009
 21
-3.000001
 31
0.0
  0
LINE
  5
89F
330
1F
100
AcDbEntity
  8
SK2
  6
CONTINUOUS
370
25
 62
7
100
AcDbLine
 10
-29.957
 20
-3.000001
 30
0.0
 11
-39.9569998
 21
-3.000001
 31
0.0
  0
LINE
  5
8A0
330
1F
100
AcDbEntity
  8
SK2
  6
CONTINUOUS
370
25
 62
7
100
AcDbLine
 10
-40.957
 20
3.0
 30
0.0
 11
-29.957
 21
3.0
 31
0.0
  0
LINE
  5
8A1
330
1F
100
AcDbEntity
  8
SK2
  6
CONTINUOUS
370
25
 62
7
100
AcDbLine
 10
-39.957
 20
-18.10625
 30
0.0
 11
-39.957
 21
13.0
 31
0.0
  0
LINE
  5
8A2
330
1F
100
AcDbEntity
  8
SK2
  6
CONTINUOUS
370
25
 62
7
100
AcDbLine
 10
-39.957
 20
-3.0
 30
0.0
 11
-38.957
 21
-8.0
 31
0.0
  0
LINE
  5
8A3
330
1F
100
AcDbEntity
  8
SK2
  6
CONTINUOUS
370
25
 62
7
100
AcDbLine
 10
-38.957
 20
-8.0
 30
0.0
 11
-40.957
 21
-8.0
 31
0.0
  0
LINE
  5
8A4
330
1F
100
AcDbEntity
  8
SK2
  6
CONTINUOUS
370
25
 62
7
100
AcDbLine
 10
-40.957
 20
-8.0
 30
0.0
 11
-39.957
 21
-3.0
 31
0.0
  0
LINE
  5
8A5
330
1F
100
AcDbEntity
  8
SK2
  6
CONTINUOUS
370
25
 62
7
100
AcDbLine
 10
-38.97127701597075
 20
-7.999999999999996
 30
0.0
 11
-38.9593795026618
 21
-7.988102486691044
 31
0.0
  0
LINE
  5
8A6
330
1F
100
AcDbEntity
  8
SK2
  6
CONTINUOUS
370
25
 62
7
100
AcDbLine
 10
-39.39554108468269
 20
-8.0
 30
0.0
 11
-39.03009018078046
 21
-7.634549096097764
 31
0.0
  0
LINE
  5
8A7
330
1F
100
AcDbEntity
  8
SK2
  6
CONTINUOUS
370
25
 62
7
100
AcDbLine
 10
-39.81980515339463
 20
-8.000000000000004
 30
0.0
 11
-39.10080085889911
 21
-7.280995705504484
 31
0.0
  0
LINE
  5
8A8
330
1F
100
AcDbEntity
  8
SK2
  6
CONTINUOUS
370
25
 62
7
100
AcDbLine
 10
-40.24406922210655
 20
-8.0
 30
0.0
 11
-39.17151153701776
 21
-6.927442314911204
 31
0.0
  0
LINE
  5
8A9
330
1F
100
AcDbEntity
  8
SK2
  6
CONTINUOUS
370
25
 62
7
100
AcDbLine
 10
-40.66833329081847
 20
-8.0
 30
0.0
 11
-39.24222221513642
 21
-6.573888924317934
 31
0.0
  0
LINE
  5
8AA
330
1F
100
AcDbEntity
  8
SK2
  6
CONTINUOUS
370
25
 62
7
100
AcDbLine
 10
-40.9231006601174
 20
-7.83050330058699
 30
0.0
 11
-39.31293289325507
 21
-6.220335533724658
 31
0.0
  0
LINE
  5
8AB
330
1F
100
AcDbEntity
  8
SK2
  6
CONTINUOUS
370
25
 62
7
100
AcDbLine
 10
-40.81703464293941
 20
-7.300173214697075
 30
0.0
 11
-39.38364357137372
 21
-5.866782143131388
 31
0.0
  0
LINE
  5
8AC
330
1F
100
AcDbEntity
  8
SK2
  6
CONTINUOUS
370
25
 62
7
100
AcDbLine
 10
-40.71096862576143
 20
-6.76984312880716
 30
0.0
 11
-39.45435424949238
 21
-5.513228752538105
 31
0.0
  0
LINE
  5
8AD
330
1F
100
AcDbEntity
  8
SK2
  6
CONTINUOUS
370
25
 62
7
100
AcDbLine
 10
-40.60490260858345
 20
-6.239513042917245
 30
0.0
 11
-39.52506492761103
 21
-5.159675361944828
 31
0.0
  0
LINE
  5
8AE
330
1F
100
AcDbEntity
  8
SK2
  6
CONTINUOUS
370
25
 62
7
100
AcDbLine
 10
-40.49883659140546
 20
-5.70918295702733
 30
0.0
 11
-39.59577560572969
 21
-4.806121971351558
 31
0.0
  0
LINE
  5
8AF
330
1F
100
AcDbEntity
  8
SK2
  6
CONTINUOUS
370
25
 62
7
100
AcDbLine
 10
-40.39277057422748
 20
-5.178852871137423
 30
0.0
 11
-39.66648628384834
 21
-4.452568580758282
 31
0.0
  0
LINE
  5
8B0
330
1F
100
AcDbEntity
  8
SK2
  6
CONTINUOUS
370
25
 62
7
100
AcDbLine
 10
-40.2867045570495
 20
-4.648522785247501
 30
0.0
 11
-39.737196961967
 21
-4.099015190165005
 31
0.0
  0
LINE
  5
8B1
330
1F
100
AcDbEntity
  8
SK2
  6
CONTINUOUS
370
25
 62
7
100
AcDbLine
 10
-40.18063853987152
 20
-4.118192699357586
 30
0.0
 11
-39.80790764008565
 21
-3.745461799571721
 31
0.0
  0
LINE
  5
8B2
330
1F
100
AcDbEntity
  8
SK2
  6
CONTINUOUS
370
25
 62
7
100
AcDbLine
 10
-40.07457252269354
 20
-3.587862613467678
 30
0.0
 11
-39.87861831820431
 21
-3.391908408978452
 31
0.0
  0
LINE
  5
8B3
330
1F
100
AcDbEntity
  8
SK2
  6
CONTINUOUS
370
25
 62
7
100
AcDbLine
 10
-39.96850650551555
 20
-3.057532527577756
 30
0.0
 11
-39.94932899632297
 21
-3.038355018385175
 31
0.0
  0
LINE
  5
8B4
330
1F
100
AcDbEntity
  8
SK2
  6
CONTINUOUS
370
25
 62
7
100
AcDbLine
 10
-40.93148838066152
 20
-7.872441903307632
 30
0.0
 11
-40.80393028396915
 21
-8.0
 31
0.0
  0
LINE
  5
8B5
330
1F
100
AcDbEntity
  8
SK2
  6
CONTINUOUS
370
25
 62
7
100
AcDbLine
 10
-40.86077770254287
 20
-7.518888512714348
 30
0.0
 11
-40.37966621525722
 21
-8.0
 31
0.0
  0
LINE
  5
8B6
330
1F
100
AcDbEntity
  8
SK2
  6
CONTINUOUS
370
25
 62
7
100
AcDbLine
 10
-40.79006702442422
 20
-7.165335122121064
 30
0.0
 11
-39.95540214654528
 21
-8.0
 31
0.0
  0
LINE
  5
8B7
330
1F
100
AcDbEntity
  8
SK2
  6
CONTINUOUS
370
25
 62
7
100
AcDbLine
 10
-40.71935634630556
 20
-6.811781731527795
 30
0.0
 11
-39.53113807783335
 21
-8.0
 31
0.0
  0
LINE
  5
8B8
330
1F
100
AcDbEntity
  8
SK2
  6
CONTINUOUS
370
25
 62
7
100
AcDbLine
 10
-40.6486456681869
 20
-6.458228340934525
 30
0.0
 11
-39.10687400912142
 21
-8.0
 31
0.0
  0
LINE
  5
8B9
330
1F
100
AcDbEntity
  8
SK2
  6
CONTINUOUS
370
25
 62
7
100
AcDbLine
 10
-40.57793499006825
 20
-6.104674950341249
 30
0.0
 11
-39.02559751489763
 21
-7.657012425511866
 31
0.0
  0
LINE
  5
8BA
330
1F
100
AcDbEntity
  8
SK2
  6
CONTINUOUS
370
25
 62
7
100
AcDbLine
 10
-40.50722431194959
 20
-5.751121559747972
 30
0.0
 11
-39.13166353207561
 21
-7.126682339621951
 31
0.0
  0
LINE
  5
8BB
330
1F
100
AcDbEntity
  8
SK2
  6
CONTINUOUS
370
25
 62
7
100
AcDbLine
 10
-40.43651363383094
 20
-5.397568169154688
 30
0.0
 11
-39.23772954925359
 21
-6.596352253732036
 31
0.0
  0
LINE
  5
8BC
330
1F
100
AcDbEntity
  8
SK2
  6
CONTINUOUS
370
25
 62
7
100
AcDbLine
 10
-40.36580295571228
 20
-5.044014778561412
 30
0.0
 11
-39.34379556643157
 21
-6.066022167842121
 31
0.0
  0
LINE
  5
8BD
330
1F
100
AcDbEntity
  8
SK2
  6
CONTINUOUS
370
25
 62
7
100
AcDbLine
 10
-40.29509227759362
 20
-4.690461387968135
 30
0.0
 11
-39.44986158360956
 21
-5.535692081952199
 31
0.0
  0
LINE
  5
8BE
330
1F
100
AcDbEntity
  8
SK2
  6
CONTINUOUS
370
25
 62
7
100
AcDbLine
 10
-40.22438159947497
 20
-4.336907997374858
 30
0.0
 11
-39.55592760078754
 21
-5.005361996062291
 31
0.0
  0
LINE
  5
8BF
330
1F
100
AcDbEntity
  8
SK2
  6
CONTINUOUS
370
25
 62
7
100
AcDbLine
 10
-40.15367092135632
 20
-3.983354606781582
 30
0.0
 11
-39.66199361796552
 21
-4.475031910172383
 31
0.0
  0
LINE
  5
8C0
330
1F
100
AcDbEntity
  8
SK2
  6
CONTINUOUS
370
25
 62
7
100
AcDbLine
 10
-40.08296024323766
 20
-3.629801216188312
 30
0.0
 11
-39.7680596351435
 21
-3.944701824282475
 31
0.0
  0
LINE
  5
8C1
330
1F
100
AcDbEntity
  8
SK2
  6
CONTINUOUS
370
25
 62
7
100
AcDbLine
 10
-40.01224956511901
 20
-3.276247825595036
 30
0.0
 11
-39.87412565232149
 21
-3.414371738392553
 31
0.0
  0
LINE
  5
8C2
330
1F
100
AcDbEntity
  8
SK2
  6
CONTINUOUS
370
25
 62
7
100
AcDbLine
 10
-39.957
 20
3.0
 30
0.0
 11
-40.957
 21
8.0
 31
0.0
  0
LINE
  5
8C3
330
1F
100
AcDbEntity
  8
SK2
  6
CONTINUOUS
370
25
 62
7
100
AcDbLine
 10
-40.957
 20
8.0
 30
0.0
 11
-38.957
 21
8.0
 31
0.0
  0
LINE
  5
8C4
330
1F
100
AcDbEntity
  8
SK2
  6
CONTINUOUS
370
25
 62
7
100
AcDbLine
 10
-38.957
 20
8.0
 30
0.0
 11
-39.957
 21
3.0
 31
0.0
  0
LINE
  5
8C5
330
1F
100
AcDbEntity
  8
SK2
  6
CONTINUOUS
370
25
 62
7
100
AcDbLine
 10
-40.00998916810278
 20
3.26494584051391
 30
0.0
 11
-39.87751624784583
 21
3.397418760770869
 31
0.0
  0
LINE
  5
8C6
330
1F
100
AcDbEntity
  8
SK2
  6
CONTINUOUS
370
25
 62
7
100
AcDbLine
 10
-40.08069984622144
 20
3.618499231107194
 30
0.0
 11
-39.77145023066785
 21
3.927748846660783
 31
0.0
  0
LINE
  5
8C7
330
1F
100
AcDbEntity
  8
SK2
  6
CONTINUOUS
370
25
 62
7
100
AcDbLine
 10
-40.15141052434009
 20
3.97205262170047
 30
0.0
 11
-39.66538421348986
 21
4.458078932550706
 31
0.0
  0
LINE
  5
8C8
330
1F
100
AcDbEntity
  8
SK2
  6
CONTINUOUS
370
25
 62
7
100
AcDbLine
 10
-40.22212120245874
 20
4.325606012293747
 30
0.0
 11
-39.55931819631188
 21
4.988409018440613
 31
0.0
  0
LINE
  5
8C9
330
1F
100
AcDbEntity
  8
SK2
  6
CONTINUOUS
370
25
 62
7
100
AcDbLine
 10
-40.2928318805774
 20
4.679159402887024
 30
0.0
 11
-39.4532521791339
 21
5.518739104330528
 31
0.0
  0
LINE
  5
8CA
330
1F
100
AcDbEntity
  8
SK2
  6
CONTINUOUS
370
25
 62
7
100
AcDbLine
 10
-40.36354255869605
 20
5.0327127934803
 30
0.0
 11
-39.34718616195592
 21
6.049069190220436
 31
0.0
  0
LINE
  5
8CB
330
1F
100
AcDbEntity
  8
SK2
  6
CONTINUOUS
370
25
 62
7
100
AcDbLine
 10
-40.43425323681471
 20
5.386266184073577
 30
0.0
 11
-39.24112014477793
 21
6.579399276110358
 31
0.0
  0
LINE
  5
8CC
330
1F
100
AcDbEntity
  8
SK2
  6
CONTINUOUS
370
25
 62
7
100
AcDbLine
 10
-40.50496391493337
 20
5.739819574666839
 30
0.0
 11
-39.13505412759994
 21
7.109729362000266
 31
0.0
  0
LINE
  5
8CD
330
1F
100
AcDbEntity
  8
SK2
  6
CONTINUOUS
370
25
 62
7
100
AcDbLine
 10
-40.57567459305203
 20
6.093372965260116
 30
0.0
 11
-39.02898811042196
 21
7.640059447890181
 31
0.0
  0
LINE
  5
8CE
330
1F
100
AcDbEntity
  8
SK2
  6
CONTINUOUS
370
25
 62
7
100
AcDbLine
 10
-40.64638527117069
 20
6.446926355853392
 30
0.0
 11
-39.09331162702408
 21
8.0
 31
0.0
  0
LINE
  5
8CF
330
1F
100
AcDbEntity
  8
SK2
  6
CONTINUOUS
370
25
 62
7
100
AcDbLine
 10
-40.71709594928934
 20
6.800479746446669
 30
0.0
 11
-39.51757569573601
 21
8.0
 31
0.0
  0
LINE
  5
8D0
330
1F
100
AcDbEntity
  8
SK2
  6
CONTINUOUS
370
25
 62
7
100
AcDbLine
 10
-40.78780662740799
 20
7.154033137039953
 30
0.0
 11
-39.94183976444794
 21
8.0
 31
0.0
  0
LINE
  5
8D1
330
1F
100
AcDbEntity
  8
SK2
  6
CONTINUOUS
370
25
 62
7
100
AcDbLine
 10
-40.85851730552665
 20
7.507586527633222
 30
0.0
 11
-40.36610383315987
 21
8.0
 31
0.0
  0
LINE
  5
8D2
330
1F
100
AcDbEntity
  8
SK2
  6
CONTINUOUS
370
25
 62
7
100
AcDbLine
 10
-40.9292279836453
 20
7.861139918226499
 30
0.0
 11
-40.7903679018718
 21
8.0
 31
0.0
  0
LINE
  5
8D3
330
1F
100
AcDbEntity
  8
SK2
  6
CONTINUOUS
370
25
 62
7
100
AcDbLine
 10
-40.05574903391413
 20
3.493745169570659
 30
0.0
 11
-39.89116731072391
 21
3.329163446380434
 31
0.0
  0
LINE
  5
8D4
330
1F
100
AcDbEntity
  8
SK2
  6
CONTINUOUS
370
25
 62
7
100
AcDbLine
 10
-40.16181505109211
 20
4.024075255460566
 30
0.0
 11
-39.82045663260526
 21
3.682716836973711
 31
0.0
  0
LINE
  5
8D5
330
1F
100
AcDbEntity
  8
SK2
  6
CONTINUOUS
370
25
 62
7
100
AcDbLine
 10
-40.26788106827009
 20
4.554405341350481
 30
0.0
 11
-39.74974595448661
 21
4.036270227566995
 31
0.0
  0
LINE
  5
8D6
330
1F
100
AcDbEntity
  8
SK2
  6
CONTINUOUS
370
25
 62
7
100
AcDbLine
 10
-40.37394708544808
 20
5.084735427240396
 30
0.0
 11
-39.67903527636795
 21
4.389823618160264
 31
0.0
  0
LINE
  5
8D7
330
1F
100
AcDbEntity
  8
SK2
  6
CONTINUOUS
370
25
 62
7
100
AcDbLine
 10
-40.48001310262606
 20
5.615065513130304
 30
0.0
 11
-39.60832459824929
 21
4.743377008753534
 31
0.0
  0
LINE
  5
8D8
330
1F
100
AcDbEntity
  8
SK2
  6
CONTINUOUS
370
25
 62
7
100
AcDbLine
 10
-40.58607911980405
 20
6.145395599020226
 30
0.0
 11
-39.53761392013063
 21
5.09693039934681
 31
0.0
  0
LINE
  5
8D9
330
1F
100
AcDbEntity
  8
SK2
  6
CONTINUOUS
370
25
 62
7
100
AcDbLine
 10
-40.69214513698203
 20
6.675725684910127
 30
0.0
 11
-39.46690324201198
 21
5.45048378994008
 31
0.0
  0
LINE
  5
8DA
330
1F
100
AcDbEntity
  8
SK2
  6
CONTINUOUS
370
25
 62
7
100
AcDbLine
 10
-40.79821115416001
 20
7.206055770800042
 30
0.0
 11
-39.39619256389333
 21
5.804037180533363
 31
0.0
  0
LINE
  5
8DB
330
1F
100
AcDbEntity
  8
SK2
  6
CONTINUOUS
370
25
 62
7
100
AcDbLine
 10
-40.90427717133799
 20
7.736385856689964
 30
0.0
 11
-39.32548188577467
 21
6.15759057112664
 31
0.0
  0
LINE
  5
8DC
330
1F
100
AcDbEntity
  8
SK2
  6
CONTINUOUS
370
25
 62
7
100
AcDbLine
 10
-40.7436272459361
 20
8.0
 30
0.0
 11
-39.25477120765601
 21
6.511143961719917
 31
0.0
  0
LINE
  5
8DD
330
1F
100
AcDbEntity
  8
SK2
  6
CONTINUOUS
370
25
 62
7
100
AcDbLine
 10
-40.31936317722416
 20
8.0
 30
0.0
 11
-39.18406052953735
 21
6.864697352313193
 31
0.0
  0
LINE
  5
8DE
330
1F
100
AcDbEntity
  8
SK2
  6
CONTINUOUS
370
25
 62
7
100
AcDbLine
 10
-39.89509910851223
 20
8.0
 30
0.0
 11
-39.1133498514187
 21
7.21825074290647
 31
0.0
  0
LINE
  5
8DF
330
1F
100
AcDbEntity
  8
SK2
  6
CONTINUOUS
370
25
 62
7
100
AcDbLine
 10
-39.47083503980031
 20
8.000000000000004
 30
0.0
 11
-39.04263917330005
 21
7.571804133499743
 31
0.0
  0
LINE
  5
8E0
330
1F
100
AcDbEntity
  8
SK2
  6
CONTINUOUS
370
25
 62
7
100
AcDbLine
 10
-39.04657097108837
 20
8.0
 30
0.0
 11
-38.97192849518139
 21
7.925357524093023
 31
0.0
  0
TEXT
  5
8E1
330
1F
100
AcDbEntity
  8
SK2
  6
CONTINUOUS
370
25
 62
7
100
AcDbText
 10
-40.957
 20
-12.21979166666667
 30
0.0
 40
3.5
  1
6
 50
90.00000000000001
 72
     1
 11
-40.957
 21
-11.053125
 31
0.0
100
AcDbText
  0
CIRCLE
  5
8E2
330
1F
100
AcDbEntity
  8
SK2
  6
CONTINUOUS
370
25
 62
7
100
AcDbCircle
 10
-42.48825
 20
-15.463125
 30
0.0
 40
1.53125
  0
LINE
  5
8E3
330
1F
100
AcDbEntity
  8
SK2
  6
CONTINUOUS
370
25
 62
7
100
AcDbLine
 10
-40.957
 20
-16.994375
 30
0.0
 11
-44.0195
 21
-13.931875
 31
0.0
  0
LINE
  5
8E4
330
1F
100
AcDbEntity
  8
2
  6
CONTINUOUS
370
25
 62
7
100
AcDbLine
 10
0.0
 20
-3.0
 30
0.0
 11
-0.0000000000000007
 21
-14.00001
 31
0.0
  0
LINE
  5
8E5
330
1F
100
AcDbEntity
  8
2
  6
CONTINUOUS
370
25
 62
7
100
AcDbLine
 10
0.9999999999999992
 20
-14.00001
 30
0.0
 11
0.9999999999999999
 21
-3.0
 31
0.0
  0
LINE
  5
8E6
330
1F
100
AcDbEntity
  8
2
  6
CONTINUOUS
370
25
 62
7
100
AcDbLine
 10
-8.36875
 20
-13.00001
 30
0.0
 11
11.0
 21
-13.00001
 31
0.0
  0
LINE
  5
8E7
330
1F
100
AcDbEntity
  8
2
  6
CONTINUOUS
370
25
 62
7
100
AcDbLine
 10
0.0
 20
-13.00001
 30
0.0
 11
-5.0
 21
-14.00001
 31
0.0
  0
LINE
  5
8E8
330
1F
100
AcDbEntity
  8
2
  6
CONTINUOUS
370
25
 62
7
100
AcDbLine
 10
-5.0
 20
-14.00001
 30
0.0
 11
-5.0
 21
-12.00001
 31
0.0
  0
LINE
  5
8E9
330
1F
100
AcDbEntity
  8
2
  6
CONTINUOUS
370
25
 62
7
100
AcDbLine
 10
-5.0
 20
-12.00001
 30
0.0
 11
0.0
 21
-13.00001
 31
0.0
  0
LINE
  5
8EA
330
1F
100
AcDbEntity
  8
2
  6
CONTINUOUS
370
25
 62
7
100
AcDbLine
 10
-0.2111677738457529
 20
-13.04224355476915
 30
0.0
 11
-0.1407785158971686
 21
-12.97185429682057
 31
0.0
  0
LINE
  5
8EB
330
1F
100
AcDbEntity
  8
2
  6
CONTINUOUS
370
25
 62
7
100
AcDbLine
 10
-0.7414978597356625
 20
-13.14830957194713
 30
0.0
 11
-0.4943319064904417
 21
-12.90114361870191
 31
0.0
  0
LINE
  5
8EC
330
1F
100
AcDbEntity
  8
2
  6
CONTINUOUS
370
25
 62
7
100
AcDbLine
 10
-1.271827945625572
 20
-13.25437558912511
 30
0.0
 11
-0.8478852970837147
 21
-12.83043294058326
 31
0.0
  0
LINE
  5
8ED
330
1F
100
AcDbEntity
  8
2
  6
CONTINUOUS
370
25
 62
7
100
AcDbLine
 10
-1.802158031515483
 20
-13.3604416063031
 30
0.0
 11
-1.201438687676989
 21
-12.7597222624646
 31
0.0
  0
LINE
  5
8EE
330
1F
100
AcDbEntity
  8
2
  6
CONTINUOUS
370
25
 62
7
100
AcDbLine
 10
-2.332488117405393
 20
-13.46650762348108
 30
0.0
 11
-1.554992078270262
 21
-12.68901158434595
 31
0.0
  0
LINE
  5
8EF
330
1F
100
AcDbEntity
  8
2
  6
CONTINUOUS
370
25
 62
7
100
AcDbLine
 10
-2.862818203295302
 20
-13.57257364065906
 30
0.0
 11
-1.908545468863535
 21
-12.61830090622729
 31
0.0
  0
LINE
  5
8F0
330
1F
100
AcDbEntity
  8
2
  6
CONTINUOUS
370
25
 62
7
100
AcDbLine
 10
-3.393148289185213
 20
-13.67863965783704
 30
0.0
 11
-2.262098859456809
 21
-12.54759022810864
 31
0.0
  0
LINE
  5
8F1
330
1F
100
AcDbEntity
  8
2
  6
CONTINUOUS
370
25
 62
7
100
AcDbLine
 10
-3.923478375075122
 20
-13.78470567501502
 30
0.0
 11
-2.615652250050082
 21
-12.47687954998998
 31
0.0
  0
LINE
  5
8F2
330
1F
100
AcDbEntity
  8
2
  6
CONTINUOUS
370
25
 62
7
100
AcDbLine
 10
-4.453808460965031
 20
-13.89077169219301
 30
0.0
 11
-2.969205640643355
 21
-12.40616887187133
 31
0.0
  0
LINE
  5
8F3
330
1F
100
AcDbEntity
  8
2
  6
CONTINUOUS
370
25
 62
7
100
AcDbLine
 10
-4.984138546854941
 20
-13.99683770937099
 30
0.0
 11
-3.322759031236628
 21
-12.33545819375267
 31
0.0
  0
LINE
  5
8F4
330
1F
100
AcDbEntity
  8
2
  6
CONTINUOUS
370
25
 62
7
100
AcDbLine
 10
-5.0
 20
-13.58843509380412
 30
0.0
 11
-3.676312421829901
 21
-12.26474751563402
 31
0.0
  0
LINE
  5
8F5
330
1F
100
AcDbEntity
  8
2
  6
CONTINUOUS
370
25
 62
7
100
AcDbLine
 10
-5.0
 20
-13.16417102509219
 30
0.0
 11
-4.029865812423175
 21
-12.19403683751537
 31
0.0
  0
LINE
  5
8F6
330
1F
100
AcDbEntity
  8
2
  6
CONTINUOUS
370
25
 62
7
100
AcDbLine
 10
-5.0
 20
-12.73990695638026
 30
0.0
 11
-4.383419203016447
 21
-12.12332615939671
 31
0.0
  0
LINE
  5
8F7
330
1F
100
AcDbEntity
  8
2
  6
CONTINUOUS
370
25
 62
7
100
AcDbLine
 10
-5.0
 20
-12.31564288766834
 30
0.0
 11
-4.73697259360972
 21
-12.05261548127806
 31
0.0
  0
LINE
  5
8F8
330
1F
100
AcDbEntity
  8
2
  6
CONTINUOUS
370
25
 62
7
100
AcDbLine
 10
-5.0
 20
-13.58843509380412
 30
0.0
 11
-4.657020911503432
 21
-13.93141418230068
 31
0.0
  0
LINE
  5
8F9
330
1F
100
AcDbEntity
  8
2
  6
CONTINUOUS
370
25
 62
7
100
AcDbLine
 10
-5.0
 20
-13.16417102509219
 30
0.0
 11
-4.303467520910159
 21
-13.86070350418203
 31
0.0
  0
LINE
  5
8FA
330
1F
100
AcDbEntity
  8
2
  6
CONTINUOUS
370
25
 62
7
100
AcDbLine
 10
-5.0
 20
-12.73990695638026
 30
0.0
 11
-3.949914130316885
 21
-13.78999282606338
 31
0.0
  0
LINE
  5
8FB
330
1F
100
AcDbEntity
  8
2
  6
CONTINUOUS
370
25
 62
7
100
AcDbLine
 10
-5.0
 20
-12.31564288766834
 30
0.0
 11
-3.596360739723611
 21
-13.71928214794472
 31
0.0
  0
LINE
  5
8FC
330
1F
100
AcDbEntity
  8
2
  6
CONTINUOUS
370
25
 62
7
100
AcDbLine
 10
-4.86421102369551
 20
-12.0271677952609
 30
0.0
 11
-3.242807349130338
 21
-13.64857146982607
 31
0.0
  0
LINE
  5
8FD
330
1F
100
AcDbEntity
  8
2
  6
CONTINUOUS
370
25
 62
7
100
AcDbLine
 10
-4.333880937805599
 20
-12.13323381243888
 30
0.0
 11
-2.889253958537064
 21
-13.57786079170741
 31
0.0
  0
LINE
  5
8FE
330
1F
100
AcDbEntity
  8
2
  6
CONTINUOUS
370
25
 62
7
100
AcDbLine
 10
-3.803550851915689
 20
-12.23929982961686
 30
0.0
 11
-2.535700567943791
 21
-13.50715011358876
 31
0.0
  0
LINE
  5
8FF
330
1F
100
AcDbEntity
  8
2
  6
CONTINUOUS
370
25
 62
7
100
AcDbLine
 10
-3.273220766025779
 20
-12.34536584679484
 30
0.0
 11
-2.182147177350518
 21
-13.4364394354701
 31
0.0
  0
LINE
  5
900
330
1F
100
AcDbEntity
  8
2
  6
CONTINUOUS
370
25
 62
7
100
AcDbLine
 10
-2.742890680135869
 20
-12.45143186397283
 30
0.0
 11
-1.828593786757245
 21
-13.36572875735145
 31
0.0
  0
LINE
  5
901
330
1F
100
AcDbEntity
  8
2
  6
CONTINUOUS
370
25
 62
7
100
AcDbLine
 10
-2.212560594245958
 20
-12.55749788115081
 30
0.0
 11
-1.475040396163971
 21
-13.29501807923279
 31
0.0
  0
LINE
  5
902
330
1F
100
AcDbEntity
  8
2
  6
CONTINUOUS
370
25
 62
7
100
AcDbLine
 10
-1.682230508356047
 20
-12.66356389832879
 30
0.0
 11
-1.121487005570698
 21
-13.22430740111414
 31
0.0
  0
LINE
  5
903
330
1F
100
AcDbEntity
  8
2
  6
CONTINUOUS
370
25
 62
7
100
AcDbLine
 10
-1.151900422466136
 20
-12.76962991550677
 30
0.0
 11
-0.7679336149774239
 21
-13.15359672299548
 31
0.0
  0
LINE
  5
904
330
1F
100
AcDbEntity
  8
2
  6
CONTINUOUS
370
25
 62
7
100
AcDbLine
 10
-0.6215703365762258
 20
-12.87569593268475
 30
0.0
 11
-0.4143802243841504
 21
-13.08288604487683
 31
0.0
  0
LINE
  5
905
330
1F
100
AcDbEntity
  8
2
  6
CONTINUOUS
370
25
 62
7
100
AcDbLine
 10
-0.0912402506863154
 20
-12.98176194986274
 30
0.0
 11
-0.0608268337908769
 21
-13.01217536675817
 31
0.0
  0
LINE
  5
906
330
1F
100
AcDbEntity
  8
2
  6
CONTINUOUS
370
25
 62
7
100
AcDbLine
 10
0.9999999999999993
 20
-13.00001
 30
0.0
 11
5.999999999999999
 21
-12.00001
 31
0.0
  0
LINE
  5
907
330
1F
100
AcDbEntity
  8
2
  6
CONTINUOUS
370
25
 62
7
100
AcDbLine
 10
5.999999999999999
 20
-12.00001
 30
0.0
 11
5.999999999999999
 21
-14.00001
 31
0.0
  0
LINE
  5
908
330
1F
100
AcDbEntity
  8
2
  6
CONTINUOUS
370
25
 62
7
100
AcDbLine
 10
5.999999999999999
 20
-14.00001
 30
0.0
 11
0.9999999999999993
 21
-13.00001
 31
0.0
  0
LINE
  5
909
330
1F
100
AcDbEntity
  8
2
  6
CONTINUOUS
370
25
 62
7
100
AcDbLine
 10
5.783247463650217
 20
-13.95665949273004
 30
0.0
 11
5.999999999999999
 21
-13.73990695638026
 31
0.0
  0
LINE
  5
90A
330
1F
100
AcDbEntity
  8
2
  6
CONTINUOUS
370
25
 62
7
100
AcDbLine
 10
5.429694073056944
 20
-13.88594881461139
 30
0.0
 11
5.999999999999999
 21
-13.31564288766833
 31
0.0
  0
LINE
  5
90B
330
1F
100
AcDbEntity
  8
2
  6
CONTINUOUS
370
25
 62
7
100
AcDbLine
 10
5.076140682463671
 20
-13.81523813649273
 30
0.0
 11
5.999999999999999
 21
-12.89137881895641
 31
0.0
  0
LINE
  5
90C
330
1F
100
AcDbEntity
  8
2
  6
CONTINUOUS
370
25
 62
7
100
AcDbLine
 10
4.722587291870398
 20
-13.74452745837408
 30
0.0
 11
5.999999999999999
 21
-12.46711475024448
 31
0.0
  0
LINE
  5
90D
330
1F
100
AcDbEntity
  8
2
  6
CONTINUOUS
370
25
 62
7
100
AcDbLine
 10
4.369033901277125
 20
-13.67381678025543
 30
0.0
 11
5.999999999999999
 21
-12.04285068153255
 31
0.0
  0
LINE
  5
90E
330
1F
100
AcDbEntity
  8
2
  6
CONTINUOUS
370
25
 62
7
100
AcDbLine
 10
4.015480510683852
 20
-13.60310610213677
 30
0.0
 11
5.523220766025781
 21
-12.09536584679484
 31
0.0
  0
LINE
  5
90F
330
1F
100
AcDbEntity
  8
2
  6
CONTINUOUS
370
25
 62
7
100
AcDbLine
 10
3.661927120090576
 20
-13.53239542401812
 30
0.0
 11
4.992890680135867
 21
-12.20143186397283
 31
0.0
  0
LINE
  5
910
330
1F
100
AcDbEntity
  8
2
  6
CONTINUOUS
370
25
 62
7
100
AcDbLine
 10
3.308373729497303
 20
-13.46168474589946
 30
0.0
 11
4.462560594245958
 21
-12.30749788115081
 31
0.0
  0
LINE
  5
911
330
1F
100
AcDbEntity
  8
2
  6
CONTINUOUS
370
25
 62
7
100
AcDbLine
 10
2.95482033890403
 20
-13.39097406778081
 30
0.0
 11
3.932230508356048
 21
-12.41356389832879
 31
0.0
  0
LINE
  5
912
330
1F
100
AcDbEntity
  8
2
  6
CONTINUOUS
370
25
 62
7
100
AcDbLine
 10
2.601266948310757
 20
-13.32026338966215
 30
0.0
 11
3.401900422466138
 21
-12.51962991550677
 31
0.0
  0
LINE
  5
913
330
1F
100
AcDbEntity
  8
2
  6
CONTINUOUS
370
25
 62
7
100
AcDbLine
 10
2.247713557717483
 20
-13.2495527115435
 30
0.0
 11
2.871570336576228
 21
-12.62569593268475
 31
0.0
  0
LINE
  5
914
330
1F
100
AcDbEntity
  8
2
  6
CONTINUOUS
370
25
 62
7
100
AcDbLine
 10
1.894160167124211
 20
-13.17884203342484
 30
0.0
 11
2.341240250686319
 21
-12.73176194986273
 31
0.0
  0
LINE
  5
915
330
1F
100
AcDbEntity
  8
2
  6
CONTINUOUS
370
25
 62
7
100
AcDbLine
 10
1.540606776530937
 20
-13.10813135530619
 30
0.0
 11
1.810910164796409
 21
-12.83782796704072
 31
0.0
  0
LINE
  5
916
330
1F
100
AcDbEntity
  8
2
  6
CONTINUOUS
370
25
 62
7
100
AcDbLine
 10
1.187053385937664
 20
-13.03742067718753
 30
0.0
 11
1.280580078906498
 21
-12.9438939842187
 31
0.0
  0
LINE
  5
917
330
1F
100
AcDbEntity
  8
2
  6
CONTINUOUS
370
25
 62
7
100
AcDbLine
 10
1.26700506804395
 20
-12.94660898639121
 30
0.0
 11
1.400507602065928
 21
-13.08011152041319
 31
0.0
  0
LINE
  5
918
330
1F
100
AcDbEntity
  8
2
  6
CONTINUOUS
370
25
 62
7
100
AcDbLine
 10
1.620558458637224
 20
-12.87589830827255
 30
0.0
 11
1.930837687955838
 21
-13.18617753759117
 31
0.0
  0
LINE
  5
919
330
1F
100
AcDbEntity
  8
2
  6
CONTINUOUS
370
25
 62
7
100
AcDbLine
 10
1.974111849230497
 20
-12.8051876301539
 30
0.0
 11
2.461167773845748
 21
-13.29224355476915
 31
0.0
  0
LINE
  5
91A
330
1F
100
AcDbEntity
  8
2
  6
CONTINUOUS
370
25
 62
7
100
AcDbLine
 10
2.32766523982377
 20
-12.73447695203524
 30
0.0
 11
2.991497859735659
 21
-13.39830957194713
 31
0.0
  0
LINE
  5
91B
330
1F
100
AcDbEntity
  8
2
  6
CONTINUOUS
370
25
 62
7
100
AcDbLine
 10
2.681218630417044
 20
-12.66376627391659
 30
0.0
 11
3.521827945625569
 21
-13.50437558912511
 31
0.0
  0
LINE
  5
91C
330
1F
100
AcDbEntity
  8
2
  6
CONTINUOUS
370
25
 62
7
100
AcDbLine
 10
3.034772021010317
 20
-12.59305559579794
 30
0.0
 11
4.052158031515479
 21
-13.6104416063031
 31
0.0
  0
LINE
  5
91D
330
1F
100
AcDbEntity
  8
2
  6
CONTINUOUS
370
25
 62
7
100
AcDbLine
 10
3.38832541160359
 20
-12.52234491767928
 30
0.0
 11
4.582488117405389
 21
-13.71650762348108
 31
0.0
  0
LINE
  5
91E
330
1F
100
AcDbEntity
  8
2
  6
CONTINUOUS
370
25
 62
7
100
AcDbLine
 10
3.741878802196863
 20
-12.45163423956063
 30
0.0
 11
5.112818203295299
 21
-13.82257364065906
 31
0.0
  0
LINE
  5
91F
330
1F
100
AcDbEntity
  8
2
  6
CONTINUOUS
370
25
 62
7
100
AcDbLine
 10
4.095432192790137
 20
-12.38092356144197
 30
0.0
 11
5.643148289185211
 21
-13.92863965783704
 31
0.0
  0
LINE
  5
920
330
1F
100
AcDbEntity
  8
2
  6
CONTINUOUS
370
25
 62
7
100
AcDbLine
 10
4.44898558338341
 20
-12.31021288332332
 30
0.0
 11
5.999999999999999
 21
-13.86122729993991
 31
0.0
  0
LINE
  5
921
330
1F
100
AcDbEntity
  8
2
  6
CONTINUOUS
370
25
 62
7
100
AcDbLine
 10
4.802538973976684
 20
-12.23950220520466
 30
0.0
 11
5.999999999999999
 21
-13.43696323122798
 31
0.0
  0
LINE
  5
922
330
1F
100
AcDbEntity
  8
2
  6
CONTINUOUS
370
25
 62
7
100
AcDbLine
 10
5.156092364569957
 20
-12.16879152708601
 30
0.0
 11
5.999999999999999
 21
-13.01269916251605
 31
0.0
  0
LINE
  5
923
330
1F
100
AcDbEntity
  8
2
  6
CONTINUOUS
370
25
 62
7
100
AcDbLine
 10
5.509645755163231
 20
-12.09808084896735
 30
0.0
 11
5.999999999999999
 21
-12.58843509380412
 31
0.0
  0
LINE
  5
924
330
1F
100
AcDbEntity
  8
2
  6
CONTINUOUS
370
25
 62
7
100
AcDbLine
 10
5.863199145756505
 20
-12.0273701708487
 30
0.0
 11
5.999999999999999
 21
-12.16417102509219
 31
0.0
  0
TEXT
  5
925
330
1F
100
AcDbEntity
  8
2
  6
CONTINUOUS
370
25
 62
7
100
AcDbText
 10
-7.267708333333334
 20
-12.00001
 30
0.0
 40
3.5
  1
1
 72
     1
 11
-6.684375000000001
 21
-12.00001
 31
0.0
100
AcDbText
  0
LINE
  5
926
330
1F
100
AcDbEntity
  8
2
  6
CONTINUOUS
370
25
 62
7
100
AcDbLine
 10
35.3551962
 20
-1.475
 30
0.0
 11
56.04300000000001
 21
-1.475
 31
0.0
  0
LINE
  5
927
330
1F
100
AcDbEntity
  8
2
  6
CONTINUOUS
370
25
 62
7
100
AcDbLine
 10
56.04300000000001
 20
1.475
 30
0.0
 11
35.35519620000001
 21
1.475
 31
0.0
  0
LINE
  5
928
330
1F
100
AcDbEntity
  8
2
  6
CONTINUOUS
370
25
 62
7
100
AcDbLine
 10
55.04300000000001
 20
-26.6875
 30
0.0
 11
55.04300000000001
 21
11.47500000000001
 31
0.0
  0
LINE
  5
929
330
1F
100
AcDbEntity
  8
2
  6
CONTINUOUS
370
25
 62
7
100
AcDbLine
 10
55.04300000000001
 20
-1.475
 30
0.0
 11
56.04300000000001
 21
-6.475
 31
0.0
  0
LINE
  5
92A
330
1F
100
AcDbEntity
  8
2
  6
CONTINUOUS
370
25
 62
7
100
AcDbLine
 10
56.04300000000001
 20
-6.475
 30
0.0
 11
54.04300000000001
 21
-6.475
 31
0.0
  0
LINE
  5
92B
330
1F
100
AcDbEntity
  8
2
  6
CONTINUOUS
370
25
 62
7
100
AcDbLine
 10
54.04300000000001
 20
-6.475
 30
0.0
 11
55.04300000000001
 21
-1.475
 31
0.0
  0
LINE
  5
92C
330
1F
100
AcDbEntity
  8
2
  6
CONTINUOUS
370
25
 62
7
100
AcDbLine
 10
55.87448008518744
 20
-6.475000000000001
 30
0.0
 11
56.01491334753124
 21
-6.334566737656196
 31
0.0
  0
LINE
  5
92D
330
1F
100
AcDbEntity
  8
2
  6
CONTINUOUS
370
25
 62
7
100
AcDbLine
 10
55.45021601647551
 20
-6.475000000000001
 30
0.0
 11
55.94420266941259
 21
-5.98101334706292
 31
0.0
  0
LINE
  5
92E
330
1F
100
AcDbEntity
  8
2
  6
CONTINUOUS
370
25
 62
7
100
AcDbLine
 10
55.02595194776358
 20
-6.475000000000001
 30
0.0
 11
55.87349199129394
 21
-5.627459956469643
 31
0.0
  0
LINE
  5
92F
330
1F
100
AcDbEntity
  8
2
  6
CONTINUOUS
370
25
 62
7
100
AcDbLine
 10
54.60168787905165
 20
-6.475000000000001
 30
0.0
 11
55.80278131317528
 21
-5.273906565876366
 31
0.0
  0
LINE
  5
930
330
1F
100
AcDbEntity
  8
2
  6
CONTINUOUS
370
25
 62
7
100
AcDbLine
 10
54.17742381033972
 20
-6.475000000000001
 30
0.0
 11
55.73207063505663
 21
-4.92035317528309
 31
0.0
  0
LINE
  5
931
330
1F
100
AcDbEntity
  8
2
  6
CONTINUOUS
370
25
 62
7
100
AcDbLine
 10
54.11546006459307
 20
-6.112699677034712
 30
0.0
 11
55.66135995693796
 21
-4.566799784689827
 31
0.0
  0
LINE
  5
932
330
1F
100
AcDbEntity
  8
2
  6
CONTINUOUS
370
25
 62
7
100
AcDbLine
 10
54.22152608177105
 20
-5.582369591144804
 30
0.0
 11
55.59064927881931
 21
-4.213246394096551
 31
0.0
  0
LINE
  5
933
330
1F
100
AcDbEntity
  8
2
  6
CONTINUOUS
370
25
 62
7
100
AcDbLine
 10
54.32759209894904
 20
-5.052039505254882
 30
0.0
 11
55.51993860070066
 21
-3.859693003503267
 31
0.0
  0
LINE
  5
934
330
1F
100
AcDbEntity
  8
2
  6
CONTINUOUS
370
25
 62
7
100
AcDbLine
 10
54.43365811612702
 20
-4.521709419364974
 30
0.0
 11
55.449227922582
 21
-3.506139612909998
 31
0.0
  0
LINE
  5
935
330
1F
100
AcDbEntity
  8
2
  6
CONTINUOUS
370
25
 62
7
100
AcDbLine
 10
54.539724133305
 20
-3.991379333475059
 30
0.0
 11
55.37851724446335
 21
-3.152586222316714
 31
0.0
  0
LINE
  5
936
330
1F
100
AcDbEntity
  8
2
  6
CONTINUOUS
370
25
 62
7
100
AcDbLine
 10
54.64579015048299
 20
-3.461049247585144
 30
0.0
 11
55.30780656634469
 21
-2.799032831723437
 31
0.0
  0
LINE
  5
937
330
1F
100
AcDbEntity
  8
2
  6
CONTINUOUS
370
25
 62
7
100
AcDbLine
 10
54.75185616766097
 20
-2.93071916169523
 30
0.0
 11
55.23709588822603
 21
-2.445479441130168
 31
0.0
  0
LINE
  5
938
330
1F
100
AcDbEntity
  8
2
  6
CONTINUOUS
370
25
 62
7
100
AcDbLine
 10
54.85792218483896
 20
-2.400389075805315
 30
0.0
 11
55.16638521010738
 21
-2.091926050536891
 31
0.0
  0
LINE
  5
939
330
1F
100
AcDbEntity
  8
2
  6
CONTINUOUS
370
25
 62
7
100
AcDbLine
 10
54.96398820201694
 20
-1.870058989915393
 30
0.0
 11
55.09567453198872
 21
-1.738372659943607
 31
0.0
  0
LINE
  5
93A
330
1F
100
AcDbEntity
  8
2
  6
CONTINUOUS
370
25
 62
7
100
AcDbLine
 10
54.105306627408
 20
-6.163466862960092
 30
0.0
 11
54.41683976444791
 21
-6.475000000000001
 31
0.0
  0
LINE
  5
93B
330
1F
100
AcDbEntity
  8
2
  6
CONTINUOUS
370
25
 62
7
100
AcDbLine
 10
54.17601730552665
 20
-5.809913472366809
 30
0.0
 11
54.84110383315984
 21
-6.475000000000001
 31
0.0
  0
LINE
  5
93C
330
1F
100
AcDbEntity
  8
2
  6
CONTINUOUS
370
25
 62
7
100
AcDbLine
 10
54.2467279836453
 20
-5.456360081773539
 30
0.0
 11
55.26536790187176
 21
-6.475000000000001
 31
0.0
  0
LINE
  5
93D
330
1F
100
AcDbEntity
  8
2
  6
CONTINUOUS
370
25
 62
7
100
AcDbLine
 10
54.31743866176396
 20
-5.102806691180263
 30
0.0
 11
55.6896319705837
 21
-6.475000000000001
 31
0.0
  0
LINE
  5
93E
330
1F
100
AcDbEntity
  8
2
  6
CONTINUOUS
370
25
 62
7
100
AcDbLine
 10
54.38814933988262
 20
-4.749253300586993
 30
0.0
 11
56.02527599017609
 21
-6.386379950880468
 31
0.0
  0
LINE
  5
93F
330
1F
100
AcDbEntity
  8
2
  6
CONTINUOUS
370
25
 62
7
100
AcDbLine
 10
54.45886001800127
 20
-4.395699909993716
 30
0.0
 11
55.91920997299811
 21
-5.856049864990553
 31
0.0
  0
LINE
  5
940
330
1F
100
AcDbEntity
  8
2
  6
CONTINUOUS
370
25
 62
7
100
AcDbLine
 10
54.52957069611993
 20
-4.04214651940044
 30
0.0
 11
55.81314395582013
 21
-5.325719779100645
 31
0.0
  0
LINE
  5
941
330
1F
100
AcDbEntity
  8
2
  6
CONTINUOUS
370
25
 62
7
100
AcDbLine
 10
54.60028137423859
 20
-3.68859312880717
 30
0.0
 11
55.70707793864214
 21
-4.795389693210723
 31
0.0
  0
LINE
  5
942
330
1F
100
AcDbEntity
  8
2
  6
CONTINUOUS
370
25
 62
7
100
AcDbLine
 10
54.67099205235724
 20
-3.335039738213879
 30
0.0
 11
55.60101192146416
 21
-4.265059607320808
 31
0.0
  0
LINE
  5
943
330
1F
100
AcDbEntity
  8
2
  6
CONTINUOUS
370
25
 62
7
100
AcDbLine
 10
54.74170273047589
 20
-2.981486347620603
 30
0.0
 11
55.49494590428618
 21
-3.7347295214309
 31
0.0
  0
LINE
  5
944
330
1F
100
AcDbEntity
  8
2
  6
CONTINUOUS
370
25
 62
7
100
AcDbLine
 10
54.81241340859454
 20
-2.627932957027319
 30
0.0
 11
55.3888798871082
 21
-3.204399435540985
 31
0.0
  0
LINE
  5
945
330
1F
100
AcDbEntity
  8
2
  6
CONTINUOUS
370
25
 62
7
100
AcDbLine
 10
54.8831240867132
 20
-2.27437956643405
 30
0.0
 11
55.28281386993022
 21
-2.67406934965107
 31
0.0
  0
LINE
  5
946
330
1F
100
AcDbEntity
  8
2
  6
CONTINUOUS
370
25
 62
7
100
AcDbLine
 10
54.95383476483185
 20
-1.920826175840773
 30
0.0
 11
55.17674785275224
 21
-2.143739263761155
 31
0.0
  0
LINE
  5
947
330
1F
100
AcDbEntity
  8
2
  6
CONTINUOUS
370
25
 62
7
100
AcDbLine
 10
55.02454544295051
 20
-1.567272785247511
 30
0.0
 11
55.07068183557425
 21
-1.613409177871247
 31
0.0
  0
LINE
  5
948
330
1F
100
AcDbEntity
  8
2
  6
CONTINUOUS
370
25
 62
7
100
AcDbLine
 10
55.04300000000001
 20
1.475
 30
0.0
 11
54.04300000000001
 21
6.475000000000001
 31
0.0
  0
LINE
  5
949
330
1F
100
AcDbEntity
  8
2
  6
CONTINUOUS
370
25
 62
7
100
AcDbLine
 10
54.04300000000001
 20
6.475000000000001
 30
0.0
 11
56.04300000000001
 21
6.475000000000001
 31
0.0
  0
LINE
  5
94A
330
1F
100
AcDbEntity
  8
2
  6
CONTINUOUS
370
25
 62
7
100
AcDbLine
 10
56.04300000000001
 20
6.475000000000001
 30
0.0
 11
55.04300000000001
 21
1.475
 31
0.0
  0
LINE
  5
94B
330
1F
100
AcDbEntity
  8
2
  6
CONTINUOUS
370
25
 62
7
100
AcDbLine
 10
54.9879508640964
 20
1.750245679518095
 30
0.0
 11
55.12557370385543
 21
1.887868519277127
 31
0.0
  0
LINE
  5
94C
330
1F
100
AcDbEntity
  8
2
  6
CONTINUOUS
370
25
 62
7
100
AcDbLine
 10
54.91724018597773
 20
2.103799070111364
 30
0.0
 11
55.23163972103342
 21
2.418198605167049
 31
0.0
  0
LINE
  5
94D
330
1F
100
AcDbEntity
  8
2
  6
CONTINUOUS
370
25
 62
7
100
AcDbLine
 10
54.84652950785908
 20
2.457352460704641
 30
0.0
 11
55.3377057382114
 21
2.948528691056957
 31
0.0
  0
LINE
  5
94E
330
1F
100
AcDbEntity
  8
2
  6
CONTINUOUS
370
25
 62
7
100
AcDbLine
 10
54.77581882974042
 20
2.81090585129791
 30
0.0
 11
55.44377175538938
 21
3.478858776946865
 31
0.0
  0
LINE
  5
94F
330
1F
100
AcDbEntity
  8
2
  6
CONTINUOUS
370
25
 62
7
100
AcDbLine
 10
54.70510815162177
 20
3.164459241891194
 30
0.0
 11
55.54983777256736
 21
4.009188862836787
 31
0.0
  0
LINE
  5
950
330
1F
100
AcDbEntity
  8
2
  6
CONTINUOUS
370
25
 62
7
100
AcDbLine
 10
54.63439747350312
 20
3.518012632484471
 30
0.0
 11
55.65590378974535
 21
4.539518948726695
 31
0.0
  0
LINE
  5
951
330
1F
100
AcDbEntity
  8
2
  6
CONTINUOUS
370
25
 62
7
100
AcDbLine
 10
54.56368679538446
 20
3.87156602307774
 30
0.0
 11
55.76196980692333
 21
5.069849034616617
 31
0.0
  0
LINE
  5
952
330
1F
100
AcDbEntity
  8
2
  6
CONTINUOUS
370
25
 62
7
100
AcDbLine
 10
54.49297611726581
 20
4.225119413671031
 30
0.0
 11
55.8680358241013
 21
5.600179120506517
 31
0.0
  0
LINE
  5
953
330
1F
100
AcDbEntity
  8
2
  6
CONTINUOUS
370
25
 62
7
100
AcDbLine
 10
54.42226543914715
 20
4.578672804264308
 30
0.0
 11
55.97410184127929
 21
6.130509206396439
 31
0.0
  0
LINE
  5
954
330
1F
100
AcDbEntity
  8
2
  6
CONTINUOUS
370
25
 62
7
100
AcDbLine
 10
54.3515547610285
 20
4.932226194857584
 30
0.0
 11
55.89432856617091
 21
6.475000000000001
 31
0.0
  0
LINE
  5
955
330
1F
100
AcDbEntity
  8
2
  6
CONTINUOUS
370
25
 62
7
100
AcDbLine
 10
54.28084408290984
 20
5.285779585450854
 30
0.0
 11
55.47006449745898
 21
6.475000000000001
 31
0.0
  0
LINE
  5
956
330
1F
100
AcDbEntity
  8
2
  6
CONTINUOUS
370
25
 62
7
100
AcDbLine
 10
54.21013340479119
 20
5.63933297604413
 30
0.0
 11
55.04580042874706
 21
6.475000000000001
 31
0.0
  0
LINE
  5
957
330
1F
100
AcDbEntity
  8
2
  6
CONTINUOUS
370
25
 62
7
100
AcDbLine
 10
54.13942272667254
 20
5.992886366637407
 30
0.0
 11
54.62153636003513
 21
6.475000000000001
 31
0.0
  0
LINE
  5
958
330
1F
100
AcDbEntity
  8
2
  6
CONTINUOUS
370
25
 62
7
100
AcDbLine
 10
54.06871204855388
 20
6.346439757230684
 30
0.0
 11
54.19727229132319
 21
6.475000000000001
 31
0.0
  0
LINE
  5
959
330
1F
100
AcDbEntity
  8
2
  6
CONTINUOUS
370
25
 62
7
100
AcDbLine
 10
54.95965369815041
 20
1.891731509248004
 30
0.0
 11
55.09856420123307
 21
1.752821006165341
 31
0.0
  0
LINE
  5
95A
330
1F
100
AcDbEntity
  8
2
  6
CONTINUOUS
370
25
 62
7
100
AcDbLine
 10
54.85358768097243
 20
2.422061595137905
 30
0.0
 11
55.16927487935173
 21
2.106374396758611
 31
0.0
  0
LINE
  5
95B
330
1F
100
AcDbEntity
  8
2
  6
CONTINUOUS
370
25
 62
7
100
AcDbLine
 10
54.74752166379444
 20
2.952391681027827
 30
0.0
 11
55.23998555747038
 21
2.459927787351894
 31
0.0
  0
LINE
  5
95C
330
1F
100
AcDbEntity
  8
2
  6
CONTINUOUS
370
25
 62
7
100
AcDbLine
 10
54.64145564661646
 20
3.482721766917734
 30
0.0
 11
55.31069623558903
 21
2.813481177945164
 31
0.0
  0
LINE
  5
95D
330
1F
100
AcDbEntity
  8
2
  6
CONTINUOUS
370
25
 62
7
100
AcDbLine
 10
54.53538962943848
 20
4.013051852807649
 30
0.0
 11
55.38140691370769
 21
3.16703456853844
 31
0.0
  0
LINE
  5
95E
330
1F
100
AcDbEntity
  8
2
  6
CONTINUOUS
370
25
 62
7
100
AcDbLine
 10
54.4293236122605
 20
4.543381938697571
 30
0.0
 11
55.45211759182635
 21
3.520587959131717
 31
0.0
  0
LINE
  5
95F
330
1F
100
AcDbEntity
  8
2
  6
CONTINUOUS
370
25
 62
7
100
AcDbLine
 10
54.32325759508252
 20
5.073712024587479
 30
0.0
 11
55.522828269945
 21
3.874141349724994
 31
0.0
  0
LINE
  5
960
330
1F
100
AcDbEntity
  8
2
  6
CONTINUOUS
370
25
 62
7
100
AcDbLine
 10
54.21719157790454
 20
5.604042110477387
 30
0.0
 11
55.59353894806365
 21
4.227694740318277
 31
0.0
  0
LINE
  5
961
330
1F
100
AcDbEntity
  8
2
  6
CONTINUOUS
370
25
 62
7
100
AcDbLine
 10
54.11112556072656
 20
6.134372196367295
 30
0.0
 11
55.66424962618231
 21
4.581248130911547
 31
0.0
  0
LINE
  5
962
330
1F
100
AcDbEntity
  8
2
  6
CONTINUOUS
370
25
 62
7
100
AcDbLine
 10
54.19476182580578
 20
6.475000000000001
 30
0.0
 11
55.73496030430096
 21
4.934801521504824
 31
0.0
  0
LINE
  5
963
330
1F
100
AcDbEntity
  8
2
  6
CONTINUOUS
370
25
 62
7
100
AcDbLine
 10
54.61902589451772
 20
6.475000000000001
 30
0.0
 11
55.80567098241961
 21
5.288354912098114
 31
0.0
  0
LINE
  5
964
330
1F
100
AcDbEntity
  8
2
  6
CONTINUOUS
370
25
 62
7
100
AcDbLine
 10
55.04328996322965
 20
6.475000000000001
 30
0.0
 11
55.87638166053828
 21
5.641908302691377
 31
0.0
  0
LINE
  5
965
330
1F
100
AcDbEntity
  8
2
  6
CONTINUOUS
370
25
 62
7
100
AcDbLine
 10
55.46755403194158
 20
6.475000000000001
 30
0.0
 11
55.94709233865693
 21
5.99546169328466
 31
0.0
  0
LINE
  5
966
330
1F
100
AcDbEntity
  8
2
  6
CONTINUOUS
370
25
 62
7
100
AcDbLine
 10
55.89181810065352
 20
6.475000000000001
 30
0.0
 11
56.01780301677559
 21
6.349015083877923
 31
0.0
  0
TEXT
  5
967
330
1F
100
AcDbEntity
  8
2
  6
CONTINUOUS
370
25
 62
7
100
AcDbText
 10
54.04300000000001
 20
-19.83125
 30
0.0
 40
3.5
  1
2.95
 50
90.00000000000001
 72
     1
 11
54.04300000000001
 21
-14.58125
 31
0.0
100
AcDbText
  0
CIRCLE
  5
968
330
1F
100
AcDbEntity
  8
2
  6
CONTINUOUS
370
25
 62
7
100
AcDbCircle
 10
52.51175000000001
 20
-23.9525
 30
0.0
 40
1.53125
  0
LINE
  5
969
330
1F
100
AcDbEntity
  8
2
  6
CONTINUOUS
370
25
 62
7
100
AcDbLine
 10
54.04300000000001
 20
-25.48375
 30
0.0
 11
50.98050000000001
 21
-22.42125
 31
0.0
  0
LINE
  5
96A
330
1F
100
AcDbEntity
  8
SK2
  6
CONTINUOUS
370
25
 62
7
100
AcDbLine
 10
-29.957
 20
0.0
 30
0.0
 11
-29.957
 21
21.00001
 31
0.0
  0
LINE
  5
96B
330
1F
100
AcDbEntity
  8
SK2
  6
CONTINUOUS
370
25
 62
7
100
AcDbLine
 10
35.043
 20
21.00001
 30
0.0
 11
35.043
 21
1.474999999999998
 31
0.0
  0
LINE
  5
96C
330
1F
100
AcDbEntity
  8
SK2
  6
CONTINUOUS
370
25
 62
7
100
AcDbLine
 10
-29.957
 20
20.00001
 30
0.0
 11
35.043
 21
20.00001
 31
0.0
  0
LINE
  5
96D
330
1F
100
AcDbEntity
  8
SK2
  6
CONTINUOUS
370
25
 62
7
100
AcDbLine
 10
-29.957
 20
20.00001
 30
0.0
 11
-24.957
 21
21.00001
 31
0.0
  0
LINE
  5
96E
330
1F
100
AcDbEntity
  8
SK2
  6
CONTINUOUS
370
25
 62
7
100
AcDbLine
 10
-24.957
 20
21.00001
 30
0.0
 11
-24.957
 21
19.00001
 31
0.0
  0
LINE
  5
96F
330
1F
100
AcDbEntity
  8
SK2
  6
CONTINUOUS
370
25
 62
7
100
AcDbLine
 10
-24.957
 20
19.00001
 30
0.0
 11
-29.957
 21
20.00001
 31
0.0
  0
LINE
  5
970
330
1F
100
AcDbEntity
  8
SK2
  6
CONTINUOUS
370
25
 62
7
100
AcDbLine
 10
-25.0957109550338
 20
19.02775219100675
 30
0.0
 11
-24.957
 21
19.16646314604056
 31
0.0
  0
LINE
  5
971
330
1F
100
AcDbEntity
  8
SK2
  6
CONTINUOUS
370
25
 62
7
100
AcDbLine
 10
-25.44926434562707
 20
19.09846286912541
 30
0.0
 11
-24.957
 21
19.59072721475248
 31
0.0
  0
LINE
  5
972
330
1F
100
AcDbEntity
  8
SK2
  6
CONTINUOUS
370
25
 62
7
100
AcDbLine
 10
-25.80281773622035
 20
19.16917354724406
 30
0.0
 11
-24.957
 21
20.01499128346441
 31
0.0
  0
LINE
  5
973
330
1F
100
AcDbEntity
  8
SK2
  6
CONTINUOUS
370
25
 62
7
100
AcDbLine
 10
-26.15637112681362
 20
19.23988422536272
 30
0.0
 11
-24.957
 21
20.43925535217634
 31
0.0
  0
LINE
  5
974
330
1F
100
AcDbEntity
  8
SK2
  6
CONTINUOUS
370
25
 62
7
100
AcDbLine
 10
-26.50992451740689
 20
19.31059490348137
 30
0.0
 11
-24.957
 21
20.86351942088827
 31
0.0
  0
LINE
  5
975
330
1F
100
AcDbEntity
  8
SK2
  6
CONTINUOUS
370
25
 62
7
100
AcDbLine
 10
-26.86347790800017
 20
19.38130558160003
 30
0.0
 11
-25.31671686200024
 21
20.92806662759995
 31
0.0
  0
LINE
  5
976
330
1F
100
AcDbEntity
  8
SK2
  6
CONTINUOUS
370
25
 62
7
100
AcDbLine
 10
-27.21703129859344
 20
19.45201625971868
 30
0.0
 11
-25.84704694789015
 21
20.82200061042197
 31
0.0
  0
LINE
  5
977
330
1F
100
AcDbEntity
  8
SK2
  6
CONTINUOUS
370
25
 62
7
100
AcDbLine
 10
-27.57058468918671
 20
19.52272693783734
 30
0.0
 11
-26.37737703378006
 21
20.71593459324399
 31
0.0
  0
LINE
  5
978
330
1F
100
AcDbEntity
  8
SK2
  6
CONTINUOUS
370
25
 62
7
100
AcDbLine
 10
-27.92413807977999
 20
19.59343761595599
 30
0.0
 11
-26.90770711966997
 21
20.60986857606601
 31
0.0
  0
LINE
  5
979
330
1F
100
AcDbEntity
  8
SK2
  6
CONTINUOUS
370
25
 62
7
100
AcDbLine
 10
-28.27769147037325
 20
19.66414829407465
 30
0.0
 11
-27.43803720555988
 21
20.50380255888803
 31
0.0
  0
LINE
  5
97A
330
1F
100
AcDbEntity
  8
SK2
  6
CONTINUOUS
370
25
 62
7
100
AcDbLine
 10
-28.63124486096653
 20
19.7348589721933
 30
0.0
 11
-27.96836729144979
 21
20.39773654171004
 31
0.0
  0
LINE
  5
97B
330
1F
100
AcDbEntity
  8
SK2
  6
CONTINUOUS
370
25
 62
7
100
AcDbLine
 10
-28.98479825155981
 20
19.80556965031196
 30
0.0
 11
-28.4986973773397
 21
20.29167052453206
 31
0.0
  0
LINE
  5
97C
330
1F
100
AcDbEntity
  8
SK2
  6
CONTINUOUS
370
25
 62
7
100
AcDbLine
 10
-29.33835164215309
 20
19.87628032843061
 30
0.0
 11
-29.02902746322962
 21
20.18560450735408
 31
0.0
  0
LINE
  5
97D
330
1F
100
AcDbEntity
  8
SK2
  6
CONTINUOUS
370
25
 62
7
100
AcDbLine
 10
-29.69190503274636
 20
19.94699100654927
 30
0.0
 11
-29.55935754911954
 21
20.07953849017609
 31
0.0
  0
LINE
  5
97E
330
1F
100
AcDbEntity
  8
SK2
  6
CONTINUOUS
370
25
 62
7
100
AcDbLine
 10
-29.75524521825565
 20
20.04036095634888
 30
0.0
 11
-29.65436782738347
 21
19.93948356547669
 31
0.0
  0
LINE
  5
97F
330
1F
100
AcDbEntity
  8
SK2
  6
CONTINUOUS
370
25
 62
7
100
AcDbLine
 10
-29.40169182766237
 20
20.11107163446753
 30
0.0
 11
-29.12403774149355
 21
19.83341754829871
 31
0.0
  0
LINE
  5
980
330
1F
100
AcDbEntity
  8
SK2
  6
CONTINUOUS
370
25
 62
7
100
AcDbLine
 10
-29.0481384370691
 20
20.18178231258618
 30
0.0
 11
-28.59370765560364
 21
19.72735153112073
 31
0.0
  0
LINE
  5
981
330
1F
100
AcDbEntity
  8
SK2
  6
CONTINUOUS
370
25
 62
7
100
AcDbLine
 10
-28.69458504647583
 20
20.25249299070484
 30
0.0
 11
-28.06337756971373
 21
19.62128551394274
 31
0.0
  0
LINE
  5
982
330
1F
100
AcDbEntity
  8
SK2
  6
CONTINUOUS
370
25
 62
7
100
AcDbLine
 10
-28.34103165588255
 20
20.32320366882349
 30
0.0
 11
-27.53304748382383
 21
19.51521949676476
 31
0.0
  0
LINE
  5
983
330
1F
100
AcDbEntity
  8
SK2
  6
CONTINUOUS
370
25
 62
7
100
AcDbLine
 10
-27.98747826528928
 20
20.39391434694215
 30
0.0
 11
-27.00271739793391
 21
19.40915347958678
 31
0.0
  0
LINE
  5
984
330
1F
100
AcDbEntity
  8
SK2
  6
CONTINUOUS
370
25
 62
7
100
AcDbLine
 10
-27.633924874696
 20
20.4646250250608
 30
0.0
 11
-26.472387312044
 21
19.3030874624088
 31
0.0
  0
LINE
  5
985
330
1F
100
AcDbEntity
  8
SK2
  6
CONTINUOUS
370
25
 62
7
100
AcDbLine
 10
-27.28037148410273
 20
20.53533570317946
 30
0.0
 11
-25.94205722615409
 21
19.19702144523081
 31
0.0
  0
LINE
  5
986
330
1F
100
AcDbEntity
  8
SK2
  6
CONTINUOUS
370
25
 62
7
100
AcDbLine
 10
-26.92681809350946
 20
20.60604638129811
 30
0.0
 11
-25.41172714026419
 21
19.09095542805283
 31
0.0
  0
LINE
  5
987
330
1F
100
AcDbEntity
  8
SK2
  6
CONTINUOUS
370
25
 62
7
100
AcDbLine
 10
-26.57326470291618
 20
20.67675705941677
 30
0.0
 11
-24.957
 21
19.06049235650058
 31
0.0
  0
LINE
  5
988
330
1F
100
AcDbEntity
  8
SK2
  6
CONTINUOUS
370
25
 62
7
100
AcDbLine
 10
-26.21971131232291
 20
20.74746773753542
 30
0.0
 11
-24.957
 21
19.48475642521251
 31
0.0
  0
LINE
  5
989
330
1F
100
AcDbEntity
  8
SK2
  6
CONTINUOUS
370
25
 62
7
100
AcDbLine
 10
-25.86615792172964
 20
20.81817841565408
 30
0.0
 11
-24.957
 21
19.90902049392443
 31
0.0
  0
LINE
  5
98A
330
1F
100
AcDbEntity
  8
SK2
  6
CONTINUOUS
370
25
 62
7
100
AcDbLine
 10
-25.51260453113637
 20
20.88888909377273
 30
0.0
 11
-24.957
 21
20.33328456263636
 31
0.0
  0
LINE
  5
98B
330
1F
100
AcDbEntity
  8
SK2
  6
CONTINUOUS
370
25
 62
7
100
AcDbLine
 10
-25.1590511405431
 20
20.95959977189138
 30
0.0
 11
-24.957
 21
20.75754863134829
 31
0.0
  0
LINE
  5
98C
330
1F
100
AcDbEntity
  8
SK2
  6
CONTINUOUS
370
25
 62
7
100
AcDbLine
 10
35.043
 20
20.00001
 30
0.0
 11
30.043
 21
19.00001
 31
0.0
  0
LINE
  5
98D
330
1F
100
AcDbEntity
  8
SK2
  6
CONTINUOUS
370
25
 62
7
100
AcDbLine
 10
30.043
 20
19.00001
 30
0.0
 11
30.043
 21
21.00001
 31
0.0
  0
LINE
  5
98E
330
1F
100
AcDbEntity
  8
SK2
  6
CONTINUOUS
370
25
 62
7
100
AcDbLine
 10
30.043
 20
21.00001
 30
0.0
 11
35.043
 21
20.00001
 31
0.0
  0
LINE
  5
98F
330
1F
100
AcDbEntity
  8
SK2
  6
CONTINUOUS
370
25
 62
7
100
AcDbLine
 10
34.73390679670469
 20
19.93819135934094
 30
0.0
 11
34.8369378644698
 21
20.04122242710605
 31
0.0
  0
LINE
  5
990
330
1F
100
AcDbEntity
  8
SK2
  6
CONTINUOUS
370
25
 62
7
100
AcDbLine
 10
34.20357671081477
 20
19.83212534216295
 30
0.0
 11
34.48338447387651
 21
20.11193310522469
 31
0.0
  0
LINE
  5
991
330
1F
100
AcDbEntity
  8
SK2
  6
CONTINUOUS
370
25
 62
7
100
AcDbLine
 10
33.67324662492486
 20
19.72605932498497
 30
0.0
 11
34.12983108328324
 21
20.18264378334335
 31
0.0
  0
LINE
  5
992
330
1F
100
AcDbEntity
  8
SK2
  6
CONTINUOUS
370
25
 62
7
100
AcDbLine
 10
33.14291653903495
 20
19.61999330780699
 30
0.0
 11
33.77627769268997
 21
20.25335446146201
 31
0.0
  0
LINE
  5
993
330
1F
100
AcDbEntity
  8
SK2
  6
CONTINUOUS
370
25
 62
7
100
AcDbLine
 10
32.61258645314504
 20
19.51392729062901
 30
0.0
 11
33.4227243020967
 21
20.32406513958067
 31
0.0
  0
LINE
  5
994
330
1F
100
AcDbEntity
  8
SK2
  6
CONTINUOUS
370
25
 62
7
100
AcDbLine
 10
32.08225636725513
 20
19.40786127345102
 30
0.0
 11
33.06917091150342
 21
20.39477581769932
 31
0.0
  0
LINE
  5
995
330
1F
100
AcDbEntity
  8
SK2
  6
CONTINUOUS
370
25
 62
7
100
AcDbLine
 10
31.55192628136522
 20
19.30179525627304
 30
0.0
 11
32.71561752091014
 21
20.46548649581797
 31
0.0
  0
LINE
  5
996
330
1F
100
AcDbEntity
  8
SK2
  6
CONTINUOUS
370
25
 62
7
100
AcDbLine
 10
31.02159619547531
 20
19.19572923909507
 30
0.0
 11
32.36206413031687
 21
20.53619717393663
 31
0.0
  0
LINE
  5
997
330
1F
100
AcDbEntity
  8
SK2
  6
CONTINUOUS
370
25
 62
7
100
AcDbLine
 10
30.4912661095854
 20
19.08966322191708
 30
0.0
 11
32.0085107397236
 21
20.60690785205528
 31
0.0
  0
LINE
  5
998
330
1F
100
AcDbEntity
  8
SK2
  6
CONTINUOUS
370
25
 62
7
100
AcDbLine
 10
30.043
 20
19.06566118104361
 30
0.0
 11
31.65495734913032
 21
20.67761853017394
 31
0.0
  0
LINE
  5
999
330
1F
100
AcDbEntity
  8
SK2
  6
CONTINUOUS
370
25
 62
7
100
AcDbLine
 10
30.043
 20
19.48992524975554
 30
0.0
 11
31.30140395853705
 21
20.74832920829259
 31
0.0
  0
LINE
  5
99A
330
1F
100
AcDbEntity
  8
SK2
  6
CONTINUOUS
370
25
 62
7
100
AcDbLine
 10
30.043
 20
19.91418931846746
 30
0.0
 11
30.94785056794378
 21
20.81903988641125
 31
0.0
  0
LINE
  5
99B
330
1F
100
AcDbEntity
  8
SK2
  6
CONTINUOUS
370
25
 62
7
100
AcDbLine
 10
30.043
 20
20.3384533871794
 30
0.0
 11
30.5942971773505
 21
20.8897505645299
 31
0.0
  0
LINE
  5
99C
330
1F
100
AcDbEntity
  8
SK2
  6
CONTINUOUS
370
25
 62
7
100
AcDbLine
 10
30.043
 20
20.76271745589133
 30
0.0
 11
30.24074378675722
 21
20.96046124264855
 31
0.0
  0
LINE
  5
99D
330
1F
100
AcDbEntity
  8
SK2
  6
CONTINUOUS
370
25
 62
7
100
AcDbLine
 10
30.043
 20
19.17163197058375
 30
0.0
 11
30.18601830881979
 21
19.02861366176396
 31
0.0
  0
LINE
  5
99E
330
1F
100
AcDbEntity
  8
SK2
  6
CONTINUOUS
370
25
 62
7
100
AcDbLine
 10
30.043
 20
19.59589603929568
 30
0.0
 11
30.53957169941307
 21
19.09932433988261
 31
0.0
  0
LINE
  5
99F
330
1F
100
AcDbEntity
  8
SK2
  6
CONTINUOUS
370
25
 62
7
100
AcDbLine
 10
30.043
 20
20.02016010800761
 30
0.0
 11
30.89312509000635
 21
19.17003501800126
 31
0.0
  0
LINE
  5
9A0
330
1F
100
AcDbEntity
  8
SK2
  6
CONTINUOUS
370
25
 62
7
100
AcDbLine
 10
30.043
 20
20.44442417671953
 30
0.0
 11
31.24667848059961
 21
19.24074569611993
 31
0.0
  0
LINE
  5
9A1
330
1F
100
AcDbEntity
  8
SK2
  6
CONTINUOUS
370
25
 62
7
100
AcDbLine
 10
30.043
 20
20.86868824543147
 30
0.0
 11
31.60023187119289
 21
19.31145637423858
 31
0.0
  0
LINE
  5
9A2
330
1F
100
AcDbEntity
  8
SK2
  6
CONTINUOUS
370
25
 62
7
100
AcDbLine
 10
30.40917789267925
 20
20.92677442146415
 30
0.0
 11
31.95378526178617
 21
19.38216705235724
 31
0.0
  0
LINE
  5
9A3
330
1F
100
AcDbEntity
  8
SK2
  6
CONTINUOUS
370
25
 62
7
100
AcDbLine
 10
30.93950797856915
 20
20.82070840428617
 30
0.0
 11
32.30733865237944
 21
19.45287773047588
 31
0.0
  0
LINE
  5
9A4
330
1F
100
AcDbEntity
  8
SK2
  6
CONTINUOUS
370
25
 62
7
100
AcDbLine
 10
31.46983806445907
 20
20.71464238710819
 30
0.0
 11
32.66089204297271
 21
19.52358840859455
 31
0.0
  0
LINE
  5
9A5
330
1F
100
AcDbEntity
  8
SK2
  6
CONTINUOUS
370
25
 62
7
100
AcDbLine
 10
32.00016815034898
 20
20.6085763699302
 30
0.0
 11
33.014445433566
 21
19.59429908671319
 31
0.0
  0
LINE
  5
9A6
330
1F
100
AcDbEntity
  8
SK2
  6
CONTINUOUS
370
25
 62
7
100
AcDbLine
 10
32.53049823623888
 20
20.50251035275222
 30
0.0
 11
33.36799882415927
 21
19.66500976483185
 31
0.0
  0
LINE
  5
9A7
330
1F
100
AcDbEntity
  8
SK2
  6
CONTINUOUS
370
25
 62
7
100
AcDbLine
 10
33.06082832212881
 20
20.39644433557423
 30
0.0
 11
33.72155221475254
 21
19.73572044295051
 31
0.0
  0
LINE
  5
9A8
330
1F
100
AcDbEntity
  8
SK2
  6
CONTINUOUS
370
25
 62
7
100
AcDbLine
 10
33.59115840801872
 20
20.29037831839626
 30
0.0
 11
34.07510560534582
 21
19.80643112106916
 31
0.0
  0
LINE
  5
9A9
330
1F
100
AcDbEntity
  8
SK2
  6
CONTINUOUS
370
25
 62
7
100
AcDbLine
 10
34.12148849390863
 20
20.18431230121828
 30
0.0
 11
34.42865899593909
 21
19.87714179918782
 31
0.0
  0
LINE
  5
9AA
330
1F
100
AcDbEntity
  8
SK2
  6
CONTINUOUS
370
25
 62
7
100
AcDbLine
 10
34.65181857979856
 20
20.07824628404029
 30
0.0
 11
34.78221238653237
 21
19.94785247730648
 31
0.0
  0
TEXT
  5
9AB
330
1F
100
AcDbEntity
  8
SK2
  6
CONTINUOUS
370
25
 62
7
100
AcDbText
 10
-0.3736666666666677
 20
21.00001
 30
0.0
 40
3.5
  1
65
 72
     1
 11
2.542999999999999
 21
21.00001
 31
0.0
100
AcDbText
  0
LINE
  5
9AC
330
1F
100
AcDbEntity
  8
2
  6
CONTINUOUS
370
25
 62
7
100
AcDbLine
 10
-0.0000000000000002
 20
0.0
 30
0.0
 11
0.0000000000000007
 21
14.00001
 31
0.0
  0
LINE
  5
9AD
330
1F
100
AcDbEntity
  8
2
  6
CONTINUOUS
370
25
 62
7
100
AcDbLine
 10
35.043
 20
14.00001
 30
0.0
 11
35.043
 21
1.475
 31
0.0
  0
LINE
  5
9AE
330
1F
100
AcDbEntity
  8
2
  6
CONTINUOUS
370
25
 62
7
100
AcDbLine
 10
0.0
 20
13.00001
 30
0.0
 11
35.043
 21
13.00001
 31
0.0
  0
LINE
  5
9AF
330
1F
100
AcDbEntity
  8
2
  6
CONTINUOUS
370
25
 62
7
100
AcDbLine
 10
0.0
 20
13.00001
 30
0.0
 11
5.0
 21
14.00001
 31
0.0
  0
LINE
  5
9B0
330
1F
100
AcDbEntity
  8
2
  6
CONTINUOUS
370
25
 62
7
100
AcDbLine
 10
5.0
 20
14.00001
 30
0.0
 11
5.0
 21
12.00001
 31
0.0
  0
LINE
  5
9B1
330
1F
100
AcDbEntity
  8
2
  6
CONTINUOUS
370
25
 62
7
100
AcDbLine
 10
5.0
 20
12.00001
 30
0.0
 11
0.0
 21
13.00001
 31
0.0
  0
LINE
  5
9B2
330
1F
100
AcDbEntity
  8
2
  6
CONTINUOUS
370
25
 62
7
100
AcDbLine
 10
4.822934026581015
 20
12.0354231946838
 30
0.0
 11
5.0
 21
12.21248916810278
 31
0.0
  0
LINE
  5
9B3
330
1F
100
AcDbEntity
  8
2
  6
CONTINUOUS
370
25
 62
7
100
AcDbLine
 10
4.469380635987742
 20
12.10613387280245
 30
0.0
 11
5.0
 21
12.63675323681471
 31
0.0
  0
LINE
  5
9B4
330
1F
100
AcDbEntity
  8
2
  6
CONTINUOUS
370
25
 62
7
100
AcDbLine
 10
4.115827245394469
 20
12.17684455092111
 30
0.0
 11
5.0
 21
13.06101730552664
 31
0.0
  0
LINE
  5
9B5
330
1F
100
AcDbEntity
  8
2
  6
CONTINUOUS
370
25
 62
7
100
AcDbLine
 10
3.762273854801196
 20
12.24755522903976
 30
0.0
 11
5.0
 21
13.48528137423856
 31
0.0
  0
LINE
  5
9B6
330
1F
100
AcDbEntity
  8
2
  6
CONTINUOUS
370
25
 62
7
100
AcDbLine
 10
3.408720464207922
 20
12.31826590715842
 30
0.0
 11
5.0
 21
13.90954544295049
 31
0.0
  0
LINE
  5
9B7
330
1F
100
AcDbEntity
  8
2
  6
CONTINUOUS
370
25
 62
7
100
AcDbLine
 10
3.055167073614648
 20
12.38897658527707
 30
0.0
 11
4.582750610421974
 21
13.91656012208439
 31
0.0
  0
LINE
  5
9B8
330
1F
100
AcDbEntity
  8
2
  6
CONTINUOUS
370
25
 62
7
100
AcDbLine
 10
2.701613683021375
 20
12.45968726339573
 30
0.0
 11
4.052420524532065
 21
13.81049410490641
 31
0.0
  0
LINE
  5
9B9
330
1F
100
AcDbEntity
  8
2
  6
CONTINUOUS
370
25
 62
7
100
AcDbLine
 10
2.348060292428102
 20
12.53039794151438
 30
0.0
 11
3.522090438642155
 21
13.70442808772843
 31
0.0
  0
LINE
  5
9BA
330
1F
100
AcDbEntity
  8
2
  6
CONTINUOUS
370
25
 62
7
100
AcDbLine
 10
1.994506901834829
 20
12.60110861963303
 30
0.0
 11
2.991760352752245
 21
13.59836207055045
 31
0.0
  0
LINE
  5
9BB
330
1F
100
AcDbEntity
  8
2
  6
CONTINUOUS
370
25
 62
7
100
AcDbLine
 10
1.640953511241556
 20
12.67181929775169
 30
0.0
 11
2.461430266862335
 21
13.49229605337247
 31
0.0
  0
LINE
  5
9BC
330
1F
100
AcDbEntity
  8
2
  6
CONTINUOUS
370
25
 62
7
100
AcDbLine
 10
1.287400120648283
 20
12.74252997587034
 30
0.0
 11
1.931100180972425
 21
13.38623003619449
 31
0.0
  0
LINE
  5
9BD
330
1F
100
AcDbEntity
  8
2
  6
CONTINUOUS
370
25
 62
7
100
AcDbLine
 10
0.9338467300550093
 20
12.813240653989
 30
0.0
 11
1.400770095082515
 21
13.2801640190165
 31
0.0
  0
LINE
  5
9BE
330
1F
100
AcDbEntity
  8
2
  6
CONTINUOUS
370
25
 62
7
100
AcDbLine
 10
0.5802933394617361
 20
12.88395133210765
 30
0.0
 11
0.8704400091926046
 21
13.17409800183852
 31
0.0
  0
LINE
  5
9BF
330
1F
100
AcDbEntity
  8
2
  6
CONTINUOUS
370
25
 62
7
100
AcDbLine
 10
0.2267399488684627
 20
12.95466201022631
 30
0.0
 11
0.3401099233026943
 21
13.06803198466054
 31
0.0
  0
LINE
  5
9C0
330
1F
100
AcDbEntity
  8
2
  6
CONTINUOUS
370
25
 62
7
100
AcDbLine
 10
0.1268134417248166
 20
13.02537268834496
 30
0.0
 11
0.190220162587225
 21
12.96196596748255
 31
0.0
  0
LINE
  5
9C1
330
1F
100
AcDbEntity
  8
2
  6
CONTINUOUS
370
25
 62
7
100
AcDbLine
 10
0.4803668323180901
 20
13.09608336646362
 30
0.0
 11
0.7205502484771356
 21
12.85589995030457
 31
0.0
  0
LINE
  5
9C2
330
1F
100
AcDbEntity
  8
2
  6
CONTINUOUS
370
25
 62
7
100
AcDbLine
 10
0.8339202229113637
 20
13.16679404458227
 30
0.0
 11
1.250880334367046
 21
12.74983393312659
 31
0.0
  0
LINE
  5
9C3
330
1F
100
AcDbEntity
  8
2
  6
CONTINUOUS
370
25
 62
7
100
AcDbLine
 10
1.187473613504639
 20
13.23750472270093
 30
0.0
 11
1.781210420256959
 21
12.64376791594861
 31
0.0
  0
LINE
  5
9C4
330
1F
100
AcDbEntity
  8
2
  6
CONTINUOUS
370
25
 62
7
100
AcDbLine
 10
1.541027004097913
 20
13.30821540081958
 30
0.0
 11
2.31154050614687
 21
12.53770189877063
 31
0.0
  0
LINE
  5
9C5
330
1F
100
AcDbEntity
  8
2
  6
CONTINUOUS
370
25
 62
7
100
AcDbLine
 10
1.894580394691186
 20
13.37892607893824
 30
0.0
 11
2.84187059203678
 21
12.43163588159264
 31
0.0
  0
LINE
  5
9C6
330
1F
100
AcDbEntity
  8
2
  6
CONTINUOUS
370
25
 62
7
100
AcDbLine
 10
2.248133785284459
 20
13.44963675705689
 30
0.0
 11
3.372200677926691
 21
12.32556986441466
 31
0.0
  0
LINE
  5
9C7
330
1F
100
AcDbEntity
  8
2
  6
CONTINUOUS
370
25
 62
7
100
AcDbLine
 10
2.601687175877731
 20
13.52034743517555
 30
0.0
 11
3.902530763816599
 21
12.21950384723668
 31
0.0
  0
LINE
  5
9C8
330
1F
100
AcDbEntity
  8
2
  6
CONTINUOUS
370
25
 62
7
100
AcDbLine
 10
2.955240566471005
 20
13.5910581132942
 30
0.0
 11
4.432860849706509
 21
12.1134378300587
 31
0.0
  0
LINE
  5
9C9
330
1F
100
AcDbEntity
  8
2
  6
CONTINUOUS
370
25
 62
7
100
AcDbLine
 10
3.308793957064279
 20
13.66176879141286
 30
0.0
 11
4.963190935596421
 21
12.00737181288072
 31
0.0
  0
LINE
  5
9CA
330
1F
100
AcDbEntity
  8
2
  6
CONTINUOUS
370
25
 62
7
100
AcDbLine
 10
3.662347347657551
 20
13.73247946953151
 30
0.0
 11
5.0
 21
12.39482681718906
 31
0.0
  0
LINE
  5
9CB
330
1F
100
AcDbEntity
  8
2
  6
CONTINUOUS
370
25
 62
7
100
AcDbLine
 10
4.015900738250825
 20
13.80319014765016
 30
0.0
 11
5.0
 21
12.81909088590099
 31
0.0
  0
LINE
  5
9CC
330
1F
100
AcDbEntity
  8
2
  6
CONTINUOUS
370
25
 62
7
100
AcDbLine
 10
4.369454128844098
 20
13.87390082576882
 30
0.0
 11
5.0
 21
13.24335495461292
 31
0.0
  0
LINE
  5
9CD
330
1F
100
AcDbEntity
  8
2
  6
CONTINUOUS
370
25
 62
7
100
AcDbLine
 10
4.723007519437371
 20
13.94461150388747
 30
0.0
 11
5.0
 21
13.66761902332485
 31
0.0
  0
LINE
  5
9CE
330
1F
100
AcDbEntity
  8
2
  6
CONTINUOUS
370
25
 62
7
100
AcDbLine
 10
35.043
 20
13.00001
 30
0.0
 11
30.043
 21
12.00001
 31
0.0
  0
LINE
  5
9CF
330
1F
100
AcDbEntity
  8
2
  6
CONTINUOUS
370
25
 62
7
100
AcDbLine
 10
30.043
 20
12.00001
 30
0.0
 11
30.043
 21
14.00001
 31
0.0
  0
LINE
  5
9D0
330
1F
100
AcDbEntity
  8
2
  6
CONTINUOUS
370
25
 62
7
100
AcDbLine
 10
30.043
 20
14.00001
 30
0.0
 11
35.043
 21
13.00001
 31
0.0
  0
LINE
  5
9D1
330
1F
100
AcDbEntity
  8
2
  6
CONTINUOUS
370
25
 62
7
100
AcDbLine
 10
34.99862542246617
 20
12.99113508449323
 30
0.0
 11
35.01341694831078
 21
13.00592661033784
 31
0.0
  0
LINE
  5
9D2
330
1F
100
AcDbEntity
  8
2
  6
CONTINUOUS
370
25
 62
7
100
AcDbLine
 10
34.46829533657626
 20
12.88506906731525
 30
0.0
 11
34.65986355771751
 21
13.0766372884565
 31
0.0
  0
LINE
  5
9D3
330
1F
100
AcDbEntity
  8
2
  6
CONTINUOUS
370
25
 62
7
100
AcDbLine
 10
33.93796525068635
 20
12.77900305013727
 30
0.0
 11
34.30631016712424
 21
13.14734796657516
 31
0.0
  0
LINE
  5
9D4
330
1F
100
AcDbEntity
  8
2
  6
CONTINUOUS
370
25
 62
7
100
AcDbLine
 10
33.40763516479644
 20
12.67293703295929
 30
0.0
 11
33.95275677653096
 21
13.21805864469381
 31
0.0
  0
LINE
  5
9D5
330
1F
100
AcDbEntity
  8
2
  6
CONTINUOUS
370
25
 62
7
100
AcDbLine
 10
32.87730507890653
 20
12.5668710157813
 30
0.0
 11
33.59920338593768
 21
13.28876932281246
 31
0.0
  0
LINE
  5
9D6
330
1F
100
AcDbEntity
  8
2
  6
CONTINUOUS
370
25
 62
7
100
AcDbLine
 10
32.34697499301662
 20
12.46080499860332
 30
0.0
 11
33.24564999534442
 21
13.35948000093112
 31
0.0
  0
LINE
  5
9D7
330
1F
100
AcDbEntity
  8
2
  6
CONTINUOUS
370
25
 62
7
100
AcDbLine
 10
31.81664490712671
 20
12.35473898142534
 30
0.0
 11
32.89209660475114
 21
13.43019067904978
 31
0.0
  0
LINE
  5
9D8
330
1F
100
AcDbEntity
  8
2
  6
CONTINUOUS
370
25
 62
7
100
AcDbLine
 10
31.2863148212368
 20
12.24867296424736
 30
0.0
 11
32.53854321415786
 21
13.50090135716842
 31
0.0
  0
LINE
  5
9D9
330
1F
100
AcDbEntity
  8
2
  6
CONTINUOUS
370
25
 62
7
100
AcDbLine
 10
30.75598473534689
 20
12.14260694706937
 30
0.0
 11
32.18498982356459
 21
13.57161203528709
 31
0.0
  0
LINE
  5
9DA
330
1F
100
AcDbEntity
  8
2
  6
CONTINUOUS
370
25
 62
7
100
AcDbLine
 10
30.22565464945698
 20
12.03654092989139
 30
0.0
 11
31.83143643297131
 21
13.64232271340574
 31
0.0
  0
LINE
  5
9DB
330
1F
100
AcDbEntity
  8
2
  6
CONTINUOUS
370
25
 62
7
100
AcDbLine
 10
30.043
 20
12.27815034914634
 30
0.0
 11
31.47788304237804
 21
13.71303339152439
 31
0.0
  0
LINE
  5
9DC
330
1F
100
AcDbEntity
  8
2
  6
CONTINUOUS
370
25
 62
7
100
AcDbLine
 10
30.043
 20
12.70241441785827
 30
0.0
 11
31.12432965178477
 21
13.78374406964305
 31
0.0
  0
LINE
  5
9DD
330
1F
100
AcDbEntity
  8
2
  6
CONTINUOUS
370
25
 62
7
100
AcDbLine
 10
30.043
 20
13.1266784865702
 30
0.0
 11
30.7707762611915
 21
13.85445474776171
 31
0.0
  0
LINE
  5
9DE
330
1F
100
AcDbEntity
  8
2
  6
CONTINUOUS
370
25
 62
7
100
AcDbLine
 10
30.043
 20
13.55094255528213
 30
0.0
 11
30.41722287059822
 21
13.92516542588036
 31
0.0
  0
LINE
  5
9DF
330
1F
100
AcDbEntity
  8
2
  6
CONTINUOUS
370
25
 62
7
100
AcDbLine
 10
30.043
 20
13.97520662399407
 30
0.0
 11
30.06366948000495
 21
13.99587610399901
 31
0.0
  0
LINE
  5
9E0
330
1F
100
AcDbEntity
  8
2
  6
CONTINUOUS
370
25
 62
7
100
AcDbLine
 10
30.043
 20
12.38340687119288
 30
0.0
 11
30.36249739266074
 21
12.06390947853215
 31
0.0
  0
LINE
  5
9E1
330
1F
100
AcDbEntity
  8
2
  6
CONTINUOUS
370
25
 62
7
100
AcDbLine
 10
30.043
 20
12.80767093990481
 30
0.0
 11
30.71605078325401
 21
12.13462015665081
 31
0.0
  0
LINE
  5
9E2
330
1F
100
AcDbEntity
  8
2
  6
CONTINUOUS
370
25
 62
7
100
AcDbLine
 10
30.043
 20
13.23193500861674
 30
0.0
 11
31.06960417384728
 21
12.20533083476946
 31
0.0
  0
LINE
  5
9E3
330
1F
100
AcDbEntity
  8
2
  6
CONTINUOUS
370
25
 62
7
100
AcDbLine
 10
30.043
 20
13.65619907732867
 30
0.0
 11
31.42315756444056
 21
12.27604151288811
 31
0.0
  0
LINE
  5
9E4
330
1F
100
AcDbEntity
  8
2
  6
CONTINUOUS
370
25
 62
7
100
AcDbLine
 10
30.14356643255075
 20
13.97989671348985
 30
0.0
 11
31.77671095503384
 21
12.34675219100677
 31
0.0
  0
LINE
  5
9E5
330
1F
100
AcDbEntity
  8
2
  6
CONTINUOUS
370
25
 62
7
100
AcDbLine
 10
30.67389651844066
 20
13.87383069631187
 30
0.0
 11
32.13026434562711
 21
12.41746286912542
 31
0.0
  0
LINE
  5
9E6
330
1F
100
AcDbEntity
  8
2
  6
CONTINUOUS
370
25
 62
7
100
AcDbLine
 10
31.20422660433057
 20
13.76776467913389
 30
0.0
 11
32.48381773622039
 21
12.48817354724407
 31
0.0
  0
LINE
  5
9E7
330
1F
100
AcDbEntity
  8
2
  6
CONTINUOUS
370
25
 62
7
100
AcDbLine
 10
31.73455669022048
 20
13.6616986619559
 30
0.0
 11
32.83737112681366
 21
12.55888422536273
 31
0.0
  0
LINE
  5
9E8
330
1F
100
AcDbEntity
  8
2
  6
CONTINUOUS
370
25
 62
7
100
AcDbLine
 10
32.2648867761104
 20
13.55563264477792
 30
0.0
 11
33.19092451740693
 21
12.6295949034814
 31
0.0
  0
LINE
  5
9E9
330
1F
100
AcDbEntity
  8
2
  6
CONTINUOUS
370
25
 62
7
100
AcDbLine
 10
32.79521686200031
 20
13.44956662759994
 30
0.0
 11
33.54447790800021
 21
12.70030558160005
 31
0.0
  0
LINE
  5
9EA
330
1F
100
AcDbEntity
  8
2
  6
CONTINUOUS
370
25
 62
7
100
AcDbLine
 10
33.32554694789022
 20
13.34350061042196
 30
0.0
 11
33.89803129859349
 21
12.7710162597187
 31
0.0
  0
LINE
  5
9EB
330
1F
100
AcDbEntity
  8
2
  6
CONTINUOUS
370
25
 62
7
100
AcDbLine
 10
33.85587703378015
 20
13.23743459324398
 30
0.0
 11
34.25158468918676
 21
12.84172693783736
 31
0.0
  0
LINE
  5
9EC
330
1F
100
AcDbEntity
  8
2
  6
CONTINUOUS
370
25
 62
7
100
AcDbLine
 10
34.38620711967005
 20
13.13136857606599
 30
0.0
 11
34.60513807978003
 21
12.91243761595602
 31
0.0
  0
LINE
  5
9ED
330
1F
100
AcDbEntity
  8
2
  6
CONTINUOUS
370
25
 62
7
100
AcDbLine
 10
34.91653720555998
 20
13.02530255888801
 30
0.0
 11
34.95869147037332
 21
12.98314829407467
 31
0.0
  0
TEXT
  5
9EE
330
1F
100
AcDbEntity
  8
2
  6
CONTINUOUS
370
25
 62
7
100
AcDbText
 10
9.063166666666667
 20
14.00001
 30
0.0
 40
3.5
  1
35.043
 72
     1
 11
17.5215
 21
14.00001
 31
0.0
100
AcDbText
  0
LINE
  5
9EF
330
1F
100
AcDbEntity
  8
2
  6
CONTINUOUS
370
25
 62
7
100
AcDbLine
 10
2.043
 20
-1.475
 30
0.0
 11
2.042999999999999
 21
-14.00001
 31
0.0
  0
LINE
  5
9F0
330
1F
100
AcDbEntity
  8
2
  6
CONTINUOUS
370
25
 62
7
100
AcDbLine
 10
35.043
 20
-14.00001
 30
0.0
 11
35.043
 21
-1.475
 31
0.0
  0
LINE
  5
9F1
330
1F
100
AcDbEntity
  8
2
  6
CONTINUOUS
370
25
 62
7
100
AcDbLine
 10
2.042999999999999
 20
-13.00001
 30
0.0
 11
35.043
 21
-13.00001
 31
0.0
  0
LINE
  5
9F2
330
1F
100
AcDbEntity
  8
2
  6
CONTINUOUS
370
25
 62
7
100
AcDbLine
 10
2.042999999999999
 20
-13.00001
 30
0.0
 11
7.042999999999999
 21
-12.00001
 31
0.0
  0
LINE
  5
9F3
330
1F
100
AcDbEntity
  8
2
  6
CONTINUOUS
370
25
 62
7
100
AcDbLine
 10
7.042999999999999
 20
-12.00001
 30
0.0
 11
7.042999999999999
 21
-14.00001
 31
0.0
  0
LINE
  5
9F4
330
1F
100
AcDbEntity
  8
2
  6
CONTINUOUS
370
25
 62
7
100
AcDbLine
 10
7.042999999999999
 20
-14.00001
 30
0.0
 11
2.042999999999999
 21
-13.00001
 31
0.0
  0
LINE
  5
9F5
330
1F
100
AcDbEntity
  8
2
  6
CONTINUOUS
370
25
 62
7
100
AcDbLine
 10
6.988307349130332
 20
-13.98907146982607
 30
0.0
 11
7.042999999999999
 21
-13.9343788189564
 31
0.0
  0
LINE
  5
9F6
330
1F
100
AcDbEntity
  8
2
  6
CONTINUOUS
370
25
 62
7
100
AcDbLine
 10
6.634753958537059
 20
-13.91836079170741
 30
0.0
 11
7.042999999999999
 21
-13.51011475024447
 31
0.0
  0
LINE
  5
9F7
330
1F
100
AcDbEntity
  8
2
  6
CONTINUOUS
370
25
 62
7
100
AcDbLine
 10
6.281200567943785
 20
-13.84765011358876
 30
0.0
 11
7.042999999999999
 21
-13.08585068153254
 31
0.0
  0
LINE
  5
9F8
330
1F
100
AcDbEntity
  8
2
  6
CONTINUOUS
370
25
 62
7
100
AcDbLine
 10
5.927647177350512
 20
-13.7769394354701
 30
0.0
 11
7.042999999999999
 21
-12.66158661282062
 31
0.0
  0
LINE
  5
9F9
330
1F
100
AcDbEntity
  8
2
  6
CONTINUOUS
370
25
 62
7
100
AcDbLine
 10
5.57409378675724
 20
-13.70622875735145
 30
0.0
 11
7.042999999999999
 21
-12.23732254410869
 31
0.0
  0
LINE
  5
9FA
330
1F
100
AcDbEntity
  8
2
  6
CONTINUOUS
370
25
 62
7
100
AcDbLine
 10
5.220540396163967
 20
-13.63551807923279
 30
0.0
 11
6.809310594245953
 21
-12.04674788115081
 31
0.0
  0
LINE
  5
9FB
330
1F
100
AcDbEntity
  8
2
  6
CONTINUOUS
370
25
 62
7
100
AcDbLine
 10
4.866987005570694
 20
-13.56480740111414
 30
0.0
 11
6.278980508356042
 21
-12.15281389832879
 31
0.0
  0
LINE
  5
9FC
330
1F
100
AcDbEntity
  8
2
  6
CONTINUOUS
370
25
 62
7
100
AcDbLine
 10
4.51343361497742
 20
-13.49409672299548
 30
0.0
 11
5.748650422466133
 21
-12.25887991550677
 31
0.0
  0
LINE
  5
9FD
330
1F
100
AcDbEntity
  8
2
  6
CONTINUOUS
370
25
 62
7
100
AcDbLine
 10
4.159880224384148
 20
-13.42338604487683
 30
0.0
 11
5.218320336576224
 21
-12.36494593268475
 31
0.0
  0
LINE
  5
9FE
330
1F
100
AcDbEntity
  8
2
  6
CONTINUOUS
370
25
 62
7
100
AcDbLine
 10
3.806326833790875
 20
-13.35267536675818
 30
0.0
 11
4.687990250686314
 21
-12.47101194986273
 31
0.0
  0
LINE
  5
9FF
330
1F
100
AcDbEntity
  8
2
  6
CONTINUOUS
370
25
 62
7
100
AcDbLine
 10
3.452773443197601
 20
-13.28196468863952
 30
0.0
 11
4.157660164796404
 21
-12.57707796704072
 31
0.0
  0
LINE
  5
A00
330
1F
100
AcDbEntity
  8
2
  6
CONTINUOUS
370
25
 62
7
100
AcDbLine
 10
3.099220052604328
 20
-13.21125401052086
 30
0.0
 11
3.627330078906494
 21
-12.6831439842187
 31
0.0
  0
LINE
  5
A01
330
1F
100
AcDbEntity
  8
2
  6
CONTINUOUS
370
25
 62
7
100
AcDbLine
 10
2.745666662011053
 20
-13.14054333240221
 30
0.0
 11
3.096999993016581
 21
-12.78921000139668
 31
0.0
  0
LINE
  5
A02
330
1F
100
AcDbEntity
  8
2
  6
CONTINUOUS
370
25
 62
7
100
AcDbLine
 10
2.392113271417781
 20
-13.06983265428356
 30
0.0
 11
2.566669907126672
 21
-12.89527601857466
 31
0.0
  0
LINE
  5
A03
330
1F
100
AcDbEntity
  8
2
  6
CONTINUOUS
370
25
 62
7
100
AcDbLine
 10
2.118511562930796
 20
-12.98490768741384
 30
0.0
 11
2.156267344396195
 21
-13.02266346887924
 31
0.0
  0
LINE
  5
A04
330
1F
100
AcDbEntity
  8
2
  6
CONTINUOUS
370
25
 62
7
100
AcDbLine
 10
2.47206495352407
 20
-12.91419700929519
 30
0.0
 11
2.686597430286105
 21
-13.12872948605722
 31
0.0
  0
LINE
  5
A05
330
1F
100
AcDbEntity
  8
2
  6
CONTINUOUS
370
25
 62
7
100
AcDbLine
 10
2.825618344117343
 20
-12.84348633117653
 30
0.0
 11
3.216927516176016
 21
-13.2347955032352
 31
0.0
  0
LINE
  5
A06
330
1F
100
AcDbEntity
  8
2
  6
CONTINUOUS
370
25
 62
7
100
AcDbLine
 10
3.179171734710617
 20
-12.77277565305788
 30
0.0
 11
3.747257602065926
 21
-13.34086152041318
 31
0.0
  0
LINE
  5
A07
330
1F
100
AcDbEntity
  8
2
  6
CONTINUOUS
370
25
 62
7
100
AcDbLine
 10
3.53272512530389
 20
-12.70206497493922
 30
0.0
 11
4.277587687955836
 21
-13.44692753759117
 31
0.0
  0
LINE
  5
A08
330
1F
100
AcDbEntity
  8
2
  6
CONTINUOUS
370
25
 62
7
100
AcDbLine
 10
3.886278515897163
 20
-12.63135429682057
 30
0.0
 11
4.807917773845746
 21
-13.55299355476915
 31
0.0
  0
LINE
  5
A09
330
1F
100
AcDbEntity
  8
2
  6
CONTINUOUS
370
25
 62
7
100
AcDbLine
 10
4.239831906490436
 20
-12.56064361870191
 30
0.0
 11
5.338247859735657
 21
-13.65905957194713
 31
0.0
  0
LINE
  5
A0A
330
1F
100
AcDbEntity
  8
2
  6
CONTINUOUS
370
25
 62
7
100
AcDbLine
 10
4.593385297083709
 20
-12.48993294058326
 30
0.0
 11
5.868577945625567
 21
-13.76512558912511
 31
0.0
  0
LINE
  5
A0B
330
1F
100
AcDbEntity
  8
2
  6
CONTINUOUS
370
25
 62
7
100
AcDbLine
 10
4.946938687676982
 20
-12.4192222624646
 30
0.0
 11
6.398908031515477
 21
-13.8711916063031
 31
0.0
  0
LINE
  5
A0C
330
1F
100
AcDbEntity
  8
2
  6
CONTINUOUS
370
25
 62
7
100
AcDbLine
 10
5.300492078270257
 20
-12.34851158434595
 30
0.0
 11
6.929238117405388
 21
-13.97725762348108
 31
0.0
  0
LINE
  5
A0D
330
1F
100
AcDbEntity
  8
2
  6
CONTINUOUS
370
25
 62
7
100
AcDbLine
 10
5.654045468863531
 20
-12.27780090622729
 30
0.0
 11
7.042999999999999
 21
-13.66675543736376
 31
0.0
  0
LINE
  5
A0E
330
1F
100
AcDbEntity
  8
2
  6
CONTINUOUS
370
25
 62
7
100
AcDbLine
 10
6.007598859456803
 20
-12.20709022810864
 30
0.0
 11
7.042999999999999
 21
-13.24249136865183
 31
0.0
  0
LINE
  5
A0F
330
1F
100
AcDbEntity
  8
2
  6
CONTINUOUS
370
25
 62
7
100
AcDbLine
 10
6.361152250050077
 20
-12.13637954998998
 30
0.0
 11
7.042999999999999
 21
-12.81822729993991
 31
0.0
  0
LINE
  5
A10
330
1F
100
AcDbEntity
  8
2
  6
CONTINUOUS
370
25
 62
7
100
AcDbLine
 10
6.714705640643352
 20
-12.06566887187133
 30
0.0
 11
7.042999999999999
 21
-12.39396323122798
 31
0.0
  0
LINE
  5
A11
330
1F
100
AcDbEntity
  8
2
  6
CONTINUOUS
370
25
 62
7
100
AcDbLine
 10
35.043
 20
-13.00001
 30
0.0
 11
30.043
 21
-14.00001
 31
0.0
  0
LINE
  5
A12
330
1F
100
AcDbEntity
  8
2
  6
CONTINUOUS
370
25
 62
7
100
AcDbLine
 10
30.043
 20
-14.00001
 30
0.0
 11
30.043
 21
-12.00001
 31
0.0
  0
LINE
  5
A13
330
1F
100
AcDbEntity
  8
2
  6
CONTINUOUS
370
25
 62
7
100
AcDbLine
 10
30.043
 20
-12.00001
 30
0.0
 11
35.043
 21
-13.00001
 31
0.0
  0
LINE
  5
A14
330
1F
100
AcDbEntity
  8
2
  6
CONTINUOUS
370
25
 62
7
100
AcDbLine
 10
34.61818509729168
 20
-13.08497298054166
 30
0.0
 11
34.75979006486112
 21
-12.94336801297222
 31
0.0
  0
LINE
  5
A15
330
1F
100
AcDbEntity
  8
2
  6
CONTINUOUS
370
25
 62
7
100
AcDbLine
 10
34.08785501140176
 20
-13.19103899771965
 30
0.0
 11
34.40623667426784
 21
-12.87265733485357
 31
0.0
  0
LINE
  5
A16
330
1F
100
AcDbEntity
  8
2
  6
CONTINUOUS
370
25
 62
7
100
AcDbLine
 10
33.55752492551185
 20
-13.29710501489763
 30
0.0
 11
34.05268328367457
 21
-12.80194665673491
 31
0.0
  0
LINE
  5
A17
330
1F
100
AcDbEntity
  8
2
  6
CONTINUOUS
370
25
 62
7
100
AcDbLine
 10
33.02719483962194
 20
-13.40317103207561
 30
0.0
 11
33.69912989308129
 21
-12.73123597861626
 31
0.0
  0
LINE
  5
A18
330
1F
100
AcDbEntity
  8
2
  6
CONTINUOUS
370
25
 62
7
100
AcDbLine
 10
32.49686475373203
 20
-13.5092370492536
 30
0.0
 11
33.34557650248802
 21
-12.6605253004976
 31
0.0
  0
LINE
  5
A19
330
1F
100
AcDbEntity
  8
2
  6
CONTINUOUS
370
25
 62
7
100
AcDbLine
 10
31.96653466784212
 20
-13.61530306643158
 30
0.0
 11
32.99202311189475
 21
-12.58981462237895
 31
0.0
  0
LINE
  5
A1A
330
1F
100
AcDbEntity
  8
2
  6
CONTINUOUS
370
25
 62
7
100
AcDbLine
 10
31.4362045819522
 20
-13.72136908360956
 30
0.0
 11
32.63846972130147
 21
-12.51910394426029
 31
0.0
  0
LINE
  5
A1B
330
1F
100
AcDbEntity
  8
2
  6
CONTINUOUS
370
25
 62
7
100
AcDbLine
 10
30.90587449606231
 20
-13.82743510078754
 30
0.0
 11
32.2849163307082
 21
-12.44839326614164
 31
0.0
  0
LINE
  5
A1C
330
1F
100
AcDbEntity
  8
2
  6
CONTINUOUS
370
25
 62
7
100
AcDbLine
 10
30.37554441017239
 20
-13.93350111796552
 30
0.0
 11
31.93136294011492
 21
-12.37768258802299
 31
0.0
  0
LINE
  5
A1D
330
1F
100
AcDbEntity
  8
2
  6
CONTINUOUS
370
25
 62
7
100
AcDbLine
 10
30.043
 20
-13.84178145942599
 30
0.0
 11
31.57780954952165
 21
-12.30697190990433
 31
0.0
  0
LINE
  5
A1E
330
1F
100
AcDbEntity
  8
2
  6
CONTINUOUS
370
25
 62
7
100
AcDbLine
 10
30.043
 20
-13.41751739071406
 30
0.0
 11
31.22425615892837
 21
-12.23626123178568
 31
0.0
  0
LINE
  5
A1F
330
1F
100
AcDbEntity
  8
2
  6
CONTINUOUS
370
25
 62
7
100
AcDbLine
 10
30.043
 20
-12.99325332200213
 30
0.0
 11
30.8707027683351
 21
-12.16555055366702
 31
0.0
  0
LINE
  5
A20
330
1F
100
AcDbEntity
  8
2
  6
CONTINUOUS
370
25
 62
7
100
AcDbLine
 10
30.043
 20
-12.5689892532902
 30
0.0
 11
30.51714937774183
 21
-12.09483987554837
 31
0.0
  0
LINE
  5
A21
330
1F
100
AcDbEntity
  8
2
  6
CONTINUOUS
370
25
 62
7
100
AcDbLine
 10
30.043
 20
-12.14472518457826
 30
0.0
 11
30.16359598714855
 21
-12.02412919742971
 31
0.0
  0
LINE
  5
A22
330
1F
100
AcDbEntity
  8
2
  6
CONTINUOUS
370
25
 62
7
100
AcDbLine
 10
30.043
 20
-13.92096538894666
 30
0.0
 11
30.10887050921112
 21
-13.98683589815777
 31
0.0
  0
LINE
  5
A23
330
1F
100
AcDbEntity
  8
2
  6
CONTINUOUS
370
25
 62
7
100
AcDbLine
 10
30.043
 20
-13.49670132023473
 30
0.0
 11
30.4624238998044
 21
-13.91612522003912
 31
0.0
  0
LINE
  5
A24
330
1F
100
AcDbEntity
  8
2
  6
CONTINUOUS
370
25
 62
7
100
AcDbLine
 10
30.043
 20
-13.0724372515228
 30
0.0
 11
30.81597729039767
 21
-13.84541454192047
 31
0.0
  0
LINE
  5
A25
330
1F
100
AcDbEntity
  8
2
  6
CONTINUOUS
370
25
 62
7
100
AcDbLine
 10
30.043
 20
-12.64817318281087
 30
0.0
 11
31.16953068099095
 21
-13.77470386380181
 31
0.0
  0
LINE
  5
A26
330
1F
100
AcDbEntity
  8
2
  6
CONTINUOUS
370
25
 62
7
100
AcDbLine
 10
30.043
 20
-12.22390911409894
 30
0.0
 11
31.52308407158422
 21
-13.70399318568316
 31
0.0
  0
LINE
  5
A27
330
1F
100
AcDbEntity
  8
2
  6
CONTINUOUS
370
25
 62
7
100
AcDbLine
 10
30.29345619326623
 20
-12.05010123865324
 30
0.0
 11
31.8766374621775
 21
-13.6332825075645
 31
0.0
  0
LINE
  5
A28
330
1F
100
AcDbEntity
  8
2
  6
CONTINUOUS
370
25
 62
7
100
AcDbLine
 10
30.82378627915615
 20
-12.15616725583123
 30
0.0
 11
32.23019085277077
 21
-13.56257182944584
 31
0.0
  0
LINE
  5
A29
330
1F
100
AcDbEntity
  8
2
  6
CONTINUOUS
370
25
 62
7
100
AcDbLine
 10
31.35411636504606
 20
-12.26223327300921
 30
0.0
 11
32.58374424336404
 21
-13.49186115132719
 31
0.0
  0
LINE
  5
A2A
330
1F
100
AcDbEntity
  8
2
  6
CONTINUOUS
370
25
 62
7
100
AcDbLine
 10
31.88444645093597
 20
-12.36829929018719
 30
0.0
 11
32.93729763395732
 21
-13.42115047320853
 31
0.0
  0
LINE
  5
A2B
330
1F
100
AcDbEntity
  8
2
  6
CONTINUOUS
370
25
 62
7
100
AcDbLine
 10
32.41477653682589
 20
-12.47436530736518
 30
0.0
 11
33.2908510245506
 21
-13.35043979508988
 31
0.0
  0
LINE
  5
A2C
330
1F
100
AcDbEntity
  8
2
  6
CONTINUOUS
370
25
 62
7
100
AcDbLine
 10
32.94510662271581
 20
-12.58043132454317
 30
0.0
 11
33.64440441514387
 21
-13.27972911697122
 31
0.0
  0
LINE
  5
A2D
330
1F
100
AcDbEntity
  8
2
  6
CONTINUOUS
370
25
 62
7
100
AcDbLine
 10
33.47543670860572
 20
-12.68649734172114
 30
0.0
 11
33.99795780573715
 21
-13.20901843885257
 31
0.0
  0
LINE
  5
A2E
330
1F
100
AcDbEntity
  8
2
  6
CONTINUOUS
370
25
 62
7
100
AcDbLine
 10
34.00576679449563
 20
-12.79256335889912
 30
0.0
 11
34.35151119633043
 21
-13.13830776073392
 31
0.0
  0
LINE
  5
A2F
330
1F
100
AcDbEntity
  8
2
  6
CONTINUOUS
370
25
 62
7
100
AcDbLine
 10
34.53609688038554
 20
-12.8986293760771
 30
0.0
 11
34.7050645869237
 21
-13.06759708261526
 31
0.0
  0
TEXT
  5
A30
330
1F
100
AcDbEntity
  8
2
  6
CONTINUOUS
370
25
 62
7
100
AcDbText
 10
15.62633333333333
 20
-12.00001
 30
0.0
 40
3.5
  1
33
 72
     1
 11
18.543
 21
-12.00001
 31
0.0
100
AcDbText
  0
LINE
  5
A31
330
1F
100
AcDbEntity
  8
4
  6
LONGDASH_DASH
370
25
 62
2
100
AcDbLine
 10
0.0
 20
0.0
 30
0.0
 11
35.043
 21
0.0
 31
0.0
  0
LINE
  5
A32
330
1F
100
AcDbEntity
  8
SK4
  6
LONGDASH_DASH
370
25
 62
2
100
AcDbLine
 10
-34.957
 20
0.0
 30
0.0
 11
40.043
 21
0.0
 31
0.0
  0
LINE
  5
A33
330
1F
100
AcDbEntity
  8
2
  6
CONTINUOUS
370
25
 62
7
100
AcDbLine
 10
35.043
 20
0.0
 30
0.0
 11
41.80489218785119
 21
14.5009245925864
 31
0.0
  0
LINE
  5
A34
330
1F
100
AcDbEntity
  8
2
  6
CONTINUOUS
370
25
 62
7
100
AcDbLine
 10
35.043
 20
0.0
 30
0.0
 11
41.80489218785119
 21
-14.5009245925864
 31
0.0
  0
ARC
  5
A35
330
1F
100
AcDbEntity
  8
2
  6
CONTINUOUS
370
25
 62
7
100
AcDbCircle
 10
35.04299999999996
 20
-0.0000000000000008
 30
0.0
 40
15.00000000000002
100
AcDbArc
 50
295.0000000000001
 51
64.99999999999989
  0
LINE
  5
A36
330
1F
100
AcDbEntity
  8
2
  6
CONTINUOUS
370
25
 62
7
100
AcDbLine
 10
41.38227392611049
 20
13.59461680554975
 30
0.0
 11
45.97726649949901
 21
11.3841771998368
 31
0.0
  0
LINE
  5
A37
330
1F
100
AcDbEntity
  8
2
  6
CONTINUOUS
370
25
 62
7
100
AcDbLine
 10
45.97726649949901
 20
11.3841771998368
 30
0.0
 11
44.77363645319491
 21
9.786906179742216
 31
0.0
  0
LINE
  5
A38
330
1F
100
AcDbEntity
  8
2
  6
CONTINUOUS
370
25
 62
7
100
AcDbLine
 10
44.77363645319491
 20
9.786906179742216
 30
0.0
 11
41.38227392611049
 21
13.59461680554975
 31
0.0
  0
LINE
  5
A39
330
1F
100
AcDbEntity
  8
2
  6
CONTINUOUS
370
25
 62
7
100
AcDbLine
 10
44.61663200007206
 20
9.963185630753586
 30
0.0
 11
45.79271360134513
 21
11.13926723202666
 31
0.0
  0
LINE
  5
A3A
330
1F
100
AcDbEntity
  8
2
  6
CONTINUOUS
370
25
 62
7
100
AcDbLine
 10
44.41676831850354
 20
10.187586017897
 30
0.0
 11
45.73155837780178
 21
11.50237607719524
 31
0.0
  0
LINE
  5
A3B
330
1F
100
AcDbEntity
  8
2
  6
CONTINUOUS
370
25
 62
7
100
AcDbLine
 10
44.21690463693503
 20
10.41198640504042
 30
0.0
 11
45.44509747516086
 21
11.64017924326625
 31
0.0
  0
LINE
  5
A3C
330
1F
100
AcDbEntity
  8
2
  6
CONTINUOUS
370
25
 62
7
100
AcDbLine
 10
44.01704095536653
 20
10.63638679218385
 30
0.0
 11
45.15863657251996
 21
11.77798240933728
 31
0.0
  0
LINE
  5
A3D
330
1F
100
AcDbEntity
  8
2
  6
CONTINUOUS
370
25
 62
7
100
AcDbLine
 10
43.81717727379802
 20
10.86078717932727
 30
0.0
 11
44.87217566987905
 21
11.9157855754083
 31
0.0
  0
LINE
  5
A3E
330
1F
100
AcDbEntity
  8
2
  6
CONTINUOUS
370
25
 62
7
100
AcDbLine
 10
43.6173135922295
 20
11.08518756647069
 30
0.0
 11
44.58571476723813
 21
12.05358874147932
 31
0.0
  0
LINE
  5
A3F
330
1F
100
AcDbEntity
  8
2
  6
CONTINUOUS
370
25
 62
7
100
AcDbLine
 10
43.417449910661
 20
11.30958795361411
 30
0.0
 11
44.29925386459723
 21
12.19139190755034
 31
0.0
  0
LINE
  5
A40
330
1F
100
AcDbEntity
  8
2
  6
CONTINUOUS
370
25
 62
7
100
AcDbLine
 10
43.21758622909248
 20
11.53398834075752
 30
0.0
 11
44.0127929619563
 21
12.32919507362135
 31
0.0
  0
LINE
  5
A41
330
1F
100
AcDbEntity
  8
2
  6
CONTINUOUS
370
25
 62
7
100
AcDbLine
 10
43.01772254752397
 20
11.75838872790095
 30
0.0
 11
43.7263320593154
 21
12.46699823969238
 31
0.0
  0
LINE
  5
A42
330
1F
100
AcDbEntity
  8
2
  6
CONTINUOUS
370
25
 62
7
100
AcDbLine
 10
42.81785886595546
 20
11.98278911504437
 30
0.0
 11
43.43987115667448
 21
12.60480140576339
 31
0.0
  0
LINE
  5
A43
330
1F
100
AcDbEntity
  8
2
  6
CONTINUOUS
370
25
 62
7
100
AcDbLine
 10
42.61799518438695
 20
12.20718950218779
 30
0.0
 11
43.15341025403357
 21
12.74260457183441
 31
0.0
  0
LINE
  5
A44
330
1F
100
AcDbEntity
  8
2
  6
CONTINUOUS
370
25
 62
7
100
AcDbLine
 10
42.41813150281844
 20
12.43158988933121
 30
0.0
 11
42.86694935139266
 21
12.88040773790543
 31
0.0
  0
LINE
  5
A45
330
1F
100
AcDbEntity
  8
2
  6
CONTINUOUS
370
25
 62
7
100
AcDbLine
 10
42.21826782124992
 20
12.65599027647463
 30
0.0
 11
42.58048844875174
 21
13.01821090397645
 31
0.0
  0
LINE
  5
A46
330
1F
100
AcDbEntity
  8
2
  6
CONTINUOUS
370
25
 62
7
100
AcDbLine
 10
42.01840413968142
 20
12.88039066361805
 30
0.0
 11
42.29402754611083
 21
13.15601407004746
 31
0.0
  0
LINE
  5
A47
330
1F
100
AcDbEntity
  8
2
  6
CONTINUOUS
370
25
 62
7
100
AcDbLine
 10
41.8185404581129
 20
13.10479105076147
 30
0.0
 11
42.00756664346991
 21
13.29381723611848
 31
0.0
  0
LINE
  5
A48
330
1F
100
AcDbEntity
  8
2
  6
CONTINUOUS
370
25
 62
7
100
AcDbLine
 10
41.61867677654439
 20
13.32919143790489
 30
0.0
 11
41.721105740829
 21
13.4316204021895
 31
0.0
  0
LINE
  5
A49
330
1F
100
AcDbEntity
  8
2
  6
CONTINUOUS
370
25
 62
7
100
AcDbLine
 10
41.41881309497588
 20
13.55359182504831
 30
0.0
 11
41.43464483818809
 21
13.56942356826052
 31
0.0
  0
LINE
  5
A4A
330
1F
100
AcDbEntity
  8
2
  6
CONTINUOUS
370
25
 62
7
100
AcDbLine
 10
43.39279349233884
 20
11.33727137149994
 30
0.0
 11
44.84648517072997
 21
9.883579693108814
 31
0.0
  0
LINE
  5
A4B
330
1F
100
AcDbEntity
  8
2
  6
CONTINUOUS
370
25
 62
7
100
AcDbLine
 10
41.72419428870234
 20
13.43013464384836
 30
0.0
 11
45.02880399191044
 21
10.12552494064028
 31
0.0
  0
LINE
  5
A4C
330
1F
100
AcDbEntity
  8
2
  6
CONTINUOUS
370
25
 62
7
100
AcDbLine
 10
42.54174385514676
 20
13.03684914611588
 30
0.0
 11
45.2111228130909
 21
10.36747018817174
 31
0.0
  0
LINE
  5
A4D
330
1F
100
AcDbEntity
  8
2
  6
CONTINUOUS
370
25
 62
7
100
AcDbLine
 10
43.35929342159118
 20
12.64356364838338
 30
0.0
 11
45.39344163427136
 21
10.60941543570321
 31
0.0
  0
LINE
  5
A4E
330
1F
100
AcDbEntity
  8
2
  6
CONTINUOUS
370
25
 62
7
100
AcDbLine
 10
44.17684298803562
 20
12.25027815065089
 30
0.0
 11
45.57576045545183
 21
10.85136068323469
 31
0.0
  0
LINE
  5
A4F
330
1F
100
AcDbEntity
  8
2
  6
CONTINUOUS
370
25
 62
7
100
AcDbLine
 10
44.99439255448004
 20
11.8569926529184
 30
0.0
 11
45.75807927663229
 21
11.09330593076616
 31
0.0
  0
LINE
  5
A50
330
1F
100
AcDbEntity
  8
2
  6
CONTINUOUS
370
25
 62
7
100
AcDbLine
 10
45.81194212092446
 20
11.46370715518591
 30
0.0
 11
45.94039809781275
 21
11.33525117829762
 31
0.0
  0
LINE
  5
A51
330
1F
100
AcDbEntity
  8
2
  6
CONTINUOUS
370
25
 62
7
100
AcDbLine
 10
41.38227392611049
 20
-13.59461680554975
 30
0.0
 11
44.93049116457271
 21
-9.932629035406398
 31
0.0
  0
LINE
  5
A52
330
1F
100
AcDbEntity
  8
2
  6
CONTINUOUS
370
25
 62
7
100
AcDbLine
 10
44.93049116457271
 20
-9.932629035406398
 30
0.0
 11
46.06600821166921
 21
-11.57901934021059
 31
0.0
  0
LINE
  5
A53
330
1F
100
AcDbEntity
  8
2
  6
CONTINUOUS
370
25
 62
7
100
AcDbLine
 10
46.06600821166921
 20
-11.57901934021059
 30
0.0
 11
41.38227392611049
 21
-13.59461680554975
 31
0.0
  0
LINE
  5
A54
330
1F
100
AcDbEntity
  8
2
  6
CONTINUOUS
370
25
 62
7
100
AcDbLine
 10
45.69431374618477
 20
-11.73897427719773
 30
0.0
 11
45.97958051522253
 21
-11.45370750815997
 31
0.0
  0
LINE
  5
A55
330
1F
100
AcDbEntity
  8
2
  6
CONTINUOUS
370
25
 62
7
100
AcDbLine
 10
44.9495467800765
 20
-12.05947717459407
 30
0.0
 11
45.80640469678135
 21
-11.20261925788922
 31
0.0
  0
LINE
  5
A56
330
1F
100
AcDbEntity
  8
2
  6
CONTINUOUS
370
25
 62
7
100
AcDbLine
 10
44.20477981396821
 20
-12.37998007199042
 30
0.0
 11
45.63322887834018
 21
-10.95153100761845
 31
0.0
  0
LINE
  5
A57
330
1F
100
AcDbEntity
  8
2
  6
CONTINUOUS
370
25
 62
7
100
AcDbLine
 10
43.46001284785993
 20
-12.70048296938677
 30
0.0
 11
45.460053059899
 21
-10.70044275734769
 31
0.0
  0
LINE
  5
A58
330
1F
100
AcDbEntity
  8
2
  6
CONTINUOUS
370
25
 62
7
100
AcDbLine
 10
42.71524588175166
 20
-13.02098586678311
 30
0.0
 11
45.28687724145784
 21
-10.44935450707693
 31
0.0
  0
LINE
  5
A59
330
1F
100
AcDbEntity
  8
2
  6
CONTINUOUS
370
25
 62
7
100
AcDbLine
 10
41.97047891564338
 20
-13.34148876417946
 30
0.0
 11
45.11370142301666
 21
-10.19826625680618
 31
0.0
  0
LINE
  5
A5A
330
1F
100
AcDbEntity
  8
2
  6
CONTINUOUS
370
25
 62
7
100
AcDbLine
 10
44.16379629315792
 20
-10.72390731795299
 30
0.0
 11
44.94052560457548
 21
-9.947178006535424
 31
0.0
  0
LINE
  5
A5B
330
1F
100
AcDbEntity
  8
2
  6
CONTINUOUS
370
25
 62
7
100
AcDbLine
 10
41.48747307327113
 20
-13.48604453828383
 30
0.0
 11
41.53172890762978
 21
-13.53030037264249
 31
0.0
  0
LINE
  5
A5C
330
1F
100
AcDbEntity
  8
2
  6
CONTINUOUS
370
25
 62
7
100
AcDbLine
 10
41.69625785546069
 20
-13.27056525176147
 30
0.0
 11
41.82834657617416
 21
-13.40265397247494
 31
0.0
  0
LINE
  5
A5D
330
1F
100
AcDbEntity
  8
2
  6
CONTINUOUS
370
25
 62
7
100
AcDbLine
 10
41.90504263765025
 20
-13.0550859652391
 30
0.0
 11
42.12496424471855
 21
-13.27500757230739
 31
0.0
  0
LINE
  5
A5E
330
1F
100
AcDbEntity
  8
2
  6
CONTINUOUS
370
25
 62
7
100
AcDbLine
 10
42.11382741983981
 20
-12.83960667871673
 30
0.0
 11
42.42158191326293
 21
-13.14736117213985
 31
0.0
  0
LINE
  5
A5F
330
1F
100
AcDbEntity
  8
2
  6
CONTINUOUS
370
25
 62
7
100
AcDbLine
 10
42.32261220202938
 20
-12.62412739219436
 30
0.0
 11
42.71819958180732
 21
-13.0197147719723
 31
0.0
  0
LINE
  5
A60
330
1F
100
AcDbEntity
  8
2
  6
CONTINUOUS
370
25
 62
7
100
AcDbLine
 10
42.53139698421894
 20
-12.408648105672
 30
0.0
 11
43.0148172503517
 21
-12.89206837180476
 31
0.0
  0
LINE
  5
A61
330
1F
100
AcDbEntity
  8
2
  6
CONTINUOUS
370
25
 62
7
100
AcDbLine
 10
42.7401817664085
 20
-12.19316881914963
 30
0.0
 11
43.3114349188961
 21
-12.76442197163722
 31
0.0
  0
LINE
  5
A62
330
1F
100
AcDbEntity
  8
2
  6
CONTINUOUS
370
25
 62
7
100
AcDbLine
 10
42.94896654859807
 20
-11.97768953262725
 30
0.0
 11
43.60805258744049
 21
-12.63677557146968
 31
0.0
  0
LINE
  5
A63
330
1F
100
AcDbEntity
  8
2
  6
CONTINUOUS
370
25
 62
7
100
AcDbLine
 10
43.15775133078762
 20
-11.76221024610487
 30
0.0
 11
43.90467025598488
 21
-12.50912917130213
 31
0.0
  0
LINE
  5
A64
330
1F
100
AcDbEntity
  8
2
  6
CONTINUOUS
370
25
 62
7
100
AcDbLine
 10
43.36653611297718
 20
-11.5467309595825
 30
0.0
 11
44.20128792452926
 21
-12.38148277113459
 31
0.0
  0
LINE
  5
A65
330
1F
100
AcDbEntity
  8
2
  6
CONTINUOUS
370
25
 62
7
100
AcDbLine
 10
43.57532089516675
 20
-11.33125167306014
 30
0.0
 11
44.49790559307365
 21
-12.25383637096704
 31
0.0
  0
LINE
  5
A66
330
1F
100
AcDbEntity
  8
2
  6
CONTINUOUS
370
25
 62
7
100
AcDbLine
 10
43.78410567735631
 20
-11.11577238653777
 30
0.0
 11
44.79452326161802
 21
-12.12618997079949
 31
0.0
  0
LINE
  5
A67
330
1F
100
AcDbEntity
  8
2
  6
CONTINUOUS
370
25
 62
7
100
AcDbLine
 10
43.99289045954586
 20
-10.90029310001539
 30
0.0
 11
45.09114093016242
 21
-11.99854357063194
 31
0.0
  0
LINE
  5
A68
330
1F
100
AcDbEntity
  8
2
  6
CONTINUOUS
370
25
 62
7
100
AcDbLine
 10
44.20167524173543
 20
-10.68481381349302
 30
0.0
 11
45.38775859870681
 21
-11.8708971704644
 31
0.0
  0
LINE
  5
A69
330
1F
100
AcDbEntity
  8
2
  6
CONTINUOUS
370
25
 62
7
100
AcDbLine
 10
44.41046002392499
 20
-10.46933452697066
 30
0.0
 11
45.6843762672512
 21
-11.74325077029686
 31
0.0
  0
LINE
  5
A6A
330
1F
100
AcDbEntity
  8
2
  6
CONTINUOUS
370
25
 62
7
100
AcDbLine
 10
44.61924480611456
 20
-10.25385524044829
 30
0.0
 11
45.98099393579558
 21
-11.61560437012931
 31
0.0
  0
LINE
  5
A6B
330
1F
100
AcDbEntity
  8
2
  6
CONTINUOUS
370
25
 62
7
100
AcDbLine
 10
44.82802958830412
 20
-10.03837595392592
 30
0.0
 11
45.39327580169201
 21
-10.60362216731381
 31
0.0
  0
TEXT
  5
A6C
330
1F
100
AcDbEntity
  8
2
  6
CONTINUOUS
370
25
 62
7
100
AcDbText
 10
49.043
 20
-4.958333333333333
 30
0.0
 40
3.5
  1
130°
 50
90.0
 72
     1
 11
49.043
 21
0.0
 31
0.0
100
AcDbText
  0
LINE
  5
A6D
330
1F
100
AcDbEntity
  8
1
  6
CONTINUOUS
370
50
 62
4
100
AcDbLine
 10
0.0
 20
0.0
 30
0.0
 11
3.0625
 21
0.0
 31
0.0
  0
LINE
  5
A6E
330
1F
100
AcDbEntity
  8
1
  6
CONTINUOUS
370
50
 62
4
100
AcDbLine
 10
0.0
 20
0.0
 30
0.0
 11
0.0
 21
3.0625
 31
0.0
  0
ARC
  5
A6F
330
1F
100
AcDbEntity
  8
1
  6
CONTINUOUS
370
50
 62
4
100
AcDbCircle
 10
0.0
 20
0.0
 30
0.0
 40
3.0625
100
AcDbArc
 50
0.0
 51
90.0
  0
LINE
  5
A70
330
1F
100
AcDbEntity
  8
1
  6
CONTINUOUS
370
50
 62
4
100
AcDbLine
 10
0.0
 20
0.0
 30
0.0
 11
-3.0625
 21
0.0
 31
0.0
  0
ARC
  5
A71
330
1F
100
AcDbEntity
  8
1
  6
CONTINUOUS
370
50
 62
4
100
AcDbCircle
 10
0.0
 20
0.0
 30
0.0
 40
3.0625
100
AcDbArc
 50
180.0
 51
270.0
  0
LINE
  5
A72
330
1F
100
AcDbEntity
  8
1
  6
CONTINUOUS
370
50
 62
4
100
AcDbLine
 10
0.0
 20
-3.0625
 30
0.0
 11
0.0
 21
0.0
 31
0.0
  0
ARC
  5
A73
330
1F
100
AcDbEntity
  8
1
  6
CONTINUOUS
370
50
 62
4
100
AcDbCircle
 10
0.0
 20
0.0
 30
0.0
 40
3.0625
100
AcDbArc
 50
270.0
 51
0.0
  0
ARC
  5
A74
330
1F
100
AcDbEntity
  8
1
  6
CONTINUOUS
370
50
 62
4
100
AcDbCircle
 10
0.0
 20
0.0
 30
0.0
 40
3.0625
100
AcDbArc
 50
90.0
 51
180.0
  0
LINE
  5
A75
330
1F
100
AcDbEntity
  8
CUT
  6
CONTINUOUS
370
25
 62
1
100
AcDbLine
 10
2.042999999999999
 20
0.0
 30
0.0
 11
35.043
 21
0.0
 31
0.0
  0
LINE
  5
A76
330
1F
100
AcDbEntity
  8
CUT
  6
CONTINUOUS
370
25
 62
1
100
AcDbLine
 10
35.043
 20
0.0
 30
0.0
 11
34.35519620422138
 21
1.475
 31
0.0
  0
LINE
  5
A77
330
1F
100
AcDbEntity
  8
CUT
  6
CONTINUOUS
370
25
 62
1
100
AcDbLine
 10
34.35519620422138
 20
1.475
 30
0.0
 11
2.042999999999999
 21
1.475
 31
0.0
  0
LINE
  5
A78
330
1F
100
AcDbEntity
  8
CUT
  6
CONTINUOUS
370
25
 62
1
100
AcDbLine
 10
2.042999999999999
 20
1.475
 30
0.0
 11
2.042999999999999
 21
0.0
 31
0.0
  0
LINE
  5
A79
330
1F
100
AcDbEntity
  8
NOCUT
  6
CONTINUOUS
370
25
 62
7
100
AcDbLine
 10
1.0
 20
0.0
 30
0.0
 11
2.042999999999999
 21
0.0
 31
0.0
  0
LINE
  5
A7A
330
1F
100
AcDbEntity
  8
NOCUT
  6
CONTINUOUS
370
25
 62
7
100
AcDbLine
 10
2.042999999999999
 20
0.0
 30
0.0
 11
2.042999999999999
 21
1.475
 31
0.0
  0
LINE
  5
A7B
330
1F
100
AcDbEntity
  8
NOCUT
  6
CONTINUOUS
370
25
 62
7
100
AcDbLine
 10
2.042999999999999
 20
1.475
 30
0.0
 11
1.0
 21
3.0
 31
0.0
  0
LINE
  5
A7C
330
1F
100
AcDbEntity
  8
INFTOTAL
  6
CONTINUOUS
370
18
 62
9
100
AcDbLine
 10
-59.352711
 20
-37.40001100000001
 30
0.0
 11
72.64731100000002
 21
-37.40001100000001
 31
0.0
  0
LINE
  5
A7D
330
1F
100
AcDbEntity
  8
INFTOTAL
  6
CONTINUOUS
370
18
 62
9
100
AcDbLine
 10
72.64731100000002
 20
-37.40001100000001
 30
0.0
 11
72.64731100000002
 21
37.40001100000001
 31
0.0
  0
LINE
  5
A7E
330
1F
100
AcDbEntity
  8
INFTOTAL
  6
CONTINUOUS
370
18
 62
9
100
AcDbLine
 10
72.64731100000002
 20
37.40001100000001
 30
0.0
 11
-59.35271099999999
 21
37.40001100000001
 31
0.0
  0
LINE
  5
A7F
330
1F
100
AcDbEntity
  8
INFTOTAL
  6
CONTINUOUS
370
18
 62
9
100
AcDbLine
 10
-59.35271099999999
 20
37.40001100000001
 30
0.0
 11
-59.35271099999999
 21
-37.40001100000001
 31
0.0
  0
ARC
  5
A80
330
1F
100
AcDbEntity
  8
SK6
  6
CONTINUOUS
370
25
 62
5
100
AcDbCircle
 10
70.84739100837652
 20
-28.34525475338786
 30
0.0
 40
2.760489128492197
100
AcDbArc
 50
338.9379403434232
 51
90.44457437511392
  0
LINE
  5
A81
330
1F
100
AcDbEntity
  8
SK6
  6
CONTINUOUS
370
25
 62
5
100
AcDbLine
 10
70.82597179695983
 20
-25.58484872421281
 30
0.0
 11
70.82597179695983
 21
-26.68790735613463
 31
0.0
  0
ARC
  5
A82
330
1F
100
AcDbEntity
  8
SK6
  6
CONTINUOUS
370
25
 62
5
100
AcDbCircle
 10
70.83651802936916
 20
-28.36524824566821
 30
0.0
 40
1.677374043771779
100
AcDbArc
 50
243.4214706017868
 51
90.36024081226083
  0
ARC
  5
A83
330
1F
100
AcDbEntity
  8
SK6
  6
CONTINUOUS
370
25
 62
5
100
AcDbCircle
 10
73.35876889684958
 20
-27.93384099215561
 30
0.0
 40
3.800217030022748
100
AcDbArc
 50
210.5483731288541
 51
236.9780169366799
  0
LINE
  5
A84
330
1F
100
AcDbEntity
  8
SK6
  6
CONTINUOUS
370
25
 62
5
100
AcDbLine
 10
71.28779968512487
 20
-31.12017681867535
 30
0.0
 11
75.42973996742671
 21
-31.12017681867535
 31
0.0
  0
ARC
  5
A85
330
1F
100
AcDbEntity
  8
SK6
  6
CONTINUOUS
370
25
 62
5
100
AcDbCircle
 10
73.35877083877257
 20
-27.9338410937346
 30
0.0
 40
3.800216899582472
100
AcDbArc
 50
303.0219828477959
 51
326.3732153033476
  0
LINE
  5
A86
330
1F
100
AcDbEntity
  8
SK6
  6
CONTINUOUS
370
25
 62
5
100
AcDbLine
 10
76.52306875135721
 20
-30.0383284907709
 30
0.0
 11
73.16577070575462
 21
-30.0383284907709
 31
0.0
  0
LINE
  5
A87
330
1F
100
AcDbEntity
  8
SK6
  6
CONTINUOUS
370
25
 62
5
100
AcDbLine
 10
73.16577070575462
 20
-30.0383284907709
 30
0.0
 11
77.08563009771987
 21
-28.67692729641694
 31
0.0
  0
ARC
  5
A88
330
1F
100
AcDbEntity
  8
SK6
  6
CONTINUOUS
370
25
 62
5
100
AcDbCircle
 10
73.3587715615721
 20
-27.9338416048594
 30
0.0
 40
3.800217216614737
100
AcDbArc
 50
348.7238644184696
 51
53.46910512608813
  0
LINE
  5
A89
330
1F
100
AcDbEntity
  8
SK6
  6
CONTINUOUS
370
25
 62
5
100
AcDbLine
 10
75.62087424538547
 20
-24.88023024429967
 30
0.0
 11
73.42345947882737
 21
-29.33731873507057
 31
0.0
  0
LINE
  5
A8A
330
1F
100
AcDbEntity
  8
0
  6
Continuous
 62
     4
100
AcDbLine
 10
-0.048814392220427
 20
0.0
 30
0.0
 11
0.0
 21
-0.0488143922204269
 31
0.0
  0
LINE
  5
A8B
330
1F
100
AcDbEntity
  8
0
  6
Continuous
 62
     4
100
AcDbLine
 10
-3.060074868475705
 20
-0.0771689363588064
 30
0.0
 11
-2.982905932116899
 21
0.0
 31
0.0
  0
LINE
  5
A8C
330
1F
100
AcDbEntity
  8
0
  6
Continuous
 62
     4
100
AcDbLine
 10
0.0
 20
2.982905932116899
 30
0.0
 11
0.0771689363588069
 21
3.060074868475706
 31
0.0
  0
LINE
  5
A8D
330
1F
100
AcDbEntity
  8
0
  6
Continuous
 62
     4
100
AcDbLine
 10
0.0
 20
0.384288511256333
 30
0.0
 11
0.3842885112563335
 21
0.0
 31
0.0
  0
LINE
  5
A8E
330
1F
100
AcDbEntity
  8
0
  6
Continuous
 62
     4
100
AcDbLine
 10
-0.3899505408176486
 20
-3.037382353898634
 30
0.0
 11
0.0
 21
-2.647431813080986
 31
0.0
  0
LINE
  5
A8F
330
1F
100
AcDbEntity
  8
0
  6
Continuous
 62
     4
100
AcDbLine
 10
2.647431813080986
 20
0.0
 30
0.0
 11
3.037382353898634
 21
0.3899505408176478
 31
0.0
  0
LINE
  5
A90
330
1F
100
AcDbEntity
  8
0
  6
Continuous
 62
     4
100
AcDbLine
 10
-3.024033693605082
 20
-0.4742306649649457
 30
0.0
 11
-2.549803028640137
 21
0.0
 31
0.0
  0
LINE
  5
A91
330
1F
100
AcDbEntity
  8
0
  6
Continuous
 62
     4
100
AcDbLine
 10
0.0
 20
2.549803028640136
 30
0.0
 11
0.4742306649649455
 21
3.024033693605082
 31
0.0
  0
LINE
  5
A92
330
1F
100
AcDbEntity
  8
0
  6
Continuous
 62
     4
100
AcDbLine
 10
-0.4819172956971874
 20
0.0
 30
0.0
 11
0.0
 21
-0.4819172956971869
 31
0.0
  0
LINE
  5
A93
330
1F
100
AcDbEntity
  8
0
  6
Continuous
 62
     4
100
AcDbLine
 10
1.82018752194426
 20
2.462027120602918
 30
0.0
 11
2.462027120602917
 21
1.820187521944262
 31
0.0
  0
LINE
  5
A94
330
1F
100
AcDbEntity
  8
0
  6
Continuous
 62
     4
100
AcDbLine
 10
-0.7537210351890704
 20
-2.968049944793296
 30
0.0
 11
0.0
 21
-2.214328909604226
 31
0.0
  0
LINE
  5
A95
330
1F
100
AcDbEntity
  8
0
  6
Continuous
 62
     4
100
AcDbLine
 10
2.214328909604226
 20
0.0
 30
0.0
 11
2.968049944793296
 21
0.75372103518907
 31
0.0
  0
LINE
  5
A96
330
1F
100
AcDbEntity
  8
0
  6
Continuous
 62
     4
100
AcDbLine
 10
0.0
 20
0.8173914147330921
 30
0.0
 11
0.817391414733093
 21
0.0
 31
0.0
  0
LINE
  5
A97
330
1F
100
AcDbEntity
  8
0
  6
Continuous
 62
     4
100
AcDbLine
 10
-2.946481208032973
 20
-0.8297810828695971
 30
0.0
 11
-2.116700125163376
 21
0.0
 31
0.0
  0
LINE
  5
A98
330
1F
100
AcDbEntity
  8
0
  6
Continuous
 62
     4
100
AcDbLine
 10
0.0
 20
2.116700125163375
 30
0.0
 11
0.829781082869597
 21
2.946481208032972
 31
0.0
  0
LINE
  5
A99
330
1F
100
AcDbEntity
  8
0
  6
Continuous
 62
     4
100
AcDbLine
 10
-0.915020199173947
 20
0.0
 30
0.0
 11
0.0
 21
-0.915020199173946
 31
0.0
  0
LINE
  5
A9A
330
1F
100
AcDbEntity
  8
0
  6
Continuous
 62
     4
100
AcDbLine
 10
-1.082406468805194
 20
-2.863632474932658
 30
0.0
 11
0.0
 21
-1.781226006127464
 31
0.0
  0
LINE
  5
A9B
330
1F
100
AcDbEntity
  8
0
  6
Continuous
 62
     4
100
AcDbLine
 10
1.781226006127464
 20
0.0
 30
0.0
 11
2.863632474932658
 21
1.082406468805194
 31
0.0
  0
LINE
  5
A9C
330
1F
100
AcDbEntity
  8
0
  6
Continuous
 62
     4
100
AcDbLine
 10
-2.836427704795208
 20
-1.152830483108593
 30
0.0
 11
-1.683597221686615
 21
0.0
 31
0.0
  0
LINE
  5
A9D
330
1F
100
AcDbEntity
  8
0
  6
Continuous
 62
     4
100
AcDbLine
 10
0.0
 20
1.683597221686615
 30
0.0
 11
1.152830483108594
 21
2.836427704795208
 31
0.0
  0
LINE
  5
A9E
330
1F
100
AcDbEntity
  8
0
  6
Continuous
 62
     4
100
AcDbLine
 10
0.0
 20
1.250494318209852
 30
0.0
 11
1.250494318209853
 21
0.0
 31
0.0
  0
LINE
  5
A9F
330
1F
100
AcDbEntity
  8
0
  6
Continuous
 62
     4
100
AcDbLine
 10
-1.348123102650707
 20
0.0
 30
0.0
 11
0.0
 21
-1.348123102650706
 31
0.0
  0
LINE
  5
AA0
330
1F
100
AcDbEntity
  8
0
  6
Continuous
 62
     4
100
AcDbLine
 10
-1.382755744557608
 20
-2.730878847208312
 30
0.0
 11
0.0
 21
-1.348123102650704
 31
0.0
  0
LINE
  5
AA1
330
1F
100
AcDbEntity
  8
0
  6
Continuous
 62
     4
100
AcDbLine
 10
1.348123102650704
 20
0.0
 30
0.0
 11
2.730878847208312
 21
1.382755744557608
 31
0.0
  0
LINE
  5
AA2
330
1F
100
AcDbEntity
  8
0
  6
Continuous
 62
     4
100
AcDbLine
 10
-2.697925212479942
 20
-1.447430894270086
 30
0.0
 11
-1.250494318209856
 21
0.0
 31
0.0
  0
LINE
  5
AA3
330
1F
100
AcDbEntity
  8
0
  6
Continuous
 62
     4
100
AcDbLine
 10
0.0
 20
1.250494318209856
 30
0.0
 11
1.447430894270087
 21
2.697925212479942
 31
0.0
  0
LINE
  5
AA4
330
1F
100
AcDbEntity
  8
0
  6
Continuous
 62
     4
100
AcDbLine
 10
-1.658690758414022
 20
-2.573710957587966
 30
0.0
 11
0.0
 21
-0.9150201991739442
 31
0.0
  0
LINE
  5
AA5
330
1F
100
AcDbEntity
  8
0
  6
Continuous
 62
     4
100
AcDbLine
 10
0.9150201991739443
 20
0.0
 30
0.0
 11
2.573710957587966
 21
1.658690758414021
 31
0.0
  0
LINE
  5
AA6
330
1F
100
AcDbEntity
  8
0
  6
Continuous
 62
     4
100
AcDbLine
 10
0.0
 20
1.683597221686613
 30
0.0
 11
1.683597221686615
 21
0.0
 31
0.0
  0
LINE
  5
AA7
330
1F
100
AcDbEntity
  8
0
  6
Continuous
 62
     4
100
AcDbLine
 10
-2.534208408698686
 20
-1.71681699396559
 30
0.0
 11
-0.8173914147330957
 21
0.0
 31
0.0
  0
LINE
  5
AA8
330
1F
100
AcDbEntity
  8
0
  6
Continuous
 62
     4
100
AcDbLine
 10
0.0
 20
0.8173914147330956
 30
0.0
 11
1.71681699396559
 21
2.534208408698686
 31
0.0
  0
LINE
  5
AA9
330
1F
100
AcDbEntity
  8
0
  6
Continuous
 62
     4
100
AcDbLine
 10
-2.863237798364061
 20
-1.08350272514721
 30
0.0
 11
-1.083502725147208
 21
-2.863237798364062
 31
0.0
  0
LINE
  5
AAA
330
1F
100
AcDbEntity
  8
0
  6
Continuous
 62
     4
100
AcDbLine
 10
-1.781226006127468
 20
0.0
 30
0.0
 11
0.0
 21
-1.781226006127466
 31
0.0
  0
LINE
  5
AAB
330
1F
100
AcDbEntity
  8
0
  6
Continuous
 62
     4
100
AcDbLine
 10
-1.910250115991394
 20
-2.392167411688578
 30
0.0
 11
0.0
 21
-0.4819172956971842
 31
0.0
  0
LINE
  5
AAC
330
1F
100
AcDbEntity
  8
0
  6
Continuous
 62
     4
100
AcDbLine
 10
0.4819172956971843
 20
0.0
 30
0.0
 11
2.392167411688578
 21
1.910250115991393
 31
0.0
  0
LINE
  5
AAD
330
1F
100
AcDbEntity
  8
0
  6
Continuous
 62
     4
100
AcDbLine
 10
-2.348781014692249
 20
-1.964492503435912
 30
0.0
 11
-0.3842885112563357
 21
0.0
 31
0.0
  0
LINE
  5
AAE
330
1F
100
AcDbEntity
  8
0
  6
Continuous
 62
     4
100
AcDbLine
 10
0.0
 20
0.3842885112563357
 30
0.0
 11
1.964492503435913
 21
2.348781014692249
 31
0.0
  0
LINE
  5
AAF
330
1F
100
AcDbEntity
  8
0
  6
Continuous
 62
     4
100
AcDbLine
 10
0.9324621340962547
 20
2.916649604974163
 30
0.0
 11
2.916649604974161
 21
0.9324621340962582
 31
0.0
  0
LINE
  5
AB0
330
1F
100
AcDbEntity
  8
0
  6
Continuous
 62
     4
100
AcDbLine
 10
0.0
 20
2.116700125163374
 30
0.0
 11
2.116700125163376
 21
0.0
 31
0.0
  0
LINE
  5
AB1
330
1F
100
AcDbEntity
  8
0
  6
Continuous
 62
     4
100
AcDbLine
 10
-2.140038770582129
 20
-2.188853162802553
 30
0.0
 11
0.0
 21
-0.0488143922204243
 31
0.0
  0
LINE
  5
AB2
330
1F
100
AcDbEntity
  8
0
  6
Continuous
 62
     4
100
AcDbLine
 10
0.0488143922204243
 20
0.0
 30
0.0
 11
2.188853162802553
 21
2.140038770582128
 31
0.0
  0
LINE
  5
AB3
330
1F
100
AcDbEntity
  8
0
  6
Continuous
 62
     4
100
AcDbLine
 10
-2.214328909604228
 20
0.0
 30
0.0
 11
0.0
 21
-2.214328909604225
 31
0.0
  0
LINE
  5
AB4
330
1F
100
AcDbEntity
  8
0
  6
Continuous
 62
     4
100
AcDbLine
 10
-3.021140584768129
 20
-0.4924970352663824
 30
0.0
 11
-0.492497035266379
 21
-3.021140584768129
 31
0.0
  0
LINE
  5
AB5
330
1F
100
AcDbEntity
  8
0
  6
Continuous
 62
     4
100
AcDbLine
 10
0.0
 20
2.549803028640134
 30
0.0
 11
2.549803028640136
 21
0.0
 31
0.0
  0
LINE
  5
AB6
330
1F
100
AcDbEntity
  8
0
  6
Continuous
 62
     4
100
AcDbLine
 10
-2.647431813080989
 20
0.0
 30
0.0
 11
0.0
 21
-2.647431813080986
 31
0.0
  0
LINE
  5
AB7
330
1F
100
AcDbEntity
  8
0
  6
Continuous
 62
     4
100
AcDbLine
 10
0.3770128678948154
 20
3.038995967698841
 30
0.0
 11
3.038995967698841
 21
0.3770128678948184
 31
0.0
  0
LINE
  5
AB8
330
1F
100
AcDbEntity
  8
0
  6
Continuous
 62
     4
100
AcDbLine
 10
0.0
 20
2.982905932116894
 30
0.0
 11
2.982905932116897
 21
0.0
 31
0.0
  0
LINE
  5
AB9
330
1F
100
AcDbEntity
  8
0
  6
Continuous
 62
     4
100
AcDbLine
 10
-3.061914847026416
 20
-0.018619869531336
 30
0.0
 11
-0.0186198695313321
 21
-3.061914847026416
 31
0.0
  0
ENDSEC
  0
SECTION
  2
OBJECTS
  0
DICTIONARY
  5
C
330
0
100
AcDbDictionary
281
     1
  3
ACAD_GROUP
350
D
  3
ACAD_LAYOUT
350
1A
  3
ACAD_MATERIAL
350
3B
  3
ACAD_MLEADERSTYLE
350
ABC
  3
ACAD_MLINESTYLE
350
17
  3
ACAD_PLOTSETTINGS
350
19
  3
ACAD_PLOTSTYLENAME
350
E
  3
ACAD_SCALELIST
350
350
  3
ACAD_VISUALSTYLE
350
2A
  3
AcDbVariableDictionary
350
ABA
  0
DICTIONARY
  5
D
102
{ACAD_REACTORS
330
C
102
}
330
C
100
AcDbDictionary
281
     1
  0
DICTIONARY
  5
1A
102
{ACAD_REACTORS
330
C
102
}
330
C
100
AcDbDictionary
281
     1
  3
Layout1
350
1E
  3
Layout2
350
26
  3
Model
350
22
  0
DICTIONARY
  5
3B
102
{ACAD_REACTORS
330
C
102
}
330
C
100
AcDbDictionary
281
     1
  3
ByBlock
350
3D
  3
ByLayer
350
3C
  3
Global
350
3E
  0
DICTIONARY
  5
ABC
102
{ACAD_REACTORS
330
C
102
}
330
C
100
AcDbDictionary
281
     1
  0
DICTIONARY
  5
17
102
{ACAD_REACTORS
330
C
102
}
330
C
100
AcDbDictionary
281
     1
  3
Standard
350
18
  0
DICTIONARY
  5
19
102
{ACAD_REACTORS
330
C
102
}
330
C
100
AcDbDictionary
281
     1
  0
ACDBDICTIONARYWDFLT
  5
E
102
{ACAD_REACTORS
330
C
102
}
330
C
100
AcDbDictionary
281
     1
  3
Normal
350
F
100
AcDbDictionaryWithDefault
340
F
  0
DICTIONARY
  5
350
102
{ACAD_REACTORS
330
C
102
}
330
C
100
AcDbDictionary
281
     1
  3
A0
350
351
  3
A1
350
352
  3
A2
350
353
  3
A3
350
354
  3
A4
350
355
  3
A5
350
356
  3
A6
350
357
  3
A7
350
358
  3
A8
350
359
  3
A9
350
35A
  3
B0
350
35B
  3
B1
350
35C
  3
B2
350
35D
  3
B3
350
35E
  3
B4
350
35F
  3
B5
350
360
  3
B6
350
361
  3
B7
350
362
  3
B8
350
363
  3
B9
350
364
  3
C0
350
365
  3
C1
350
366
  3
C2
350
367
  3
C3
350
368
  3
C4
350
369
  3
C5
350
36A
  3
C6
350
36B
  3
C7
350
36C
  3
C8
350
36D
  3
C9
350
36E
  3
D0
350
36F
  3
D1
350
370
  3
D2
350
371
  0
DICTIONARY
  5
2A
102
{ACAD_REACTORS
330
C
102
}
330
C
100
AcDbDictionary
281
     1
  3
2dWireframe
350
2F
  3
3D Hidden
350
31
  3
3dWireframe
350
30
  3
Basic
350
32
  3
Brighten
350
36
  3
ColorChange
350
3A
  3
Conceptual
350
34
  3
Dim
350
35
  3
Facepattern
350
39
  3
Flat
350
2B
  3
FlatWithEdges
350
2C
  3
Gouraud
350
2D
  3
GouraudWithEdges
350
2E
  3
Linepattern
350
38
  3
Realistic
350
33
  3
Thicken
350
37
  0
DICTIONARY
  5
ABA
102
{ACAD_REACTORS
330
C
102
}
330
C
100
AcDbDictionary
281
     1
  3
CANNOSCALE
350
ABF
  3
DIMASSOC
350
AC0
  3
HIDETEXT
350
AC1
  3
PSOLHEIGHT
350
ABE
  3
PSOLWIDTH
350
ABD
  0
LAYOUT
  5
1E
102
{ACAD_REACTORS
330
1A
102
}
330
1A
100
AcDbPlotSettings
  1

  2
none_device
  4

  6

 40
0.0
 41
0.0
 42
0.0
 43
0.0
 44
0.0
 45
0.0
 46
0.0
 47
0.0
 48
0.0
 49
0.0
140
0.0
141
0.0
142
1.0
143
1.0
 70
   688
 72
     0
 73
     0
 74
     5
  7

 75
    16
147
1.0
148
0.0
149
0.0
100
AcDbLayout
  1
Layout1
 70
     1
 71
     1
 10
0.0
 20
0.0
 11
420.0
 21
297.0
 12
0.0
 22
0.0
 32
0.0
 14
1.000000000000000E+20
 24
1.000000000000000E+20
 34
1.000000000000000E+20
 15
-1.000000000000000E+20
 25
-1.000000000000000E+20
 35
-1.000000000000000E+20
146
0.0
 13
0.0
 23
0.0
 33
0.0
 16
1.0
 26
0.0
 36
0.0
 17
0.0
 27
1.0
 37
0.0
 76
     0
330
1B
  0
LAYOUT
  5
26
102
{ACAD_REACTORS
330
1A
102
}
330
1A
100
AcDbPlotSettings
  1

  2
none_device
  4

  6

 40
0.0
 41
0.0
 42
0.0
 43
0.0
 44
0.0
 45
0.0
 46
0.0
 47
0.0
 48
0.0
 49
0.0
140
0.0
141
0.0
142
1.0
143
1.0
 70
   688
 72
     0
 73
     0
 74
     5
  7

 75
    16
147
1.0
148
0.0
149
0.0
100
AcDbLayout
  1
Layout2
 70
     1
 71
     2
 10
0.0
 20
0.0
 11
0.0
 21
0.0
 12
0.0
 22
0.0
 32
0.0
 14
0.0
 24
0.0
 34
0.0
 15
0.0
 25
0.0
 35
0.0
146
0.0
 13
0.0
 23
0.0
 33
0.0
 16
1.0
 26
0.0
 36
0.0
 17
0.0
 27
1.0
 37
0.0
 76
     0
330
23
  0
LAYOUT
  5
22
102
{ACAD_REACTORS
330
1A
102
}
330
1A
100
AcDbPlotSettings
  1

  2
none_device
  4

  6

 40
0.0
 41
0.0
 42
0.0
 43
0.0
 44
0.0
 45
0.0
 46
0.0
 47
0.0
 48
0.0
 49
0.0
140
0.0
141
0.0
142
1.0
143
1.0
 70
  1712
 72
     0
 73
     0
 74
     0
  7

 75
     0
147
1.0
148
0.0
149
0.0
100
AcDbLayout
  1
Model
 70
     1
 71
     0
 10
0.0
 20
0.0
 11
420.0
 21
297.0
 12
0.0
 22
0.0
 32
0.0
 14
0.0
 24
0.0
 34
0.0
 15
25.0
 25
35.0
 35
0.0
146
0.0
 13
0.0
 23
0.0
 33
0.0
 16
1.0
 26
0.0
 36
0.0
 17
0.0
 27
1.0
 37
0.0
 76
     0
330
1F
331
29
  0
MATERIAL
  5
3D
102
{ACAD_REACTORS
330
3B
102
}
102
{ACAD_XDICTIONARY
360
AE4
102
}
330
3B
100
AcDbMaterial
  1
ByBlock
  0
MATERIAL
  5
3C
102
{ACAD_REACTORS
330
3B
102
}
102
{ACAD_XDICTIONARY
360
AE2
102
}
330
3B
100
AcDbMaterial
  1
ByLayer
  0
MATERIAL
  5
3E
102
{ACAD_REACTORS
330
3B
102
}
102
{ACAD_XDICTIONARY
360
AE6
102
}
330
3B
100
AcDbMaterial
  1
Global
  0
MLINESTYLE
  5
18
102
{ACAD_REACTORS
330
17
102
}
330
17
100
AcDbMlineStyle
  2
Standard
 70
     0
  3

 62
   256
 51
90.0
 52
90.0
 71
     2
 49
0.5
 62
   256
  6
BYLAYER
 49
-0.5
 62
   256
  6
BYLAYER
  0
ACDBPLACEHOLDER
  5
F
102
{ACAD_REACTORS
330
E
102
}
330
E
  0
SCALE
  5
351
102
{ACAD_REACTORS
330
350
102
}
330
350
100
AcDbScale
 70
     0
300
1:1
140
1.0
141
1.0
290
     1
  0
SCALE
  5
352
102
{ACAD_REACTORS
330
350
102
}
330
350
100
AcDbScale
 70
     0
300
1:2
140
1.0
141
2.0
290
     0
  0
SCALE
  5
353
102
{ACAD_REACTORS
330
350
102
}
330
350
100
AcDbScale
 70
     0
300
1:4
140
1.0
141
4.0
290
     0
  0
SCALE
  5
354
102
{ACAD_REACTORS
330
350
102
}
330
350
100
AcDbScale
 70
     0
300
1:5
140
1.0
141
5.0
290
     0
  0
SCALE
  5
355
102
{ACAD_REACTORS
330
350
102
}
330
350
100
AcDbScale
 70
     0
300
1:8
140
1.0
141
8.0
290
     0
  0
SCALE
  5
356
102
{ACAD_REACTORS
330
350
102
}
330
350
100
AcDbScale
 70
     0
300
1:10
140
1.0
141
10.0
290
     0
  0
SCALE
  5
357
102
{ACAD_REACTORS
330
350
102
}
330
350
100
AcDbScale
 70
     0
300
1:16
140
1.0
141
16.0
290
     0
  0
SCALE
  5
358
102
{ACAD_REACTORS
330
350
102
}
330
350
100
AcDbScale
 70
     0
300
1:20
140
1.0
141
20.0
290
     0
  0
SCALE
  5
359
102
{ACAD_REACTORS
330
350
102
}
330
350
100
AcDbScale
 70
     0
300
1:30
140
1.0
141
30.0
290
     0
  0
SCALE
  5
35A
102
{ACAD_REACTORS
330
350
102
}
330
350
100
AcDbScale
 70
     0
300
1:40
140
1.0
141
40.0
290
     0
  0
SCALE
  5
35B
102
{ACAD_REACTORS
330
350
102
}
330
350
100
AcDbScale
 70
     0
300
1:50
140
1.0
141
50.0
290
     0
  0
SCALE
  5
35C
102
{ACAD_REACTORS
330
350
102
}
330
350
100
AcDbScale
 70
     0
300
1:100
140
1.0
141
100.0
290
     0
  0
SCALE
  5
35D
102
{ACAD_REACTORS
330
350
102
}
330
350
100
AcDbScale
 70
     0
300
2:1
140
2.0
141
1.0
290
     0
  0
SCALE
  5
35E
102
{ACAD_REACTORS
330
350
102
}
330
350
100
AcDbScale
 70
     0
300
4:1
140
4.0
141
1.0
290
     0
  0
SCALE
  5
35F
102
{ACAD_REACTORS
330
350
102
}
330
350
100
AcDbScale
 70
     0
300
8:1
140
8.0
141
1.0
290
     0
  0
SCALE
  5
360
102
{ACAD_REACTORS
330
350
102
}
330
350
100
AcDbScale
 70
     0
300
10:1
140
10.0
141
1.0
290
     0
  0
SCALE
  5
361
102
{ACAD_REACTORS
330
350
102
}
330
350
100
AcDbScale
 70
     0
300
100:1
140
100.0
141
1.0
290
     0
  0
SCALE
  5
362
102
{ACAD_REACTORS
330
350
102
}
330
350
100
AcDbScale
 70
     0
300
1/128" = 1'-0"
140
0.0078125
141
12.0
290
     0
  0
SCALE
  5
363
102
{ACAD_REACTORS
330
350
102
}
330
350
100
AcDbScale
 70
     0
300
1/64" = 1'-0"
140
0.015625
141
12.0
290
     0
  0
SCALE
  5
364
102
{ACAD_REACTORS
330
350
102
}
330
350
100
AcDbScale
 70
     0
300
1/32" = 1'-0"
140
0.03125
141
12.0
290
     0
  0
SCALE
  5
365
102
{ACAD_REACTORS
330
350
102
}
330
350
100
AcDbScale
 70
     0
300
1/16" = 1'-0"
140
0.0625
141
12.0
290
     0
  0
SCALE
  5
366
102
{ACAD_REACTORS
330
350
102
}
330
350
100
AcDbScale
 70
     0
300
3/32" = 1'-0"
140
0.09375
141
12.0
290
     0
  0
SCALE
  5
367
102
{ACAD_REACTORS
330
350
102
}
330
350
100
AcDbScale
 70
     0
300
1/8" = 1'-0"
140
0.125
141
12.0
290
     0
  0
SCALE
  5
368
102
{ACAD_REACTORS
330
350
102
}
330
350
100
AcDbScale
 70
     0
300
3/16" = 1'-0"
140
0.1875
141
12.0
290
     0
  0
SCALE
  5
369
102
{ACAD_REACTORS
330
350
102
}
330
350
100
AcDbScale
 70
     0
300
1/4" = 1'-0"
140
0.25
141
12.0
290
     0
  0
SCALE
  5
36A
102
{ACAD_REACTORS
330
350
102
}
330
350
100
AcDbScale
 70
     0
300
3/8" = 1'-0"
140
0.375
141
12.0
290
     0
  0
SCALE
  5
36B
102
{ACAD_REACTORS
330
350
102
}
330
350
100
AcDbScale
 70
     0
300
1/2" = 1'-0"
140
0.5
141
12.0
290
     0
  0
SCALE
  5
36C
102
{ACAD_REACTORS
330
350
102
}
330
350
100
AcDbScale
 70
     0
300
3/4" = 1'-0"
140
0.75
141
12.0
290
     0
  0
SCALE
  5
36D
102
{ACAD_REACTORS
330
350
102
}
330
350
100
AcDbScale
 70
     0
300
1" = 1'-0"
140
1.0
141
12.0
290
     0
  0
SCALE
  5
36E
102
{ACAD_REACTORS
330
350
102
}
330
350
100
AcDbScale
 70
     0
300
1-1/2" = 1'-0"
140
1.5
141
12.0
290
     0
  0
SCALE
  5
36F
102
{ACAD_REACTORS
330
350
102
}
330
350
100
AcDbScale
 70
     0
300
3" = 1'-0"
140
3.0
141
12.0
290
     0
  0
SCALE
  5
370
102
{ACAD_REACTORS
330
350
102
}
330
350
100
AcDbScale
 70
     0
300
6" = 1'-0"
140
6.0
141
12.0
290
     0
  0
SCALE
  5
371
102
{ACAD_REACTORS
330
350
102
}
330
350
100
AcDbScale
 70
     0
300
1'-0" = 1'-0"
140
12.0
141
12.0
290
     0
  0
VISUALSTYLE
  5
2F
102
{ACAD_REACTORS
330
2A
102
}
102
{ACAD_XDICTIONARY
360
ACA
102
}
330
2A
100
AcDbVisualStyle
  2
2dWireframe
 70
     4
 71
     0
 72
     2
 73
     0
 90
        0
 40
-0.6
 41
-30.0
 62
     5
 63
     7
 74
     1
 91
        4
 64
     7
 65
   257
 75
     1
175
     1
 42
1.0
 92
        0
 66
   257
 43
1.0
 76
     1
 77
     6
 78
     2
 67
     7
 79
     5
170
     0
171
     0
290
     0
174
     0
 93
        1
 44
0.0
173
     0
291
     0
 45
0.0
1001
ACAD
1000
AcDbSavedByObjectVersion
1070
     0
  0
VISUALSTYLE
  5
31
102
{ACAD_REACTORS
330
2A
102
}
102
{ACAD_XDICTIONARY
360
ACE
102
}
330
2A
100
AcDbVisualStyle
  2
3D Hidden
 70
     6
 71
     1
 72
     2
 73
     2
 90
        0
 40
-0.6
 41
-30.0
 62
     5
 63
     7
 74
     2
 91
        2
 64
     7
 65
   257
 75
     2
175
     1
 42
40.0
 92
        0
 66
   257
 43
1.0
 76
     1
 77
     6
 78
     2
 67
     7
 79
     3
170
     0
171
     0
290
     0
174
     0
 93
        1
 44
0.0
173
     0
291
     0
 45
0.0
1001
ACAD
1000
AcDbSavedByObjectVersion
1070
     0
  0
VISUALSTYLE
  5
30
102
{ACAD_REACTORS
330
2A
102
}
102
{ACAD_XDICTIONARY
360
ACC
102
}
330
2A
100
AcDbVisualStyle
  2
3dWireframe
 70
     5
 71
     0
 72
     2
 73
     0
 90
        0
 40
-0.6
 41
-30.0
 62
     5
 63
     7
 74
     1
 91
        4
 64
     7
 65
   257
 75
     1
175
     1
 42
1.0
 92
        0
 66
   257
 43
1.0
 76
     1
 77
     6
 78
     2
 67
     7
 79
     5
170
     0
171
     0
290
     0
174
     0
 93
        1
 44
0.0
173
     0
291
     0
 45
0.0
1001
ACAD
1000
AcDbSavedByObjectVersion
1070
     0
  0
VISUALSTYLE
  5
32
102
{ACAD_REACTORS
330
2A
102
}
102
{ACAD_XDICTIONARY
360
AD0
102
}
330
2A
100
AcDbVisualStyle
  2
Basic
 70
     7
 71
     1
 72
     0
 73
     1
 90
        0
 40
-0.6
 41
-30.0
 62
     5
 63
     7
 74
     0
 91
        4
 64
     7
 65
   257
 75
     1
175
     1
 42
1.0
 92
        8
 66
     7
 43
1.0
 76
     1
 77
     6
 78
     2
 67
     7
 79
     5
170
     0
171
     0
290
     0
174
     0
 93
        1
 44
0.0
173
     0
291
     1
 45
0.0
1001
ACAD
1000
AcDbSavedByObjectVersion
1070
     0
  0
VISUALSTYLE
  5
36
102
{ACAD_REACTORS
330
2A
102
}
102
{ACAD_XDICTIONARY
360
AD8
102
}
330
2A
100
AcDbVisualStyle
  2
Brighten
 70
    12
 71
     2
 72
     2
 73
     0
 90
        0
 40
-0.6
 41
-30.0
 62
     5
 63
     7
 74
     1
 91
        4
 64
     7
 65
   257
 75
     1
175
     1
 42
1.0
 92
        8
 66
     7
 43
1.0
 76
     1
 77
     6
 78
     2
 67
     7
 79
     5
170
     0
171
     0
290
     0
174
     0
 93
        1
 44
50.0
173
     0
291
     1
 45
0.0
1001
ACAD
1000
AcDbSavedByObjectVersion
1070
     0
  0
VISUALSTYLE
  5
3A
102
{ACAD_REACTORS
330
2A
102
}
102
{ACAD_XDICTIONARY
360
AE0
102
}
330
2A
100
AcDbVisualStyle
  2
ColorChange
 70
    16
 71
     2
 72
     2
 73
     3
 90
        0
 40
-0.6
 41
-30.0
 62
     5
 63
     8
 74
     1
 91
        4
 64
     7
 65
   257
 75
     1
175
     1
 42
1.0
 92
        8
 66
     8
 43
1.0
 76
     1
 77
     6
 78
     2
 67
     7
 79
     5
170
     0
171
     0
290
     0
174
     0
 93
        1
 44
0.0
173
     0
291
     1
 45
0.0
1001
ACAD
1000
AcDbSavedByObjectVersion
1070
     0
  0
VISUALSTYLE
  5
34
102
{ACAD_REACTORS
330
2A
102
}
102
{ACAD_XDICTIONARY
360
AD4
102
}
330
2A
100
AcDbVisualStyle
  2
Conceptual
 70
     9
 71
     3
 72
     2
 73
     0
 90
        0
 40
-0.6
 41
-30.0
 62
     5
 63
     7
 74
     2
 91
        2
 64
     7
 65
   257
 75
     1
175
     1
 42
40.0
 92
        8
 66
     7
 43
1.0
 76
     1
 77
     6
 78
     2
 67
     7
 79
     3
170
     0
171
     0
290
     0
174
     0
 93
        1
 44
0.0
173
     0
291
     0
 45
0.0
1001
ACAD
1000
AcDbSavedByObjectVersion
1070
     0
  0
VISUALSTYLE
  5
35
102
{ACAD_REACTORS
330
2A
102
}
102
{ACAD_XDICTIONARY
360
AD6
102
}
330
2A
100
AcDbVisualStyle
  2
Dim
 70
    11
 71
     2
 72
     2
 73
     0
 90
        0
 40
-0.6
 41
-30.0
 62
     5
 63
     7
 74
     1
 91
        4
 64
     7
 65
   257
 75
     1
175
     1
 42
1.0
 92
        8
 66
     7
 43
1.0
 76
     1
 77
     6
 78
     2
 67
     7
 79
     5
170
     0
171
     0
290
     0
174
     0
 93
        1
 44
-50.0
173
     0
291
     1
 45
0.0
1001
ACAD
1000
AcDbSavedByObjectVersion
1070
     0
  0
VISUALSTYLE
  5
39
102
{ACAD_REACTORS
330
2A
102
}
102
{ACAD_XDICTIONARY
360
ADE
102
}
330
2A
100
AcDbVisualStyle
  2
Facepattern
 70
    15
 71
     2
 72
     2
 73
     0
 90
        0
 40
-0.6
 41
-30.0
 62
     5
 63
     7
 74
     1
 91
        4
 64
     7
 65
   257
 75
     1
175
     1
 42
1.0
 92
        8
 66
     7
 43
1.0
 76
     1
 77
     6
 78
     2
 67
     7
 79
     5
170
     0
171
     0
290
     0
174
     0
 93
        1
 44
0.0
173
     0
291
     1
 45
0.0
1001
ACAD
1000
AcDbSavedByObjectVersion
1070
     0
  0
VISUALSTYLE
  5
2B
102
{ACAD_REACTORS
330
2A
102
}
102
{ACAD_XDICTIONARY
360
AC2
102
}
330
2A
100
AcDbVisualStyle
  2
Flat
 70
     0
 71
     2
 72
     1
 73
     1
 90
        2
 40
-0.6
 41
30.0
 62
     5
 63
     7
 74
     0
 91
        4
 64
     7
 65
   257
 75
     1
175
     1
 42
1.0
 92
        8
 66
     7
 43
1.0
 76
     1
 77
     6
 78
     2
 67
     7
 79
     5
170
     0
171
     0
290
     0
174
     0
 93
       13
 44
0.0
173
     0
291
     1
 45
0.0
1001
ACAD
1000
AcDbSavedByObjectVersion
1070
     0
  0
VISUALSTYLE
  5
2C
102
{ACAD_REACTORS
330
2A
102
}
102
{ACAD_XDICTIONARY
360
AC4
102
}
330
2A
100
AcDbVisualStyle
  2
FlatWithEdges
 70
     1
 71
     2
 72
     1
 73
     1
 90
        2
 40
-0.6
 41
30.0
 62
     5
 63
     7
 74
     1
 91
        4
 64
     7
 65
   257
 75
     1
175
     1
 42
1.0
 92
        0
 66
   257
 43
1.0
 76
     1
 77
     6
 78
     2
 67
     7
 79
     5
170
     0
171
     0
290
     0
174
     0
 93
       13
 44
0.0
173
     0
291
     1
 45
0.0
1001
ACAD
1000
AcDbSavedByObjectVersion
1070
     0
  0
VISUALSTYLE
  5
2D
102
{ACAD_REACTORS
330
2A
102
}
102
{ACAD_XDICTIONARY
360
AC6
102
}
330
2A
100
AcDbVisualStyle
  2
Gouraud
 70
     2
 71
     2
 72
     2
 73
     1
 90
        2
 40
-0.6
 41
30.0
 62
     5
 63
     7
 74
     0
 91
        4
 64
     7
 65
   257
 75
     1
175
     1
 42
1.0
 92
        0
 66
     7
 43
1.0
 76
     1
 77
     6
 78
     2
 67
     7
 79
     5
170
     0
171
     0
290
     0
174
     0
 93
       13
 44
0.0
173
     0
291
     1
 45
0.0
1001
ACAD
1000
AcDbSavedByObjectVersion
1070
     0
  0
VISUALSTYLE
  5
2E
102
{ACAD_REACTORS
330
2A
102
}
102
{ACAD_XDICTIONARY
360
AC8
102
}
330
2A
100
AcDbVisualStyle
  2
GouraudWithEdges
 70
     3
 71
     2
 72
     2
 73
     1
 90
        2
 40
-0.6
 41
30.0
 62
     5
 63
     7
 74
     1
 91
        4
 64
     7
 65
   257
 75
     1
175
     1
 42
1.0
 92
        0
 66
   257
 43
1.0
 76
     1
 77
     6
 78
     2
 67
     7
 79
     5
170
     0
171
     0
290
     0
174
     0
 93
       13
 44
0.0
173
     0
291
     1
 45
0.0
1001
ACAD
1000
AcDbSavedByObjectVersion
1070
     0
  0
VISUALSTYLE
  5
38
102
{ACAD_REACTORS
330
2A
102
}
102
{ACAD_XDICTIONARY
360
ADC
102
}
330
2A
100
AcDbVisualStyle
  2
Linepattern
 70
    14
 71
     2
 72
     2
 73
     0
 90
        0
 40
-0.6
 41
-30.0
 62
     5
 63
     7
 74
     1
 91
        4
 64
     7
 65
   257
 75
     7
175
     7
 42
1.0
 92
        8
 66
     7
 43
1.0
 76
     1
 77
     6
 78
     2
 67
     7
 79
     5
170
     0
171
     0
290
     0
174
     0
 93
        1
 44
0.0
173
     0
291
     1
 45
0.0
1001
ACAD
1000
AcDbSavedByObjectVersion
1070
     0
  0
VISUALSTYLE
  5
33
102
{ACAD_REACTORS
330
2A
102
}
102
{ACAD_XDICTIONARY
360
AD2
102
}
330
2A
100
AcDbVisualStyle
  2
Realistic
 70
     8
 71
     2
 72
     2
 73
     0
 90
        0
 40
-0.6
 41
-30.0
 62
     5
 63
     7
 74
     1
 91
        0
 64
     7
 65
   257
 75
     1
175
     1
 42
1.0
 92
        8
 66
     8
 43
1.0
 76
     1
 77
     6
 78
     2
 67
     7
 79
     5
170
     0
171
     0
290
     0
174
     0
 93
       13
 44
0.0
173
     0
291
     0
 45
0.0
1001
ACAD
1000
AcDbSavedByObjectVersion
1070
     0
  0
VISUALSTYLE
  5
37
102
{ACAD_REACTORS
330
2A
102
}
102
{ACAD_XDICTIONARY
360
ADA
102
}
330
2A
100
AcDbVisualStyle
  2
Thicken
 70
    13
 71
     2
 72
     2
 73
     0
 90
        0
 40
-0.6
 41
-30.0
 62
     5
 63
     7
 74
     1
 91
        4
 64
     7
 65
   257
 75
     1
175
     1
 42
1.0
 92
       12
 66
     7
 43
1.0
 76
     1
 77
     6
 78
     2
 67
     7
 79
     5
170
     0
171
     0
290
     0
174
     0
 93
        1
 44
0.0
173
     0
291
     1
 45
0.0
1001
ACAD
1000
AcDbSavedByObjectVersion
1070
     0
  0
DICTIONARYVAR
  5
ABF
102
{ACAD_REACTORS
330
ABA
102
}
330
ABA
100
DictionaryVariables
280
     0
  1
1:1
  0
DICTIONARYVAR
  5
AC0
102
{ACAD_REACTORS
330
ABA
102
}
330
ABA
100
DictionaryVariables
280
     0
  1
2
  0
DICTIONARYVAR
  5
AC1
102
{ACAD_REACTORS
330
ABA
102
}
330
ABA
100
DictionaryVariables
280
     0
  1
1
  0
DICTIONARYVAR
  5
ABE
102
{ACAD_REACTORS
330
ABA
102
}
330
ABA
100
DictionaryVariables
280
     0
  1
80.000000
  0
DICTIONARYVAR
  5
ABD
102
{ACAD_REACTORS
330
ABA
102
}
330
ABA
100
DictionaryVariables
280
     0
  1
5.000000
  0
DICTIONARY
  5
AE4
330
3D
100
AcDbDictionary
280
     1
281
     1
  3
ACAD_XREC_ROUNDTRIP
360
AE5
  0
DICTIONARY
  5
AE2
330
3C
100
AcDbDictionary
280
     1
281
     1
  3
ACAD_XREC_ROUNDTRIP
360
AE3
  0
DICTIONARY
  5
AE6
330
3E
100
AcDbDictionary
280
     1
281
     1
  3
ACAD_XREC_ROUNDTRIP
360
AE7
  0
DICTIONARY
  5
ACA
330
2F
100
AcDbDictionary
280
     1
281
     1
  3
ACAD_XREC_ROUNDTRIP
360
ACB
  0
DICTIONARY
  5
ACE
330
31
100
AcDbDictionary
280
     1
281
     1
  3
ACAD_XREC_ROUNDTRIP
360
ACF
  0
DICTIONARY
  5
ACC
330
30
100
AcDbDictionary
280
     1
281
     1
  3
ACAD_XREC_ROUNDTRIP
360
ACD
  0
DICTIONARY
  5
AD0
330
32
100
AcDbDictionary
280
     1
281
     1
  3
ACAD_XREC_ROUNDTRIP
360
AD1
  0
DICTIONARY
  5
AD8
330
36
100
AcDbDictionary
280
     1
281
     1
  3
ACAD_XREC_ROUNDTRIP
360
AD9
  0
DICTIONARY
  5
AE0
330
3A
100
AcDbDictionary
280
     1
281
     1
  3
ACAD_XREC_ROUNDTRIP
360
AE1
  0
DICTIONARY
  5
AD4
330
34
100
AcDbDictionary
280
     1
281
     1
  3
ACAD_XREC_ROUNDTRIP
360
AD5
  0
DICTIONARY
  5
AD6
330
35
100
AcDbDictionary
280
     1
281
     1
  3
ACAD_XREC_ROUNDTRIP
360
AD7
  0
DICTIONARY
  5
ADE
330
39
100
AcDbDictionary
280
     1
281
     1
  3
ACAD_XREC_ROUNDTRIP
360
ADF
  0
DICTIONARY
  5
AC2
330
2B
100
AcDbDictionary
280
     1
281
     1
  3
ACAD_XREC_ROUNDTRIP
360
AC3
  0
DICTIONARY
  5
AC4
330
2C
100
AcDbDictionary
280
     1
281
     1
  3
ACAD_XREC_ROUNDTRIP
360
AC5
  0
DICTIONARY
  5
AC6
330
2D
100
AcDbDictionary
280
     1
281
     1
  3
ACAD_XREC_ROUNDTRIP
360
AC7
  0
DICTIONARY
  5
AC8
330
2E
100
AcDbDictionary
280
     1
281
     1
  3
ACAD_XREC_ROUNDTRIP
360
AC9
  0
DICTIONARY
  5
ADC
330
38
100
AcDbDictionary
280
     1
281
     1
  3
ACAD_XREC_ROUNDTRIP
360
ADD
  0
DICTIONARY
  5
AD2
330
33
100
AcDbDictionary
280
     1
281
     1
  3
ACAD_XREC_ROUNDTRIP
360
AD3
  0
DICTIONARY
  5
ADA
330
37
100
AcDbDictionary
280
     1
281
     1
  3
ACAD_XREC_ROUNDTRIP
360
ADB
  0
XRECORD
  5
AE5
102
{ACAD_REACTORS
330
AE4
102
}
330
AE4
100
AcDbXrecord
280
     1
102
MATERIAL
148
0.0
149
0.0
149
0.0
 93
        0
 94
      127
282
     0
 72
     1
 77
     1
171
     1
175
     1
179
     1
273
     0
  0
XRECORD
  5
AE3
102
{ACAD_REACTORS
330
AE2
102
}
330
AE2
100
AcDbXrecord
280
     1
102
MATERIAL
148
0.0
149
0.0
149
0.0
 93
        0
 94
      127
282
     0
 72
     1
 77
     1
171
     1
175
     1
179
     1
273
     0
  0
XRECORD
  5
AE7
102
{ACAD_REACTORS
330
AE6
102
}
330
AE6
100
AcDbXrecord
280
     1
102
MATERIAL
148
0.0
149
0.0
149
0.0
 93
        0
 94
      127
282
     0
 72
     1
 77
     1
171
     1
175
     1
179
     1
273
     0
  0
XRECORD
  5
ACB
102
{ACAD_REACTORS
330
ACA
102
}
330
ACA
100
AcDbXrecord
280
     1
102
RTVSPropertyOp0
 70
     1
102
RTVSPropertyOp1
 70
     1
102
RTVSPropertyOp2
 70
     1
102
RTVSPropertyOp3
 70
     1
102
RTVSPropertyOp4
 70
     1
102
RTVSPropertyOp5
 70
     1
102
RTVSPropertyOp6
 70
     1
102
RTVSPropertyOp7
 70
     1
102
RTVSPropertyOp8
 70
     1
102
RTVSPropertyOp9
 70
     1
102
RTVSPropertyOp10
 70
     1
102
RTVSPropertyOp11
 70
     1
102
RTVSPropertyOp12
 70
     1
102
RTVSPropertyOp13
 70
     1
102
RTVSPropertyOp14
 70
     1
102
RTVSPropertyOp15
 70
     1
102
RTVSPropertyOp16
 70
     1
102
RTVSPropertyOp17
 70
     1
102
RTVSPropertyOp18
 70
     1
102
RTVSPropertyOp19
 70
     1
102
RTVSPropertyOp20
 70
     1
102
RTVSPropertyOp21
 70
     1
102
RTVSPropertyOp22
 70
     1
102
RTVSPropertyOp23
 70
     1
102
RTVSPropertyOp24
 70
     1
102
RTVSPropertyOp25
 70
     1
102
RTVSPropertyOp26
 70
     1
102
RTVSPropertyOp27
 70
     1
  0
XRECORD
  5
ACF
102
{ACAD_REACTORS
330
ACE
102
}
330
ACE
100
AcDbXrecord
280
     1
102
RTVSPropertyOp0
 70
     1
102
RTVSPropertyOp1
 70
     1
102
RTVSPropertyOp2
 70
     1
102
RTVSPropertyOp3
 70
     1
102
RTVSPropertyOp4
 70
     1
102
RTVSPropertyOp5
 70
     1
102
RTVSPropertyOp6
 70
     1
102
RTVSPropertyOp7
 70
     1
102
RTVSPropertyOp8
 70
     1
102
RTVSPropertyOp9
 70
     1
102
RTVSPropertyOp10
 70
     1
102
RTVSPropertyOp11
 70
     1
102
RTVSPropertyOp12
 70
     1
102
RTVSPropertyOp13
 70
     1
102
RTVSPropertyOp14
 70
     1
102
RTVSPropertyOp15
 70
     1
102
RTVSPropertyOp16
 70
     1
102
RTVSPropertyOp17
 70
     1
102
RTVSPropertyOp18
 70
     1
102
RTVSPropertyOp19
 70
     1
102
RTVSPropertyOp20
 70
     1
102
RTVSPropertyOp21
 70
     1
102
RTVSPropertyOp22
 70
     1
102
RTVSPropertyOp23
 70
     1
102
RTVSPropertyOp24
 70
     1
102
RTVSPropertyOp25
 70
     1
102
RTVSPropertyOp26
 70
     1
102
RTVSPropertyOp27
 70
     1
  0
XRECORD
  5
ACD
102
{ACAD_REACTORS
330
ACC
102
}
330
ACC
100
AcDbXrecord
280
     1
102
RTVSPropertyOp0
 70
     1
102
RTVSPropertyOp1
 70
     1
102
RTVSPropertyOp2
 70
     1
102
RTVSPropertyOp3
 70
     1
102
RTVSPropertyOp4
 70
     1
102
RTVSPropertyOp5
 70
     1
102
RTVSPropertyOp6
 70
     1
102
RTVSPropertyOp7
 70
     1
102
RTVSPropertyOp8
 70
     1
102
RTVSPropertyOp9
 70
     1
102
RTVSPropertyOp10
 70
     1
102
RTVSPropertyOp11
 70
     1
102
RTVSPropertyOp12
 70
     1
102
RTVSPropertyOp13
 70
     1
102
RTVSPropertyOp14
 70
     1
102
RTVSPropertyOp15
 70
     1
102
RTVSPropertyOp16
 70
     1
102
RTVSPropertyOp17
 70
     1
102
RTVSPropertyOp18
 70
     1
102
RTVSPropertyOp19
 70
     1
102
RTVSPropertyOp20
 70
     1
102
RTVSPropertyOp21
 70
     1
102
RTVSPropertyOp22
 70
     1
102
RTVSPropertyOp23
 70
     1
102
RTVSPropertyOp24
 70
     1
102
RTVSPropertyOp25
 70
     1
102
RTVSPropertyOp26
 70
     1
102
RTVSPropertyOp27
 70
     1
  0
XRECORD
  5
AD1
102
{ACAD_REACTORS
330
AD0
102
}
330
AD0
100
AcDbXrecord
280
     1
102
RTVSPropertyOp0
 70
     1
102
RTVSPropertyOp1
 70
     1
102
RTVSPropertyOp2
 70
     1
102
RTVSPropertyOp3
 70
     1
102
RTVSPropertyOp4
 70
     1
102
RTVSPropertyOp5
 70
     1
102
RTVSPropertyOp6
 70
     1
102
RTVSPropertyOp7
 70
     1
102
RTVSPropertyOp8
 70
     1
102
RTVSPropertyOp9
 70
     1
102
RTVSPropertyOp10
 70
     1
102
RTVSPropertyOp11
 70
     1
102
RTVSPropertyOp12
 70
     1
102
RTVSPropertyOp13
 70
     1
102
RTVSPropertyOp14
 70
     1
102
RTVSPropertyOp15
 70
     1
102
RTVSPropertyOp16
 70
     1
102
RTVSPropertyOp17
 70
     1
102
RTVSPropertyOp18
 70
     1
102
RTVSPropertyOp19
 70
     1
102
RTVSPropertyOp20
 70
     1
102
RTVSPropertyOp21
 70
     1
102
RTVSPropertyOp22
 70
     1
102
RTVSPropertyOp23
 70
     1
102
RTVSPropertyOp24
 70
     1
102
RTVSPropertyOp25
 70
     1
102
RTVSPropertyOp26
 70
     1
102
RTVSPropertyOp27
 70
     1
  0
XRECORD
  5
AD9
102
{ACAD_REACTORS
330
AD8
102
}
330
AD8
100
AcDbXrecord
280
     1
102
RTVSPropertyOp0
 70
     1
102
RTVSPropertyOp1
 70
     1
102
RTVSPropertyOp2
 70
     1
102
RTVSPropertyOp3
 70
     1
102
RTVSPropertyOp4
 70
     1
102
RTVSPropertyOp5
 70
     1
102
RTVSPropertyOp6
 70
     1
102
RTVSPropertyOp7
 70
     1
102
RTVSPropertyOp8
 70
     1
102
RTVSPropertyOp9
 70
     1
102
RTVSPropertyOp10
 70
     1
102
RTVSPropertyOp11
 70
     1
102
RTVSPropertyOp12
 70
     1
102
RTVSPropertyOp13
 70
     1
102
RTVSPropertyOp14
 70
     1
102
RTVSPropertyOp15
 70
     1
102
RTVSPropertyOp16
 70
     1
102
RTVSPropertyOp17
 70
     1
102
RTVSPropertyOp18
 70
     1
102
RTVSPropertyOp19
 70
     1
102
RTVSPropertyOp20
 70
     1
102
RTVSPropertyOp21
 70
     1
102
RTVSPropertyOp22
 70
     1
102
RTVSPropertyOp23
 70
     1
102
RTVSPropertyOp24
 70
     1
102
RTVSPropertyOp25
 70
     1
102
RTVSPropertyOp26
 70
     1
102
RTVSPropertyOp27
 70
     1
  0
XRECORD
  5
AE1
102
{ACAD_REACTORS
330
AE0
102
}
330
AE0
100
AcDbXrecord
280
     1
102
RTVSPropertyOp0
 70
     1
102
RTVSPropertyOp1
 70
     1
102
RTVSPropertyOp2
 70
     1
102
RTVSPropertyOp3
 70
     1
102
RTVSPropertyOp4
 70
     1
102
RTVSPropertyOp5
 70
     1
102
RTVSPropertyOp6
 70
     1
102
RTVSPropertyOp7
 70
     1
102
RTVSPropertyOp8
 70
     1
102
RTVSPropertyOp9
 70
     1
102
RTVSPropertyOp10
 70
     1
102
RTVSPropertyOp11
 70
     1
102
RTVSPropertyOp12
 70
     1
102
RTVSPropertyOp13
 70
     1
102
RTVSPropertyOp14
 70
     1
102
RTVSPropertyOp15
 70
     1
102
RTVSPropertyOp16
 70
     1
102
RTVSPropertyOp17
 70
     1
102
RTVSPropertyOp18
 70
     1
102
RTVSPropertyOp19
 70
     1
102
RTVSPropertyOp20
 70
     1
102
RTVSPropertyOp21
 70
     1
102
RTVSPropertyOp22
 70
     1
102
RTVSPropertyOp23
 70
     1
102
RTVSPropertyOp24
 70
     1
102
RTVSPropertyOp25
 70
     1
102
RTVSPropertyOp26
 70
     1
102
RTVSPropertyOp27
 70
     1
  0
XRECORD
  5
AD5
102
{ACAD_REACTORS
330
AD4
102
}
330
AD4
100
AcDbXrecord
280
     1
102
RTVSPropertyOp0
 70
     1
102
RTVSPropertyOp1
 70
     1
102
RTVSPropertyOp2
 70
     1
102
RTVSPropertyOp3
 70
     1
102
RTVSPropertyOp4
 70
     1
102
RTVSPropertyOp5
 70
     1
102
RTVSPropertyOp6
 70
     1
102
RTVSPropertyOp7
 70
     1
102
RTVSPropertyOp8
 70
     1
102
RTVSPropertyOp9
 70
     1
102
RTVSPropertyOp10
 70
     1
102
RTVSPropertyOp11
 70
     1
102
RTVSPropertyOp12
 70
     1
102
RTVSPropertyOp13
 70
     1
102
RTVSPropertyOp14
 70
     1
102
RTVSPropertyOp15
 70
     1
102
RTVSPropertyOp16
 70
     1
102
RTVSPropertyOp17
 70
     1
102
RTVSPropertyOp18
 70
     1
102
RTVSPropertyOp19
 70
     1
102
RTVSPropertyOp20
 70
     1
102
RTVSPropertyOp21
 70
     1
102
RTVSPropertyOp22
 70
     1
102
RTVSPropertyOp23
 70
     1
102
RTVSPropertyOp24
 70
     1
102
RTVSPropertyOp25
 70
     1
102
RTVSPropertyOp26
 70
     1
102
RTVSPropertyOp27
 70
     1
  0
XRECORD
  5
AD7
102
{ACAD_REACTORS
330
AD6
102
}
330
AD6
100
AcDbXrecord
280
     1
102
RTVSPropertyOp0
 70
     1
102
RTVSPropertyOp1
 70
     1
102
RTVSPropertyOp2
 70
     1
102
RTVSPropertyOp3
 70
     1
102
RTVSPropertyOp4
 70
     1
102
RTVSPropertyOp5
 70
     1
102
RTVSPropertyOp6
 70
     1
102
RTVSPropertyOp7
 70
     1
102
RTVSPropertyOp8
 70
     1
102
RTVSPropertyOp9
 70
     1
102
RTVSPropertyOp10
 70
     1
102
RTVSPropertyOp11
 70
     1
102
RTVSPropertyOp12
 70
     1
102
RTVSPropertyOp13
 70
     1
102
RTVSPropertyOp14
 70
     1
102
RTVSPropertyOp15
 70
     1
102
RTVSPropertyOp16
 70
     1
102
RTVSPropertyOp17
 70
     1
102
RTVSPropertyOp18
 70
     1
102
RTVSPropertyOp19
 70
     1
102
RTVSPropertyOp20
 70
     1
102
RTVSPropertyOp21
 70
     1
102
RTVSPropertyOp22
 70
     1
102
RTVSPropertyOp23
 70
     1
102
RTVSPropertyOp24
 70
     1
102
RTVSPropertyOp25
 70
     1
102
RTVSPropertyOp26
 70
     1
102
RTVSPropertyOp27
 70
     1
  0
XRECORD
  5
ADF
102
{ACAD_REACTORS
330
ADE
102
}
330
ADE
100
AcDbXrecord
280
     1
102
RTVSPropertyOp0
 70
     1
102
RTVSPropertyOp1
 70
     1
102
RTVSPropertyOp2
 70
     1
102
RTVSPropertyOp3
 70
     1
102
RTVSPropertyOp4
 70
     1
102
RTVSPropertyOp5
 70
     1
102
RTVSPropertyOp6
 70
     1
102
RTVSPropertyOp7
 70
     1
102
RTVSPropertyOp8
 70
     1
102
RTVSPropertyOp9
 70
     1
102
RTVSPropertyOp10
 70
     1
102
RTVSPropertyOp11
 70
     1
102
RTVSPropertyOp12
 70
     1
102
RTVSPropertyOp13
 70
     1
102
RTVSPropertyOp14
 70
     1
102
RTVSPropertyOp15
 70
     1
102
RTVSPropertyOp16
 70
     1
102
RTVSPropertyOp17
 70
     1
102
RTVSPropertyOp18
 70
     1
102
RTVSPropertyOp19
 70
     1
102
RTVSPropertyOp20
 70
     1
102
RTVSPropertyOp21
 70
     1
102
RTVSPropertyOp22
 70
     1
102
RTVSPropertyOp23
 70
     1
102
RTVSPropertyOp24
 70
     1
102
RTVSPropertyOp25
 70
     1
102
RTVSPropertyOp26
 70
     1
102
RTVSPropertyOp27
 70
     1
  0
XRECORD
  5
AC3
102
{ACAD_REACTORS
330
AC2
102
}
330
AC2
100
AcDbXrecord
280
     1
102
RTVSPropertyOp0
 70
     1
102
RTVSPropertyOp1
 70
     1
102
RTVSPropertyOp2
 70
     1
102
RTVSPropertyOp3
 70
     1
102
RTVSPropertyOp4
 70
     1
102
RTVSPropertyOp5
 70
     1
102
RTVSPropertyOp6
 70
     1
102
RTVSPropertyOp7
 70
     1
102
RTVSPropertyOp8
 70
     1
102
RTVSPropertyOp9
 70
     1
102
RTVSPropertyOp10
 70
     1
102
RTVSPropertyOp11
 70
     1
102
RTVSPropertyOp12
 70
     1
102
RTVSPropertyOp13
 70
     1
102
RTVSPropertyOp14
 70
     1
102
RTVSPropertyOp15
 70
     1
102
RTVSPropertyOp16
 70
     1
102
RTVSPropertyOp17
 70
     1
102
RTVSPropertyOp18
 70
     1
102
RTVSPropertyOp19
 70
     1
102
RTVSPropertyOp20
 70
     1
102
RTVSPropertyOp21
 70
     1
102
RTVSPropertyOp22
 70
     1
102
RTVSPropertyOp23
 70
     1
102
RTVSPropertyOp24
 70
     1
102
RTVSPropertyOp25
 70
     1
102
RTVSPropertyOp26
 70
     1
102
RTVSPropertyOp27
 70
     1
  0
XRECORD
  5
AC5
102
{ACAD_REACTORS
330
AC4
102
}
330
AC4
100
AcDbXrecord
280
     1
102
RTVSPropertyOp0
 70
     1
102
RTVSPropertyOp1
 70
     1
102
RTVSPropertyOp2
 70
     1
102
RTVSPropertyOp3
 70
     1
102
RTVSPropertyOp4
 70
     1
102
RTVSPropertyOp5
 70
     1
102
RTVSPropertyOp6
 70
     1
102
RTVSPropertyOp7
 70
     1
102
RTVSPropertyOp8
 70
     1
102
RTVSPropertyOp9
 70
     1
102
RTVSPropertyOp10
 70
     1
102
RTVSPropertyOp11
 70
     1
102
RTVSPropertyOp12
 70
     1
102
RTVSPropertyOp13
 70
     1
102
RTVSPropertyOp14
 70
     1
102
RTVSPropertyOp15
 70
     1
102
RTVSPropertyOp16
 70
     1
102
RTVSPropertyOp17
 70
     1
102
RTVSPropertyOp18
 70
     1
102
RTVSPropertyOp19
 70
     1
102
RTVSPropertyOp20
 70
     1
102
RTVSPropertyOp21
 70
     1
102
RTVSPropertyOp22
 70
     1
102
RTVSPropertyOp23
 70
     1
102
RTVSPropertyOp24
 70
     1
102
RTVSPropertyOp25
 70
     1
102
RTVSPropertyOp26
 70
     1
102
RTVSPropertyOp27
 70
     1
  0
XRECORD
  5
AC7
102
{ACAD_REACTORS
330
AC6
102
}
330
AC6
100
AcDbXrecord
280
     1
102
RTVSPropertyOp0
 70
     1
102
RTVSPropertyOp1
 70
     1
102
RTVSPropertyOp2
 70
     1
102
RTVSPropertyOp3
 70
     1
102
RTVSPropertyOp4
 70
     1
102
RTVSPropertyOp5
 70
     1
102
RTVSPropertyOp6
 70
     1
102
RTVSPropertyOp7
 70
     1
102
RTVSPropertyOp8
 70
     1
102
RTVSPropertyOp9
 70
     1
102
RTVSPropertyOp10
 70
     1
102
RTVSPropertyOp11
 70
     1
102
RTVSPropertyOp12
 70
     1
102
RTVSPropertyOp13
 70
     1
102
RTVSPropertyOp14
 70
     1
102
RTVSPropertyOp15
 70
     1
102
RTVSPropertyOp16
 70
     1
102
RTVSPropertyOp17
 70
     1
102
RTVSPropertyOp18
 70
     1
102
RTVSPropertyOp19
 70
     1
102
RTVSPropertyOp20
 70
     1
102
RTVSPropertyOp21
 70
     1
102
RTVSPropertyOp22
 70
     1
102
RTVSPropertyOp23
 70
     1
102
RTVSPropertyOp24
 70
     1
102
RTVSPropertyOp25
 70
     1
102
RTVSPropertyOp26
 70
     1
102
RTVSPropertyOp27
 70
     1
  0
XRECORD
  5
AC9
102
{ACAD_REACTORS
330
AC8
102
}
330
AC8
100
AcDbXrecord
280
     1
102
RTVSPropertyOp0
 70
     1
102
RTVSPropertyOp1
 70
     1
102
RTVSPropertyOp2
 70
     1
102
RTVSPropertyOp3
 70
     1
102
RTVSPropertyOp4
 70
     1
102
RTVSPropertyOp5
 70
     1
102
RTVSPropertyOp6
 70
     1
102
RTVSPropertyOp7
 70
     1
102
RTVSPropertyOp8
 70
     1
102
RTVSPropertyOp9
 70
     1
102
RTVSPropertyOp10
 70
     1
102
RTVSPropertyOp11
 70
     1
102
RTVSPropertyOp12
 70
     1
102
RTVSPropertyOp13
 70
     1
102
RTVSPropertyOp14
 70
     1
102
RTVSPropertyOp15
 70
     1
102
RTVSPropertyOp16
 70
     1
102
RTVSPropertyOp17
 70
     1
102
RTVSPropertyOp18
 70
     1
102
RTVSPropertyOp19
 70
     1
102
RTVSPropertyOp20
 70
     1
102
RTVSPropertyOp21
 70
     1
102
RTVSPropertyOp22
 70
     1
102
RTVSPropertyOp23
 70
     1
102
RTVSPropertyOp24
 70
     1
102
RTVSPropertyOp25
 70
     1
102
RTVSPropertyOp26
 70
     1
102
RTVSPropertyOp27
 70
     1
  0
XRECORD
  5
ADD
102
{ACAD_REACTORS
330
ADC
102
}
330
ADC
100
AcDbXrecord
280
     1
102
RTVSPropertyOp0
 70
     1
102
RTVSPropertyOp1
 70
     1
102
RTVSPropertyOp2
 70
     1
102
RTVSPropertyOp3
 70
     1
102
RTVSPropertyOp4
 70
     1
102
RTVSPropertyOp5
 70
     1
102
RTVSPropertyOp6
 70
     1
102
RTVSPropertyOp7
 70
     1
102
RTVSPropertyOp8
 70
     1
102
RTVSPropertyOp9
 70
     1
102
RTVSPropertyOp10
 70
     1
102
RTVSPropertyOp11
 70
     1
102
RTVSPropertyOp12
 70
     1
102
RTVSPropertyOp13
 70
     1
102
RTVSPropertyOp14
 70
     1
102
RTVSPropertyOp15
 70
     1
102
RTVSPropertyOp16
 70
     1
102
RTVSPropertyOp17
 70
     1
102
RTVSPropertyOp18
 70
     1
102
RTVSPropertyOp19
 70
     1
102
RTVSPropertyOp20
 70
     1
102
RTVSPropertyOp21
 70
     1
102
RTVSPropertyOp22
 70
     1
102
RTVSPropertyOp23
 70
     1
102
RTVSPropertyOp24
 70
     1
102
RTVSPropertyOp25
 70
     1
102
RTVSPropertyOp26
 70
     1
102
RTVSPropertyOp27
 70
     1
  0
XRECORD
  5
AD3
102
{ACAD_REACTORS
330
AD2
102
}
330
AD2
100
AcDbXrecord
280
     1
102
RTVSPropertyOp0
 70
     1
102
RTVSPropertyOp1
 70
     1
102
RTVSPropertyOp2
 70
     1
102
RTVSPropertyOp3
 70
     1
102
RTVSPropertyOp4
 70
     1
102
RTVSPropertyOp5
 70
     1
102
RTVSPropertyOp6
 70
     1
102
RTVSPropertyOp7
 70
     1
102
RTVSPropertyOp8
 70
     1
102
RTVSPropertyOp9
 70
     1
102
RTVSPropertyOp10
 70
     1
102
RTVSPropertyOp11
 70
     1
102
RTVSPropertyOp12
 70
     1
102
RTVSPropertyOp13
 70
     1
102
RTVSPropertyOp14
 70
     1
102
RTVSPropertyOp15
 70
     1
102
RTVSPropertyOp16
 70
     1
102
RTVSPropertyOp17
 70
     1
102
RTVSPropertyOp18
 70
     1
102
RTVSPropertyOp19
 70
     1
102
RTVSPropertyOp20
 70
     1
102
RTVSPropertyOp21
 70
     1
102
RTVSPropertyOp22
 70
     1
102
RTVSPropertyOp23
 70
     1
102
RTVSPropertyOp24
 70
     1
102
RTVSPropertyOp25
 70
     1
102
RTVSPropertyOp26
 70
     1
102
RTVSPropertyOp27
 70
     1
  0
XRECORD
  5
ADB
102
{ACAD_REACTORS
330
ADA
102
}
330
ADA
100
AcDbXrecord
280
     1
102
RTVSPropertyOp0
 70
     1
102
RTVSPropertyOp1
 70
     1
102
RTVSPropertyOp2
 70
     1
102
RTVSPropertyOp3
 70
     1
102
RTVSPropertyOp4
 70
     1
102
RTVSPropertyOp5
 70
     1
102
RTVSPropertyOp6
 70
     1
102
RTVSPropertyOp7
 70
     1
102
RTVSPropertyOp8
 70
     1
102
RTVSPropertyOp9
 70
     1
102
RTVSPropertyOp10
 70
     1
102
RTVSPropertyOp11
 70
     1
102
RTVSPropertyOp12
 70
     1
102
RTVSPropertyOp13
 70
     1
102
RTVSPropertyOp14
 70
     1
102
RTVSPropertyOp15
 70
     1
102
RTVSPropertyOp16
 70
     1
102
RTVSPropertyOp17
 70
     1
102
RTVSPropertyOp18
 70
     1
102
RTVSPropertyOp19
 70
     1
102
RTVSPropertyOp20
 70
     1
102
RTVSPropertyOp21
 70
     1
102
RTVSPropertyOp22
 70
     1
102
RTVSPropertyOp23
 70
     1
102
RTVSPropertyOp24
 70
     1
102
RTVSPropertyOp25
 70
     1
102
RTVSPropertyOp26
 70
     1
102
RTVSPropertyOp27
 70
     1
  0
ENDSEC
  0
EOF
