  0
SECTION
  2
HEADER
  9
$ACADVER
  1
AC1015
  9
$ACADMAINTVER
 70
     6
  9
$DWGCODEPAGE
  3
ANSI_1252
  9
$INSBASE
 10
0.0
 20
0.0
 30
0.0
  9
$EXTMIN
 10
0.0
 20
0.0
 30
0.0
  9
$EXTMAX
 10
25.0
 20
35.0
 30
0.0
  9
$LIMMIN
 10
0.0
 20
0.0
  9
$LIMMAX
 10
420.0
 20
297.0
  9
$ORTHOMODE
 70
     0
  9
$REGENMODE
 70
     1
  9
$FILLMODE
 70
     1
  9
$QTEXTMODE
 70
     0
  9
$MIRRTEXT
 70
     1
  9
$LTSCALE
 40
4.25
  9
$ATTMODE
 70
     1
  9
$TEXTSIZE
 40
2.5
  9
$TRACEWID
 40
1.0
  9
$TEXTSTYLE
  7
Standard
  9
$CLAYER
  8
0
  9
$CELTYPE
  6
ByLayer
  9
$CECOLOR
 62
   256
  9
$CELTSCALE
 40
1.0
  9
$DISPSILH
 70
     0
  9
$DIMSCALE
 40
1.0
  9
$DIMASZ
 40
2.5
  9
$DIMEXO
 40
0.625
  9
$DIMDLI
 40
3.75
  9
$DIMRND
 40
0.0
  9
$DIMDLE
 40
0.0
  9
$DIMEXE
 40
1.25
  9
$DIMTP
 40
0.0
  9
$DIMTM
 40
0.0
  9
$DIMTXT
 40
2.5
  9
$DIMCEN
 40
2.5
  9
$DIMTSZ
 40
0.0
  9
$DIMTOL
 70
     0
  9
$DIMLIM
 70
     0
  9
$DIMTIH
 70
     0
  9
$DIMTOH
 70
     0
  9
$DIMSE1
 70
     0
  9
$DIMSE2
 70
     0
  9
$DIMTAD
 70
     1
  9
$DIMZIN
 70
     8
  9
$DIMBLK
  1

  9
$DIMASO
 70
     1
  9
$DIMSHO
 70
     1
  9
$DIMPOST
  1

  9
$DIMAPOST
  1

  9
$DIMALT
 70
     0
  9
$DIMALTD
 70
     3
  9
$DIMALTF
 40
0.03937007874016
  9
$DIMLFAC
 40
1.0
  9
$DIMTOFL
 70
     1
  9
$DIMTVP
 40
0.0
  9
$DIMTIX
 70
     0
  9
$DIMSOXD
 70
     0
  9
$DIMSAH
 70
     0
  9
$DIMBLK1
  1

  9
$DIMBLK2
  1

  9
$DIMSTYLE
  2
ISO-25
  9
$DIMCLRD
 70
     0
  9
$DIMCLRE
 70
     0
  9
$DIMCLRT
 70
     0
  9
$DIMTFAC
 40
1.0
  9
$DIMGAP
 40
0.625
  9
$DIMJUST
 70
     0
  9
$DIMSD1
 70
     0
  9
$DIMSD2
 70
     0
  9
$DIMTOLJ
 70
     0
  9
$DIMTZIN
 70
     8
  9
$DIMALTZ
 70
     0
  9
$DIMALTTZ
 70
     0
  9
$DIMUPT
 70
     0
  9
$DIMDEC
 70
     2
  9
$DIMTDEC
 70
     2
  9
$DIMALTU
 70
     2
  9
$DIMALTTD
 70
     3
  9
$DIMTXSTY
  7
Standard
  9
$DIMAUNIT
 70
     0
  9
$DIMADEC
 70
     0
  9
$DIMALTRND
 40
0.0
  9
$DIMAZIN
 70
     0
  9
$DIMDSEP
 70
    44
  9
$DIMATFIT
 70
     3
  9
$DIMFRAC
 70
     0
  9
$DIMLDRBLK
  1

  9
$DIMLUNIT
 70
     2
  9
$DIMLWD
 70
    -2
  9
$DIMLWE
 70
    -2
  9
$DIMTMOVE
 70
     0
  9
$LUNITS
 70
     2
  9
$LUPREC
 70
     4
  9
$SKETCHINC
 40
1.0
  9
$FILLETRAD
 40
10.0
  9
$AUNITS
 70
     0
  9
$AUPREC
 70
     0
  9
$MENU
  1
.
  9
$ELEVATION
 40
0.0
  9
$PELEVATION
 40
0.0
  9
$THICKNESS
 40
0.0
  9
$LIMCHECK
 70
     0
  9
$CHAMFERA
 40
10.0
  9
$CHAMFERB
 40
10.0
  9
$CHAMFERC
 40
20.0
  9
$CHAMFERD
 40
0.0
  9
$SKPOLY
 70
     0
  9
$TDCREATE
 40
2457250.314583333
  9
$TDUCREATE
 40
2457250.23125
  9
$TDUPDATE
 40
2457250.318055556
  9
$TDUUPDATE
 40
2457250.234722222
  9
$TDINDWG
 40
0.0000000116
  9
$TDUSRTIMER
 40
0.0000000116
  9
$USRTIMER
 70
     1
  9
$ANGBASE
 50
0.0
  9
$ANGDIR
 70
     0
  9
$PDMODE
 70
     0
  9
$PDSIZE
 40
0.0
  9
$PLINEWID
 40
0.0
  9
$SPLFRAME
 70
     0
  9
$SPLINETYPE
 70
     6
  9
$SPLINESEGS
 70
     8
  9
$HANDSEED
  5
8F4
  9
$SURFTAB1
 70
     6
  9
$SURFTAB2
 70
     6
  9
$SURFTYPE
 70
     6
  9
$SURFU
 70
     6
  9
$SURFV
 70
     6
  9
$UCSBASE
  2

  9
$UCSNAME
  2

  9
$UCSORG
 10
0.0
 20
0.0
 30
0.0
  9
$UCSXDIR
 10
1.0
 20
0.0
 30
0.0
  9
$UCSYDIR
 10
0.0
 20
1.0
 30
0.0
  9
$UCSORTHOREF
  2

  9
$UCSORTHOVIEW
 70
     0
  9
$UCSORGTOP
 10
0.0
 20
0.0
 30
0.0
  9
$UCSORGBOTTOM
 10
0.0
 20
0.0
 30
0.0
  9
$UCSORGLEFT
 10
0.0
 20
0.0
 30
0.0
  9
$UCSORGRIGHT
 10
0.0
 20
0.0
 30
0.0
  9
$UCSORGFRONT
 10
0.0
 20
0.0
 30
0.0
  9
$UCSORGBACK
 10
0.0
 20
0.0
 30
0.0
  9
$PUCSBASE
  2

  9
$PUCSNAME
  2

  9
$PUCSORG
 10
0.0
 20
0.0
 30
0.0
  9
$PUCSXDIR
 10
1.0
 20
0.0
 30
0.0
  9
$PUCSYDIR
 10
0.0
 20
1.0
 30
0.0
  9
$PUCSORTHOREF
  2

  9
$PUCSORTHOVIEW
 70
     0
  9
$PUCSORGTOP
 10
0.0
 20
0.0
 30
0.0
  9
$PUCSORGBOTTOM
 10
0.0
 20
0.0
 30
0.0
  9
$PUCSORGLEFT
 10
0.0
 20
0.0
 30
0.0
  9
$PUCSORGRIGHT
 10
0.0
 20
0.0
 30
0.0
  9
$PUCSORGFRONT
 10
0.0
 20
0.0
 30
0.0
  9
$PUCSORGBACK
 10
0.0
 20
0.0
 30
0.0
  9
$USERI1
 70
     0
  9
$USERI2
 70
     0
  9
$USERI3
 70
     0
  9
$USERI4
 70
     0
  9
$USERI5
 70
     0
  9
$USERR1
 40
0.0
  9
$USERR2
 40
0.0
  9
$USERR3
 40
0.0
  9
$USERR4
 40
0.0
  9
$USERR5
 40
0.0
  9
$WORLDVIEW
 70
     1
  9
$SHADEDGE
 70
     3
  9
$SHADEDIF
 70
    70
  9
$TILEMODE
 70
     1
  9
$MAXACTVP
 70
    64
  9
$PINSBASE
 10
0.0
 20
0.0
 30
0.0
  9
$PLIMCHECK
 70
     0
  9
$PEXTMIN
 10
1.000000000000000E+20
 20
1.000000000000000E+20
 30
1.000000000000000E+20
  9
$PEXTMAX
 10
-1.000000000000000E+20
 20
-1.000000000000000E+20
 30
-1.000000000000000E+20
  9
$PLIMMIN
 10
0.0
 20
0.0
  9
$PLIMMAX
 10
420.0
 20
297.0
  9
$UNITMODE
 70
     0
  9
$VISRETAIN
 70
     1
  9
$PLINEGEN
 70
     0
  9
$PSLTSCALE
 70
     1
  9
$TREEDEPTH
 70
  3020
  9
$CMLSTYLE
  2
Standard
  9
$CMLJUST
 70
     0
  9
$CMLSCALE
 40
20.0
  9
$PROXYGRAPHICS
 70
     1
  9
$MEASUREMENT
 70
     1
  9
$CELWEIGHT
370
    -1
  9
$ENDCAPS
280
     0
  9
$JOINSTYLE
280
     0
  9
$LWDISPLAY
290
     0
  9
$INSUNITS
 70
     4
  9
$HYPERLINKBASE
  1

  9
$STYLESHEET
  1

  9
$XEDIT
290
     1
  9
$CEPSNTYPE
380
     0
  9
$PSTYLEMODE
290
     1
  9
$FINGERPRINTGUID
  2
{B6325E36-222B-42C8-9A6A-7AF60748C3A2}
  9
$VERSIONGUID
  2
{FAEB1C32-E019-11D5-929B-00C0DF256EC4}
  9
$EXTNAMES
290
     1
  9
$PSVPSCALE
 40
0.0
  9
$OLESTARTUP
290
     0
  0
ENDSEC
  0
SECTION
  2
CLASSES
  0
CLASS
  1
ACDBDICTIONARYWDFLT
  2
AcDbDictionaryWithDefault
  3
ObjectDBX Classes
 90
        0
280
     0
281
     0
  0
CLASS
  1
VISUALSTYLE
  2
AcDbVisualStyle
  3
ObjectDBX Classes
 90
     4095
280
     0
281
     0
  0
CLASS
  1
MATERIAL
  2
AcDbMaterial
  3
ObjectDBX Classes
 90
     1153
280
     0
281
     0
  0
CLASS
  1
SCALE
  2
AcDbScale
  3
ObjectDBX Classes
 90
     1153
280
     0
281
     0
  0
CLASS
  1
DICTIONARYVAR
  2
AcDbDictionaryVar
  3
ObjectDBX Classes
 90
        0
280
     0
281
     0
  0
CLASS
  1
ACDBPLACEHOLDER
  2
AcDbPlaceHolder
  3
ObjectDBX Classes
 90
        0
280
     0
281
     0
  0
CLASS
  1
LAYOUT
  2
AcDbLayout
  3
ObjectDBX Classes
 90
        0
280
     0
281
     0
  0
ENDSEC
  0
SECTION
  2
TABLES
  0
TABLE
  2
VPORT
  5
8
330
0
100
AcDbSymbolTable
 70
     1
  0
VPORT
  5
29
330
8
100
AcDbSymbolTableRecord
100
AcDbViewportTableRecord
  2
*Active
 70
     0
 10
0.0
 20
0.0
 11
1.0
 21
1.0
 12
11.26
 22
4.5
 13
0.0
 23
0.0
 14
10.0
 24
10.0
 15
10.0
 25
10.0
 16
0.0
 26
0.0
 36
1.0
 17
0.0
 27
0.0
 37
0.0
 40
9.0
 41
2.503333333333333
 42
50.0
 43
0.0
 44
0.0
 50
0.0
 51
0.0
 71
     0
 72
   100
 73
     1
 74
     3
 75
     0
 76
     0
 77
     0
 78
     0
281
     0
 65
     1
110
0.0
120
0.0
130
0.0
111
1.0
121
0.0
131
0.0
112
0.0
122
1.0
132
0.0
 79
     0
146
0.0
  0
ENDTAB
  0
TABLE
  2
LTYPE
  5
5
330
0
100
AcDbSymbolTable
 70
    12
  0
LTYPE
  5
14
330
5
100
AcDbSymbolTableRecord
100
AcDbLinetypeTableRecord
  2
ByBlock
 70
     0
  3

 72
    65
 73
     0
 40
0.0
  0
LTYPE
  5
15
330
5
100
AcDbSymbolTableRecord
100
AcDbLinetypeTableRecord
  2
ByLayer
 70
     0
  3

 72
    65
 73
     0
 40
0.0
  0
LTYPE
  5
16
330
5
100
AcDbSymbolTableRecord
100
AcDbLinetypeTableRecord
  2
Continuous
 70
     0
  3
Solid line
 72
    65
 73
     0
 40
0.0
  0
LTYPE
  5
45
330
5
100
AcDbSymbolTableRecord
100
AcDbLinetypeTableRecord
  2
phl_thick
 70
     0
  3
THICK
 72
    65
 73
     0
 40
0.0
  0
LTYPE
  5
203
330
5
100
AcDbSymbolTableRecord
100
AcDbLinetypeTableRecord
  2
SK1
 70
     0
  3
THICK
 72
    65
 73
     0
 40
0.0
  0
LTYPE
  5
20A
330
5
100
AcDbSymbolTableRecord
100
AcDbLinetypeTableRecord
  2
NOCUT
 70
     0
  3
THICK
 72
    65
 73
     0
 40
0.0
  0
LTYPE
  5
20F
330
5
100
AcDbSymbolTableRecord
100
AcDbLinetypeTableRecord
  2
SK2
 70
     0
  3
THIN
 72
    65
 73
     0
 40
0.0
  0
LTYPE
  5
274
330
5
100
AcDbSymbolTableRecord
100
AcDbLinetypeTableRecord
  2
dim_text
 70
     0
  3
THICK
 72
    65
 73
     0
 40
0.0
  0
LTYPE
  5
2BD
330
5
100
AcDbSymbolTableRecord
100
AcDbLinetypeTableRecord
  2
L2
 70
     0
  3
THIN
 72
    65
 73
     0
 40
0.0
  0
LTYPE
  5
40E
330
5
100
AcDbSymbolTableRecord
100
AcDbLinetypeTableRecord
  2
LONGDASH_DASH
 70
     0
  3
THIN_DASHDOT
 72
    65
 73
     4
 40
0.85
 49
0.4
 74
     0
 49
-0.2
 74
     0
 49
0.05
 74
     0
 49
-0.2
 74
     0
  0
LTYPE
  5
412
330
5
100
AcDbSymbolTableRecord
100
AcDbLinetypeTableRecord
  2
thin_line
 70
     0
  3
THIN
 72
    65
 73
     0
 40
0.0
  0
LTYPE
  5
44D
330
5
100
AcDbSymbolTableRecord
100
AcDbLinetypeTableRecord
  2
ls1
 70
     0
  3
THICK
 72
    65
 73
     0
 40
0.0
  0
LTYPE
  5
460
330
5
100
AcDbSymbolTableRecord
100
AcDbLinetypeTableRecord
  2
INFTOTAL
 70
     0
  3
THIN
 72
    65
 73
     0
 40
0.0
  0
LTYPE
  5
470
330
5
100
AcDbSymbolTableRecord
100
AcDbLinetypeTableRecord
  2
cc_dim_arrow
 70
     0
  3
THICK
 72
    65
 73
     0
 40
0.0
  0
ENDTAB
  0
TABLE
  2
LAYER
  5
2
330
0
100
AcDbSymbolTable
 70
    11
  0
LAYER
  5
10
330
2
100
AcDbSymbolTableRecord
100
AcDbLayerTableRecord
  2
0
 70
     0
 62
     7
  6
Continuous
370
    -3
390
F
  0
LAYER
  5
44
330
2
100
AcDbSymbolTableRecord
100
AcDbLayerTableRecord
  2
1
 70
     0
 62
4
  6
CONTINUOUS
370
50
370
    -3
390
F
  0
LAYER
  5
202
330
2
100
AcDbSymbolTableRecord
100
AcDbLayerTableRecord
  2
SK1
 70
     0
 62
4
  6
CONTINUOUS
370
50
370
    -3
390
F
  0
LAYER
  5
209
330
2
100
AcDbSymbolTableRecord
100
AcDbLayerTableRecord
  2
NOCUT
 70
     0
 62
7
  6
CONTINUOUS
370
25
370
    -3
390
F
  0
LAYER
  5
20E
330
2
100
AcDbSymbolTableRecord
100
AcDbLayerTableRecord
  2
SK2
 70
     0
 62
7
  6
CONTINUOUS
370
25
370
    -3
390
F
  0
LAYER
  5
2BC
330
2
100
AcDbSymbolTableRecord
100
AcDbLayerTableRecord
  2
2
 70
     0
 62
7
  6
CONTINUOUS
370
25
370
    -3
390
F
  0
LAYER
  5
40D
330
2
100
AcDbSymbolTableRecord
100
AcDbLayerTableRecord
  2
4
 70
     0
 62
2
  6
LONGDASH_DASH
370
25
370
    -3
390
F
  0
LAYER
  5
410
330
2
100
AcDbSymbolTableRecord
100
AcDbLayerTableRecord
  2
SK4
 70
     0
 62
2
  6
LONGDASH_DASH
370
25
370
    -3
390
F
  0
LAYER
  5
456
330
2
100
AcDbSymbolTableRecord
100
AcDbLayerTableRecord
  2
CUT
 70
     0
 62
1
  6
CONTINUOUS
370
25
370
    -3
390
F
  0
LAYER
  5
45F
330
2
100
AcDbSymbolTableRecord
100
AcDbLayerTableRecord
  2
INFTOTAL
 70
     0
 62
9
  6
CONTINUOUS
370
18
370
    -3
390
F
  0
LAYER
  5
465
330
2
100
AcDbSymbolTableRecord
100
AcDbLayerTableRecord
  2
SK6
 70
     0
 62
5
  6
CONTINUOUS
370
25
370
    -3
390
F
  0
ENDTAB
  0
TABLE
  2
STYLE
  5
3
330
0
100
AcDbSymbolTable
 70
     1
  0
STYLE
  5
11
330
3
100
AcDbSymbolTableRecord
100
AcDbTextStyleTableRecord
  2
Standard
 70
     0
 40
0.0
 41
1.0
 50
0.0
 71
     0
 42
2.5
  3
Monospac821 BT
  4

  0
ENDTAB
  0
TABLE
  2
VIEW
  5
6
330
0
100
AcDbSymbolTable
 70
     0
  0
ENDTAB
  0
TABLE
  2
UCS
  5
7
330
0
100
AcDbSymbolTable
 70
     0
  0
ENDTAB
  0
TABLE
  2
APPID
  5
9
330
0
100
AcDbSymbolTable
 70
     2
  0
APPID
  5
12
330
9
100
AcDbSymbolTableRecord
100
AcDbRegAppTableRecord
  2
ACAD
 70
     0
  0
APPID
  5
3F
330
9
100
AcDbSymbolTableRecord
100
AcDbRegAppTableRecord
  2
ccLab
 70
     0
  0
ENDTAB
  0
TABLE
  2
DIMSTYLE
  5
A
330
0
100
AcDbSymbolTable
 70
     1
100
AcDbDimStyleTable
  0
DIMSTYLE
105
27
330
A
100
AcDbSymbolTableRecord
100
AcDbDimStyleTableRecord
  2
ISO-25
 70
     0
 41
2.5
 42
0.625
 43
3.75
 44
1.25
 73
     0
 74
     0
 77
     1
 78
     8
140
2.5
141
2.5
143
0.03937007874016
147
0.625
171
     3
172
     1
271
     2
272
     2
274
     3
278
    44
283
     0
284
     8
340
11
  0
ENDTAB
  0
TABLE
  2
BLOCK_RECORD
  5
1
330
0
100
AcDbSymbolTable
 70
     2
  0
BLOCK_RECORD
  5
1F
330
1
100
AcDbSymbolTableRecord
100
AcDbBlockTableRecord
  2
*Model_Space
340
22
  0
BLOCK_RECORD
  5
1B
330
1
100
AcDbSymbolTableRecord
100
AcDbBlockTableRecord
  2
*Paper_Space
340
1E
  0
BLOCK_RECORD
  5
23
330
1
100
AcDbSymbolTableRecord
100
AcDbBlockTableRecord
  2
*Paper_Space0
340
26
  0
ENDTAB
  0
ENDSEC
  0
SECTION
  2
BLOCKS
  0
BLOCK
  5
20
330
1F
100
AcDbEntity
  8
0
100
AcDbBlockBegin
  2
*Model_Space
 70
     0
 10
0.0
 20
0.0
 30
0.0
  3
*Model_Space
  1

  0
ENDBLK
  5
21
330
1F
100
AcDbEntity
  8
0
100
AcDbBlockEnd
  0
BLOCK
  5
1C
330
1B
100
AcDbEntity
 67
     1
  8
0
100
AcDbBlockBegin
  2
*Paper_Space
 70
     0
 10
0.0
 20
0.0
 30
0.0
  3
*Paper_Space
  1

  0
ENDBLK
  5
1D
330
1B
100
AcDbEntity
 67
     1
  8
0
100
AcDbBlockEnd
  0
BLOCK
  5
24
330
23
100
AcDbEntity
  8
0
100
AcDbBlockBegin
  2
*Paper_Space0
 70
     0
 10
0.0
 20
0.0
 30
0.0
  3
*Paper_Space0
  1

  0
ENDBLK
  5
25
330
23
100
AcDbEntity
  8
0
100
AcDbBlockEnd
  0
ENDSEC
  0
SECTION
  2
ENTITIES
  0
LINE
  5
4A0
330
1F
100
AcDbEntity
  8
1
  6
CONTINUOUS
370
50
 62
4
100
AcDbLine
 10
2.470626
 20
0.643301
 30
0.0
 11
2.469379
 21
0.6612589999999999
 31
0.0
  0
LINE
  5
4A1
330
1F
100
AcDbEntity
  8
1
  6
CONTINUOUS
370
50
 62
4
100
AcDbLine
 10
15.464158
 20
0.255574
 30
0.0
 11
15.460465
 21
0.297753
 31
0.0
  0
LINE
  5
4A2
330
1F
100
AcDbEntity
  8
1
  6
CONTINUOUS
370
50
 62
4
100
AcDbLine
 10
2.473449
 20
0.6253139999999999
 30
0.0
 11
2.470626
 21
0.643301
 31
0.0
  0
LINE
  5
4A3
330
1F
100
AcDbEntity
  8
1
  6
CONTINUOUS
370
50
 62
4
100
AcDbLine
 10
15.460465
 20
0.297753
 30
0.0
 11
15.449531
 21
0.346675
 31
0.0
  0
LINE
  5
4A4
330
1F
100
AcDbEntity
  8
1
  6
CONTINUOUS
370
50
 62
4
100
AcDbLine
 10
2.477746
 20
0.60734
 30
0.0
 11
2.473449
 21
0.6253139999999999
 31
0.0
  0
LINE
  5
4A5
330
1F
100
AcDbEntity
  8
1
  6
CONTINUOUS
370
50
 62
4
100
AcDbLine
 10
2.483415
 20
0.58941
 30
0.0
 11
2.477746
 21
0.60734
 31
0.0
  0
LINE
  5
4A6
330
1F
100
AcDbEntity
  8
1
  6
CONTINUOUS
370
50
 62
4
100
AcDbLine
 10
15.449531
 20
0.346675
 30
0.0
 11
15.430925
 21
0.403323
 31
0.0
  0
LINE
  5
4A7
330
1F
100
AcDbEntity
  8
1
  6
CONTINUOUS
370
50
 62
4
100
AcDbLine
 10
2.490355
 20
0.571557
 30
0.0
 11
2.483415
 21
0.58941
 31
0.0
  0
LINE
  5
4A8
330
1F
100
AcDbEntity
  8
1
  6
CONTINUOUS
370
50
 62
4
100
AcDbLine
 10
15.430925
 20
0.403323
 30
0.0
 11
15.405225
 21
0.467091
 31
0.0
  0
LINE
  5
4A9
330
1F
100
AcDbEntity
  8
1
  6
CONTINUOUS
370
50
 62
4
100
AcDbLine
 10
15.104216
 20
0.451132
 30
0.0
 11
15.092409
 21
0.480128
 31
0.0
  0
LINE
  5
4AA
330
1F
100
AcDbEntity
  8
1
  6
CONTINUOUS
370
50
 62
4
100
AcDbLine
 10
15.116209
 20
0.422884
 30
0.0
 11
15.104216
 21
0.451132
 31
0.0
  0
LINE
  5
4AB
330
1F
100
AcDbEntity
  8
1
  6
CONTINUOUS
370
50
 62
4
100
AcDbLine
 10
15.128395
 20
0.395448
 30
0.0
 11
15.116209
 21
0.422884
 31
0.0
  0
LINE
  5
4AC
330
1F
100
AcDbEntity
  8
1
  6
CONTINUOUS
370
50
 62
4
100
AcDbLine
 10
15.405225
 20
0.467091
 30
0.0
 11
15.373984
 21
0.536368
 31
0.0
  0
LINE
  5
4AD
330
1F
100
AcDbEntity
  8
1
  6
CONTINUOUS
370
50
 62
4
100
AcDbLine
 10
2.498465
 20
0.5538109999999999
 30
0.0
 11
2.490355
 21
0.571557
 31
0.0
  0
LINE
  5
4AE
330
1F
100
AcDbEntity
  8
1
  6
CONTINUOUS
370
50
 62
4
100
AcDbLine
 10
15.140774
 20
0.368888
 30
0.0
 11
15.128395
 21
0.395448
 31
0.0
  0
LINE
  5
4AF
330
1F
100
AcDbEntity
  8
1
  6
CONTINUOUS
370
50
 62
4
100
AcDbLine
 10
15.624
 20
0.0
 30
0.0
 11
15.376508
 21
0.530749
 31
0.0
  0
LINE
  5
4B0
330
1F
100
AcDbEntity
  8
1
  6
CONTINUOUS
370
50
 62
4
100
AcDbLine
 10
15.373984
 20
0.536368
 30
0.0
 11
15.360884
 21
0.564037
 31
0.0
  0
LINE
  5
4B1
330
1F
100
AcDbEntity
  8
1
  6
CONTINUOUS
370
50
 62
4
100
AcDbLine
 10
15.360884
 20
0.564037
 30
0.0
 11
15.34727
 21
0.592245
 31
0.0
  0
LINE
  5
4B2
330
1F
100
AcDbEntity
  8
1
  6
CONTINUOUS
370
50
 62
4
100
AcDbLine
 10
15.34727
 20
0.592245
 30
0.0
 11
15.333227
 21
0.620919
 31
0.0
  0
LINE
  5
4B3
330
1F
100
AcDbEntity
  8
1
  6
CONTINUOUS
370
50
 62
4
100
AcDbLine
 10
15.153351
 20
0.343269
 30
0.0
 11
15.140774
 21
0.368888
 31
0.0
  0
LINE
  5
4B4
330
1F
100
AcDbEntity
  8
1
  6
CONTINUOUS
370
50
 62
4
100
AcDbLine
 10
15.333227
 20
0.620919
 30
0.0
 11
15.318835
 21
0.6499849999999999
 31
0.0
  0
LINE
  5
4B5
330
1F
100
AcDbEntity
  8
1
  6
CONTINUOUS
370
50
 62
4
100
AcDbLine
 10
15.318835
 20
0.6499849999999999
 30
0.0
 11
15.304178
 21
0.6793699999999999
 31
0.0
  0
LINE
  5
4B6
330
1F
100
AcDbEntity
  8
1
  6
CONTINUOUS
370
50
 62
4
100
AcDbLine
 10
15.304178
 20
0.6793699999999999
 30
0.0
 11
15.289338
 21
0.7089989999999999
 31
0.0
  0
LINE
  5
4B7
330
1F
100
AcDbEntity
  8
1
  6
CONTINUOUS
370
50
 62
4
100
AcDbLine
 10
15.289338
 20
0.7089989999999999
 30
0.0
 11
15.26085
 21
0.76525
 31
0.0
  0
LINE
  5
4B8
330
1F
100
AcDbEntity
  8
1
  6
CONTINUOUS
370
50
 62
4
100
AcDbLine
 10
15.26085
 20
0.76525
 30
0.0
 11
15.23247
 21
0.820114
 31
0.0
  0
LINE
  5
4B9
330
1F
100
AcDbEntity
  8
1
  6
CONTINUOUS
370
50
 62
4
100
AcDbLine
 10
15.166128
 20
0.318653
 30
0.0
 11
15.153351
 21
0.343269
 31
0.0
  0
LINE
  5
4BA
330
1F
100
AcDbEntity
  8
1
  6
CONTINUOUS
370
50
 62
4
100
AcDbLine
 10
2.507647
 20
0.5361969999999999
 30
0.0
 11
2.498465
 21
0.5538109999999999
 31
0.0
  0
LINE
  5
4BB
330
1F
100
AcDbEntity
  8
1
  6
CONTINUOUS
370
50
 62
4
100
AcDbLine
 10
15.23247
 20
0.820114
 30
0.0
 11
15.204204
 21
0.8735299999999999
 31
0.0
  0
LINE
  5
4BC
330
1F
100
AcDbEntity
  8
1
  6
CONTINUOUS
370
50
 62
4
100
AcDbLine
 10
15.204204
 20
0.8735299999999999
 30
0.0
 11
15.176057
 21
0.925437
 31
0.0
  0
LINE
  5
4BD
330
1F
100
AcDbEntity
  8
1
  6
CONTINUOUS
370
50
 62
4
100
AcDbLine
 10
15.179109
 20
0.295106
 30
0.0
 11
15.166128
 21
0.318653
 31
0.0
  0
LINE
  5
4BE
330
1F
100
AcDbEntity
  8
1
  6
CONTINUOUS
370
50
 62
4
100
AcDbLine
 10
15.176057
 20
0.925437
 30
0.0
 11
15.148033
 21
0.975773
 31
0.0
  0
LINE
  5
4BF
330
1F
100
AcDbEntity
  8
1
  6
CONTINUOUS
370
50
 62
4
100
AcDbLine
 10
15.148033
 20
0.975773
 30
0.0
 11
15.120141
 21
1.024472
 31
0.0
  0
LINE
  5
4C0
330
1F
100
AcDbEntity
  8
1
  6
CONTINUOUS
370
50
 62
4
100
AcDbLine
 10
2.517814
 20
0.5187269999999999
 30
0.0
 11
2.507647
 21
0.5361969999999999
 31
0.0
  0
LINE
  5
4C1
330
1F
100
AcDbEntity
  8
1
  6
CONTINUOUS
370
50
 62
4
100
AcDbLine
 10
15.192296
 20
0.27269
 30
0.0
 11
15.179109
 21
0.295106
 31
0.0
  0
LINE
  5
4C2
330
1F
100
AcDbEntity
  8
1
  6
CONTINUOUS
370
50
 62
4
100
AcDbLine
 10
15.120141
 20
1.024472
 30
0.0
 11
15.092409
 21
1.071439
 31
0.0
  0
LINE
  5
4C3
330
1F
100
AcDbEntity
  8
1
  6
CONTINUOUS
370
50
 62
4
100
AcDbLine
 10
15.205688
 20
0.251482
 30
0.0
 11
15.192296
 21
0.27269
 31
0.0
  0
LINE
  5
4C4
330
1F
100
AcDbEntity
  8
1
  6
CONTINUOUS
370
50
 62
4
100
AcDbLine
 10
2.528879
 20
0.5014259999999999
 30
0.0
 11
2.517814
 21
0.5187269999999999
 31
0.0
  0
LINE
  5
4C5
330
1F
100
AcDbEntity
  8
1
  6
CONTINUOUS
370
50
 62
4
100
AcDbLine
 10
15.219256
 20
0.231608
 30
0.0
 11
15.205688
 21
0.251482
 31
0.0
  0
LINE
  5
4C6
330
1F
100
AcDbEntity
  8
1
  6
CONTINUOUS
370
50
 62
4
100
AcDbLine
 10
2.540752
 20
0.484319
 30
0.0
 11
2.528879
 21
0.5014259999999999
 31
0.0
  0
LINE
  5
4C7
330
1F
100
AcDbEntity
  8
1
  6
CONTINUOUS
370
50
 62
4
100
AcDbLine
 10
15.23299
 20
0.213152
 30
0.0
 11
15.219256
 21
0.231608
 31
0.0
  0
LINE
  5
4C8
330
1F
100
AcDbEntity
  8
1
  6
CONTINUOUS
370
50
 62
4
100
AcDbLine
 10
2.553345
 20
0.467432
 30
0.0
 11
2.540752
 21
0.484319
 31
0.0
  0
LINE
  5
4C9
330
1F
100
AcDbEntity
  8
1
  6
CONTINUOUS
370
50
 62
4
100
AcDbLine
 10
2.566569
 20
0.45079
 30
0.0
 11
2.553345
 21
0.467432
 31
0.0
  0
LINE
  5
4CA
330
1F
100
AcDbEntity
  8
1
  6
CONTINUOUS
370
50
 62
4
100
AcDbLine
 10
15.246881
 20
0.196196
 30
0.0
 11
15.23299
 21
0.213152
 31
0.0
  0
LINE
  5
4CB
330
1F
100
AcDbEntity
  8
1
  6
CONTINUOUS
370
50
 62
4
100
AcDbLine
 10
2.580335
 20
0.434418
 30
0.0
 11
2.566569
 21
0.45079
 31
0.0
  0
LINE
  5
4CC
330
1F
100
AcDbEntity
  8
1
  6
CONTINUOUS
370
50
 62
4
100
AcDbLine
 10
2.594555
 20
0.418342
 30
0.0
 11
2.580335
 21
0.434418
 31
0.0
  0
LINE
  5
4CD
330
1F
100
AcDbEntity
  8
1
  6
CONTINUOUS
370
50
 62
4
100
AcDbLine
 10
15.260921
 20
0.180819
 30
0.0
 11
15.246881
 21
0.196196
 31
0.0
  0
LINE
  5
4CE
330
1F
100
AcDbEntity
  8
1
  6
CONTINUOUS
370
50
 62
4
100
AcDbLine
 10
2.609139
 20
0.402588
 30
0.0
 11
2.594555
 21
0.418342
 31
0.0
  0
LINE
  5
4CF
330
1F
100
AcDbEntity
  8
1
  6
CONTINUOUS
370
50
 62
4
100
AcDbLine
 10
2.624
 20
0.38718
 30
0.0
 11
2.609139
 21
0.402588
 31
0.0
  0
LINE
  5
4D0
330
1F
100
AcDbEntity
  8
1
  6
CONTINUOUS
370
50
 62
4
100
AcDbLine
 10
15.275102
 20
0.167102
 30
0.0
 11
15.260921
 21
0.180819
 31
0.0
  0
LINE
  5
4D1
330
1F
100
AcDbEntity
  8
1
  6
CONTINUOUS
370
50
 62
4
100
AcDbLine
 10
2.689005
 20
0.325535
 30
0.0
 11
2.624
 21
0.387242
 31
0.0
  0
LINE
  5
4D2
330
1F
100
AcDbEntity
  8
1
  6
CONTINUOUS
370
50
 62
4
100
AcDbLine
 10
4.400062
 20
-0.7753019999999999
 30
0.0
 11
4.34768
 21
-0.726402
 31
0.0
  0
LINE
  5
4D3
330
1F
100
AcDbEntity
  8
1
  6
CONTINUOUS
370
50
 62
4
100
AcDbLine
 10
7.497465999999999
 20
0.0
 30
0.0
 11
7.389197999999999
 21
0.09562
 31
0.0
  0
LINE
  5
4D4
330
1F
100
AcDbEntity
  8
1
  6
CONTINUOUS
370
50
 62
4
100
AcDbLine
 10
7.581202999999999
 20
-0.073795
 30
0.0
 11
7.497465999999999
 21
0.0
 31
0.0
  0
LINE
  5
4D5
330
1F
100
AcDbEntity
  8
1
  6
CONTINUOUS
370
50
 62
4
100
AcDbLine
 10
5.36314
 20
-0.013541
 30
0.0
 11
5.347767
 21
0.0
 31
0.0
  0
LINE
  5
4D6
330
1F
100
AcDbEntity
  8
1
  6
CONTINUOUS
370
50
 62
4
100
AcDbLine
 10
11.661247
 20
-0.073947
 30
0.0
 11
11.57725
 21
0.0
 31
0.0
  0
LINE
  5
4D7
330
1F
100
AcDbEntity
  8
1
  6
CONTINUOUS
370
50
 62
4
100
AcDbLine
 10
11.74505
 20
-0.14763
 30
0.0
 11
11.661247
 21
-0.073947
 31
0.0
  0
LINE
  5
4D8
330
1F
100
AcDbEntity
  8
1
  6
CONTINUOUS
370
50
 62
4
100
AcDbLine
 10
13.505306
 20
0.0
 30
0.0
 11
13.378129
 21
0.111742
 31
0.0
  0
LINE
  5
4D9
330
1F
100
AcDbEntity
  8
1
  6
CONTINUOUS
370
50
 62
4
100
AcDbLine
 10
13.535497
 20
-0.026493
 30
0.0
 11
13.520406
 21
-0.013238
 31
0.0
  0
LINE
  5
4DA
330
1F
100
AcDbEntity
  8
1
  6
CONTINUOUS
370
50
 62
4
100
AcDbLine
 10
13.550595
 20
-0.039746
 30
0.0
 11
13.535497
 21
-0.026493
 31
0.0
  0
LINE
  5
4DB
330
1F
100
AcDbEntity
  8
1
  6
CONTINUOUS
370
50
 62
4
100
AcDbLine
 10
5.378539
 20
-0.027055
 30
0.0
 11
5.36314
 21
-0.013541
 31
0.0
  0
LINE
  5
4DC
330
1F
100
AcDbEntity
  8
1
  6
CONTINUOUS
370
50
 62
4
100
AcDbLine
 10
5.39394
 20
-0.040568
 30
0.0
 11
5.378539
 21
-0.027055
 31
0.0
  0
LINE
  5
4DD
330
1F
100
AcDbEntity
  8
1
  6
CONTINUOUS
370
50
 62
4
100
AcDbLine
 10
5.409345
 20
-0.05408
 30
0.0
 11
5.39394
 21
-0.040568
 31
0.0
  0
LINE
  5
4DE
330
1F
100
AcDbEntity
  8
1
  6
CONTINUOUS
370
50
 62
4
100
AcDbLine
 10
7.665235
 20
-0.147498
 30
0.0
 11
7.581202999999999
 21
-0.073795
 31
0.0
  0
LINE
  5
4DF
330
1F
100
AcDbEntity
  8
1
  6
CONTINUOUS
370
50
 62
4
100
AcDbLine
 10
13.565702
 20
-0.052995
 30
0.0
 11
13.550595
 21
-0.039746
 31
0.0
  0
LINE
  5
4E0
330
1F
100
AcDbEntity
  8
1
  6
CONTINUOUS
370
50
 62
4
100
AcDbLine
 10
5.424752
 20
-0.067588
 30
0.0
 11
5.409345
 21
-0.05408
 31
0.0
  0
LINE
  5
4E1
330
1F
100
AcDbEntity
  8
1
  6
CONTINUOUS
370
50
 62
4
100
AcDbLine
 10
13.520406
 20
-0.013238
 30
0.0
 11
13.505306
 21
0.0
 31
0.0
  0
LINE
  5
4E2
330
1F
100
AcDbEntity
  8
1
  6
CONTINUOUS
370
50
 62
4
100
AcDbLine
 10
5.440163
 20
-0.081092
 30
0.0
 11
5.424752
 21
-0.067588
 31
0.0
  0
LINE
  5
4E3
330
1F
100
AcDbEntity
  8
1
  6
CONTINUOUS
370
50
 62
4
100
AcDbLine
 10
13.58082
 20
-0.06624
 30
0.0
 11
13.565702
 21
-0.052995
 31
0.0
  0
LINE
  5
4E4
330
1F
100
AcDbEntity
  8
1
  6
CONTINUOUS
370
50
 62
4
100
AcDbLine
 10
5.347767
 20
0.0
 30
0.0
 11
5.257072
 21
0.079456
 31
0.0
  0
LINE
  5
4E5
330
1F
100
AcDbEntity
  8
1
  6
CONTINUOUS
370
50
 62
4
100
AcDbLine
 10
9.441751
 20
-0.013285
 30
0.0
 11
9.426585
 21
0.0
 31
0.0
  0
LINE
  5
4E6
330
1F
100
AcDbEntity
  8
1
  6
CONTINUOUS
370
50
 62
4
100
AcDbLine
 10
11.57725
 20
0.0
 30
0.0
 11
11.449951
 21
0.11151
 31
0.0
  0
LINE
  5
4E7
330
1F
100
AcDbEntity
  8
1
  6
CONTINUOUS
370
50
 62
4
100
AcDbLine
 10
9.456913
 20
-0.026564
 30
0.0
 11
9.441751
 21
-0.013285
 31
0.0
  0
LINE
  5
4E8
330
1F
100
AcDbEntity
  8
1
  6
CONTINUOUS
370
50
 62
4
100
AcDbLine
 10
9.426585
 20
0.0
 30
0.0
 11
9.306436999999999
 21
0.105216
 31
0.0
  0
LINE
  5
4E9
330
1F
100
AcDbEntity
  8
1
  6
CONTINUOUS
370
50
 62
4
100
AcDbLine
 10
9.472069
 20
-0.039835
 30
0.0
 11
9.456913
 21
-0.026564
 31
0.0
  0
LINE
  5
4EA
330
1F
100
AcDbEntity
  8
1
  6
CONTINUOUS
370
50
 62
4
100
AcDbLine
 10
9.487219999999999
 20
-0.053098
 30
0.0
 11
9.472069
 21
-0.039835
 31
0.0
  0
LINE
  5
4EB
330
1F
100
AcDbEntity
  8
1
  6
CONTINUOUS
370
50
 62
4
100
AcDbLine
 10
9.502365
 20
-0.066352
 30
0.0
 11
9.487219999999999
 21
-0.053098
 31
0.0
  0
LINE
  5
4EC
330
1F
100
AcDbEntity
  8
1
  6
CONTINUOUS
370
50
 62
4
100
AcDbLine
 10
13.595948
 20
-0.079478
 30
0.0
 11
13.58082
 21
-0.06624
 31
0.0
  0
LINE
  5
4ED
330
1F
100
AcDbEntity
  8
1
  6
CONTINUOUS
370
50
 62
4
100
AcDbLine
 10
9.517507
 20
-0.079594
 30
0.0
 11
9.502365
 21
-0.066352
 31
0.0
  0
LINE
  5
4EE
330
1F
100
AcDbEntity
  8
1
  6
CONTINUOUS
370
50
 62
4
100
AcDbLine
 10
7.389197999999999
 20
0.09562
 30
0.0
 11
7.280365
 21
0.190553
 31
0.0
  0
LINE
  5
4EF
330
1F
100
AcDbEntity
  8
1
  6
CONTINUOUS
370
50
 62
4
100
AcDbLine
 10
5.561755
 20
-0.187139
 30
0.0
 11
5.440163
 21
-0.081092
 31
0.0
  0
LINE
  5
4F0
330
1F
100
AcDbEntity
  8
1
  6
CONTINUOUS
370
50
 62
4
100
AcDbLine
 10
5.257072
 20
0.079456
 30
0.0
 11
5.166371
 21
0.158559
 31
0.0
  0
LINE
  5
4F1
330
1F
100
AcDbEntity
  8
1
  6
CONTINUOUS
370
50
 62
4
100
AcDbLine
 10
11.828985
 20
-0.220773
 30
0.0
 11
11.74505
 21
-0.14763
 31
0.0
  0
LINE
  5
4F2
330
1F
100
AcDbEntity
  8
1
  6
CONTINUOUS
370
50
 62
4
100
AcDbLine
 10
13.684196
 20
-0.156357
 30
0.0
 11
13.595948
 21
-0.079478
 31
0.0
  0
LINE
  5
4F3
330
1F
100
AcDbEntity
  8
1
  6
CONTINUOUS
370
50
 62
4
100
AcDbLine
 10
9.63913
 20
-0.185493
 30
0.0
 11
9.517507
 21
-0.079594
 31
0.0
  0
LINE
  5
4F4
330
1F
100
AcDbEntity
  8
1
  6
CONTINUOUS
370
50
 62
4
100
AcDbLine
 10
9.306436999999999
 20
0.105216
 30
0.0
 11
9.186688
 21
0.209458
 31
0.0
  0
LINE
  5
4F5
330
1F
100
AcDbEntity
  8
1
  6
CONTINUOUS
370
50
 62
4
100
AcDbLine
 10
13.378129
 20
0.111742
 30
0.0
 11
13.250701
 21
0.2226
 31
0.0
  0
LINE
  5
4F6
330
1F
100
AcDbEntity
  8
1
  6
CONTINUOUS
370
50
 62
4
100
AcDbLine
 10
7.749906999999999
 20
-0.220808
 30
0.0
 11
7.665235
 21
-0.147498
 31
0.0
  0
LINE
  5
4F7
330
1F
100
AcDbEntity
  8
1
  6
CONTINUOUS
370
50
 62
4
100
AcDbLine
 10
5.166371
 20
0.158559
 30
0.0
 11
5.075564
 21
0.236987
 31
0.0
  0
LINE
  5
4F8
330
1F
100
AcDbEntity
  8
1
  6
CONTINUOUS
370
50
 62
4
100
AcDbLine
 10
13.772364
 20
-0.232452
 30
0.0
 11
13.684196
 21
-0.156357
 31
0.0
  0
LINE
  5
4F9
330
1F
100
AcDbEntity
  8
1
  6
CONTINUOUS
370
50
 62
4
100
AcDbLine
 10
11.449951
 20
0.11151
 30
0.0
 11
11.321149
 21
0.222322
 31
0.0
  0
LINE
  5
4FA
330
1F
100
AcDbEntity
  8
1
  6
CONTINUOUS
370
50
 62
4
100
AcDbLine
 10
5.683329
 20
-0.291558
 30
0.0
 11
5.561755
 21
-0.187139
 31
0.0
  0
LINE
  5
4FB
330
1F
100
AcDbEntity
  8
1
  6
CONTINUOUS
370
50
 62
4
100
AcDbLine
 10
9.760708
 20
-0.289889
 30
0.0
 11
9.63913
 21
-0.185493
 31
0.0
  0
LINE
  5
4FC
330
1F
100
AcDbEntity
  8
1
  6
CONTINUOUS
370
50
 62
4
100
AcDbLine
 10
11.913341
 20
-0.293145
 30
0.0
 11
11.828985
 21
-0.220773
 31
0.0
  0
LINE
  5
4FD
330
1F
100
AcDbEntity
  8
1
  6
CONTINUOUS
370
50
 62
4
100
AcDbLine
 10
9.186688
 20
0.209458
 30
0.0
 11
9.066855
 21
0.312058
 31
0.0
  0
LINE
  5
4FE
330
1F
100
AcDbEntity
  8
1
  6
CONTINUOUS
370
50
 62
4
100
AcDbLine
 10
4.52898
 20
0.382364
 30
0.0
 11
4.34768
 21
0.537401
 31
0.0
  0
LINE
  5
4FF
330
1F
100
AcDbEntity
  8
1
  6
CONTINUOUS
370
50
 62
4
100
AcDbLine
 10
7.280365
 20
0.190553
 30
0.0
 11
7.170432
 21
0.284347
 31
0.0
  0
LINE
  5
500
330
1F
100
AcDbEntity
  8
1
  6
CONTINUOUS
370
50
 62
4
100
AcDbLine
 10
5.075564
 20
0.236987
 30
0.0
 11
4.984755
 21
0.314444
 31
0.0
  0
LINE
  5
501
330
1F
100
AcDbEntity
  8
1
  6
CONTINUOUS
370
50
 62
4
100
AcDbLine
 10
13.860483
 20
-0.307494
 30
0.0
 11
13.772364
 21
-0.232452
 31
0.0
  0
LINE
  5
502
330
1F
100
AcDbEntity
  8
1
  6
CONTINUOUS
370
50
 62
4
100
AcDbLine
 10
13.250701
 20
0.2226
 30
0.0
 11
13.123196
 21
0.331128
 31
0.0
  0
LINE
  5
503
330
1F
100
AcDbEntity
  8
1
  6
CONTINUOUS
370
50
 62
4
100
AcDbLine
 10
7.835261
 20
-0.293383
 30
0.0
 11
7.749906999999999
 21
-0.220808
 31
0.0
  0
LINE
  5
504
330
1F
100
AcDbEntity
  8
1
  6
CONTINUOUS
370
50
 62
4
100
AcDbLine
 10
11.321149
 20
0.222322
 30
0.0
 11
11.193116
 21
0.331101
 31
0.0
  0
LINE
  5
505
330
1F
100
AcDbEntity
  8
1
  6
CONTINUOUS
370
50
 62
4
100
AcDbLine
 10
2.75826
 20
0.266789
 30
0.0
 11
2.689005
 21
0.325535
 31
0.0
  0
LINE
  5
506
330
1F
100
AcDbEntity
  8
1
  6
CONTINUOUS
370
50
 62
4
100
AcDbLine
 10
9.882382999999999
 20
-0.392006
 30
0.0
 11
9.760708
 21
-0.289889
 31
0.0
  0
LINE
  5
507
330
1F
100
AcDbEntity
  8
1
  6
CONTINUOUS
370
50
 62
4
100
AcDbLine
 10
11.998403
 20
-0.364511
 30
0.0
 11
11.913341
 21
-0.293145
 31
0.0
  0
LINE
  5
508
330
1F
100
AcDbEntity
  8
1
  6
CONTINUOUS
370
50
 62
4
100
AcDbLine
 10
4.984755
 20
0.314444
 30
0.0
 11
4.894076999999999
 21
0.390452
 31
0.0
  0
LINE
  5
509
330
1F
100
AcDbEntity
  8
1
  6
CONTINUOUS
370
50
 62
4
100
AcDbLine
 10
5.804939
 20
-0.393351
 30
0.0
 11
5.683329
 21
-0.291558
 31
0.0
  0
LINE
  5
50A
330
1F
100
AcDbEntity
  8
1
  6
CONTINUOUS
370
50
 62
4
100
AcDbLine
 10
15.289414
 20
0.155124
 30
0.0
 11
15.275102
 21
0.167102
 31
0.0
  0
LINE
  5
50B
330
1F
100
AcDbEntity
  8
1
  6
CONTINUOUS
370
50
 62
4
100
AcDbLine
 10
13.948603
 20
-0.381218
 30
0.0
 11
13.860483
 21
-0.307494
 31
0.0
  0
LINE
  5
50C
330
1F
100
AcDbEntity
  8
1
  6
CONTINUOUS
370
50
 62
4
100
AcDbLine
 10
7.920839999999999
 20
-0.364788
 30
0.0
 11
7.835261
 21
-0.293383
 31
0.0
  0
LINE
  5
50D
330
1F
100
AcDbEntity
  8
1
  6
CONTINUOUS
370
50
 62
4
100
AcDbLine
 10
7.170432
 20
0.284347
 30
0.0
 11
7.060566
 21
0.375923
 31
0.0
  0
LINE
  5
50E
330
1F
100
AcDbEntity
  8
1
  6
CONTINUOUS
370
50
 62
4
100
AcDbLine
 10
9.066855
 20
0.312058
 30
0.0
 11
8.946727
 21
0.412097
 31
0.0
  0
LINE
  5
50F
330
1F
100
AcDbEntity
  8
1
  6
CONTINUOUS
370
50
 62
4
100
AcDbLine
 10
11.193116
 20
0.331101
 30
0.0
 11
11.065837
 21
0.436676
 31
0.0
  0
LINE
  5
510
330
1F
100
AcDbEntity
  8
1
  6
CONTINUOUS
370
50
 62
4
100
AcDbLine
 10
13.123196
 20
0.331128
 30
0.0
 11
12.995645
 21
0.436335
 31
0.0
  0
LINE
  5
511
330
1F
100
AcDbEntity
  8
1
  6
CONTINUOUS
370
50
 62
4
100
AcDbLine
 10
8.006374
 20
-0.434775
 30
0.0
 11
7.920839999999999
 21
-0.364788
 31
0.0
  0
LINE
  5
512
330
1F
100
AcDbEntity
  8
1
  6
CONTINUOUS
370
50
 62
4
100
AcDbLine
 10
14.036728
 20
-0.453297
 30
0.0
 11
13.948603
 21
-0.381218
 31
0.0
  0
LINE
  5
513
330
1F
100
AcDbEntity
  8
1
  6
CONTINUOUS
370
50
 62
4
100
AcDbLine
 10
12.084018
 20
-0.43447
 30
0.0
 11
11.998403
 21
-0.364511
 31
0.0
  0
LINE
  5
514
330
1F
100
AcDbEntity
  8
1
  6
CONTINUOUS
370
50
 62
4
100
AcDbLine
 10
7.060566
 20
0.375923
 30
0.0
 11
6.951499
 21
0.464835
 31
0.0
  0
LINE
  5
515
330
1F
100
AcDbEntity
  8
1
  6
CONTINUOUS
370
50
 62
4
100
AcDbLine
 10
4.894076999999999
 20
0.390452
 30
0.0
 11
4.802909
 21
0.464464
 31
0.0
  0
LINE
  5
516
330
1F
100
AcDbEntity
  8
1
  6
CONTINUOUS
370
50
 62
4
100
AcDbLine
 10
10.003981
 20
-0.490559
 30
0.0
 11
9.882382999999999
 21
-0.392006
 31
0.0
  0
LINE
  5
517
330
1F
100
AcDbEntity
  8
1
  6
CONTINUOUS
370
50
 62
4
100
AcDbLine
 10
5.926702
 20
-0.491605
 30
0.0
 11
5.804939
 21
-0.393351
 31
0.0
  0
LINE
  5
518
330
1F
100
AcDbEntity
  8
1
  6
CONTINUOUS
370
50
 62
4
100
AcDbLine
 10
8.946727
 20
0.412097
 30
0.0
 11
8.826601
 21
0.508405
 31
0.0
  0
LINE
  5
519
330
1F
100
AcDbEntity
  8
1
  6
CONTINUOUS
370
50
 62
4
100
AcDbLine
 10
11.065837
 20
0.436676
 30
0.0
 11
10.938444
 21
0.538288
 31
0.0
  0
LINE
  5
51A
330
1F
100
AcDbEntity
  8
1
  6
CONTINUOUS
370
50
 62
4
100
AcDbLine
 10
8.134214
 20
-0.5365489999999999
 30
0.0
 11
8.006374
 21
-0.434775
 31
0.0
  0
LINE
  5
51B
330
1F
100
AcDbEntity
  8
1
  6
CONTINUOUS
370
50
 62
4
100
AcDbLine
 10
14.124695
 20
-0.5231239999999999
 30
0.0
 11
14.036728
 21
-0.453297
 31
0.0
  0
LINE
  5
51C
330
1F
100
AcDbEntity
  8
1
  6
CONTINUOUS
370
50
 62
4
100
AcDbLine
 10
12.189139
 20
-0.5177729999999999
 30
0.0
 11
12.084018
 21
-0.43447
 31
0.0
  0
LINE
  5
51D
330
1F
100
AcDbEntity
  8
1
  6
CONTINUOUS
370
50
 62
4
100
AcDbLine
 10
12.995645
 20
0.436335
 30
0.0
 11
12.867943
 21
0.53744
 31
0.0
  0
LINE
  5
51E
330
1F
100
AcDbEntity
  8
1
  6
CONTINUOUS
370
50
 62
4
100
AcDbLine
 10
6.951499
 20
0.464835
 30
0.0
 11
6.842732
 21
0.550621
 31
0.0
  0
LINE
  5
51F
330
1F
100
AcDbEntity
  8
1
  6
CONTINUOUS
370
50
 62
4
100
AcDbLine
 10
4.456176999999999
 20
-0.81934
 30
0.0
 11
4.400062
 21
-0.7753019999999999
 31
0.0
  0
LINE
  5
520
330
1F
100
AcDbEntity
  8
1
  6
CONTINUOUS
370
50
 62
4
100
AcDbLine
 10
4.802909
 20
0.464464
 30
0.0
 11
4.711492
 21
0.536023
 31
0.0
  0
LINE
  5
521
330
1F
100
AcDbEntity
  8
1
  6
CONTINUOUS
370
50
 62
4
100
AcDbLine
 10
2.830004
 20
0.210779
 30
0.0
 11
2.75826
 21
0.266789
 31
0.0
  0
LINE
  5
522
330
1F
100
AcDbEntity
  8
1
  6
CONTINUOUS
370
50
 62
4
100
AcDbLine
 10
15.092409
 20
0.480128
 30
0.0
 11
14.981141
 21
0.566595
 31
0.0
  0
LINE
  5
523
330
1F
100
AcDbEntity
  8
1
  6
CONTINUOUS
370
50
 62
4
100
AcDbLine
 10
10.125905
 20
-0.584764
 30
0.0
 11
10.003981
 21
-0.490559
 31
0.0
  0
LINE
  5
524
330
1F
100
AcDbEntity
  8
1
  6
CONTINUOUS
370
50
 62
4
100
AcDbLine
 10
6.048395999999999
 20
-0.5855159999999999
 30
0.0
 11
5.926702
 21
-0.491605
 31
0.0
  0
LINE
  5
525
330
1F
100
AcDbEntity
  8
1
  6
CONTINUOUS
370
50
 62
4
100
AcDbLine
 10
14.212549
 20
-0.59042
 30
0.0
 11
14.124695
 21
-0.5231239999999999
 31
0.0
  0
LINE
  5
526
330
1F
100
AcDbEntity
  8
1
  6
CONTINUOUS
370
50
 62
4
100
AcDbLine
 10
4.711492
 20
0.536023
 30
0.0
 11
4.620206
 21
0.605888
 31
0.0
  0
LINE
  5
527
330
1F
100
AcDbEntity
  8
1
  6
CONTINUOUS
370
50
 62
4
100
AcDbLine
 10
8.826601
 20
0.508405
 30
0.0
 11
8.706391
 21
0.6003569999999999
 31
0.0
  0
LINE
  5
528
330
1F
100
AcDbEntity
  8
1
  6
CONTINUOUS
370
50
 62
4
100
AcDbLine
 10
12.294085
 20
-0.59795
 30
0.0
 11
12.189139
 21
-0.5177729999999999
 31
0.0
  0
LINE
  5
529
330
1F
100
AcDbEntity
  8
1
  6
CONTINUOUS
370
50
 62
4
100
AcDbLine
 10
8.261235
 20
-0.632757
 30
0.0
 11
8.134214
 21
-0.5365489999999999
 31
0.0
  0
LINE
  5
52A
330
1F
100
AcDbEntity
  8
1
  6
CONTINUOUS
370
50
 62
4
100
AcDbLine
 10
6.842732
 20
0.550621
 30
0.0
 11
6.733769
 21
0.632819
 31
0.0
  0
LINE
  5
52B
330
1F
100
AcDbEntity
  8
1
  6
CONTINUOUS
370
50
 62
4
100
AcDbLine
 10
10.938444
 20
0.538288
 30
0.0
 11
10.810168
 21
0.6349659999999999
 31
0.0
  0
LINE
  5
52C
330
1F
100
AcDbEntity
  8
1
  6
CONTINUOUS
370
50
 62
4
100
AcDbLine
 10
12.867943
 20
0.53744
 30
0.0
 11
12.740423
 21
0.633497
 31
0.0
  0
LINE
  5
52D
330
1F
100
AcDbEntity
  8
1
  6
CONTINUOUS
370
50
 62
4
100
AcDbLine
 10
4.620206
 20
0.605888
 30
0.0
 11
4.529415
 21
0.673173
 31
0.0
  0
LINE
  5
52E
330
1F
100
AcDbEntity
  8
1
  6
CONTINUOUS
370
50
 62
4
100
AcDbLine
 10
14.981141
 20
0.566595
 30
0.0
 11
14.869505
 21
0.6486799999999999
 31
0.0
  0
LINE
  5
52F
330
1F
100
AcDbEntity
  8
1
  6
CONTINUOUS
370
50
 62
4
100
AcDbLine
 10
14.300372
 20
-0.654963
 30
0.0
 11
14.212549
 21
-0.59042
 31
0.0
  0
LINE
  5
530
330
1F
100
AcDbEntity
  8
1
  6
CONTINUOUS
370
50
 62
4
100
AcDbLine
 10
2.90491
 20
0.155881
 30
0.0
 11
2.830004
 21
0.210779
 31
0.0
  0
LINE
  5
531
330
1F
100
AcDbEntity
  8
1
  6
CONTINUOUS
370
50
 62
4
100
AcDbLine
 10
12.398524
 20
-0.674391
 30
0.0
 11
12.294085
 21
-0.59795
 31
0.0
  0
LINE
  5
532
330
1F
100
AcDbEntity
  8
1
  6
CONTINUOUS
370
50
 62
4
100
AcDbLine
 10
6.170069
 20
-0.6744479999999999
 30
0.0
 11
6.048395999999999
 21
-0.5855159999999999
 31
0.0
  0
LINE
  5
533
330
1F
100
AcDbEntity
  8
1
  6
CONTINUOUS
370
50
 62
4
100
AcDbLine
 10
10.247848
 20
-0.673758
 30
0.0
 11
10.125905
 21
-0.584764
 31
0.0
  0
LINE
  5
534
330
1F
100
AcDbEntity
  8
1
  6
CONTINUOUS
370
50
 62
4
100
AcDbLine
 10
8.706391
 20
0.6003569999999999
 30
0.0
 11
8.58625
 21
0.687241
 31
0.0
  0
LINE
  5
535
330
1F
100
AcDbEntity
  8
1
  6
CONTINUOUS
370
50
 62
4
100
AcDbLine
 10
6.733769
 20
0.632819
 30
0.0
 11
6.624268
 21
0.710612
 31
0.0
  0
LINE
  5
536
330
1F
100
AcDbEntity
  8
1
  6
CONTINUOUS
370
50
 62
4
100
AcDbLine
 10
8.388237
 20
-0.7226309999999999
 30
0.0
 11
8.261235
 21
-0.632757
 31
0.0
  0
LINE
  5
537
330
1F
100
AcDbEntity
  8
1
  6
CONTINUOUS
370
50
 62
4
100
AcDbLine
 10
12.740423
 20
0.633497
 30
0.0
 11
12.613005
 21
0.7235229999999999
 31
0.0
  0
LINE
  5
538
330
1F
100
AcDbEntity
  8
1
  6
CONTINUOUS
370
50
 62
4
100
AcDbLine
 10
15.303843
 20
0.144973
 30
0.0
 11
15.289414
 21
0.155124
 31
0.0
  0
LINE
  5
539
330
1F
100
AcDbEntity
  8
1
  6
CONTINUOUS
370
50
 62
4
100
AcDbLine
 10
14.388245
 20
-0.7165309999999999
 30
0.0
 11
14.300372
 21
-0.654963
 31
0.0
  0
LINE
  5
53A
330
1F
100
AcDbEntity
  8
1
  6
CONTINUOUS
370
50
 62
4
100
AcDbLine
 10
10.810168
 20
0.6349659999999999
 30
0.0
 11
10.681292
 21
0.7251329999999999
 31
0.0
  0
LINE
  5
53B
330
1F
100
AcDbEntity
  8
1
  6
CONTINUOUS
370
50
 62
4
100
AcDbLine
 10
2.981703
 20
0.102305
 30
0.0
 11
2.90491
 21
0.155881
 31
0.0
  0
LINE
  5
53C
330
1F
100
AcDbEntity
  8
1
  6
CONTINUOUS
370
50
 62
4
100
AcDbLine
 10
14.869505
 20
0.6486799999999999
 30
0.0
 11
14.758235
 21
0.726023
 31
0.0
  0
LINE
  5
53D
330
1F
100
AcDbEntity
  8
1
  6
CONTINUOUS
370
50
 62
4
100
AcDbLine
 10
4.529415
 20
0.673173
 30
0.0
 11
4.439692
 21
0.735274
 31
0.0
  0
LINE
  5
53E
330
1F
100
AcDbEntity
  8
1
  6
CONTINUOUS
370
50
 62
4
100
AcDbLine
 10
12.502691
 20
-0.7463029999999999
 30
0.0
 11
12.398524
 21
-0.674391
 31
0.0
  0
LINE
  5
53F
330
1F
100
AcDbEntity
  8
1
  6
CONTINUOUS
370
50
 62
4
100
AcDbLine
 10
6.291608
 20
-0.757564
 30
0.0
 11
6.170069
 21
-0.6744479999999999
 31
0.0
  0
LINE
  5
540
330
1F
100
AcDbEntity
  8
1
  6
CONTINUOUS
370
50
 62
4
100
AcDbLine
 10
10.369754
 20
-0.7569049999999999
 30
0.0
 11
10.247848
 21
-0.673758
 31
0.0
  0
LINE
  5
541
330
1F
100
AcDbEntity
  8
1
  6
CONTINUOUS
370
50
 62
4
100
AcDbLine
 10
8.58625
 20
0.687241
 30
0.0
 11
8.46649
 21
0.768231
 31
0.0
  0
LINE
  5
542
330
1F
100
AcDbEntity
  8
1
  6
CONTINUOUS
370
50
 62
4
100
AcDbLine
 10
3.059036
 20
0.050321
 30
0.0
 11
2.981703
 21
0.102305
 31
0.0
  0
LINE
  5
543
330
1F
100
AcDbEntity
  8
1
  6
CONTINUOUS
370
50
 62
4
100
AcDbLine
 10
14.476247
 20
-0.774902
 30
0.0
 11
14.388245
 21
-0.7165309999999999
 31
0.0
  0
LINE
  5
544
330
1F
100
AcDbEntity
  8
1
  6
CONTINUOUS
370
50
 62
4
100
AcDbLine
 10
6.624268
 20
0.710612
 30
0.0
 11
6.514443
 21
0.7830929999999999
 31
0.0
  0
LINE
  5
545
330
1F
100
AcDbEntity
  8
1
  6
CONTINUOUS
370
50
 62
4
100
AcDbLine
 10
3.135891
 20
0.0
 30
0.0
 11
3.059036
 21
0.050321
 31
0.0
  0
LINE
  5
546
330
1F
100
AcDbEntity
  8
1
  6
CONTINUOUS
370
50
 62
4
100
AcDbLine
 10
14.758235
 20
0.726023
 30
0.0
 11
14.647797
 21
0.798109
 31
0.0
  0
LINE
  5
547
330
1F
100
AcDbEntity
  8
1
  6
CONTINUOUS
370
50
 62
4
100
AcDbLine
 10
12.613005
 20
0.7235229999999999
 30
0.0
 11
12.485492
 21
0.806515
 31
0.0
  0
LINE
  5
548
330
1F
100
AcDbEntity
  8
1
  6
CONTINUOUS
370
50
 62
4
100
AcDbLine
 10
8.516076
 20
-0.805565
 30
0.0
 11
8.388237
 21
-0.7226309999999999
 31
0.0
  0
LINE
  5
549
330
1F
100
AcDbEntity
  8
1
  6
CONTINUOUS
370
50
 62
4
100
AcDbLine
 10
4.516448
 20
-0.85844
 30
0.0
 11
4.456176999999999
 21
-0.81934
 31
0.0
  0
LINE
  5
54A
330
1F
100
AcDbEntity
  8
1
  6
CONTINUOUS
370
50
 62
4
100
AcDbLine
 10
10.681292
 20
0.7251329999999999
 30
0.0
 11
10.552758
 21
0.808064
 31
0.0
  0
LINE
  5
54B
330
1F
100
AcDbEntity
  8
1
  6
CONTINUOUS
370
50
 62
4
100
AcDbLine
 10
12.607109
 20
-0.813336
 30
0.0
 11
12.502691
 21
-0.7463029999999999
 31
0.0
  0
LINE
  5
54C
330
1F
100
AcDbEntity
  8
1
  6
CONTINUOUS
370
50
 62
4
100
AcDbLine
 10
3.312412
 20
-0.112558
 30
0.0
 11
3.135891
 21
0.0
 31
0.0
  0
LINE
  5
54D
330
1F
100
AcDbEntity
  8
1
  6
CONTINUOUS
370
50
 62
4
100
AcDbLine
 10
6.413145999999999
 20
-0.8340529999999999
 30
0.0
 11
6.291608
 21
-0.757564
 31
0.0
  0
LINE
  5
54E
330
1F
100
AcDbEntity
  8
1
  6
CONTINUOUS
370
50
 62
4
100
AcDbLine
 10
10.49159
 20
-0.8335359999999999
 30
0.0
 11
10.369754
 21
-0.7569049999999999
 31
0.0
  0
LINE
  5
54F
330
1F
100
AcDbEntity
  8
1
  6
CONTINUOUS
370
50
 62
4
100
AcDbLine
 10
3.489221
 20
-0.223445
 30
0.0
 11
3.312412
 21
-0.112558
 31
0.0
  0
LINE
  5
550
330
1F
100
AcDbEntity
  8
1
  6
CONTINUOUS
370
50
 62
4
100
AcDbLine
 10
4.34768
 20
0.537401
 30
0.0
 11
3.723578
 21
0.927465
 31
0.0
  0
LINE
  5
551
330
1F
100
AcDbEntity
  8
1
  6
CONTINUOUS
370
50
 62
4
100
AcDbLine
 10
3.665334
 20
-0.333458
 30
0.0
 11
3.489221
 21
-0.223445
 31
0.0
  0
LINE
  5
552
330
1F
100
AcDbEntity
  8
1
  6
CONTINUOUS
370
50
 62
4
100
AcDbLine
 10
14.564436
 20
-0.829843
 30
0.0
 11
14.476247
 21
-0.774902
 31
0.0
  0
LINE
  5
553
330
1F
100
AcDbEntity
  8
1
  6
CONTINUOUS
370
50
 62
4
100
AcDbLine
 10
8.46649
 20
0.768231
 30
0.0
 11
8.346584
 21
0.842787
 31
0.0
  0
LINE
  5
554
330
1F
100
AcDbEntity
  8
1
  6
CONTINUOUS
370
50
 62
4
100
AcDbLine
 10
3.839417
 20
-0.44144
 30
0.0
 11
3.665334
 21
-0.333458
 31
0.0
  0
LINE
  5
555
330
1F
100
AcDbEntity
  8
1
  6
CONTINUOUS
370
50
 62
4
100
AcDbLine
 10
4.439692
 20
0.735274
 30
0.0
 11
4.34768
 21
0.792327
 31
0.0
  0
LINE
  5
556
330
1F
100
AcDbEntity
  8
1
  6
CONTINUOUS
370
50
 62
4
100
AcDbLine
 10
6.514443
 20
0.7830929999999999
 30
0.0
 11
6.404601
 21
0.849887
 31
0.0
  0
LINE
  5
557
330
1F
100
AcDbEntity
  8
1
  6
CONTINUOUS
370
50
 62
4
100
AcDbLine
 10
4.01096
 20
-0.5450969999999999
 30
0.0
 11
3.839417
 21
-0.44144
 31
0.0
  0
LINE
  5
558
330
1F
100
AcDbEntity
  8
1
  6
CONTINUOUS
370
50
 62
4
100
AcDbLine
 10
14.647797
 20
0.798109
 30
0.0
 11
14.53776
 21
0.864459
 31
0.0
  0
LINE
  5
559
330
1F
100
AcDbEntity
  8
1
  6
CONTINUOUS
370
50
 62
4
100
AcDbLine
 10
10.552758
 20
0.808064
 30
0.0
 11
10.425711
 21
0.882872
 31
0.0
  0
LINE
  5
55A
330
1F
100
AcDbEntity
  8
1
  6
CONTINUOUS
370
50
 62
4
100
AcDbLine
 10
12.485492
 20
0.806515
 30
0.0
 11
12.357921
 21
0.8815689999999999
 31
0.0
  0
LINE
  5
55B
330
1F
100
AcDbEntity
  8
1
  6
CONTINUOUS
370
50
 62
4
100
AcDbLine
 10
12.712165
 20
-0.8750519999999999
 30
0.0
 11
12.607109
 21
-0.813336
 31
0.0
  0
LINE
  5
55C
330
1F
100
AcDbEntity
  8
1
  6
CONTINUOUS
370
50
 62
4
100
AcDbLine
 10
8.644506999999999
 20
-0.880644
 30
0.0
 11
8.516076
 21
-0.805565
 31
0.0
  0
LINE
  5
55D
330
1F
100
AcDbEntity
  8
1
  6
CONTINUOUS
370
50
 62
4
100
AcDbLine
 10
14.652599
 20
-0.881015
 30
0.0
 11
14.564436
 21
-0.829843
 31
0.0
  0
LINE
  5
55E
330
1F
100
AcDbEntity
  8
1
  6
CONTINUOUS
370
50
 62
4
100
AcDbLine
 10
1.623538
 20
1.14
 30
0.0
 11
1.0
 21
1.5
 31
0.0
  0
LINE
  5
55F
330
1F
100
AcDbEntity
  8
1
  6
CONTINUOUS
370
50
 62
4
100
AcDbLine
 10
10.613334
 20
-0.902848
 30
0.0
 11
10.49159
 21
-0.8335359999999999
 31
0.0
  0
LINE
  5
560
330
1F
100
AcDbEntity
  8
1
  6
CONTINUOUS
370
50
 62
4
100
AcDbLine
 10
4.178325
 20
-0.640164
 30
0.0
 11
4.01096
 21
-0.5450969999999999
 31
0.0
  0
LINE
  5
561
330
1F
100
AcDbEntity
  8
1
  6
CONTINUOUS
370
50
 62
4
100
AcDbLine
 10
6.534772999999999
 20
-0.903102
 30
0.0
 11
6.413145999999999
 21
-0.8340529999999999
 31
0.0
  0
LINE
  5
562
330
1F
100
AcDbEntity
  8
1
  6
CONTINUOUS
370
50
 62
4
100
AcDbLine
 10
15.318322
 20
0.136769
 30
0.0
 11
15.303843
 21
0.144973
 31
0.0
  0
LINE
  5
563
330
1F
100
AcDbEntity
  8
1
  6
CONTINUOUS
370
50
 62
4
100
AcDbLine
 10
8.346584
 20
0.842787
 30
0.0
 11
8.226566
 21
0.910063
 31
0.0
  0
LINE
  5
564
330
1F
100
AcDbEntity
  8
1
  6
CONTINUOUS
370
50
 62
4
100
AcDbLine
 10
6.404601
 20
0.849887
 30
0.0
 11
6.295147
 21
0.9105979999999999
 31
0.0
  0
LINE
  5
565
330
1F
100
AcDbEntity
  8
1
  6
CONTINUOUS
370
50
 62
4
100
AcDbLine
 10
5.075848
 20
0.119002
 30
0.0
 11
4.89413
 21
0.219428
 31
0.0
  0
LINE
  5
566
330
1F
100
AcDbEntity
  8
1
  6
CONTINUOUS
370
50
 62
4
100
AcDbLine
 10
5.440411
 20
-0.08129
 30
0.0
 11
5.258195
 21
0.019395
 31
0.0
  0
LINE
  5
567
330
1F
100
AcDbEntity
  8
1
  6
CONTINUOUS
370
50
 62
4
100
AcDbLine
 10
13.396448
 20
0.029514
 30
0.0
 11
13.196981
 21
0.139514
 31
0.0
  0
LINE
  5
568
330
1F
100
AcDbEntity
  8
1
  6
CONTINUOUS
370
50
 62
4
100
AcDbLine
 10
9.517496999999999
 20
-0.079612
 30
0.0
 11
9.317783
 21
0.030287
 31
0.0
  0
LINE
  5
569
330
1F
100
AcDbEntity
  8
1
  6
CONTINUOUS
370
50
 62
4
100
AcDbLine
 10
13.596015
 20
-0.079598
 30
0.0
 11
13.396448
 21
0.029514
 31
0.0
  0
LINE
  5
56A
330
1F
100
AcDbEntity
  8
1
  6
CONTINUOUS
370
50
 62
4
100
AcDbLine
 10
14.53776
 20
0.864459
 30
0.0
 11
14.427516
 21
0.924688
 31
0.0
  0
LINE
  5
56B
330
1F
100
AcDbEntity
  8
1
  6
CONTINUOUS
370
50
 62
4
100
AcDbLine
 10
5.258195
 20
0.019395
 30
0.0
 11
5.075848
 21
0.119002
 31
0.0
  0
LINE
  5
56C
330
1F
100
AcDbEntity
  8
1
  6
CONTINUOUS
370
50
 62
4
100
AcDbLine
 10
9.317783
 20
0.030287
 30
0.0
 11
9.118253
 21
0.138655
 31
0.0
  0
LINE
  5
56D
330
1F
100
AcDbEntity
  8
1
  6
CONTINUOUS
370
50
 62
4
100
AcDbLine
 10
13.196981
 20
0.139514
 30
0.0
 11
12.997328
 21
0.246945
 31
0.0
  0
LINE
  5
56E
330
1F
100
AcDbEntity
  8
1
  6
CONTINUOUS
370
50
 62
4
100
AcDbLine
 10
9.118253
 20
0.138655
 30
0.0
 11
8.918747
 21
0.245856
 31
0.0
  0
LINE
  5
56F
330
1F
100
AcDbEntity
  8
1
  6
CONTINUOUS
370
50
 62
4
100
AcDbLine
 10
14.740657
 20
-0.9281189999999999
 30
0.0
 11
14.652599
 21
-0.881015
 31
0.0
  0
LINE
  5
570
330
1F
100
AcDbEntity
  8
1
  6
CONTINUOUS
370
50
 62
4
100
AcDbLine
 10
12.817559
 20
-0.9310029999999999
 30
0.0
 11
12.712165
 21
-0.8750519999999999
 31
0.0
  0
LINE
  5
571
330
1F
100
AcDbEntity
  8
1
  6
CONTINUOUS
370
50
 62
4
100
AcDbLine
 10
10.425711
 20
0.882872
 30
0.0
 11
10.29966
 21
0.9489869999999999
 31
0.0
  0
LINE
  5
572
330
1F
100
AcDbEntity
  8
1
  6
CONTINUOUS
370
50
 62
4
100
AcDbLine
 10
8.771422
 20
-0.947055
 30
0.0
 11
8.644506999999999
 21
-0.880644
 31
0.0
  0
LINE
  5
573
330
1F
100
AcDbEntity
  8
1
  6
CONTINUOUS
370
50
 62
4
100
AcDbLine
 10
12.357921
 20
0.8815689999999999
 30
0.0
 11
12.230299
 21
0.9480999999999999
 31
0.0
  0
LINE
  5
574
330
1F
100
AcDbEntity
  8
1
  6
CONTINUOUS
370
50
 62
4
100
AcDbLine
 10
4.674475999999999
 20
-0.939935
 30
0.0
 11
4.516448
 21
-0.85844
 31
0.0
  0
LINE
  5
575
330
1F
100
AcDbEntity
  8
1
  6
CONTINUOUS
370
50
 62
4
100
AcDbLine
 10
4.34768
 20
-0.726402
 30
0.0
 11
4.178325
 21
-0.640164
 31
0.0
  0
LINE
  5
576
330
1F
100
AcDbEntity
  8
1
  6
CONTINUOUS
370
50
 62
4
100
AcDbLine
 10
8.918747
 20
0.245856
 30
0.0
 11
8.719047
 21
0.34737
 31
0.0
  0
LINE
  5
577
330
1F
100
AcDbEntity
  8
1
  6
CONTINUOUS
370
50
 62
4
100
AcDbLine
 10
10.735141
 20
-0.96414
 30
0.0
 11
10.613334
 21
-0.902848
 31
0.0
  0
LINE
  5
578
330
1F
100
AcDbEntity
  8
1
  6
CONTINUOUS
370
50
 62
4
100
AcDbLine
 10
6.656615
 20
-0.964171
 30
0.0
 11
6.534772999999999
 21
-0.903102
 31
0.0
  0
LINE
  5
579
330
1F
100
AcDbEntity
  8
1
  6
CONTINUOUS
370
50
 62
4
100
AcDbLine
 10
6.295147
 20
0.9105979999999999
 30
0.0
 11
6.186809999999999
 21
0.964706
 31
0.0
  0
LINE
  5
57A
330
1F
100
AcDbEntity
  8
1
  6
CONTINUOUS
370
50
 62
4
100
AcDbLine
 10
12.997328
 20
0.246945
 30
0.0
 11
12.797644
 21
0.346053
 31
0.0
  0
LINE
  5
57B
330
1F
100
AcDbEntity
  8
1
  6
CONTINUOUS
370
50
 62
4
100
AcDbLine
 10
8.226566
 20
0.910063
 30
0.0
 11
8.106544
 21
0.9694659999999999
 31
0.0
  0
LINE
  5
57C
330
1F
100
AcDbEntity
  8
1
  6
CONTINUOUS
370
50
 62
4
100
AcDbLine
 10
4.89413
 20
0.219428
 30
0.0
 11
4.711565
 21
0.30975
 31
0.0
  0
LINE
  5
57D
330
1F
100
AcDbEntity
  8
1
  6
CONTINUOUS
370
50
 62
4
100
AcDbLine
 10
14.828497
 20
-0.970837
 30
0.0
 11
14.740657
 21
-0.9281189999999999
 31
0.0
  0
LINE
  5
57E
330
1F
100
AcDbEntity
  8
1
  6
CONTINUOUS
370
50
 62
4
100
AcDbLine
 10
14.427516
 20
0.924688
 30
0.0
 11
14.316715
 21
0.9781329999999999
 31
0.0
  0
LINE
  5
57F
330
1F
100
AcDbEntity
  8
1
  6
CONTINUOUS
370
50
 62
4
100
AcDbLine
 10
12.922779
 20
-0.9809599999999999
 30
0.0
 11
12.817559
 21
-0.9310029999999999
 31
0.0
  0
LINE
  5
580
330
1F
100
AcDbEntity
  8
1
  6
CONTINUOUS
370
50
 62
4
100
AcDbLine
 10
12.797644
 20
0.346053
 30
0.0
 11
12.598153
 21
0.437211
 31
0.0
  0
LINE
  5
581
330
1F
100
AcDbEntity
  8
1
  6
CONTINUOUS
370
50
 62
4
100
AcDbLine
 10
8.897435
 20
-1.004364
 30
0.0
 11
8.771422
 21
-0.947055
 31
0.0
  0
LINE
  5
582
330
1F
100
AcDbEntity
  8
1
  6
CONTINUOUS
370
50
 62
4
100
AcDbLine
 10
10.29966
 20
0.9489869999999999
 30
0.0
 11
10.173627
 21
1.006001
 31
0.0
  0
LINE
  5
583
330
1F
100
AcDbEntity
  8
1
  6
CONTINUOUS
370
50
 62
4
100
AcDbLine
 10
8.719047
 20
0.34737
 30
0.0
 11
8.519402999999999
 21
0.437402
 31
0.0
  0
LINE
  5
584
330
1F
100
AcDbEntity
  8
1
  6
CONTINUOUS
370
50
 62
4
100
AcDbLine
 10
12.230299
 20
0.9480999999999999
 30
0.0
 11
12.102745
 21
1.00556
 31
0.0
  0
LINE
  5
585
330
1F
100
AcDbEntity
  8
1
  6
CONTINUOUS
370
50
 62
4
100
AcDbLine
 10
4.809299
 20
-0.9993169999999999
 30
0.0
 11
4.674475999999999
 21
-0.939935
 31
0.0
  0
LINE
  5
586
330
1F
100
AcDbEntity
  8
1
  6
CONTINUOUS
370
50
 62
4
100
AcDbLine
 10
6.186809999999999
 20
0.964706
 30
0.0
 11
6.079185
 21
1.011952
 31
0.0
  0
LINE
  5
587
330
1F
100
AcDbEntity
  8
1
  6
CONTINUOUS
370
50
 62
4
100
AcDbLine
 10
14.916286
 20
-1.009043
 30
0.0
 11
14.828497
 21
-0.970837
 31
0.0
  0
LINE
  5
588
330
1F
100
AcDbEntity
  8
1
  6
CONTINUOUS
370
50
 62
4
100
AcDbLine
 10
10.857156
 20
-1.016874
 30
0.0
 11
10.735141
 21
-0.96414
 31
0.0
  0
LINE
  5
589
330
1F
100
AcDbEntity
  8
1
  6
CONTINUOUS
370
50
 62
4
100
AcDbLine
 10
6.778386999999999
 20
-1.016779
 30
0.0
 11
6.656615
 21
-0.964171
 31
0.0
  0
LINE
  5
58A
330
1F
100
AcDbEntity
  8
1
  6
CONTINUOUS
370
50
 62
4
100
AcDbLine
 10
15.332788
 20
0.130593
 30
0.0
 11
15.318322
 21
0.136769
 31
0.0
  0
LINE
  5
58B
330
1F
100
AcDbEntity
  8
1
  6
CONTINUOUS
370
50
 62
4
100
AcDbLine
 10
8.106544
 20
0.9694659999999999
 30
0.0
 11
7.986383
 21
1.02063
 31
0.0
  0
LINE
  5
58C
330
1F
100
AcDbEntity
  8
1
  6
CONTINUOUS
370
50
 62
4
100
AcDbLine
 10
12.598153
 20
0.437211
 30
0.0
 11
12.398613
 21
0.520836
 31
0.0
  0
LINE
  5
58D
330
1F
100
AcDbEntity
  8
1
  6
CONTINUOUS
370
50
 62
4
100
AcDbLine
 10
13.027309
 20
-1.024579
 30
0.0
 11
12.922779
 21
-0.9809599999999999
 31
0.0
  0
LINE
  5
58E
330
1F
100
AcDbEntity
  8
1
  6
CONTINUOUS
370
50
 62
4
100
AcDbLine
 10
14.316715
 20
0.9781329999999999
 30
0.0
 11
14.205667
 21
1.024345
 31
0.0
  0
LINE
  5
58F
330
1F
100
AcDbEntity
  8
1
  6
CONTINUOUS
370
50
 62
4
100
AcDbLine
 10
8.519402999999999
 20
0.437402
 30
0.0
 11
8.319927999999999
 21
0.519216
 31
0.0
  0
LINE
  5
590
330
1F
100
AcDbEntity
  8
1
  6
CONTINUOUS
370
50
 62
4
100
AcDbLine
 10
4.711565
 20
0.30975
 30
0.0
 11
4.52898
 21
0.382364
 31
0.0
  0
LINE
  5
591
330
1F
100
AcDbEntity
  8
1
  6
CONTINUOUS
370
50
 62
4
100
AcDbLine
 10
4.931651
 20
-1.047498
 30
0.0
 11
4.809299
 21
-0.9993169999999999
 31
0.0
  0
LINE
  5
592
330
1F
100
AcDbEntity
  8
1
  6
CONTINUOUS
370
50
 62
4
100
AcDbLine
 10
15.004197
 20
-1.042617
 30
0.0
 11
14.916286
 21
-1.009043
 31
0.0
  0
LINE
  5
593
330
1F
100
AcDbEntity
  8
1
  6
CONTINUOUS
370
50
 62
4
100
AcDbLine
 10
9.023520999999999
 20
-1.052165
 30
0.0
 11
8.897435
 21
-1.004364
 31
0.0
  0
LINE
  5
594
330
1F
100
AcDbEntity
  8
1
  6
CONTINUOUS
370
50
 62
4
100
AcDbLine
 10
12.102745
 20
1.00556
 30
0.0
 11
11.975562
 21
1.053344
 31
0.0
  0
LINE
  5
595
330
1F
100
AcDbEntity
  8
1
  6
CONTINUOUS
370
50
 62
4
100
AcDbLine
 10
10.173627
 20
1.006001
 30
0.0
 11
10.046635
 21
1.053506
 31
0.0
  0
LINE
  5
596
330
1F
100
AcDbEntity
  8
1
  6
CONTINUOUS
370
50
 62
4
100
AcDbLine
 10
6.079185
 20
1.011952
 30
0.0
 11
5.97168
 21
1.052129
 31
0.0
  0
LINE
  5
597
330
1F
100
AcDbEntity
  8
1
  6
CONTINUOUS
370
50
 62
4
100
AcDbLine
 10
6.900136
 20
-1.060556
 30
0.0
 11
6.778386999999999
 21
-1.016779
 31
0.0
  0
LINE
  5
598
330
1F
100
AcDbEntity
  8
1
  6
CONTINUOUS
370
50
 62
4
100
AcDbLine
 10
8.319927999999999
 20
0.519216
 30
0.0
 11
8.120326
 21
0.5908479999999999
 31
0.0
  0
LINE
  5
599
330
1F
100
AcDbEntity
  8
1
  6
CONTINUOUS
370
50
 62
4
100
AcDbLine
 10
10.979075
 20
-1.060627
 30
0.0
 11
10.857156
 21
-1.016874
 31
0.0
  0
LINE
  5
59A
330
1F
100
AcDbEntity
  8
1
  6
CONTINUOUS
370
50
 62
4
100
AcDbLine
 10
13.131158
 20
-1.061423
 30
0.0
 11
13.027309
 21
-1.024579
 31
0.0
  0
LINE
  5
59B
330
1F
100
AcDbEntity
  8
1
  6
CONTINUOUS
370
50
 62
4
100
AcDbLine
 10
7.986383
 20
1.02063
 30
0.0
 11
7.866396
 21
1.063105
 31
0.0
  0
LINE
  5
59C
330
1F
100
AcDbEntity
  8
1
  6
CONTINUOUS
370
50
 62
4
100
AcDbLine
 10
12.398613
 20
0.520836
 30
0.0
 11
12.198901
 21
0.5912919999999999
 31
0.0
  0
LINE
  5
59D
330
1F
100
AcDbEntity
  8
1
  6
CONTINUOUS
370
50
 62
4
100
AcDbLine
 10
14.205667
 20
1.024345
 30
0.0
 11
14.094782
 21
1.063107
 31
0.0
  0
LINE
  5
59E
330
1F
100
AcDbEntity
  8
1
  6
CONTINUOUS
370
50
 62
4
100
AcDbLine
 10
15.092409
 20
-1.071439
 30
0.0
 11
15.004197
 21
-1.042617
 31
0.0
  0
LINE
  5
59F
330
1F
100
AcDbEntity
  8
1
  6
CONTINUOUS
370
50
 62
4
100
AcDbLine
 10
5.054389
 20
-1.085619
 30
0.0
 11
4.931651
 21
-1.047498
 31
0.0
  0
LINE
  5
5A0
330
1F
100
AcDbEntity
  8
1
  6
CONTINUOUS
370
50
 62
4
100
AcDbLine
 10
5.97168
 20
1.052129
 30
0.0
 11
5.863697999999999
 21
1.085028
 31
0.0
  0
LINE
  5
5A1
330
1F
100
AcDbEntity
  8
1
  6
CONTINUOUS
370
50
 62
4
100
AcDbLine
 10
9.15066
 20
-1.090052
 30
0.0
 11
9.023520999999999
 21
-1.052165
 31
0.0
  0
LINE
  5
5A2
330
1F
100
AcDbEntity
  8
1
  6
CONTINUOUS
370
50
 62
4
100
AcDbLine
 10
11.975562
 20
1.053344
 30
0.0
 11
11.848207
 21
1.091034
 31
0.0
  0
LINE
  5
5A3
330
1F
100
AcDbEntity
  8
1
  6
CONTINUOUS
370
50
 62
4
100
AcDbLine
 10
10.046635
 20
1.053506
 30
0.0
 11
9.918159
 21
1.091077
 31
0.0
  0
LINE
  5
5A4
330
1F
100
AcDbEntity
  8
1
  6
CONTINUOUS
370
50
 62
4
100
AcDbLine
 10
13.234818
 20
-1.091358
 30
0.0
 11
13.131158
 21
-1.061423
 31
0.0
  0
LINE
  5
5A5
330
1F
100
AcDbEntity
  8
1
  6
CONTINUOUS
370
50
 62
4
100
AcDbLine
 10
7.021732
 20
-1.095053
 30
0.0
 11
6.900136
 21
-1.060556
 31
0.0
  0
LINE
  5
5A6
330
1F
100
AcDbEntity
  8
1
  6
CONTINUOUS
370
50
 62
4
100
AcDbLine
 10
11.100935
 20
-1.095097
 30
0.0
 11
10.979075
 21
-1.060627
 31
0.0
  0
LINE
  5
5A7
330
1F
100
AcDbEntity
  8
1
  6
CONTINUOUS
370
50
 62
4
100
AcDbLine
 10
15.347181
 20
0.126522
 30
0.0
 11
15.332788
 21
0.130593
 31
0.0
  0
LINE
  5
5A8
330
1F
100
AcDbEntity
  8
1
  6
CONTINUOUS
370
50
 62
4
100
AcDbLine
 10
14.094782
 20
1.063107
 30
0.0
 11
13.984508
 21
1.094189
 31
0.0
  0
LINE
  5
5A9
330
1F
100
AcDbEntity
  8
1
  6
CONTINUOUS
370
50
 62
4
100
AcDbLine
 10
7.866396
 20
1.063105
 30
0.0
 11
7.746734999999999
 21
1.096511
 31
0.0
  0
LINE
  5
5AA
330
1F
100
AcDbEntity
  8
1
  6
CONTINUOUS
370
50
 62
4
100
AcDbLine
 10
8.120326
 20
0.5908479999999999
 30
0.0
 11
7.920605999999999
 21
0.6464869999999999
 31
0.0
  0
LINE
  5
5AB
330
1F
100
AcDbEntity
  8
1
  6
CONTINUOUS
370
50
 62
4
100
AcDbLine
 10
12.198901
 20
0.5912919999999999
 30
0.0
 11
11.999311
 21
0.6441629999999999
 31
0.0
  0
LINE
  5
5AC
330
1F
100
AcDbEntity
  8
1
  6
CONTINUOUS
370
50
 62
4
100
AcDbLine
 10
4.34768
 20
0.792327
 30
0.0
 11
4.259571
 21
0.81492
 31
0.0
  0
LINE
  5
5AD
330
1F
100
AcDbEntity
  8
1
  6
CONTINUOUS
370
50
 62
4
100
AcDbLine
 10
4.259571
 20
0.81492
 30
0.0
 11
4.170919
 21
0.8363499999999999
 31
0.0
  0
LINE
  5
5AE
330
1F
100
AcDbEntity
  8
1
  6
CONTINUOUS
370
50
 62
4
100
AcDbLine
 10
5.863697999999999
 20
1.085028
 30
0.0
 11
5.754662
 21
1.110437
 31
0.0
  0
LINE
  5
5AF
330
1F
100
AcDbEntity
  8
1
  6
CONTINUOUS
370
50
 62
4
100
AcDbLine
 10
4.170919
 20
0.8363499999999999
 30
0.0
 11
4.081841
 21
0.856659
 31
0.0
  0
LINE
  5
5B0
330
1F
100
AcDbEntity
  8
1
  6
CONTINUOUS
370
50
 62
4
100
AcDbLine
 10
5.178481
 20
-1.113778
 30
0.0
 11
5.054389
 21
-1.085619
 31
0.0
  0
LINE
  5
5B1
330
1F
100
AcDbEntity
  8
1
  6
CONTINUOUS
370
50
 62
4
100
AcDbLine
 10
13.338787
 20
-1.114259
 30
0.0
 11
13.234818
 21
-1.091358
 31
0.0
  0
LINE
  5
5B2
330
1F
100
AcDbEntity
  8
1
  6
CONTINUOUS
370
50
 62
4
100
AcDbLine
 10
4.081841
 20
0.856659
 30
0.0
 11
3.992452
 21
0.8758849999999999
 31
0.0
  0
LINE
  5
5B3
330
1F
100
AcDbEntity
  8
1
  6
CONTINUOUS
370
50
 62
4
100
AcDbLine
 10
9.279247999999999
 20
-1.117561
 30
0.0
 11
9.15066
 21
-1.090052
 31
0.0
  0
LINE
  5
5B4
330
1F
100
AcDbEntity
  8
1
  6
CONTINUOUS
370
50
 62
4
100
AcDbLine
 10
11.848207
 20
1.091034
 30
0.0
 11
11.720881
 21
1.118141
 31
0.0
  0
LINE
  5
5B5
330
1F
100
AcDbEntity
  8
1
  6
CONTINUOUS
370
50
 62
4
100
AcDbLine
 10
9.918159
 20
1.091077
 30
0.0
 11
9.790384
 21
1.118194
 31
0.0
  0
LINE
  5
5B6
330
1F
100
AcDbEntity
  8
1
  6
CONTINUOUS
370
50
 62
4
100
AcDbLine
 10
13.984508
 20
1.094189
 30
0.0
 11
13.874657
 21
1.117397
 31
0.0
  0
LINE
  5
5B7
330
1F
100
AcDbEntity
  8
1
  6
CONTINUOUS
370
50
 62
4
100
AcDbLine
 10
11.999311
 20
0.6441629999999999
 30
0.0
 11
11.799842
 21
0.6853349999999999
 31
0.0
  0
LINE
  5
5B8
330
1F
100
AcDbEntity
  8
1
  6
CONTINUOUS
370
50
 62
4
100
AcDbLine
 10
7.143346999999999
 20
-1.119923
 30
0.0
 11
7.021732
 21
-1.095053
 31
0.0
  0
LINE
  5
5B9
330
1F
100
AcDbEntity
  8
1
  6
CONTINUOUS
370
50
 62
4
100
AcDbLine
 10
11.222766
 20
-1.119983
 30
0.0
 11
11.100935
 21
-1.095097
 31
0.0
  0
LINE
  5
5BA
330
1F
100
AcDbEntity
  8
1
  6
CONTINUOUS
370
50
 62
4
100
AcDbLine
 10
3.992452
 20
0.8758849999999999
 30
0.0
 11
3.902869
 21
0.894068
 31
0.0
  0
LINE
  5
5BB
330
1F
100
AcDbEntity
  8
1
  6
CONTINUOUS
370
50
 62
4
100
AcDbLine
 10
7.746734999999999
 20
1.096511
 30
0.0
 11
7.626875
 21
1.120612
 31
0.0
  0
LINE
  5
5BC
330
1F
100
AcDbEntity
  8
1
  6
CONTINUOUS
370
50
 62
4
100
AcDbLine
 10
3.902869
 20
0.894068
 30
0.0
 11
3.813205
 21
0.911248
 31
0.0
  0
LINE
  5
5BD
330
1F
100
AcDbEntity
  8
1
  6
CONTINUOUS
370
50
 62
4
100
AcDbLine
 10
7.920605999999999
 20
0.6464869999999999
 30
0.0
 11
7.721062
 21
0.6844279999999999
 31
0.0
  0
LINE
  5
5BE
330
1F
100
AcDbEntity
  8
1
  6
CONTINUOUS
370
50
 62
4
100
AcDbLine
 10
3.813205
 20
0.911248
 30
0.0
 11
3.723578
 21
0.927465
 31
0.0
  0
LINE
  5
5BF
330
1F
100
AcDbEntity
  8
1
  6
CONTINUOUS
370
50
 62
4
100
AcDbLine
 10
3.723578
 20
0.927465
 30
0.0
 11
3.658149
 21
0.9381079999999999
 31
0.0
  0
LINE
  5
5C0
330
1F
100
AcDbEntity
  8
1
  6
CONTINUOUS
370
50
 62
4
100
AcDbLine
 10
5.754662
 20
1.110437
 30
0.0
 11
5.645058
 21
1.128123
 31
0.0
  0
LINE
  5
5C1
330
1F
100
AcDbEntity
  8
1
  6
CONTINUOUS
370
50
 62
4
100
AcDbLine
 10
13.443567
 20
-1.130005
 30
0.0
 11
13.338787
 21
-1.114259
 31
0.0
  0
LINE
  5
5C2
330
1F
100
AcDbEntity
  8
1
  6
CONTINUOUS
370
50
 62
4
100
AcDbLine
 10
5.302922
 20
-1.131821
 30
0.0
 11
5.178481
 21
-1.113778
 31
0.0
  0
LINE
  5
5C3
330
1F
100
AcDbEntity
  8
1
  6
CONTINUOUS
370
50
 62
4
100
AcDbLine
 10
13.874657
 20
1.117397
 30
0.0
 11
13.764676
 21
1.132564
 31
0.0
  0
LINE
  5
5C4
330
1F
100
AcDbEntity
  8
1
  6
CONTINUOUS
370
50
 62
4
100
AcDbLine
 10
3.658149
 20
0.9381079999999999
 30
0.0
 11
3.59228
 21
0.947116
 31
0.0
  0
LINE
  5
5C5
330
1F
100
AcDbEntity
  8
1
  6
CONTINUOUS
370
50
 62
4
100
AcDbLine
 10
15.361444
 20
0.124632
 30
0.0
 11
15.347181
 21
0.126522
 31
0.0
  0
LINE
  5
5C6
330
1F
100
AcDbEntity
  8
1
  6
CONTINUOUS
370
50
 62
4
100
AcDbLine
 10
11.799842
 20
0.6853349999999999
 30
0.0
 11
11.6002
 21
0.711568
 31
0.0
  0
LINE
  5
5C7
330
1F
100
AcDbEntity
  8
1
  6
CONTINUOUS
370
50
 62
4
100
AcDbLine
 10
9.408116
 20
-1.134277
 30
0.0
 11
9.279247999999999
 21
-1.117561
 31
0.0
  0
LINE
  5
5C8
330
1F
100
AcDbEntity
  8
1
  6
CONTINUOUS
370
50
 62
4
100
AcDbLine
 10
7.721062
 20
0.6844279999999999
 30
0.0
 11
7.521566999999999
 21
0.710108
 31
0.0
  0
LINE
  5
5C9
330
1F
100
AcDbEntity
  8
1
  6
CONTINUOUS
370
50
 62
4
100
AcDbLine
 10
9.790384
 20
1.118194
 30
0.0
 11
9.663399
 21
1.134539
 31
0.0
  0
LINE
  5
5CA
330
1F
100
AcDbEntity
  8
1
  6
CONTINUOUS
370
50
 62
4
100
AcDbLine
 10
11.720881
 20
1.118141
 30
0.0
 11
11.593488
 21
1.134495
 31
0.0
  0
LINE
  5
5CB
330
1F
100
AcDbEntity
  8
1
  6
CONTINUOUS
370
50
 62
4
100
AcDbLine
 10
11.344288
 20
-1.134967
 30
0.0
 11
11.222766
 21
-1.119983
 31
0.0
  0
LINE
  5
5CC
330
1F
100
AcDbEntity
  8
1
  6
CONTINUOUS
370
50
 62
4
100
AcDbLine
 10
7.265073
 20
-1.134914
 30
0.0
 11
7.143346999999999
 21
-1.119923
 31
0.0
  0
LINE
  5
5CD
330
1F
100
AcDbEntity
  8
1
  6
CONTINUOUS
370
50
 62
4
100
AcDbLine
 10
7.626875
 20
1.120612
 30
0.0
 11
7.506896999999999
 21
1.135119
 31
0.0
  0
LINE
  5
5CE
330
1F
100
AcDbEntity
  8
1
  6
CONTINUOUS
370
50
 62
4
100
AcDbLine
 10
3.59228
 20
0.947116
 30
0.0
 11
3.52601
 21
0.954498
 31
0.0
  0
LINE
  5
5CF
330
1F
100
AcDbEntity
  8
1
  6
CONTINUOUS
370
50
 62
4
100
AcDbLine
 10
5.645058
 20
1.128123
 30
0.0
 11
5.535868
 21
1.137867
 31
0.0
  0
LINE
  5
5D0
330
1F
100
AcDbEntity
  8
1
  6
CONTINUOUS
370
50
 62
4
100
AcDbLine
 10
3.52601
 20
0.954498
 30
0.0
 11
3.459376
 21
0.9602649999999999
 31
0.0
  0
LINE
  5
5D1
330
1F
100
AcDbEntity
  8
1
  6
CONTINUOUS
370
50
 62
4
100
AcDbLine
 10
13.54921
 20
-1.138457
 30
0.0
 11
13.443567
 21
-1.130005
 31
0.0
  0
LINE
  5
5D2
330
1F
100
AcDbEntity
  8
1
  6
CONTINUOUS
370
50
 62
4
100
AcDbLine
 10
13.764676
 20
1.132564
 30
0.0
 11
13.654556
 21
1.139507
 31
0.0
  0
LINE
  5
5D3
330
1F
100
AcDbEntity
  8
1
  6
CONTINUOUS
370
50
 62
4
100
AcDbLine
 10
5.426779
 20
-1.139595
 30
0.0
 11
5.302922
 21
-1.131821
 31
0.0
  0
LINE
  5
5D4
330
1F
100
AcDbEntity
  8
1
  6
CONTINUOUS
370
50
 62
4
100
AcDbLine
 10
3.459376
 20
0.9602649999999999
 30
0.0
 11
3.392418
 21
0.964424
 31
0.0
  0
LINE
  5
5D5
330
1F
100
AcDbEntity
  8
1
  6
CONTINUOUS
370
50
 62
4
100
AcDbLine
 10
7.521566999999999
 20
0.710108
 30
0.0
 11
7.321883
 21
0.7192069999999999
 31
0.0
  0
LINE
  5
5D6
330
1F
100
AcDbEntity
  8
1
  6
CONTINUOUS
370
50
 62
4
100
AcDbLine
 10
9.536344999999999
 20
-1.139956
 30
0.0
 11
9.408116
 21
-1.134277
 31
0.0
  0
LINE
  5
5D7
330
1F
100
AcDbEntity
  8
1
  6
CONTINUOUS
370
50
 62
4
100
AcDbLine
 10
11.593488
 20
1.134495
 30
0.0
 11
11.465923
 21
1.139971
 31
0.0
  0
LINE
  5
5D8
330
1F
100
AcDbEntity
  8
1
  6
CONTINUOUS
370
50
 62
4
100
AcDbLine
 10
9.663399
 20
1.134539
 30
0.0
 11
9.536344999999999
 21
1.139956
 31
0.0
  0
LINE
  5
5D9
330
1F
100
AcDbEntity
  8
1
  6
CONTINUOUS
370
50
 62
4
100
AcDbLine
 10
7.386908999999999
 20
-1.139938
 30
0.0
 11
7.265073
 21
-1.134914
 31
0.0
  0
LINE
  5
5DA
330
1F
100
AcDbEntity
  8
1
  6
CONTINUOUS
370
50
 62
4
100
AcDbLine
 10
11.465923
 20
-1.139971
 30
0.0
 11
11.344288
 21
-1.134967
 31
0.0
  0
LINE
  5
5DB
330
1F
100
AcDbEntity
  8
1
  6
CONTINUOUS
370
50
 62
4
100
AcDbLine
 10
7.506896999999999
 20
1.135119
 30
0.0
 11
7.386908999999999
 21
1.139938
 31
0.0
  0
LINE
  5
5DC
330
1F
100
AcDbEntity
  8
1
  6
CONTINUOUS
370
50
 62
4
100
AcDbLine
 10
3.392418
 20
0.964424
 30
0.0
 11
3.325174
 21
0.9669869999999999
 31
0.0
  0
LINE
  5
5DD
330
1F
100
AcDbEntity
  8
1
  6
CONTINUOUS
370
50
 62
4
100
AcDbLine
 10
11.6002
 20
0.711568
 30
0.0
 11
11.400509
 21
0.718067
 31
0.0
  0
LINE
  5
5DE
330
1F
100
AcDbEntity
  8
1
  6
CONTINUOUS
370
50
 62
4
100
AcDbLine
 10
5.535868
 20
1.137867
 30
0.0
 11
5.426779
 21
1.139595
 31
0.0
  0
LINE
  5
5DF
330
1F
100
AcDbEntity
  8
1
  6
CONTINUOUS
370
50
 62
4
100
AcDbLine
 10
3.325174
 20
0.9669869999999999
 30
0.0
 11
3.257683
 21
0.967962
 31
0.0
  0
LINE
  5
5E0
330
1F
100
AcDbEntity
  8
1
  6
CONTINUOUS
370
50
 62
4
100
AcDbLine
 10
13.654556
 20
-1.139507
 30
0.0
 11
13.54921
 21
-1.138457
 31
0.0
  0
LINE
  5
5E1
330
1F
100
AcDbEntity
  8
1
  6
CONTINUOUS
370
50
 62
4
100
AcDbLine
 10
5.457859
 20
-1.139923
 30
0.0
 11
2.624
 21
-1.1399
 31
0.0
  0
LINE
  5
5E2
330
1F
100
AcDbEntity
  8
1
  6
CONTINUOUS
370
50
 62
4
100
AcDbLine
 10
9.537417
 20
-1.139955
 30
0.0
 11
7.387175999999999
 21
-1.139938
 31
0.0
  0
LINE
  5
5E3
330
1F
100
AcDbEntity
  8
1
  6
CONTINUOUS
370
50
 62
4
100
AcDbLine
 10
13.616246
 20
-1.139988
 30
0.0
 11
11.465913
 21
-1.139971
 31
0.0
  0
LINE
  5
5E4
330
1F
100
AcDbEntity
  8
1
  6
CONTINUOUS
370
50
 62
4
100
AcDbLine
 10
0.0
 20
-1.5
 30
0.0
 11
1.0
 21
-1.5
 31
0.0
  0
LINE
  5
5E5
330
1F
100
AcDbEntity
  8
1
  6
CONTINUOUS
370
50
 62
4
100
AcDbLine
 10
1.623538
 20
-1.14
 30
0.0
 11
2.624
 21
-1.14
 31
0.0
  0
LINE
  5
5E6
330
1F
100
AcDbEntity
  8
1
  6
CONTINUOUS
370
50
 62
4
100
AcDbLine
 10
1.623538
 20
1.14
 30
0.0
 11
2.624
 21
1.14
 31
0.0
  0
LINE
  5
5E7
330
1F
100
AcDbEntity
  8
1
  6
CONTINUOUS
370
50
 62
4
100
AcDbLine
 10
0.0
 20
1.5
 30
0.0
 11
1.0
 21
1.5
 31
0.0
  0
LINE
  5
5E8
330
1F
100
AcDbEntity
  8
1
  6
CONTINUOUS
370
50
 62
4
100
AcDbLine
 10
7.387175999999999
 20
1.139938
 30
0.0
 11
9.537417
 21
1.139955
 31
0.0
  0
LINE
  5
5E9
330
1F
100
AcDbEntity
  8
1
  6
CONTINUOUS
370
50
 62
4
100
AcDbLine
 10
2.624
 20
1.1399
 30
0.0
 11
5.457859
 21
1.139923
 31
0.0
  0
LINE
  5
5EA
330
1F
100
AcDbEntity
  8
1
  6
CONTINUOUS
370
50
 62
4
100
AcDbLine
 10
11.465913
 20
1.139971
 30
0.0
 11
13.616246
 21
1.139988
 31
0.0
  0
LINE
  5
5EB
330
1F
100
AcDbEntity
  8
1
  6
CONTINUOUS
370
50
 62
4
100
AcDbLine
 10
3.19058
 20
0.967352
 30
0.0
 11
3.257683
 21
0.967962
 31
0.0
  0
LINE
  5
5EC
330
1F
100
AcDbEntity
  8
1
  6
CONTINUOUS
370
50
 62
4
100
AcDbLine
 10
5.426779
 20
-1.139595
 30
0.0
 11
5.551702
 21
-1.136949
 31
0.0
  0
LINE
  5
5ED
330
1F
100
AcDbEntity
  8
1
  6
CONTINUOUS
370
50
 62
4
100
AcDbLine
 10
15.361444
 20
0.124632
 30
0.0
 11
15.375514
 21
0.125
 31
0.0
  0
LINE
  5
5EE
330
1F
100
AcDbEntity
  8
1
  6
CONTINUOUS
370
50
 62
4
100
AcDbLine
 10
3.125586
 20
0.9651689999999999
 30
0.0
 11
3.19058
 21
0.967352
 31
0.0
  0
LINE
  5
5EF
330
1F
100
AcDbEntity
  8
1
  6
CONTINUOUS
370
50
 62
4
100
AcDbLine
 10
9.536344999999999
 20
-1.139956
 30
0.0
 11
9.674201
 21
-1.133571
 31
0.0
  0
LINE
  5
5F0
330
1F
100
AcDbEntity
  8
1
  6
CONTINUOUS
370
50
 62
4
100
AcDbLine
 10
11.32831
 20
1.133565
 30
0.0
 11
11.465923
 21
1.139971
 31
0.0
  0
LINE
  5
5F1
330
1F
100
AcDbEntity
  8
1
  6
CONTINUOUS
370
50
 62
4
100
AcDbLine
 10
7.248972999999999
 20
1.133503
 30
0.0
 11
7.386908999999999
 21
1.139938
 31
0.0
  0
LINE
  5
5F2
330
1F
100
AcDbEntity
  8
1
  6
CONTINUOUS
370
50
 62
4
100
AcDbLine
 10
11.201012
 20
0.707129
 30
0.0
 11
11.400509
 21
0.718067
 31
0.0
  0
LINE
  5
5F3
330
1F
100
AcDbEntity
  8
1
  6
CONTINUOUS
370
50
 62
4
100
AcDbLine
 10
7.122239
 20
0.70789
 30
0.0
 11
7.321883
 21
0.7192069999999999
 31
0.0
  0
LINE
  5
5F4
330
1F
100
AcDbEntity
  8
1
  6
CONTINUOUS
370
50
 62
4
100
AcDbLine
 10
3.06294
 20
0.9614579999999999
 30
0.0
 11
3.125586
 21
0.9651689999999999
 31
0.0
  0
LINE
  5
5F5
330
1F
100
AcDbEntity
  8
1
  6
CONTINUOUS
370
50
 62
4
100
AcDbLine
 10
13.654556
 20
-1.139507
 30
0.0
 11
13.770019
 21
-1.132017
 31
0.0
  0
LINE
  5
5F6
330
1F
100
AcDbEntity
  8
1
  6
CONTINUOUS
370
50
 62
4
100
AcDbLine
 10
3.002791
 20
0.956266
 30
0.0
 11
3.06294
 21
0.9614579999999999
 31
0.0
  0
LINE
  5
5F7
330
1F
100
AcDbEntity
  8
1
  6
CONTINUOUS
370
50
 62
4
100
AcDbLine
 10
15.221331
 20
0.703071
 30
0.0
 11
15.289338
 21
0.7089989999999999
 31
0.0
  0
LINE
  5
5F8
330
1F
100
AcDbEntity
  8
1
  6
CONTINUOUS
370
50
 62
4
100
AcDbLine
 10
5.551702
 20
-1.136949
 30
0.0
 11
5.676832
 21
-1.123801
 31
0.0
  0
LINE
  5
5F9
330
1F
100
AcDbEntity
  8
1
  6
CONTINUOUS
370
50
 62
4
100
AcDbLine
 10
2.945287
 20
0.949637
 30
0.0
 11
3.002791
 21
0.956266
 31
0.0
  0
LINE
  5
5FA
330
1F
100
AcDbEntity
  8
1
  6
CONTINUOUS
370
50
 62
4
100
AcDbLine
 10
15.153299
 20
0.69501
 30
0.0
 11
15.221331
 21
0.703071
 31
0.0
  0
LINE
  5
5FB
330
1F
100
AcDbEntity
  8
1
  6
CONTINUOUS
370
50
 62
4
100
AcDbLine
 10
11.001485
 20
0.682458
 30
0.0
 11
11.201012
 21
0.707129
 31
0.0
  0
LINE
  5
5FC
330
1F
100
AcDbEntity
  8
1
  6
CONTINUOUS
370
50
 62
4
100
AcDbLine
 10
6.922759999999999
 20
0.6814089999999999
 30
0.0
 11
7.122239
 21
0.70789
 31
0.0
  0
LINE
  5
5FD
330
1F
100
AcDbEntity
  8
1
  6
CONTINUOUS
370
50
 62
4
100
AcDbLine
 10
7.111215
 20
1.114307
 30
0.0
 11
7.248972999999999
 21
1.133503
 31
0.0
  0
LINE
  5
5FE
330
1F
100
AcDbEntity
  8
1
  6
CONTINUOUS
370
50
 62
4
100
AcDbLine
 10
11.190749
 20
1.114389
 30
0.0
 11
11.32831
 21
1.133565
 31
0.0
  0
LINE
  5
5FF
330
1F
100
AcDbEntity
  8
1
  6
CONTINUOUS
370
50
 62
4
100
AcDbLine
 10
9.674201
 20
-1.133571
 30
0.0
 11
9.812063
 21
-1.114333
 31
0.0
  0
LINE
  5
600
330
1F
100
AcDbEntity
  8
1
  6
CONTINUOUS
370
50
 62
4
100
AcDbLine
 10
13.770019
 20
-1.132017
 30
0.0
 11
13.88531
 21
-1.115495
 31
0.0
  0
LINE
  5
601
330
1F
100
AcDbEntity
  8
1
  6
CONTINUOUS
370
50
 62
4
100
AcDbLine
 10
2.890575
 20
0.94162
 30
0.0
 11
2.945287
 21
0.949637
 31
0.0
  0
LINE
  5
602
330
1F
100
AcDbEntity
  8
1
  6
CONTINUOUS
370
50
 62
4
100
AcDbLine
 10
15.085262
 20
0.68475
 30
0.0
 11
15.153299
 21
0.69501
 31
0.0
  0
LINE
  5
603
330
1F
100
AcDbEntity
  8
1
  6
CONTINUOUS
370
50
 62
4
100
AcDbLine
 10
2.838804
 20
0.93226
 30
0.0
 11
2.890575
 21
0.94162
 31
0.0
  0
LINE
  5
604
330
1F
100
AcDbEntity
  8
1
  6
CONTINUOUS
370
50
 62
4
100
AcDbLine
 10
15.017236
 20
0.672217
 30
0.0
 11
15.085262
 21
0.68475
 31
0.0
  0
LINE
  5
605
330
1F
100
AcDbEntity
  8
1
  6
CONTINUOUS
370
50
 62
4
100
AcDbLine
 10
5.676832
 20
-1.123801
 30
0.0
 11
5.802303999999999
 21
-1.100307
 31
0.0
  0
LINE
  5
606
330
1F
100
AcDbEntity
  8
1
  6
CONTINUOUS
370
50
 62
4
100
AcDbLine
 10
15.375514
 20
0.125
 30
0.0
 11
15.389215
 21
0.127675
 31
0.0
  0
LINE
  5
607
330
1F
100
AcDbEntity
  8
1
  6
CONTINUOUS
370
50
 62
4
100
AcDbLine
 10
6.723154999999999
 20
0.640593
 30
0.0
 11
6.922759999999999
 21
0.6814089999999999
 31
0.0
  0
LINE
  5
608
330
1F
100
AcDbEntity
  8
1
  6
CONTINUOUS
370
50
 62
4
100
AcDbLine
 10
10.801777
 20
0.641056
 30
0.0
 11
11.001485
 21
0.682458
 31
0.0
  0
LINE
  5
609
330
1F
100
AcDbEntity
  8
1
  6
CONTINUOUS
370
50
 62
4
100
AcDbLine
 10
14.94924
 20
0.657338
 30
0.0
 11
15.017236
 21
0.672217
 31
0.0
  0
LINE
  5
60A
330
1F
100
AcDbEntity
  8
1
  6
CONTINUOUS
370
50
 62
4
100
AcDbLine
 10
2.789936
 20
0.92155
 30
0.0
 11
2.838804
 21
0.93226
 31
0.0
  0
LINE
  5
60B
330
1F
100
AcDbEntity
  8
1
  6
CONTINUOUS
370
50
 62
4
100
AcDbLine
 10
13.88531
 20
-1.115495
 30
0.0
 11
14.000515
 21
-1.090152
 31
0.0
  0
LINE
  5
60C
330
1F
100
AcDbEntity
  8
1
  6
CONTINUOUS
370
50
 62
4
100
AcDbLine
 10
9.812063
 20
-1.114333
 30
0.0
 11
9.951023
 21
-1.082444
 31
0.0
  0
LINE
  5
60D
330
1F
100
AcDbEntity
  8
1
  6
CONTINUOUS
370
50
 62
4
100
AcDbLine
 10
11.05285
 20
1.082622
 30
0.0
 11
11.190749
 21
1.114389
 31
0.0
  0
LINE
  5
60E
330
1F
100
AcDbEntity
  8
1
  6
CONTINUOUS
370
50
 62
4
100
AcDbLine
 10
6.973563
 20
1.082519
 30
0.0
 11
7.111215
 21
1.114307
 31
0.0
  0
LINE
  5
60F
330
1F
100
AcDbEntity
  8
1
  6
CONTINUOUS
370
50
 62
4
100
AcDbLine
 10
14.881286
 20
0.640235
 30
0.0
 11
14.94924
 21
0.657338
 31
0.0
  0
LINE
  5
610
330
1F
100
AcDbEntity
  8
1
  6
CONTINUOUS
370
50
 62
4
100
AcDbLine
 10
2.74385
 20
0.9094129999999999
 30
0.0
 11
2.789936
 21
0.92155
 31
0.0
  0
LINE
  5
611
330
1F
100
AcDbEntity
  8
1
  6
CONTINUOUS
370
50
 62
4
100
AcDbLine
 10
5.802303999999999
 20
-1.100307
 30
0.0
 11
5.926487
 21
-1.066824
 31
0.0
  0
LINE
  5
612
330
1F
100
AcDbEntity
  8
1
  6
CONTINUOUS
370
50
 62
4
100
AcDbLine
 10
14.000515
 20
-1.090152
 30
0.0
 11
14.116264
 21
-1.056179
 31
0.0
  0
LINE
  5
613
330
1F
100
AcDbEntity
  8
1
  6
CONTINUOUS
370
50
 62
4
100
AcDbLine
 10
2.700717
 20
0.895829
 30
0.0
 11
2.74385
 21
0.9094129999999999
 31
0.0
  0
LINE
  5
614
330
1F
100
AcDbEntity
  8
1
  6
CONTINUOUS
370
50
 62
4
100
AcDbLine
 10
9.951023
 20
-1.082444
 30
0.0
 11
10.090053
 21
-1.03842
 31
0.0
  0
LINE
  5
615
330
1F
100
AcDbEntity
  8
1
  6
CONTINUOUS
370
50
 62
4
100
AcDbLine
 10
10.914946
 20
1.038746
 30
0.0
 11
11.05285
 21
1.082622
 31
0.0
  0
LINE
  5
616
330
1F
100
AcDbEntity
  8
1
  6
CONTINUOUS
370
50
 62
4
100
AcDbLine
 10
6.835805
 20
1.038547
 30
0.0
 11
6.973563
 21
1.082519
 31
0.0
  0
LINE
  5
617
330
1F
100
AcDbEntity
  8
1
  6
CONTINUOUS
370
50
 62
4
100
AcDbLine
 10
15.00686
 20
1.043559
 30
0.0
 11
15.092409
 21
1.071439
 31
0.0
  0
LINE
  5
618
330
1F
100
AcDbEntity
  8
1
  6
CONTINUOUS
370
50
 62
4
100
AcDbLine
 10
5.926487
 20
-1.066824
 30
0.0
 11
6.049717999999999
 21
-1.023682
 31
0.0
  0
LINE
  5
619
330
1F
100
AcDbEntity
  8
1
  6
CONTINUOUS
370
50
 62
4
100
AcDbLine
 10
14.116264
 20
-1.056179
 30
0.0
 11
14.2326
 21
-1.013814
 31
0.0
  0
LINE
  5
61A
330
1F
100
AcDbEntity
  8
1
  6
CONTINUOUS
370
50
 62
4
100
AcDbLine
 10
2.660709
 20
0.88078
 30
0.0
 11
2.700717
 21
0.895829
 31
0.0
  0
LINE
  5
61B
330
1F
100
AcDbEntity
  8
1
  6
CONTINUOUS
370
50
 62
4
100
AcDbLine
 10
15.389215
 20
0.127675
 30
0.0
 11
15.402181
 21
0.132574
 31
0.0
  0
LINE
  5
61C
330
1F
100
AcDbEntity
  8
1
  6
CONTINUOUS
370
50
 62
4
100
AcDbLine
 10
14.921598
 20
1.011207
 30
0.0
 11
15.00686
 21
1.043559
 31
0.0
  0
LINE
  5
61D
330
1F
100
AcDbEntity
  8
1
  6
CONTINUOUS
370
50
 62
4
100
AcDbLine
 10
10.776892
 20
0.983178
 30
0.0
 11
10.914946
 21
1.038746
 31
0.0
  0
LINE
  5
61E
330
1F
100
AcDbEntity
  8
1
  6
CONTINUOUS
370
50
 62
4
100
AcDbLine
 10
6.697963
 20
0.982999
 30
0.0
 11
6.835805
 21
1.038547
 31
0.0
  0
LINE
  5
61F
330
1F
100
AcDbEntity
  8
1
  6
CONTINUOUS
370
50
 62
4
100
AcDbLine
 10
10.090053
 20
-1.03842
 30
0.0
 11
10.227341
 21
-0.982868
 31
0.0
  0
LINE
  5
620
330
1F
100
AcDbEntity
  8
1
  6
CONTINUOUS
370
50
 62
4
100
AcDbLine
 10
6.049717999999999
 20
-1.023682
 30
0.0
 11
6.172891
 21
-0.971194
 31
0.0
  0
LINE
  5
621
330
1F
100
AcDbEntity
  8
1
  6
CONTINUOUS
370
50
 62
4
100
AcDbLine
 10
14.836463
 20
0.9744919999999999
 30
0.0
 11
14.921598
 21
1.011207
 31
0.0
  0
LINE
  5
622
330
1F
100
AcDbEntity
  8
1
  6
CONTINUOUS
370
50
 62
4
100
AcDbLine
 10
14.2326
 20
-1.013814
 30
0.0
 11
14.349006
 21
-0.963316
 31
0.0
  0
LINE
  5
623
330
1F
100
AcDbEntity
  8
1
  6
CONTINUOUS
370
50
 62
4
100
AcDbLine
 10
2.624
 20
0.864244
 30
0.0
 11
2.660709
 21
0.88078
 31
0.0
  0
LINE
  5
624
330
1F
100
AcDbEntity
  8
1
  6
CONTINUOUS
370
50
 62
4
100
AcDbLine
 10
14.751294
 20
0.933523
 30
0.0
 11
14.836463
 21
0.9744919999999999
 31
0.0
  0
LINE
  5
625
330
1F
100
AcDbEntity
  8
1
  6
CONTINUOUS
370
50
 62
4
100
AcDbLine
 10
6.560049999999999
 20
0.916445
 30
0.0
 11
6.697963
 21
0.982999
 31
0.0
  0
LINE
  5
626
330
1F
100
AcDbEntity
  8
1
  6
CONTINUOUS
370
50
 62
4
100
AcDbLine
 10
10.63901
 20
0.9164629999999999
 30
0.0
 11
10.776892
 21
0.983178
 31
0.0
  0
LINE
  5
627
330
1F
100
AcDbEntity
  8
1
  6
CONTINUOUS
370
50
 62
4
100
AcDbLine
 10
10.227341
 20
-0.982868
 30
0.0
 11
10.36399
 21
-0.916323
 31
0.0
  0
LINE
  5
628
330
1F
100
AcDbEntity
  8
1
  6
CONTINUOUS
370
50
 62
4
100
AcDbLine
 10
6.172891
 20
-0.971194
 30
0.0
 11
6.296899
 21
-0.909673
 31
0.0
  0
LINE
  5
629
330
1F
100
AcDbEntity
  8
1
  6
CONTINUOUS
370
50
 62
4
100
AcDbLine
 10
14.349006
 20
-0.963316
 30
0.0
 11
14.465009
 21
-0.9049499999999999
 31
0.0
  0
LINE
  5
62A
330
1F
100
AcDbEntity
  8
1
  6
CONTINUOUS
370
50
 62
4
100
AcDbLine
 10
2.606682
 20
0.855424
 30
0.0
 11
2.624
 21
0.864386
 31
0.0
  0
LINE
  5
62B
330
1F
100
AcDbEntity
  8
1
  6
CONTINUOUS
370
50
 62
4
100
AcDbLine
 10
14.665931
 20
0.888411
 30
0.0
 11
14.751294
 21
0.933523
 31
0.0
  0
LINE
  5
62C
330
1F
100
AcDbEntity
  8
1
  6
CONTINUOUS
370
50
 62
4
100
AcDbLine
 10
6.422299
 20
0.8395199999999999
 30
0.0
 11
6.560049999999999
 21
0.916445
 31
0.0
  0
LINE
  5
62D
330
1F
100
AcDbEntity
  8
1
  6
CONTINUOUS
370
50
 62
4
100
AcDbLine
 10
6.296899
 20
-0.909673
 30
0.0
 11
6.4223
 21
-0.839517
 31
0.0
  0
LINE
  5
62E
330
1F
100
AcDbEntity
  8
1
  6
CONTINUOUS
370
50
 62
4
100
AcDbLine
 10
10.501241
 20
0.839306
 30
0.0
 11
10.63901
 21
0.9164629999999999
 31
0.0
  0
LINE
  5
62F
330
1F
100
AcDbEntity
  8
1
  6
CONTINUOUS
370
50
 62
4
100
AcDbLine
 10
10.36399
 20
-0.916323
 30
0.0
 11
10.501248
 21
-0.839306
 31
0.0
  0
LINE
  5
630
330
1F
100
AcDbEntity
  8
1
  6
CONTINUOUS
370
50
 62
4
100
AcDbLine
 10
14.465009
 20
-0.9049499999999999
 30
0.0
 11
14.580449
 21
-0.839418
 31
0.0
  0
LINE
  5
631
330
1F
100
AcDbEntity
  8
1
  6
CONTINUOUS
370
50
 62
4
100
AcDbLine
 10
2.58992
 20
0.845854
 30
0.0
 11
2.606682
 21
0.855424
 31
0.0
  0
LINE
  5
632
330
1F
100
AcDbEntity
  8
1
  6
CONTINUOUS
370
50
 62
4
100
AcDbLine
 10
14.580441
 20
0.8394189999999999
 30
0.0
 11
14.665931
 21
0.888411
 31
0.0
  0
LINE
  5
633
330
1F
100
AcDbEntity
  8
1
  6
CONTINUOUS
370
50
 62
4
100
AcDbLine
 10
1.0
 20
-1.5
 30
0.0
 11
1.623538
 21
-1.14
 31
0.0
  0
LINE
  5
634
330
1F
100
AcDbEntity
  8
1
  6
CONTINUOUS
370
50
 62
4
100
AcDbLine
 10
15.402181
 20
0.132574
 30
0.0
 11
15.414278
 21
0.139593
 31
0.0
  0
LINE
  5
635
330
1F
100
AcDbEntity
  8
1
  6
CONTINUOUS
370
50
 62
4
100
AcDbLine
 10
2.573813
 20
0.835654
 30
0.0
 11
2.58992
 21
0.845854
 31
0.0
  0
LINE
  5
636
330
1F
100
AcDbEntity
  8
1
  6
CONTINUOUS
370
50
 62
4
100
AcDbLine
 10
2.55846
 20
0.8248
 30
0.0
 11
2.573813
 21
0.835654
 31
0.0
  0
LINE
  5
637
330
1F
100
AcDbEntity
  8
1
  6
CONTINUOUS
370
50
 62
4
100
AcDbLine
 10
2.543961
 20
0.813267
 30
0.0
 11
2.55846
 21
0.8248
 31
0.0
  0
LINE
  5
638
330
1F
100
AcDbEntity
  8
1
  6
CONTINUOUS
370
50
 62
4
100
AcDbLine
 10
15.414278
 20
0.139593
 30
0.0
 11
15.425385
 21
0.148629
 31
0.0
  0
LINE
  5
639
330
1F
100
AcDbEntity
  8
1
  6
CONTINUOUS
370
50
 62
4
100
AcDbLine
 10
2.530423
 20
0.801037
 30
0.0
 11
2.543961
 21
0.813267
 31
0.0
  0
LINE
  5
63A
330
1F
100
AcDbEntity
  8
1
  6
CONTINUOUS
370
50
 62
4
100
AcDbLine
 10
2.517972
 20
0.7881119999999999
 30
0.0
 11
2.530423
 21
0.801037
 31
0.0
  0
LINE
  5
63B
330
1F
100
AcDbEntity
  8
1
  6
CONTINUOUS
370
50
 62
4
100
AcDbLine
 10
15.425385
 20
0.148629
 30
0.0
 11
15.43538
 21
0.15958
 31
0.0
  0
LINE
  5
63C
330
1F
100
AcDbEntity
  8
1
  6
CONTINUOUS
370
50
 62
4
100
AcDbLine
 10
2.506708
 20
0.774474
 30
0.0
 11
2.517972
 21
0.7881119999999999
 31
0.0
  0
LINE
  5
63D
330
1F
100
AcDbEntity
  8
1
  6
CONTINUOUS
370
50
 62
4
100
AcDbLine
 10
2.496731
 20
0.760104
 30
0.0
 11
2.506708
 21
0.774474
 31
0.0
  0
LINE
  5
63E
330
1F
100
AcDbEntity
  8
1
  6
CONTINUOUS
370
50
 62
4
100
AcDbLine
 10
15.43538
 20
0.15958
 30
0.0
 11
15.444839
 21
0.173428
 31
0.0
  0
LINE
  5
63F
330
1F
100
AcDbEntity
  8
1
  6
CONTINUOUS
370
50
 62
4
100
AcDbLine
 10
15.092409
 20
-1.071439
 30
0.0
 11
15.120141
 21
-1.024472
 31
0.0
  0
LINE
  5
640
330
1F
100
AcDbEntity
  8
1
  6
CONTINUOUS
370
50
 62
4
100
AcDbLine
 10
15.120141
 20
-1.024472
 30
0.0
 11
15.148033
 21
-0.975773
 31
0.0
  0
LINE
  5
641
330
1F
100
AcDbEntity
  8
1
  6
CONTINUOUS
370
50
 62
4
100
AcDbLine
 10
2.488139
 20
0.744983
 30
0.0
 11
2.496731
 21
0.760104
 31
0.0
  0
LINE
  5
642
330
1F
100
AcDbEntity
  8
1
  6
CONTINUOUS
370
50
 62
4
100
AcDbLine
 10
15.148033
 20
-0.975773
 30
0.0
 11
15.176057
 21
-0.925437
 31
0.0
  0
LINE
  5
643
330
1F
100
AcDbEntity
  8
1
  6
CONTINUOUS
370
50
 62
4
100
AcDbLine
 10
15.176057
 20
-0.925437
 30
0.0
 11
15.204204
 21
-0.8735299999999999
 31
0.0
  0
LINE
  5
644
330
1F
100
AcDbEntity
  8
1
  6
CONTINUOUS
370
50
 62
4
100
AcDbLine
 10
15.204204
 20
-0.8735299999999999
 30
0.0
 11
15.23247
 21
-0.820114
 31
0.0
  0
LINE
  5
645
330
1F
100
AcDbEntity
  8
1
  6
CONTINUOUS
370
50
 62
4
100
AcDbLine
 10
15.23247
 20
-0.820114
 30
0.0
 11
15.26085
 21
-0.76525
 31
0.0
  0
LINE
  5
646
330
1F
100
AcDbEntity
  8
1
  6
CONTINUOUS
370
50
 62
4
100
AcDbLine
 10
15.26085
 20
-0.76525
 30
0.0
 11
15.289338
 21
-0.7089989999999999
 31
0.0
  0
LINE
  5
647
330
1F
100
AcDbEntity
  8
1
  6
CONTINUOUS
370
50
 62
4
100
AcDbLine
 10
15.289338
 20
-0.7089989999999999
 30
0.0
 11
15.304178
 21
-0.6793699999999999
 31
0.0
  0
LINE
  5
648
330
1F
100
AcDbEntity
  8
1
  6
CONTINUOUS
370
50
 62
4
100
AcDbLine
 10
15.304178
 20
-0.6793699999999999
 30
0.0
 11
15.318835
 21
-0.6499849999999999
 31
0.0
  0
LINE
  5
649
330
1F
100
AcDbEntity
  8
1
  6
CONTINUOUS
370
50
 62
4
100
AcDbLine
 10
15.318835
 20
-0.6499849999999999
 30
0.0
 11
15.333227
 21
-0.620919
 31
0.0
  0
LINE
  5
64A
330
1F
100
AcDbEntity
  8
1
  6
CONTINUOUS
370
50
 62
4
100
AcDbLine
 10
15.333227
 20
-0.620919
 30
0.0
 11
15.34727
 21
-0.592245
 31
0.0
  0
LINE
  5
64B
330
1F
100
AcDbEntity
  8
1
  6
CONTINUOUS
370
50
 62
4
100
AcDbLine
 10
15.34727
 20
-0.592245
 30
0.0
 11
15.360884
 21
-0.564037
 31
0.0
  0
LINE
  5
64C
330
1F
100
AcDbEntity
  8
1
  6
CONTINUOUS
370
50
 62
4
100
AcDbLine
 10
15.360884
 20
-0.564037
 30
0.0
 11
15.373984
 21
-0.536368
 31
0.0
  0
LINE
  5
64D
330
1F
100
AcDbEntity
  8
1
  6
CONTINUOUS
370
50
 62
4
100
AcDbLine
 10
15.444839
 20
0.173428
 30
0.0
 11
15.454207
 21
0.193249
 31
0.0
  0
LINE
  5
64E
330
1F
100
AcDbEntity
  8
1
  6
CONTINUOUS
370
50
 62
4
100
AcDbLine
 10
15.376508
 20
-0.530749
 30
0.0
 11
15.624
 21
0.0
 31
0.0
  0
LINE
  5
64F
330
1F
100
AcDbEntity
  8
1
  6
CONTINUOUS
370
50
 62
4
100
AcDbLine
 10
2.481058
 20
0.729161
 30
0.0
 11
2.488139
 21
0.744983
 31
0.0
  0
LINE
  5
650
330
1F
100
AcDbEntity
  8
1
  6
CONTINUOUS
370
50
 62
4
100
AcDbLine
 10
2.475634
 20
0.712859
 30
0.0
 11
2.481058
 21
0.729161
 31
0.0
  0
LINE
  5
651
330
1F
100
AcDbEntity
  8
1
  6
CONTINUOUS
370
50
 62
4
100
AcDbLine
 10
15.454207
 20
0.193249
 30
0.0
 11
15.46138
 21
0.220278
 31
0.0
  0
LINE
  5
652
330
1F
100
AcDbEntity
  8
1
  6
CONTINUOUS
370
50
 62
4
100
AcDbLine
 10
2.471878
 20
0.696104
 30
0.0
 11
2.475634
 21
0.712859
 31
0.0
  0
LINE
  5
653
330
1F
100
AcDbEntity
  8
1
  6
CONTINUOUS
370
50
 62
4
100
AcDbLine
 10
2.469792
 20
0.678901
 30
0.0
 11
2.471878
 21
0.696104
 31
0.0
  0
LINE
  5
654
330
1F
100
AcDbEntity
  8
1
  6
CONTINUOUS
370
50
 62
4
100
AcDbLine
 10
15.46138
 20
0.220278
 30
0.0
 11
15.464158
 21
0.255574
 31
0.0
  0
LINE
  5
655
330
1F
100
AcDbEntity
  8
1
  6
CONTINUOUS
370
50
 62
4
100
AcDbLine
 10
2.469379
 20
0.6612589999999999
 30
0.0
 11
2.469792
 21
0.678901
 31
0.0
  0
LINE
  5
656
330
1F
100
AcDbEntity
  8
1
  6
CONTINUOUS
370
50
 62
4
100
AcDbLine
 10
0.0
 20
-1.5
 30
0.0
 11
0.0
 21
1.5
 31
0.0
  0
LINE
  5
657
330
1F
100
AcDbEntity
  8
1
  6
CONTINUOUS
370
50
 62
4
100
AcDbLine
 10
1.0
 20
-1.5
 30
0.0
 11
1.0
 21
1.5
 31
0.0
  0
LINE
  5
658
330
1F
100
AcDbEntity
  8
1
  6
CONTINUOUS
370
50
 62
4
100
AcDbLine
 10
1.623538
 20
-1.14
 30
0.0
 11
1.623538
 21
1.14
 31
0.0
  0
LINE
  5
659
330
1F
100
AcDbEntity
  8
1
  6
CONTINUOUS
370
50
 62
4
100
AcDbLine
 10
2.624
 20
-1.14
 30
0.0
 11
2.624
 21
1.14
 31
0.0
  0
LINE
  5
65A
330
1F
100
AcDbEntity
  8
1
  6
CONTINUOUS
370
50
 62
4
100
AcDbLine
 10
4.34768
 20
-0.726402
 30
0.0
 11
4.34768
 21
0.792327
 31
0.0
  0
LINE
  5
65B
330
1F
100
AcDbEntity
  8
1
  6
CONTINUOUS
370
50
 62
4
100
AcDbLine
 10
15.092409
 20
-1.071439
 30
0.0
 11
15.092409
 21
0.480128
 31
0.0
  0
LINE
  5
65C
330
1F
100
AcDbEntity
  8
SK1
  6
CONTINUOUS
370
50
 62
4
100
AcDbLine
 10
0.0
 20
1.5
 30
0.0
 11
-29.076
 21
1.5
 31
0.0
  0
LINE
  5
65D
330
1F
100
AcDbEntity
  8
SK1
  6
CONTINUOUS
370
50
 62
4
100
AcDbLine
 10
-29.076
 20
1.5
 30
0.0
 11
-29.376
 21
1.2
 31
0.0
  0
LINE
  5
65E
330
1F
100
AcDbEntity
  8
SK1
  6
CONTINUOUS
370
50
 62
4
100
AcDbLine
 10
-29.376
 20
1.2
 30
0.0
 11
-29.376
 21
-1.2
 31
0.0
  0
LINE
  5
65F
330
1F
100
AcDbEntity
  8
SK1
  6
CONTINUOUS
370
50
 62
4
100
AcDbLine
 10
-29.376
 20
-1.2
 30
0.0
 11
-29.076
 21
-1.5
 31
0.0
  0
LINE
  5
660
330
1F
100
AcDbEntity
  8
SK1
  6
CONTINUOUS
370
50
 62
4
100
AcDbLine
 10
-29.076
 20
-1.5
 30
0.0
 11
0.0
 21
-1.5
 31
0.0
  0
LINE
  5
661
330
1F
100
AcDbEntity
  8
NOCUT
  6
CONTINUOUS
370
25
 62
7
100
AcDbLine
 10
0.0
 20
0.0
 30
0.0
 11
0.0
 21
1.5
 31
0.0
  0
LINE
  5
662
330
1F
100
AcDbEntity
  8
NOCUT
  6
CONTINUOUS
370
25
 62
7
100
AcDbLine
 10
0.0
 20
1.5
 30
0.0
 11
1.0
 21
1.5
 31
0.0
  0
LINE
  5
663
330
1F
100
AcDbEntity
  8
NOCUT
  6
CONTINUOUS
370
25
 62
7
100
AcDbLine
 10
1.0
 20
0.0
 30
0.0
 11
0.0
 21
0.0
 31
0.0
  0
LINE
  5
664
330
1F
100
AcDbEntity
  8
SK2
  6
CONTINUOUS
370
25
 62
7
100
AcDbLine
 10
-39.37600020000001
 20
-1.500001
 30
0.0
 11
-40.3760000000001
 21
-1.500001
 31
0.0
  0
LINE
  5
665
330
1F
100
AcDbEntity
  8
SK2
  6
CONTINUOUS
370
25
 62
7
100
AcDbLine
 10
-29.376
 20
-1.500001
 30
0.0
 11
-39.3759998
 21
-1.500001
 31
0.0
  0
LINE
  5
666
330
1F
100
AcDbEntity
  8
SK2
  6
CONTINUOUS
370
25
 62
7
100
AcDbLine
 10
-40.376
 20
1.5
 30
0.0
 11
-29.376
 21
1.5
 31
0.0
  0
LINE
  5
667
330
1F
100
AcDbEntity
  8
SK2
  6
CONTINUOUS
370
25
 62
7
100
AcDbLine
 10
-39.376
 20
-16.60625
 30
0.0
 11
-39.376
 21
11.5
 31
0.0
  0
LINE
  5
668
330
1F
100
AcDbEntity
  8
SK2
  6
CONTINUOUS
370
25
 62
7
100
AcDbLine
 10
-39.376
 20
-1.5
 30
0.0
 11
-38.376
 21
-6.5
 31
0.0
  0
LINE
  5
669
330
1F
100
AcDbEntity
  8
SK2
  6
CONTINUOUS
370
25
 62
7
100
AcDbLine
 10
-38.376
 20
-6.5
 30
0.0
 11
-40.376
 21
-6.5
 31
0.0
  0
LINE
  5
66A
330
1F
100
AcDbEntity
  8
SK2
  6
CONTINUOUS
370
25
 62
7
100
AcDbLine
 10
-40.376
 20
-6.5
 30
0.0
 11
-39.376
 21
-1.5
 31
0.0
  0
LINE
  5
66B
330
1F
100
AcDbEntity
  8
SK2
  6
CONTINUOUS
370
25
 62
7
100
AcDbLine
 10
-38.74406922210655
 20
-6.5
 30
0.0
 11
-38.4373448703511
 21
-6.193275648244544
 31
0.0
  0
LINE
  5
66C
330
1F
100
AcDbEntity
  8
SK2
  6
CONTINUOUS
370
25
 62
7
100
AcDbLine
 10
-39.16833329081849
 20
-6.5
 30
0.0
 11
-38.50805554846976
 21
-5.839722257651268
 31
0.0
  0
LINE
  5
66D
330
1F
100
AcDbEntity
  8
SK2
  6
CONTINUOUS
370
25
 62
7
100
AcDbLine
 10
-39.59259735953042
 20
-6.5
 30
0.0
 11
-38.57876622658841
 21
-5.486168867057991
 31
0.0
  0
LINE
  5
66E
330
1F
100
AcDbEntity
  8
SK2
  6
CONTINUOUS
370
25
 62
7
100
AcDbLine
 10
-40.01686142824234
 20
-6.5
 30
0.0
 11
-38.64947690470706
 21
-5.132615476464714
 31
0.0
  0
LINE
  5
66F
330
1F
100
AcDbEntity
  8
SK2
  6
CONTINUOUS
370
25
 62
7
100
AcDbLine
 10
-40.35971862576144
 20
-6.418593128807167
 30
0.0
 11
-38.72018758282572
 21
-4.779062085871445
 31
0.0
  0
LINE
  5
670
330
1F
100
AcDbEntity
  8
SK2
  6
CONTINUOUS
370
25
 62
7
100
AcDbLine
 10
-40.25365260858346
 20
-5.888263042917252
 30
0.0
 11
-38.79089826094437
 21
-4.425508695278161
 31
0.0
  0
LINE
  5
671
330
1F
100
AcDbEntity
  8
SK2
  6
CONTINUOUS
370
25
 62
7
100
AcDbLine
 10
-40.14758659140547
 20
-5.357932957027337
 30
0.0
 11
-38.86160893906303
 21
-4.071955304684892
 31
0.0
  0
LINE
  5
672
330
1F
100
AcDbEntity
  8
SK2
  6
CONTINUOUS
370
25
 62
7
100
AcDbLine
 10
-40.04152057422749
 20
-4.827602871137422
 30
0.0
 11
-38.93231961718168
 21
-3.718401914091615
 31
0.0
  0
LINE
  5
673
330
1F
100
AcDbEntity
  8
SK2
  6
CONTINUOUS
370
25
 62
7
100
AcDbLine
 10
-39.9354545570495
 20
-4.297272785247507
 30
0.0
 11
-39.00303029530034
 21
-3.364848523498345
 31
0.0
  0
LINE
  5
674
330
1F
100
AcDbEntity
  8
SK2
  6
CONTINUOUS
370
25
 62
7
100
AcDbLine
 10
-39.82938853987152
 20
-3.766942699357593
 30
0.0
 11
-39.07374097341899
 21
-3.011295132905062
 31
0.0
  0
LINE
  5
675
330
1F
100
AcDbEntity
  8
SK2
  6
CONTINUOUS
370
25
 62
7
100
AcDbLine
 10
-39.72332252269354
 20
-3.236612613467685
 30
0.0
 11
-39.14445165153764
 21
-2.657741742311785
 31
0.0
  0
LINE
  5
676
330
1F
100
AcDbEntity
  8
SK2
  6
CONTINUOUS
370
25
 62
7
100
AcDbLine
 10
-39.61725650551556
 20
-2.706282527577763
 30
0.0
 11
-39.2151623296563
 21
-2.304188351718508
 31
0.0
  0
LINE
  5
677
330
1F
100
AcDbEntity
  8
SK2
  6
CONTINUOUS
370
25
 62
7
100
AcDbLine
 10
-39.51119048833758
 20
-2.175952441687855
 30
0.0
 11
-39.28587300777496
 21
-1.950634961125239
 31
0.0
  0
LINE
  5
678
330
1F
100
AcDbEntity
  8
SK2
  6
CONTINUOUS
370
25
 62
7
100
AcDbLine
 10
-39.40512447115959
 20
-1.645622355797926
 30
0.0
 11
-39.35658368589362
 21
-1.597081570531955
 31
0.0
  0
LINE
  5
679
330
1F
100
AcDbEntity
  8
SK2
  6
CONTINUOUS
370
25
 62
7
100
AcDbLine
 10
-40.35720843792147
 20
-6.406042189607319
 30
0.0
 11
-40.26325062752879
 21
-6.5
 31
0.0
  0
LINE
  5
67A
330
1F
100
AcDbEntity
  8
SK2
  6
CONTINUOUS
370
25
 62
7
100
AcDbLine
 10
-40.28649775980281
 20
-6.052488799014043
 30
0.0
 11
-39.83898655881686
 21
-6.5
 31
0.0
  0
LINE
  5
67B
330
1F
100
AcDbEntity
  8
SK2
  6
CONTINUOUS
370
25
 62
7
100
AcDbLine
 10
-40.21578708168416
 20
-5.698935408420773
 30
0.0
 11
-39.41472249010493
 21
-6.5
 31
0.0
  0
LINE
  5
67C
330
1F
100
AcDbEntity
  8
SK2
  6
CONTINUOUS
370
25
 62
7
100
AcDbLine
 10
-40.1450764035655
 20
-5.34538201782749
 30
0.0
 11
-38.99045842139299
 21
-6.5
 31
0.0
  0
LINE
  5
67D
330
1F
100
AcDbEntity
  8
SK2
  6
CONTINUOUS
370
25
 62
7
100
AcDbLine
 10
-40.07436572544685
 20
-4.991828627234213
 30
0.0
 11
-38.56619435268106
 21
-6.5
 31
0.0
  0
LINE
  5
67E
330
1F
100
AcDbEntity
  8
SK2
  6
CONTINUOUS
370
25
 62
7
100
AcDbLine
 10
-40.00365504732819
 20
-4.638275236640936
 30
0.0
 11
-38.43451742900773
 21
-6.207412854961397
 31
0.0
  0
LINE
  5
67F
330
1F
100
AcDbEntity
  8
SK2
  6
CONTINUOUS
370
25
 62
7
100
AcDbLine
 10
-39.93294436920954
 20
-4.28472184604766
 30
0.0
 11
-38.54058344618571
 21
-5.67708276907149
 31
0.0
  0
LINE
  5
680
330
1F
100
AcDbEntity
  8
SK2
  6
CONTINUOUS
370
25
 62
7
100
AcDbLine
 10
-39.86223369109089
 20
-3.931168455454383
 30
0.0
 11
-38.64664946336369
 21
-5.146752683181582
 31
0.0
  0
LINE
  5
681
330
1F
100
AcDbEntity
  8
SK2
  6
CONTINUOUS
370
25
 62
7
100
AcDbLine
 10
-39.79152301297223
 20
-3.577615064861099
 30
0.0
 11
-38.75271548054167
 21
-4.616422597291667
 31
0.0
  0
LINE
  5
682
330
1F
100
AcDbEntity
  8
SK2
  6
CONTINUOUS
370
25
 62
7
100
AcDbLine
 10
-39.72081233485357
 20
-3.224061674267837
 30
0.0
 11
-38.85878149771965
 21
-4.086092511401752
 31
0.0
  0
LINE
  5
683
330
1F
100
AcDbEntity
  8
SK2
  6
CONTINUOUS
370
25
 62
7
100
AcDbLine
 10
-39.65010165673491
 20
-2.87050828367456
 30
0.0
 11
-38.96484751489764
 21
-3.55576242551183
 31
0.0
  0
LINE
  5
684
330
1F
100
AcDbEntity
  8
SK2
  6
CONTINUOUS
370
25
 62
7
100
AcDbLine
 10
-39.57939097861625
 20
-2.516954893081284
 30
0.0
 11
-39.07091353207563
 21
-3.025432339621908
 31
0.0
  0
LINE
  5
685
330
1F
100
AcDbEntity
  8
SK2
  6
CONTINUOUS
370
25
 62
7
100
AcDbLine
 10
-39.50868030049761
 20
-2.163401502488
 30
0.0
 11
-39.1769795492536
 21
-2.495102253732007
 31
0.0
  0
LINE
  5
686
330
1F
100
AcDbEntity
  8
SK2
  6
CONTINUOUS
370
25
 62
7
100
AcDbLine
 10
-39.43796962237896
 20
-1.809848111894716
 30
0.0
 11
-39.28304556643158
 21
-1.964772167842092
 31
0.0
  0
LINE
  5
687
330
1F
100
AcDbEntity
  8
SK2
  6
CONTINUOUS
370
25
 62
7
100
AcDbLine
 10
-39.376
 20
1.5
 30
0.0
 11
-40.376
 21
6.5
 31
0.0
  0
LINE
  5
688
330
1F
100
AcDbEntity
  8
SK2
  6
CONTINUOUS
370
25
 62
7
100
AcDbLine
 10
-40.376
 20
6.5
 30
0.0
 11
-38.376
 21
6.5
 31
0.0
  0
LINE
  5
689
330
1F
100
AcDbEntity
  8
SK2
  6
CONTINUOUS
370
25
 62
7
100
AcDbLine
 10
-38.376
 20
6.5
 30
0.0
 11
-39.376
 21
1.5
 31
0.0
  0
LINE
  5
68A
330
1F
100
AcDbEntity
  8
SK2
  6
CONTINUOUS
370
25
 62
7
100
AcDbLine
 10
-39.42226911084285
 20
1.731345554214208
 30
0.0
 11
-39.30659633373574
 21
1.847018331321316
 31
0.0
  0
LINE
  5
68B
330
1F
100
AcDbEntity
  8
SK2
  6
CONTINUOUS
370
25
 62
7
100
AcDbLine
 10
-39.4929797889615
 20
2.084898944807485
 30
0.0
 11
-39.20053031655776
 21
2.377348417211223
 31
0.0
  0
LINE
  5
68C
330
1F
100
AcDbEntity
  8
SK2
  6
CONTINUOUS
370
25
 62
7
100
AcDbLine
 10
-39.56369046708016
 20
2.438452335400761
 30
0.0
 11
-39.09446429937978
 21
2.907678503101138
 31
0.0
  0
LINE
  5
68D
330
1F
100
AcDbEntity
  8
SK2
  6
CONTINUOUS
370
25
 62
7
100
AcDbLine
 10
-39.63440114519882
 20
2.792005725994038
 30
0.0
 11
-38.98839828220179
 21
3.43800858899106
 31
0.0
  0
LINE
  5
68E
330
1F
100
AcDbEntity
  8
SK2
  6
CONTINUOUS
370
25
 62
7
100
AcDbLine
 10
-39.70511182331747
 20
3.145559116587314
 30
0.0
 11
-38.88233226502381
 21
3.968338674880968
 31
0.0
  0
LINE
  5
68F
330
1F
100
AcDbEntity
  8
SK2
  6
CONTINUOUS
370
25
 62
7
100
AcDbLine
 10
-39.77582250143612
 20
3.499112507180598
 30
0.0
 11
-38.77626624784583
 21
4.498668760770883
 31
0.0
  0
LINE
  5
690
330
1F
100
AcDbEntity
  8
SK2
  6
CONTINUOUS
370
25
 62
7
100
AcDbLine
 10
-39.84653317955478
 20
3.852665897773868
 30
0.0
 11
-38.67020023066785
 21
5.028998846660798
 31
0.0
  0
LINE
  5
691
330
1F
100
AcDbEntity
  8
SK2
  6
CONTINUOUS
370
25
 62
7
100
AcDbLine
 10
-39.91724385767343
 20
4.206219288367144
 30
0.0
 11
-38.56413421348987
 21
5.559328932550713
 31
0.0
  0
LINE
  5
692
330
1F
100
AcDbEntity
  8
SK2
  6
CONTINUOUS
370
25
 62
7
100
AcDbLine
 10
-39.98795453579208
 20
4.559772678960421
 30
0.0
 11
-38.45806819631188
 21
6.089659018440621
 31
0.0
  0
LINE
  5
693
330
1F
100
AcDbEntity
  8
SK2
  6
CONTINUOUS
370
25
 62
7
100
AcDbLine
 10
-40.05866521391074
 20
4.913326069553698
 30
0.0
 11
-38.47199128346444
 21
6.5
 31
0.0
  0
LINE
  5
694
330
1F
100
AcDbEntity
  8
SK2
  6
CONTINUOUS
370
25
 62
7
100
AcDbLine
 10
-40.1293758920294
 20
5.26687946014696
 30
0.0
 11
-38.89625535217636
 21
6.5
 31
0.0
  0
LINE
  5
695
330
1F
100
AcDbEntity
  8
SK2
  6
CONTINUOUS
370
25
 62
7
100
AcDbLine
 10
-40.20008657014806
 20
5.620432850740237
 30
0.0
 11
-39.3205194208883
 21
6.5
 31
0.0
  0
LINE
  5
696
330
1F
100
AcDbEntity
  8
SK2
  6
CONTINUOUS
370
25
 62
7
100
AcDbLine
 10
-40.27079724826672
 20
5.973986241333513
 30
0.0
 11
-39.74478348960023
 21
6.5
 31
0.0
  0
LINE
  5
697
330
1F
100
AcDbEntity
  8
SK2
  6
CONTINUOUS
370
25
 62
7
100
AcDbLine
 10
-40.34150792638537
 20
6.32753963192679
 30
0.0
 11
-40.16904755831216
 21
6.5
 31
0.0
  0
LINE
  5
698
330
1F
100
AcDbEntity
  8
SK2
  6
CONTINUOUS
370
25
 62
7
100
AcDbLine
 10
-39.45713106827009
 20
1.90565534135046
 30
0.0
 11
-39.32191262115328
 21
1.770436894233647
 31
0.0
  0
LINE
  5
699
330
1F
100
AcDbEntity
  8
SK2
  6
CONTINUOUS
370
25
 62
7
100
AcDbLine
 10
-39.56319708544808
 20
2.435985427240382
 30
0.0
 11
-39.25120194303462
 21
2.123990284826924
 31
0.0
  0
LINE
  5
69A
330
1F
100
AcDbEntity
  8
SK2
  6
CONTINUOUS
370
25
 62
7
100
AcDbLine
 10
-39.66926310262607
 20
2.966315513130304
 30
0.0
 11
-39.18049126491596
 21
2.4775436754202
 31
0.0
  0
LINE
  5
69B
330
1F
100
AcDbEntity
  8
SK2
  6
CONTINUOUS
370
25
 62
7
100
AcDbLine
 10
-39.77532911980405
 20
3.496645599020212
 30
0.0
 11
-39.10978058679731
 21
2.83109706601347
 31
0.0
  0
LINE
  5
69C
330
1F
100
AcDbEntity
  8
SK2
  6
CONTINUOUS
370
25
 62
7
100
AcDbLine
 10
-39.88139513698203
 20
4.02697568491012
 30
0.0
 11
-39.03906990867866
 21
3.184650456606754
 31
0.0
  0
LINE
  5
69D
330
1F
100
AcDbEntity
  8
SK2
  6
CONTINUOUS
370
25
 62
7
100
AcDbLine
 10
-39.98746115416002
 20
4.557305770800035
 30
0.0
 11
-38.96835923056
 21
3.538203847200023
 31
0.0
  0
LINE
  5
69E
330
1F
100
AcDbEntity
  8
SK2
  6
CONTINUOUS
370
25
 62
7
100
AcDbLine
 10
-40.093527171338
 20
5.087635856689943
 30
0.0
 11
-38.89764855244135
 21
3.8917572377933
 31
0.0
  0
LINE
  5
69F
330
1F
100
AcDbEntity
  8
SK2
  6
CONTINUOUS
370
25
 62
7
100
AcDbLine
 10
-40.19959318851598
 20
5.617965942579865
 30
0.0
 11
-38.82693787432269
 21
4.245310628386576
 31
0.0
  0
LINE
  5
6A0
330
1F
100
AcDbEntity
  8
SK2
  6
CONTINUOUS
370
25
 62
7
100
AcDbLine
 10
-40.30565920569396
 20
6.14829602846978
 30
0.0
 11
-38.75622719620403
 21
4.598864018979846
 31
0.0
  0
LINE
  5
6A1
330
1F
100
AcDbEntity
  8
SK2
  6
CONTINUOUS
370
25
 62
7
100
AcDbLine
 10
-40.23309910851225
 20
6.5
 30
0.0
 11
-38.68551651808538
 21
4.95241740957313
 31
0.0
  0
LINE
  5
6A2
330
1F
100
AcDbEntity
  8
SK2
  6
CONTINUOUS
370
25
 62
7
100
AcDbLine
 10
-39.80883503980031
 20
6.5
 30
0.0
 11
-38.61480583996672
 21
5.305970800166406
 31
0.0
  0
LINE
  5
6A3
330
1F
100
AcDbEntity
  8
SK2
  6
CONTINUOUS
370
25
 62
7
100
AcDbLine
 10
-39.38457097108839
 20
6.5
 30
0.0
 11
-38.54409516184807
 21
5.659524190759683
 31
0.0
  0
LINE
  5
6A4
330
1F
100
AcDbEntity
  8
SK2
  6
CONTINUOUS
370
25
 62
7
100
AcDbLine
 10
-38.96030690237645
 20
6.5
 30
0.0
 11
-38.47338448372942
 21
6.013077581352967
 31
0.0
  0
LINE
  5
6A5
330
1F
100
AcDbEntity
  8
SK2
  6
CONTINUOUS
370
25
 62
7
100
AcDbLine
 10
-38.53604283366452
 20
6.5
 30
0.0
 11
-38.40267380561076
 21
6.366630971946236
 31
0.0
  0
TEXT
  5
6A6
330
1F
100
AcDbEntity
  8
SK2
  6
CONTINUOUS
370
25
 62
7
100
AcDbText
 10
-40.376
 20
-10.71979166666667
 30
0.0
 40
3.5
  1
3
 50
90.00000000000001
 72
     1
 11
-40.376
 21
-9.553125000000001
 31
0.0
100
AcDbText
  0
CIRCLE
  5
6A7
330
1F
100
AcDbEntity
  8
SK2
  6
CONTINUOUS
370
25
 62
7
100
AcDbCircle
 10
-41.90725
 20
-13.963125
 30
0.0
 40
1.53125
  0
LINE
  5
6A8
330
1F
100
AcDbEntity
  8
SK2
  6
CONTINUOUS
370
25
 62
7
100
AcDbLine
 10
-40.376
 20
-15.494375
 30
0.0
 11
-43.4385
 21
-12.431875
 31
0.0
  0
LINE
  5
6A9
330
1F
100
AcDbEntity
  8
SK2
  6
CONTINUOUS
370
25
 62
7
100
AcDbLine
 10
-29.376001
 20
11.5000102
 30
0.0
 11
-29.376001
 21
12.50001000000009
 31
0.0
  0
LINE
  5
6AA
330
1F
100
AcDbEntity
  8
SK2
  6
CONTINUOUS
370
25
 62
7
100
AcDbLine
 10
-29.376001
 20
1.5
 30
0.0
 11
-29.376001
 21
11.5000098
 31
0.0
  0
LINE
  5
6AB
330
1F
100
AcDbEntity
  8
SK2
  6
CONTINUOUS
370
25
 62
7
100
AcDbLine
 10
0.0000000000000001
 20
12.50001
 30
0.0
 11
-0.0000000000000006
 21
1.5
 31
0.0
  0
LINE
  5
6AC
330
1F
100
AcDbEntity
  8
SK2
  6
CONTINUOUS
370
25
 62
7
100
AcDbLine
 10
10.0
 20
11.50001
 30
0.0
 11
-39.376
 21
11.50001
 31
0.0
  0
LINE
  5
6AD
330
1F
100
AcDbEntity
  8
SK2
  6
CONTINUOUS
370
25
 62
7
100
AcDbLine
 10
-29.376
 20
11.50001
 30
0.0
 11
-34.376
 21
10.50001
 31
0.0
  0
LINE
  5
6AE
330
1F
100
AcDbEntity
  8
SK2
  6
CONTINUOUS
370
25
 62
7
100
AcDbLine
 10
-34.376
 20
10.50001
 30
0.0
 11
-34.376
 21
12.50001
 31
0.0
  0
LINE
  5
6AF
330
1F
100
AcDbEntity
  8
SK2
  6
CONTINUOUS
370
25
 62
7
100
AcDbLine
 10
-34.376
 20
12.50001
 30
0.0
 11
-29.376
 21
11.50001
 31
0.0
  0
LINE
  5
6B0
330
1F
100
AcDbEntity
  8
SK2
  6
CONTINUOUS
370
25
 62
7
100
AcDbLine
 10
-29.7230058313213
 20
11.43060883373574
 30
0.0
 11
-29.60733722088087
 21
11.54627744417617
 31
0.0
  0
LINE
  5
6B1
330
1F
100
AcDbEntity
  8
SK2
  6
CONTINUOUS
370
25
 62
7
100
AcDbLine
 10
-30.25333591721121
 20
11.32454281655776
 30
0.0
 11
-29.96089061147415
 21
11.61698812229482
 31
0.0
  0
LINE
  5
6B2
330
1F
100
AcDbEntity
  8
SK2
  6
CONTINUOUS
370
25
 62
7
100
AcDbLine
 10
-30.78366600310113
 20
11.21847679937978
 30
0.0
 11
-30.31444400206742
 21
11.68769880041348
 31
0.0
  0
LINE
  5
6B3
330
1F
100
AcDbEntity
  8
SK2
  6
CONTINUOUS
370
25
 62
7
100
AcDbLine
 10
-31.31399608899104
 20
11.11241078220179
 30
0.0
 11
-30.66799739266069
 21
11.75840947853214
 31
0.0
  0
LINE
  5
6B4
330
1F
100
AcDbEntity
  8
SK2
  6
CONTINUOUS
370
25
 62
7
100
AcDbLine
 10
-31.84432617488095
 20
11.00634476502381
 30
0.0
 11
-31.02155078325396
 21
11.8291201566508
 31
0.0
  0
LINE
  5
6B5
330
1F
100
AcDbEntity
  8
SK2
  6
CONTINUOUS
370
25
 62
7
100
AcDbLine
 10
-32.37465626077087
 20
10.90027874784582
 30
0.0
 11
-31.37510417384724
 21
11.89983083476945
 31
0.0
  0
LINE
  5
6B6
330
1F
100
AcDbEntity
  8
SK2
  6
CONTINUOUS
370
25
 62
7
100
AcDbLine
 10
-32.90498634666078
 20
10.79421273066784
 30
0.0
 11
-31.72865756444051
 21
11.9705415128881
 31
0.0
  0
LINE
  5
6B7
330
1F
100
AcDbEntity
  8
SK2
  6
CONTINUOUS
370
25
 62
7
100
AcDbLine
 10
-33.4353164325507
 20
10.68814671348986
 30
0.0
 11
-32.08221095503379
 21
12.04125219100676
 31
0.0
  0
LINE
  5
6B8
330
1F
100
AcDbEntity
  8
SK2
  6
CONTINUOUS
370
25
 62
7
100
AcDbLine
 10
-33.96564651844061
 20
10.58208069631188
 30
0.0
 11
-32.43576434562707
 21
12.11196286912541
 31
0.0
  0
LINE
  5
6B9
330
1F
100
AcDbEntity
  8
SK2
  6
CONTINUOUS
370
25
 62
7
100
AcDbLine
 10
-34.376
 20
10.59599128346442
 30
0.0
 11
-32.78931773622035
 21
12.18267354724406
 31
0.0
  0
LINE
  5
6BA
330
1F
100
AcDbEntity
  8
SK2
  6
CONTINUOUS
370
25
 62
7
100
AcDbLine
 10
-34.376
 20
11.02025535217634
 30
0.0
 11
-33.14287112681362
 21
12.25338422536272
 31
0.0
  0
LINE
  5
6BB
330
1F
100
AcDbEntity
  8
SK2
  6
CONTINUOUS
370
25
 62
7
100
AcDbLine
 10
-34.376
 20
11.44451942088827
 30
0.0
 11
-33.49642451740689
 21
12.32409490348137
 31
0.0
  0
LINE
  5
6BC
330
1F
100
AcDbEntity
  8
SK2
  6
CONTINUOUS
370
25
 62
7
100
AcDbLine
 10
-34.376
 20
11.8687834896002
 30
0.0
 11
-33.84997790800016
 21
12.39480558160004
 31
0.0
  0
LINE
  5
6BD
330
1F
100
AcDbEntity
  8
SK2
  6
CONTINUOUS
370
25
 62
7
100
AcDbLine
 10
-34.376
 20
12.29304755831213
 30
0.0
 11
-34.20353129859345
 21
12.46551625971869
 31
0.0
  0
LINE
  5
6BE
330
1F
100
AcDbEntity
  8
SK2
  6
CONTINUOUS
370
25
 62
7
100
AcDbLine
 10
-34.376
 20
10.7025096620271
 30
0.0
 11
-34.20725028164409
 21
10.53375994367119
 31
0.0
  0
LINE
  5
6BF
330
1F
100
AcDbEntity
  8
SK2
  6
CONTINUOUS
370
25
 62
7
100
AcDbLine
 10
-34.376
 20
11.12677373073903
 30
0.0
 11
-33.85369689105082
 21
10.60447062178984
 31
0.0
  0
LINE
  5
6C0
330
1F
100
AcDbEntity
  8
SK2
  6
CONTINUOUS
370
25
 62
7
100
AcDbLine
 10
-34.376
 20
11.55103779945096
 30
0.0
 11
-33.50014350045754
 21
10.67518129990849
 31
0.0
  0
LINE
  5
6C1
330
1F
100
AcDbEntity
  8
SK2
  6
CONTINUOUS
370
25
 62
7
100
AcDbLine
 10
-34.376
 20
11.97530186816288
 30
0.0
 11
-33.14659010986427
 21
10.74589197802715
 31
0.0
  0
LINE
  5
6C2
330
1F
100
AcDbEntity
  8
SK2
  6
CONTINUOUS
370
25
 62
7
100
AcDbLine
 10
-34.376
 20
12.39956593687482
 30
0.0
 11
-32.79303671927099
 21
10.8166026561458
 31
0.0
  0
LINE
  5
6C3
330
1F
100
AcDbEntity
  8
SK2
  6
CONTINUOUS
370
25
 62
7
100
AcDbLine
 10
-33.97122499301657
 20
12.41905499860331
 30
0.0
 11
-32.43948332867772
 21
10.88731333426447
 31
0.0
  0
LINE
  5
6C4
330
1F
100
AcDbEntity
  8
SK2
  6
CONTINUOUS
370
25
 62
7
100
AcDbLine
 10
-33.44089490712665
 20
12.31298898142533
 30
0.0
 11
-32.08592993808443
 21
10.95802401238311
 31
0.0
  0
LINE
  5
6C5
330
1F
100
AcDbEntity
  8
SK2
  6
CONTINUOUS
370
25
 62
7
100
AcDbLine
 10
-32.91056482123674
 20
12.20692296424734
 30
0.0
 11
-31.73237654749116
 21
11.02873469050177
 31
0.0
  0
LINE
  5
6C6
330
1F
100
AcDbEntity
  8
SK2
  6
CONTINUOUS
370
25
 62
7
100
AcDbLine
 10
-32.38023473534682
 20
12.10085694706936
 30
0.0
 11
-31.37882315689789
 21
11.09944536862043
 31
0.0
  0
LINE
  5
6C7
330
1F
100
AcDbEntity
  8
SK2
  6
CONTINUOUS
370
25
 62
7
100
AcDbLine
 10
-31.84990464945692
 20
11.99479092989138
 30
0.0
 11
-31.02526976630461
 21
11.17015604673907
 31
0.0
  0
LINE
  5
6C8
330
1F
100
AcDbEntity
  8
SK2
  6
CONTINUOUS
370
25
 62
7
100
AcDbLine
 10
-31.31957456356701
 20
11.8887249127134
 30
0.0
 11
-30.67171637571135
 21
11.24086672485774
 31
0.0
  0
LINE
  5
6C9
330
1F
100
AcDbEntity
  8
SK2
  6
CONTINUOUS
370
25
 62
7
100
AcDbLine
 10
-30.7892444776771
 20
11.78265889553542
 30
0.0
 11
-30.31816298511808
 21
11.31157740297639
 31
0.0
  0
LINE
  5
6CA
330
1F
100
AcDbEntity
  8
SK2
  6
CONTINUOUS
370
25
 62
7
100
AcDbLine
 10
-30.25891439178719
 20
11.67659287835744
 30
0.0
 11
-29.9646095945248
 21
11.38228808109504
 31
0.0
  0
LINE
  5
6CB
330
1F
100
AcDbEntity
  8
SK2
  6
CONTINUOUS
370
25
 62
7
100
AcDbLine
 10
-29.72858430589728
 20
11.57052686117946
 30
0.0
 11
-29.61105620393152
 21
11.4529987592137
 31
0.0
  0
LINE
  5
6CC
330
1F
100
AcDbEntity
  8
SK2
  6
CONTINUOUS
370
25
 62
7
100
AcDbLine
 10
0.0
 20
11.50001
 30
0.0
 11
5.0
 21
12.50001
 31
0.0
  0
LINE
  5
6CD
330
1F
100
AcDbEntity
  8
SK2
  6
CONTINUOUS
370
25
 62
7
100
AcDbLine
 10
5.0
 20
12.50001
 30
0.0
 11
5.0
 21
10.50001
 31
0.0
  0
LINE
  5
6CE
330
1F
100
AcDbEntity
  8
SK2
  6
CONTINUOUS
370
25
 62
7
100
AcDbLine
 10
5.0
 20
10.50001
 30
0.0
 11
0.0
 21
11.50001
 31
0.0
  0
LINE
  5
6CF
330
1F
100
AcDbEntity
  8
SK2
  6
CONTINUOUS
370
25
 62
7
100
AcDbLine
 10
4.987147588954109
 20
10.50258048220918
 30
0.0
 11
5.0
 21
10.51543289325507
 31
0.0
  0
LINE
  5
6D0
330
1F
100
AcDbEntity
  8
SK2
  6
CONTINUOUS
370
25
 62
7
100
AcDbLine
 10
4.633594198360836
 20
10.57329116032783
 30
0.0
 11
5.0
 21
10.939696961967
 31
0.0
  0
LINE
  5
6D1
330
1F
100
AcDbEntity
  8
SK2
  6
CONTINUOUS
370
25
 62
7
100
AcDbLine
 10
4.280040807767563
 20
10.64400183844649
 30
0.0
 11
5.0
 21
11.36396103067892
 31
0.0
  0
LINE
  5
6D2
330
1F
100
AcDbEntity
  8
SK2
  6
CONTINUOUS
370
25
 62
7
100
AcDbLine
 10
3.926487417174289
 20
10.71471251656514
 30
0.0
 11
5.0
 21
11.78822509939085
 31
0.0
  0
LINE
  5
6D3
330
1F
100
AcDbEntity
  8
SK2
  6
CONTINUOUS
370
25
 62
7
100
AcDbLine
 10
3.572934026581015
 20
10.7854231946838
 30
0.0
 11
5.0
 21
12.21248916810278
 31
0.0
  0
LINE
  5
6D4
330
1F
100
AcDbEntity
  8
SK2
  6
CONTINUOUS
370
25
 62
7
100
AcDbLine
 10
3.219380635987742
 20
10.85613387280245
 30
0.0
 11
4.829070953981615
 21
12.46582419079632
 31
0.0
  0
LINE
  5
6D5
330
1F
100
AcDbEntity
  8
SK2
  6
CONTINUOUS
370
25
 62
7
100
AcDbLine
 10
2.86582724539447
 20
10.92684455092111
 30
0.0
 11
4.298740868091707
 21
12.35975817361834
 31
0.0
  0
LINE
  5
6D6
330
1F
100
AcDbEntity
  8
SK2
  6
CONTINUOUS
370
25
 62
7
100
AcDbLine
 10
2.512273854801196
 20
10.99755522903976
 30
0.0
 11
3.768410782201796
 21
12.25369215644036
 31
0.0
  0
LINE
  5
6D7
330
1F
100
AcDbEntity
  8
SK2
  6
CONTINUOUS
370
25
 62
7
100
AcDbLine
 10
2.158720464207923
 20
11.06826590715841
 30
0.0
 11
3.238080696311886
 21
12.14762613926238
 31
0.0
  0
LINE
  5
6D8
330
1F
100
AcDbEntity
  8
SK2
  6
CONTINUOUS
370
25
 62
7
100
AcDbLine
 10
1.80516707361465
 20
11.13897658527707
 30
0.0
 11
2.707750610421976
 21
12.04156012208439
 31
0.0
  0
LINE
  5
6D9
330
1F
100
AcDbEntity
  8
SK2
  6
CONTINUOUS
370
25
 62
7
100
AcDbLine
 10
1.451613683021375
 20
11.20968726339573
 30
0.0
 11
2.177420524532063
 21
11.93549410490641
 31
0.0
  0
LINE
  5
6DA
330
1F
100
AcDbEntity
  8
SK2
  6
CONTINUOUS
370
25
 62
7
100
AcDbLine
 10
1.098060292428103
 20
11.28039794151438
 30
0.0
 11
1.647090438642156
 21
11.82942808772843
 31
0.0
  0
LINE
  5
6DB
330
1F
100
AcDbEntity
  8
SK2
  6
CONTINUOUS
370
25
 62
7
100
AcDbLine
 10
0.7445069018348299
 20
11.35110861963303
 30
0.0
 11
1.116760352752246
 21
11.72336207055045
 31
0.0
  0
LINE
  5
6DC
330
1F
100
AcDbEntity
  8
SK2
  6
CONTINUOUS
370
25
 62
7
100
AcDbLine
 10
0.3909535112415551
 20
11.42181929775169
 30
0.0
 11
0.586430266862333
 21
11.61729605337247
 31
0.0
  0
LINE
  5
6DD
330
1F
100
AcDbEntity
  8
SK2
  6
CONTINUOUS
370
25
 62
7
100
AcDbLine
 10
0.0374001206482818
 20
11.49252997587034
 30
0.0
 11
0.0561001809724227
 21
11.51123003619449
 31
0.0
  0
LINE
  5
6DE
330
1F
100
AcDbEntity
  8
SK2
  6
CONTINUOUS
370
25
 62
7
100
AcDbLine
 10
0.3161532699449962
 20
11.563240653989
 30
0.0
 11
0.4742299049174945
 21
11.4051640190165
 31
0.0
  0
LINE
  5
6DF
330
1F
100
AcDbEntity
  8
SK2
  6
CONTINUOUS
370
25
 62
7
100
AcDbLine
 10
0.6697066605382697
 20
11.63395133210765
 30
0.0
 11
1.004559990807405
 21
11.29909800183852
 31
0.0
  0
LINE
  5
6E0
330
1F
100
AcDbEntity
  8
SK2
  6
CONTINUOUS
370
25
 62
7
100
AcDbLine
 10
1.023260051131543
 20
11.70466201022631
 30
0.0
 11
1.534890076697316
 21
11.19303198466054
 31
0.0
  0
LINE
  5
6E1
330
1F
100
AcDbEntity
  8
SK2
  6
CONTINUOUS
370
25
 62
7
100
AcDbLine
 10
1.376813441724817
 20
11.77537268834496
 30
0.0
 11
2.065220162587227
 21
11.08696596748255
 31
0.0
  0
LINE
  5
6E2
330
1F
100
AcDbEntity
  8
SK2
  6
CONTINUOUS
370
25
 62
7
100
AcDbLine
 10
1.730366832318092
 20
11.84608336646362
 30
0.0
 11
2.59555024847714
 21
10.98089995030457
 31
0.0
  0
LINE
  5
6E3
330
1F
100
AcDbEntity
  8
SK2
  6
CONTINUOUS
370
25
 62
7
100
AcDbLine
 10
2.083920222911365
 20
11.91679404458227
 30
0.0
 11
3.12588033436705
 21
10.87483393312659
 31
0.0
  0
LINE
  5
6E4
330
1F
100
AcDbEntity
  8
SK2
  6
CONTINUOUS
370
25
 62
7
100
AcDbLine
 10
2.437473613504639
 20
11.98750472270093
 30
0.0
 11
3.656210420256961
 21
10.76876791594861
 31
0.0
  0
LINE
  5
6E5
330
1F
100
AcDbEntity
  8
SK2
  6
CONTINUOUS
370
25
 62
7
100
AcDbLine
 10
2.791027004097913
 20
12.05821540081958
 30
0.0
 11
4.186540506146872
 21
10.66270189877062
 31
0.0
  0
LINE
  5
6E6
330
1F
100
AcDbEntity
  8
SK2
  6
CONTINUOUS
370
25
 62
7
100
AcDbLine
 10
3.144580394691186
 20
12.12892607893824
 30
0.0
 11
4.716870592036782
 21
10.55663588159264
 31
0.0
  0
LINE
  5
6E7
330
1F
100
AcDbEntity
  8
SK2
  6
CONTINUOUS
370
25
 62
7
100
AcDbLine
 10
3.49813378528446
 20
12.19963675705689
 30
0.0
 11
5.0
 21
10.69777054234136
 31
0.0
  0
LINE
  5
6E8
330
1F
100
AcDbEntity
  8
SK2
  6
CONTINUOUS
370
25
 62
7
100
AcDbLine
 10
3.851687175877734
 20
12.27034743517555
 30
0.0
 11
5.0
 21
11.12203461105328
 31
0.0
  0
LINE
  5
6E9
330
1F
100
AcDbEntity
  8
SK2
  6
CONTINUOUS
370
25
 62
7
100
AcDbLine
 10
4.205240566471008
 20
12.3410581132942
 30
0.0
 11
5.0
 21
11.54629867976521
 31
0.0
  0
LINE
  5
6EA
330
1F
100
AcDbEntity
  8
SK2
  6
CONTINUOUS
370
25
 62
7
100
AcDbLine
 10
4.558793957064282
 20
12.41176879141286
 30
0.0
 11
5.0
 21
11.97056274847714
 31
0.0
  0
LINE
  5
6EB
330
1F
100
AcDbEntity
  8
SK2
  6
CONTINUOUS
370
25
 62
7
100
AcDbLine
 10
4.912347347657556
 20
12.48247946953151
 30
0.0
 11
5.0
 21
12.39482681718907
 31
0.0
  0
TEXT
  5
6EC
330
1F
100
AcDbEntity
  8
SK2
  6
CONTINUOUS
370
25
 62
7
100
AcDbText
 10
-23.438
 20
12.50001
 30
0.0
 40
3.5
  1
29.376
 72
     1
 11
-14.688
 21
12.50001
 31
0.0
100
AcDbText
  0
LINE
  5
6ED
330
1F
100
AcDbEntity
  8
2
  6
CONTINUOUS
370
25
 62
7
100
AcDbLine
 10
0.0
 20
-1.50001
 30
0.0
 11
-0.0000000000000007
 21
-12.50001
 31
0.0
  0
LINE
  5
6EE
330
1F
100
AcDbEntity
  8
2
  6
CONTINUOUS
370
25
 62
7
100
AcDbLine
 10
1.009999999999999
 20
-12.50001
 30
0.0
 11
1.01
 21
-1.50001
 31
0.0
  0
LINE
  5
6EF
330
1F
100
AcDbEntity
  8
2
  6
CONTINUOUS
370
25
 62
7
100
AcDbLine
 10
-18.475
 20
-11.50001
 30
0.0
 11
11.01
 21
-11.50001
 31
0.0
  0
LINE
  5
6F0
330
1F
100
AcDbEntity
  8
2
  6
CONTINUOUS
370
25
 62
7
100
AcDbLine
 10
0.0
 20
-11.50001
 30
0.0
 11
-5.0
 21
-12.50001
 31
0.0
  0
LINE
  5
6F1
330
1F
100
AcDbEntity
  8
2
  6
CONTINUOUS
370
25
 62
7
100
AcDbLine
 10
-5.0
 20
-12.50001
 30
0.0
 11
-5.0
 21
-10.50001
 31
0.0
  0
LINE
  5
6F2
330
1F
100
AcDbEntity
  8
2
  6
CONTINUOUS
370
25
 62
7
100
AcDbLine
 10
-5.0
 20
-10.50001
 30
0.0
 11
0.0
 21
-11.50001
 31
0.0
  0
LINE
  5
6F3
330
1F
100
AcDbEntity
  8
2
  6
CONTINUOUS
370
25
 62
7
100
AcDbLine
 10
-0.4951775161760195
 20
-11.5990455032352
 30
0.0
 11
-0.3301183441173464
 21
-11.43398633117653
 31
0.0
  0
LINE
  5
6F4
330
1F
100
AcDbEntity
  8
2
  6
CONTINUOUS
370
25
 62
7
100
AcDbLine
 10
-1.025507602065929
 20
-11.70511152041319
 30
0.0
 11
-0.6836717347106194
 21
-11.36327565305788
 31
0.0
  0
LINE
  5
6F5
330
1F
100
AcDbEntity
  8
2
  6
CONTINUOUS
370
25
 62
7
100
AcDbLine
 10
-1.555837687955838
 20
-11.81117753759117
 30
0.0
 11
-1.037225125303892
 21
-11.29256497493922
 31
0.0
  0
LINE
  5
6F6
330
1F
100
AcDbEntity
  8
2
  6
CONTINUOUS
370
25
 62
7
100
AcDbLine
 10
-2.086167773845749
 20
-11.91724355476915
 30
0.0
 11
-1.390778515897167
 21
-11.22185429682057
 31
0.0
  0
LINE
  5
6F7
330
1F
100
AcDbEntity
  8
2
  6
CONTINUOUS
370
25
 62
7
100
AcDbLine
 10
-2.616497859735659
 20
-12.02330957194713
 30
0.0
 11
-1.74433190649044
 21
-11.15114361870191
 31
0.0
  0
LINE
  5
6F8
330
1F
100
AcDbEntity
  8
2
  6
CONTINUOUS
370
25
 62
7
100
AcDbLine
 10
-3.146827945625568
 20
-12.12937558912511
 30
0.0
 11
-2.097885297083713
 21
-11.08043294058326
 31
0.0
  0
LINE
  5
6F9
330
1F
100
AcDbEntity
  8
2
  6
CONTINUOUS
370
25
 62
7
100
AcDbLine
 10
-3.677158031515479
 20
-12.23544160630309
 30
0.0
 11
-2.451438687676986
 21
-11.0097222624646
 31
0.0
  0
LINE
  5
6FA
330
1F
100
AcDbEntity
  8
2
  6
CONTINUOUS
370
25
 62
7
100
AcDbLine
 10
-4.207488117405387
 20
-12.34150762348108
 30
0.0
 11
-2.80499207827026
 21
-10.93901158434595
 31
0.0
  0
LINE
  5
6FB
330
1F
100
AcDbEntity
  8
2
  6
CONTINUOUS
370
25
 62
7
100
AcDbLine
 10
-4.737818203295297
 20
-12.44757364065906
 30
0.0
 11
-3.158545468863532
 21
-10.86830090622729
 31
0.0
  0
LINE
  5
6FC
330
1F
100
AcDbEntity
  8
2
  6
CONTINUOUS
370
25
 62
7
100
AcDbLine
 10
-5.0
 20
-12.28549136865183
 30
0.0
 11
-3.512098859456805
 21
-10.79759022810864
 31
0.0
  0
LINE
  5
6FD
330
1F
100
AcDbEntity
  8
2
  6
CONTINUOUS
370
25
 62
7
100
AcDbLine
 10
-5.0
 20
-11.86122729993991
 30
0.0
 11
-3.865652250050078
 21
-10.72687954998998
 31
0.0
  0
LINE
  5
6FE
330
1F
100
AcDbEntity
  8
2
  6
CONTINUOUS
370
25
 62
7
100
AcDbLine
 10
-5.0
 20
-11.43696323122798
 30
0.0
 11
-4.219205640643351
 21
-10.65616887187133
 31
0.0
  0
LINE
  5
6FF
330
1F
100
AcDbEntity
  8
2
  6
CONTINUOUS
370
25
 62
7
100
AcDbLine
 10
-5.0
 20
-11.01269916251605
 30
0.0
 11
-4.572759031236624
 21
-10.58545819375268
 31
0.0
  0
LINE
  5
700
330
1F
100
AcDbEntity
  8
2
  6
CONTINUOUS
370
25
 62
7
100
AcDbLine
 10
-5.0
 20
-10.58843509380412
 30
0.0
 11
-4.926312421829897
 21
-10.51474751563402
 31
0.0
  0
LINE
  5
701
330
1F
100
AcDbEntity
  8
2
  6
CONTINUOUS
370
25
 62
7
100
AcDbLine
 10
-5.0
 20
-12.28549136865183
 30
0.0
 11
-4.821234473876524
 21
-12.4642568947753
 31
0.0
  0
LINE
  5
702
330
1F
100
AcDbEntity
  8
2
  6
CONTINUOUS
370
25
 62
7
100
AcDbLine
 10
-5.0
 20
-11.86122729993991
 30
0.0
 11
-4.467681083283254
 21
-12.39354621665665
 31
0.0
  0
LINE
  5
703
330
1F
100
AcDbEntity
  8
2
  6
CONTINUOUS
370
25
 62
7
100
AcDbLine
 10
-5.0
 20
-11.43696323122798
 30
0.0
 11
-4.114127692689981
 21
-12.32283553853799
 31
0.0
  0
LINE
  5
704
330
1F
100
AcDbEntity
  8
2
  6
CONTINUOUS
370
25
 62
7
100
AcDbLine
 10
-5.0
 20
-11.01269916251605
 30
0.0
 11
-3.760574302096706
 21
-12.25212486041934
 31
0.0
  0
LINE
  5
705
330
1F
100
AcDbEntity
  8
2
  6
CONTINUOUS
370
25
 62
7
100
AcDbLine
 10
-5.0
 20
-10.58843509380412
 30
0.0
 11
-3.407020911503432
 21
-12.18141418230068
 31
0.0
  0
LINE
  5
706
330
1F
100
AcDbEntity
  8
2
  6
CONTINUOUS
370
25
 62
7
100
AcDbLine
 10
-4.580201281365237
 20
-10.58396974372695
 30
0.0
 11
-3.053467520910157
 21
-12.11070350418203
 31
0.0
  0
LINE
  5
707
330
1F
100
AcDbEntity
  8
2
  6
CONTINUOUS
370
25
 62
7
100
AcDbLine
 10
-4.049871195475329
 20
-10.69003576090493
 30
0.0
 11
-2.699914130316884
 21
-12.03999282606338
 31
0.0
  0
LINE
  5
708
330
1F
100
AcDbEntity
  8
2
  6
CONTINUOUS
370
25
 62
7
100
AcDbLine
 10
-3.519541109585419
 20
-10.79610177808292
 30
0.0
 11
-2.346360739723612
 21
-11.96928214794472
 31
0.0
  0
LINE
  5
709
330
1F
100
AcDbEntity
  8
2
  6
CONTINUOUS
370
25
 62
7
100
AcDbLine
 10
-2.989211023695506
 20
-10.9021677952609
 30
0.0
 11
-1.992807349130336
 21
-11.89857146982607
 31
0.0
  0
LINE
  5
70A
330
1F
100
AcDbEntity
  8
2
  6
CONTINUOUS
370
25
 62
7
100
AcDbLine
 10
-2.458880937805595
 20
-11.00823381243888
 30
0.0
 11
-1.639253958537063
 21
-11.82786079170741
 31
0.0
  0
LINE
  5
70B
330
1F
100
AcDbEntity
  8
2
  6
CONTINUOUS
370
25
 62
7
100
AcDbLine
 10
-1.928550851915684
 20
-11.11429982961686
 30
0.0
 11
-1.285700567943789
 21
-11.75715011358876
 31
0.0
  0
LINE
  5
70C
330
1F
100
AcDbEntity
  8
2
  6
CONTINUOUS
370
25
 62
7
100
AcDbLine
 10
-1.398220766025774
 20
-11.22036584679485
 30
0.0
 11
-0.9321471773505158
 21
-11.6864394354701
 31
0.0
  0
LINE
  5
70D
330
1F
100
AcDbEntity
  8
2
  6
CONTINUOUS
370
25
 62
7
100
AcDbLine
 10
-0.8678906801358641
 20
-11.32643186397283
 30
0.0
 11
-0.5785937867572425
 21
-11.61572875735145
 31
0.0
  0
LINE
  5
70E
330
1F
100
AcDbEntity
  8
2
  6
CONTINUOUS
370
25
 62
7
100
AcDbLine
 10
-0.3375605942459518
 20
-11.43249788115081
 30
0.0
 11
-0.2250403961639677
 21
-11.54501807923279
 31
0.0
  0
LINE
  5
70F
330
1F
100
AcDbEntity
  8
2
  6
CONTINUOUS
370
25
 62
7
100
AcDbLine
 10
1.009999999999999
 20
-11.50001
 30
0.0
 11
6.01
 21
-10.50001
 31
0.0
  0
LINE
  5
710
330
1F
100
AcDbEntity
  8
2
  6
CONTINUOUS
370
25
 62
7
100
AcDbLine
 10
6.01
 20
-10.50001
 30
0.0
 11
6.01
 21
-12.50001
 31
0.0
  0
LINE
  5
711
330
1F
100
AcDbEntity
  8
2
  6
CONTINUOUS
370
25
 62
7
100
AcDbLine
 10
6.01
 20
-12.50001
 30
0.0
 11
1.009999999999999
 21
-11.50001
 31
0.0
  0
LINE
  5
712
330
1F
100
AcDbEntity
  8
2
  6
CONTINUOUS
370
25
 62
7
100
AcDbLine
 10
5.965794359356643
 20
-12.49116887187133
 30
0.0
 11
6.01
 21
-12.44696323122797
 31
0.0
  0
LINE
  5
713
330
1F
100
AcDbEntity
  8
2
  6
CONTINUOUS
370
25
 62
7
100
AcDbLine
 10
5.61224096876337
 20
-12.42045819375267
 30
0.0
 11
6.01
 21
-12.02269916251604
 31
0.0
  0
LINE
  5
714
330
1F
100
AcDbEntity
  8
2
  6
CONTINUOUS
370
25
 62
7
100
AcDbLine
 10
5.258687578170097
 20
-12.34974751563402
 30
0.0
 11
6.01
 21
-11.59843509380412
 31
0.0
  0
LINE
  5
715
330
1F
100
AcDbEntity
  8
2
  6
CONTINUOUS
370
25
 62
7
100
AcDbLine
 10
4.905134187576824
 20
-12.27903683751537
 30
0.0
 11
6.01
 21
-11.17417102509219
 31
0.0
  0
LINE
  5
716
330
1F
100
AcDbEntity
  8
2
  6
CONTINUOUS
370
25
 62
7
100
AcDbLine
 10
4.551580796983548
 20
-12.20832615939671
 30
0.0
 11
6.01
 21
-10.74990695638026
 31
0.0
  0
LINE
  5
717
330
1F
100
AcDbEntity
  8
2
  6
CONTINUOUS
370
25
 62
7
100
AcDbLine
 10
4.198027406390275
 20
-12.13761548127805
 30
0.0
 11
5.792041109585414
 21
-10.54360177808292
 31
0.0
  0
LINE
  5
718
330
1F
100
AcDbEntity
  8
2
  6
CONTINUOUS
370
25
 62
7
100
AcDbLine
 10
3.844474015797004
 20
-12.0669048031594
 30
0.0
 11
5.261711023695508
 21
-10.6496677952609
 31
0.0
  0
LINE
  5
719
330
1F
100
AcDbEntity
  8
2
  6
CONTINUOUS
370
25
 62
7
100
AcDbLine
 10
3.490920625203729
 20
-11.99619412504074
 30
0.0
 11
4.731380937805596
 21
-10.75573381243888
 31
0.0
  0
LINE
  5
71A
330
1F
100
AcDbEntity
  8
2
  6
CONTINUOUS
370
25
 62
7
100
AcDbLine
 10
3.137367234610456
 20
-11.92548344692209
 30
0.0
 11
4.201050851915685
 21
-10.86179982961686
 31
0.0
  0
LINE
  5
71B
330
1F
100
AcDbEntity
  8
2
  6
CONTINUOUS
370
25
 62
7
100
AcDbLine
 10
2.783813844017183
 20
-11.85477276880344
 30
0.0
 11
3.670720766025775
 21
-10.96786584679484
 31
0.0
  0
LINE
  5
71C
330
1F
100
AcDbEntity
  8
2
  6
CONTINUOUS
370
25
 62
7
100
AcDbLine
 10
2.43026045342391
 20
-11.78406209068478
 30
0.0
 11
3.140390680135865
 21
-11.07393186397283
 31
0.0
  0
LINE
  5
71D
330
1F
100
AcDbEntity
  8
2
  6
CONTINUOUS
370
25
 62
7
100
AcDbLine
 10
2.076707062830637
 20
-11.71335141256613
 30
0.0
 11
2.610060594245956
 21
-11.17999788115081
 31
0.0
  0
LINE
  5
71E
330
1F
100
AcDbEntity
  8
2
  6
CONTINUOUS
370
25
 62
7
100
AcDbLine
 10
1.723153672237363
 20
-11.64264073444747
 30
0.0
 11
2.079730508356046
 21
-11.28606389832879
 31
0.0
  0
LINE
  5
71F
330
1F
100
AcDbEntity
  8
2
  6
CONTINUOUS
370
25
 62
7
100
AcDbLine
 10
1.36960028164409
 20
-11.57193005632882
 30
0.0
 11
1.549400422466136
 21
-11.39212991550677
 31
0.0
  0
LINE
  5
720
330
1F
100
AcDbEntity
  8
2
  6
CONTINUOUS
370
25
 62
7
100
AcDbLine
 10
1.016046891050817
 20
-11.50121937821016
 30
0.0
 11
1.019070336576226
 21
-11.49819593268476
 31
0.0
  0
LINE
  5
721
330
1F
100
AcDbEntity
  8
2
  6
CONTINUOUS
370
25
 62
7
100
AcDbLine
 10
1.12112483900419
 20
-11.47778503219916
 30
0.0
 11
1.176687258506285
 21
-11.53334745170126
 31
0.0
  0
LINE
  5
722
330
1F
100
AcDbEntity
  8
2
  6
CONTINUOUS
370
25
 62
7
100
AcDbLine
 10
1.474678229597463
 20
-11.40707435408051
 30
0.0
 11
1.707017344396195
 21
-11.63941346887924
 31
0.0
  0
LINE
  5
723
330
1F
100
AcDbEntity
  8
2
  6
CONTINUOUS
370
25
 62
7
100
AcDbLine
 10
1.828231620190738
 20
-11.33636367596185
 30
0.0
 11
2.237347430286107
 21
-11.74547948605722
 31
0.0
  0
LINE
  5
724
330
1F
100
AcDbEntity
  8
2
  6
CONTINUOUS
370
25
 62
7
100
AcDbLine
 10
2.181785010784012
 20
-11.2656529978432
 30
0.0
 11
2.76767751617602
 21
-11.8515455032352
 31
0.0
  0
LINE
  5
725
330
1F
100
AcDbEntity
  8
2
  6
CONTINUOUS
370
25
 62
7
100
AcDbLine
 10
2.535338401377285
 20
-11.19494231972454
 30
0.0
 11
3.298007602065929
 21
-11.95761152041319
 31
0.0
  0
LINE
  5
726
330
1F
100
AcDbEntity
  8
2
  6
CONTINUOUS
370
25
 62
7
100
AcDbLine
 10
2.888891791970558
 20
-11.12423164160589
 30
0.0
 11
3.828337687955838
 21
-12.06367753759117
 31
0.0
  0
LINE
  5
727
330
1F
100
AcDbEntity
  8
2
  6
CONTINUOUS
370
25
 62
7
100
AcDbLine
 10
3.242445182563833
 20
-11.05352096348723
 30
0.0
 11
4.358667773845749
 21
-12.16974355476915
 31
0.0
  0
LINE
  5
728
330
1F
100
AcDbEntity
  8
2
  6
CONTINUOUS
370
25
 62
7
100
AcDbLine
 10
3.595998573157106
 20
-10.98281028536858
 30
0.0
 11
4.888997859735659
 21
-12.27580957194713
 31
0.0
  0
LINE
  5
729
330
1F
100
AcDbEntity
  8
2
  6
CONTINUOUS
370
25
 62
7
100
AcDbLine
 10
3.94955196375038
 20
-10.91209960724992
 30
0.0
 11
5.419327945625569
 21
-12.38187558912511
 31
0.0
  0
LINE
  5
72A
330
1F
100
AcDbEntity
  8
2
  6
CONTINUOUS
370
25
 62
7
100
AcDbLine
 10
4.303105354343653
 20
-10.84138892913127
 30
0.0
 11
5.949658031515479
 21
-12.4879416063031
 31
0.0
  0
LINE
  5
72B
330
1F
100
AcDbEntity
  8
2
  6
CONTINUOUS
370
25
 62
7
100
AcDbLine
 10
4.656658744936927
 20
-10.77067825101262
 30
0.0
 11
6.01
 21
-12.12401950607569
 31
0.0
  0
LINE
  5
72C
330
1F
100
AcDbEntity
  8
2
  6
CONTINUOUS
370
25
 62
7
100
AcDbLine
 10
5.010212135530201
 20
-10.69996757289396
 30
0.0
 11
6.01
 21
-11.69975543736376
 31
0.0
  0
LINE
  5
72D
330
1F
100
AcDbEntity
  8
2
  6
CONTINUOUS
370
25
 62
7
100
AcDbLine
 10
5.363765526123473
 20
-10.62925689477531
 30
0.0
 11
6.01
 21
-11.27549136865183
 31
0.0
  0
LINE
  5
72E
330
1F
100
AcDbEntity
  8
2
  6
CONTINUOUS
370
25
 62
7
100
AcDbLine
 10
5.717318916716747
 20
-10.55854621665665
 30
0.0
 11
6.01
 21
-10.8512272999399
 31
0.0
  0
TEXT
  5
72F
330
1F
100
AcDbEntity
  8
2
  6
CONTINUOUS
370
25
 62
7
100
AcDbText
 10
-15.52916666666667
 20
-10.50001
 30
0.0
 40
3.5
  1
1.01
 72
     1
 11
-11.7375
 21
-10.50001
 31
0.0
100
AcDbText
  0
LINE
  5
730
330
1F
100
AcDbEntity
  8
2
  6
CONTINUOUS
370
25
 62
7
100
AcDbLine
 10
16.09240927
 20
-1.14
 30
0.0
 11
36.624
 21
-1.14
 31
0.0
  0
LINE
  5
731
330
1F
100
AcDbEntity
  8
2
  6
CONTINUOUS
370
25
 62
7
100
AcDbLine
 10
36.624
 20
1.14
 30
0.0
 11
16.09240927
 21
1.14
 31
0.0
  0
LINE
  5
732
330
1F
100
AcDbEntity
  8
2
  6
CONTINUOUS
370
25
 62
7
100
AcDbLine
 10
35.624
 20
-26.3525
 30
0.0
 11
35.624
 21
11.14000000000001
 31
0.0
  0
LINE
  5
733
330
1F
100
AcDbEntity
  8
2
  6
CONTINUOUS
370
25
 62
7
100
AcDbLine
 10
35.624
 20
-1.14
 30
0.0
 11
36.624
 21
-6.14
 31
0.0
  0
LINE
  5
734
330
1F
100
AcDbEntity
  8
2
  6
CONTINUOUS
370
25
 62
7
100
AcDbLine
 10
36.624
 20
-6.14
 30
0.0
 11
34.624
 21
-6.14
 31
0.0
  0
LINE
  5
735
330
1F
100
AcDbEntity
  8
2
  6
CONTINUOUS
370
25
 62
7
100
AcDbLine
 10
34.624
 20
-6.14
 30
0.0
 11
35.624
 21
-1.14
 31
0.0
  0
LINE
  5
736
330
1F
100
AcDbEntity
  8
2
  6
CONTINUOUS
370
25
 62
7
100
AcDbLine
 10
36.21762724593615
 20
-6.140000000000001
 30
0.0
 11
36.55627120765603
 21
-5.801356038280119
 31
0.0
  0
LINE
  5
737
330
1F
100
AcDbEntity
  8
2
  6
CONTINUOUS
370
25
 62
7
100
AcDbLine
 10
35.79336317722422
 20
-6.140000000000001
 30
0.0
 11
36.48556052953737
 21
-5.447802647686849
 31
0.0
  0
LINE
  5
738
330
1F
100
AcDbEntity
  8
2
  6
CONTINUOUS
370
25
 62
7
100
AcDbLine
 10
35.36909910851229
 20
-6.140000000000001
 30
0.0
 11
36.41484985141872
 21
-5.094249257093566
 31
0.0
  0
LINE
  5
739
330
1F
100
AcDbEntity
  8
2
  6
CONTINUOUS
370
25
 62
7
100
AcDbLine
 10
34.94483503980036
 20
-6.140000000000001
 30
0.0
 11
36.34413917330006
 21
-4.740695866500289
 31
0.0
  0
LINE
  5
73A
330
1F
100
AcDbEntity
  8
2
  6
CONTINUOUS
370
25
 62
7
100
AcDbLine
 10
34.64985725722789
 20
-6.01071371386054
 30
0.0
 11
36.27342849518141
 21
-4.387142475907019
 31
0.0
  0
LINE
  5
73B
330
1F
100
AcDbEntity
  8
2
  6
CONTINUOUS
370
25
 62
7
100
AcDbLine
 10
34.75592327440587
 20
-5.480383627970625
 30
0.0
 11
36.20271781706275
 21
-4.03358908531375
 31
0.0
  0
LINE
  5
73C
330
1F
100
AcDbEntity
  8
2
  6
CONTINUOUS
370
25
 62
7
100
AcDbLine
 10
34.86198929158386
 20
-4.95005354208071
 30
0.0
 11
36.1320071389441
 21
-3.680035694720473
 31
0.0
  0
LINE
  5
73D
330
1F
100
AcDbEntity
  8
2
  6
CONTINUOUS
370
25
 62
7
100
AcDbLine
 10
34.96805530876184
 20
-4.419723456190795
 30
0.0
 11
36.06129646082544
 21
-3.32648230412719
 31
0.0
  0
LINE
  5
73E
330
1F
100
AcDbEntity
  8
2
  6
CONTINUOUS
370
25
 62
7
100
AcDbLine
 10
35.07412132593982
 20
-3.889393370300894
 30
0.0
 11
35.99058578270679
 21
-2.97292891353392
 31
0.0
  0
LINE
  5
73F
330
1F
100
AcDbEntity
  8
2
  6
CONTINUOUS
370
25
 62
7
100
AcDbLine
 10
35.1801873431178
 20
-3.359063284410972
 30
0.0
 11
35.91987510458813
 21
-2.619375522940643
 31
0.0
  0
LINE
  5
740
330
1F
100
AcDbEntity
  8
2
  6
CONTINUOUS
370
25
 62
7
100
AcDbLine
 10
35.28625336029578
 20
-2.828733198521064
 30
0.0
 11
35.84916442646948
 21
-2.265822132347367
 31
0.0
  0
LINE
  5
741
330
1F
100
AcDbEntity
  8
2
  6
CONTINUOUS
370
25
 62
7
100
AcDbLine
 10
35.39231937747377
 20
-2.298403112631149
 30
0.0
 11
35.77845374835083
 21
-1.91226874175409
 31
0.0
  0
LINE
  5
742
330
1F
100
AcDbEntity
  8
2
  6
CONTINUOUS
370
25
 62
7
100
AcDbLine
 10
35.49838539465175
 20
-1.768073026741234
 30
0.0
 11
35.70774307023217
 21
-1.558715351160807
 31
0.0
  0
LINE
  5
743
330
1F
100
AcDbEntity
  8
2
  6
CONTINUOUS
370
25
 62
7
100
AcDbLine
 10
35.60445141182974
 20
-1.237742940851312
 30
0.0
 11
35.63703239211351
 21
-1.205161960567537
 31
0.0
  0
LINE
  5
744
330
1F
100
AcDbEntity
  8
2
  6
CONTINUOUS
370
25
 62
7
100
AcDbLine
 10
34.68499277873519
 20
-5.835036106324061
 30
0.0
 11
34.98995667241113
 21
-6.140000000000001
 31
0.0
  0
LINE
  5
745
330
1F
100
AcDbEntity
  8
2
  6
CONTINUOUS
370
25
 62
7
100
AcDbLine
 10
34.75570345685384
 20
-5.481482715730792
 30
0.0
 11
35.41422074112305
 21
-6.140000000000001
 31
0.0
  0
LINE
  5
746
330
1F
100
AcDbEntity
  8
2
  6
CONTINUOUS
370
25
 62
7
100
AcDbLine
 10
34.8264141349725
 20
-5.127929325137512
 30
0.0
 11
35.83848480983498
 21
-6.139999999999997
 31
0.0
  0
LINE
  5
747
330
1F
100
AcDbEntity
  8
2
  6
CONTINUOUS
370
25
 62
7
100
AcDbLine
 10
34.89712481309115
 20
-4.774375934544242
 30
0.0
 11
36.26274887854692
 21
-6.139999999999997
 31
0.0
  0
LINE
  5
748
330
1F
100
AcDbEntity
  8
2
  6
CONTINUOUS
370
25
 62
7
100
AcDbLine
 10
34.9678354912098
 20
-4.420822543950962
 30
0.0
 11
36.60824676318529
 21
-6.061233815926443
 31
0.0
  0
LINE
  5
749
330
1F
100
AcDbEntity
  8
2
  6
CONTINUOUS
370
25
 62
7
100
AcDbLine
 10
35.03854616932846
 20
-4.067269153357689
 30
0.0
 11
36.5021807460073
 21
-5.530903730036524
 31
0.0
  0
LINE
  5
74A
330
1F
100
AcDbEntity
  8
2
  6
CONTINUOUS
370
25
 62
7
100
AcDbLine
 10
35.10925684744711
 20
-3.713715762764409
 30
0.0
 11
36.39611472882933
 21
-5.000573644146627
 31
0.0
  0
LINE
  5
74B
330
1F
100
AcDbEntity
  8
2
  6
CONTINUOUS
370
25
 62
7
100
AcDbLine
 10
35.17996752556577
 20
-3.360162372171139
 30
0.0
 11
36.29004871165134
 21
-4.470243558256705
 31
0.0
  0
LINE
  5
74C
330
1F
100
AcDbEntity
  8
2
  6
CONTINUOUS
370
25
 62
7
100
AcDbLine
 10
35.25067820368442
 20
-3.00660898157787
 30
0.0
 11
36.18398269447336
 21
-3.939913472366804
 31
0.0
  0
LINE
  5
74D
330
1F
100
AcDbEntity
  8
2
  6
CONTINUOUS
370
25
 62
7
100
AcDbLine
 10
35.32138888180307
 20
-2.653055590984586
 30
0.0
 11
36.07791667729538
 21
-3.409583386476896
 31
0.0
  0
LINE
  5
74E
330
1F
100
AcDbEntity
  8
2
  6
CONTINUOUS
370
25
 62
7
100
AcDbLine
 10
35.39209955992173
 20
-2.299502200391316
 30
0.0
 11
35.9718506601174
 21
-2.879253300586974
 31
0.0
  0
LINE
  5
74F
330
1F
100
AcDbEntity
  8
2
  6
CONTINUOUS
370
25
 62
7
100
AcDbLine
 10
35.46281023804039
 20
-1.945948809798047
 30
0.0
 11
35.86578464293942
 21
-2.348923214697074
 31
0.0
  0
LINE
  5
750
330
1F
100
AcDbEntity
  8
2
  6
CONTINUOUS
370
25
 62
7
100
AcDbLine
 10
35.53352091615904
 20
-1.592395419204763
 30
0.0
 11
35.75971862576144
 21
-1.818593128807159
 31
0.0
  0
LINE
  5
751
330
1F
100
AcDbEntity
  8
2
  6
CONTINUOUS
370
25
 62
7
100
AcDbLine
 10
35.6042315942777
 20
-1.238842028611494
 30
0.0
 11
35.65365260858346
 21
-1.288263042917251
 31
0.0
  0
LINE
  5
752
330
1F
100
AcDbEntity
  8
2
  6
CONTINUOUS
370
25
 62
7
100
AcDbLine
 10
35.624
 20
1.14
 30
0.0
 11
34.624
 21
6.140000000000001
 31
0.0
  0
LINE
  5
753
330
1F
100
AcDbEntity
  8
2
  6
CONTINUOUS
370
25
 62
7
100
AcDbLine
 10
34.624
 20
6.140000000000001
 30
0.0
 11
36.624
 21
6.140000000000001
 31
0.0
  0
LINE
  5
754
330
1F
100
AcDbEntity
  8
2
  6
CONTINUOUS
370
25
 62
7
100
AcDbLine
 10
36.624
 20
6.140000000000001
 30
0.0
 11
35.624
 21
1.14
 31
0.0
  0
LINE
  5
755
330
1F
100
AcDbEntity
  8
2
  6
CONTINUOUS
370
25
 62
7
100
AcDbLine
 10
35.57026471276917
 20
1.408676436154117
 30
0.0
 11
35.70460293084624
 21
1.543014654231186
 31
0.0
  0
LINE
  5
756
330
1F
100
AcDbEntity
  8
2
  6
CONTINUOUS
370
25
 62
7
100
AcDbLine
 10
35.49955403465052
 20
1.762229826747394
 30
0.0
 11
35.81066894802422
 21
2.073344740121094
 31
0.0
  0
LINE
  5
757
330
1F
100
AcDbEntity
  8
2
  6
CONTINUOUS
370
25
 62
7
100
AcDbLine
 10
35.42884335653186
 20
2.115783217340663
 30
0.0
 11
35.91673496520221
 21
2.603674826011009
 31
0.0
  0
LINE
  5
758
330
1F
100
AcDbEntity
  8
2
  6
CONTINUOUS
370
25
 62
7
100
AcDbLine
 10
35.35813267841321
 20
2.469336607933933
 30
0.0
 11
36.02280098238019
 21
3.134004911900917
 31
0.0
  0
LINE
  5
759
330
1F
100
AcDbEntity
  8
2
  6
CONTINUOUS
370
25
 62
7
100
AcDbLine
 10
35.28742200029456
 20
2.822889998527224
 30
0.0
 11
36.12886699955816
 21
3.664334997790824
 31
0.0
  0
LINE
  5
75A
330
1F
100
AcDbEntity
  8
2
  6
CONTINUOUS
370
25
 62
7
100
AcDbLine
 10
35.2167113221759
 20
3.176443389120493
 30
0.0
 11
36.23493301673615
 21
4.194665083680739
 31
0.0
  0
LINE
  5
75B
330
1F
100
AcDbEntity
  8
2
  6
CONTINUOUS
370
25
 62
7
100
AcDbLine
 10
35.14600064405725
 20
3.529996779713766
 30
0.0
 11
36.34099903391413
 21
4.724995169570651
 31
0.0
  0
LINE
  5
75C
330
1F
100
AcDbEntity
  8
2
  6
CONTINUOUS
370
25
 62
7
100
AcDbLine
 10
35.07528996593859
 20
3.883550170307043
 30
0.0
 11
36.44706505109212
 21
5.255325255460566
 31
0.0
  0
LINE
  5
75D
330
1F
100
AcDbEntity
  8
2
  6
CONTINUOUS
370
25
 62
7
100
AcDbLine
 10
35.00457928781994
 20
4.237103560900312
 30
0.0
 11
36.5531310682701
 21
5.785655341350481
 31
0.0
  0
LINE
  5
75E
330
1F
100
AcDbEntity
  8
2
  6
CONTINUOUS
370
25
 62
7
100
AcDbLine
 10
34.93386860970128
 20
4.590656951493582
 30
0.0
 11
36.48321165820769
 21
6.139999999999997
 31
0.0
  0
LINE
  5
75F
330
1F
100
AcDbEntity
  8
2
  6
CONTINUOUS
370
25
 62
7
100
AcDbLine
 10
34.86315793158262
 20
4.944210342086855
 30
0.0
 11
36.05894758949576
 21
6.140000000000001
 31
0.0
  0
LINE
  5
760
330
1F
100
AcDbEntity
  8
2
  6
CONTINUOUS
370
25
 62
7
100
AcDbLine
 10
34.79244725346397
 20
5.297763732680131
 30
0.0
 11
35.63468352078383
 21
6.140000000000001
 31
0.0
  0
LINE
  5
761
330
1F
100
AcDbEntity
  8
2
  6
CONTINUOUS
370
25
 62
7
100
AcDbLine
 10
34.72173657534532
 20
5.651317123273412
 30
0.0
 11
35.2104194520719
 21
6.139999999999997
 31
0.0
  0
LINE
  5
762
330
1F
100
AcDbEntity
  8
2
  6
CONTINUOUS
370
25
 62
7
100
AcDbLine
 10
34.65102589722666
 20
6.004870513866692
 30
0.0
 11
34.78615538335997
 21
6.140000000000001
 31
0.0
  0
LINE
  5
763
330
1F
100
AcDbEntity
  8
2
  6
CONTINUOUS
370
25
 62
7
100
AcDbLine
 10
35.58725650551555
 20
1.32371747242221
 30
0.0
 11
35.64849566298963
 21
1.262478314948133
 31
0.0
  0
LINE
  5
764
330
1F
100
AcDbEntity
  8
2
  6
CONTINUOUS
370
25
 62
7
100
AcDbLine
 10
35.48119048833757
 20
1.854047558312125
 30
0.0
 11
35.71920634110829
 21
1.616031705541417
 31
0.0
  0
LINE
  5
765
330
1F
100
AcDbEntity
  8
2
  6
CONTINUOUS
370
25
 62
7
100
AcDbLine
 10
35.37512447115959
 20
2.38437764420204
 30
0.0
 11
35.78991701922694
 21
1.969585096134686
 31
0.0
  0
LINE
  5
766
330
1F
100
AcDbEntity
  8
2
  6
CONTINUOUS
370
25
 62
7
100
AcDbLine
 10
35.26905845398161
 20
2.914707730091948
 30
0.0
 11
35.86062769734559
 21
2.32313848672797
 31
0.0
  0
LINE
  5
767
330
1F
100
AcDbEntity
  8
2
  6
CONTINUOUS
370
25
 62
7
100
AcDbLine
 10
35.16299243680363
 20
3.445037815981856
 30
0.0
 11
35.93133837546425
 21
2.67669187732124
 31
0.0
  0
LINE
  5
768
330
1F
100
AcDbEntity
  8
2
  6
CONTINUOUS
370
25
 62
7
100
AcDbLine
 10
35.05692641962564
 20
3.975367901871778
 30
0.0
 11
36.00204905358291
 21
3.030245267914516
 31
0.0
  0
LINE
  5
769
330
1F
100
AcDbEntity
  8
2
  6
CONTINUOUS
370
25
 62
7
100
AcDbLine
 10
34.95086040244767
 20
4.505697987761671
 30
0.0
 11
36.07275973170156
 21
3.383798658507786
 31
0.0
  0
LINE
  5
76A
330
1F
100
AcDbEntity
  8
2
  6
CONTINUOUS
370
25
 62
7
100
AcDbLine
 10
34.84479438526968
 20
5.036028073651593
 30
0.0
 11
36.14347040982022
 21
3.737352049101062
 31
0.0
  0
LINE
  5
76B
330
1F
100
AcDbEntity
  8
2
  6
CONTINUOUS
370
25
 62
7
100
AcDbLine
 10
34.7387283680917
 20
5.566358159541494
 30
0.0
 11
36.21418108793887
 21
4.090905439694332
 31
0.0
  0
LINE
  5
76C
330
1F
100
AcDbEntity
  8
2
  6
CONTINUOUS
370
25
 62
7
100
AcDbLine
 10
34.63266235091371
 20
6.096688245431416
 30
0.0
 11
36.28489176605753
 21
4.444458830287608
 31
0.0
  0
LINE
  5
76D
330
1F
100
AcDbEntity
  8
2
  6
CONTINUOUS
370
25
 62
7
100
AcDbLine
 10
35.01361466505706
 20
6.140000000000001
 30
0.0
 11
36.35560244417618
 21
4.798012220880892
 31
0.0
  0
LINE
  5
76E
330
1F
100
AcDbEntity
  8
2
  6
CONTINUOUS
370
25
 62
7
100
AcDbLine
 10
35.43787873376898
 20
6.140000000000001
 30
0.0
 11
36.42631312229484
 21
5.151565611474147
 31
0.0
  0
LINE
  5
76F
330
1F
100
AcDbEntity
  8
2
  6
CONTINUOUS
370
25
 62
7
100
AcDbLine
 10
35.86214280248092
 20
6.140000000000001
 30
0.0
 11
36.49702380041349
 21
5.505119002067438
 31
0.0
  0
LINE
  5
770
330
1F
100
AcDbEntity
  8
2
  6
CONTINUOUS
370
25
 62
7
100
AcDbLine
 10
36.28640687119285
 20
6.140000000000001
 30
0.0
 11
36.56773447853215
 21
5.858672392660708
 31
0.0
  0
TEXT
  5
771
330
1F
100
AcDbEntity
  8
2
  6
CONTINUOUS
370
25
 62
7
100
AcDbText
 10
34.624
 20
-19.49625
 30
0.0
 40
3.5
  1
2.28
 50
90.00000000000001
 72
     1
 11
34.624
 21
-14.24625
 31
0.0
100
AcDbText
  0
CIRCLE
  5
772
330
1F
100
AcDbEntity
  8
2
  6
CONTINUOUS
370
25
 62
7
100
AcDbCircle
 10
33.09275
 20
-23.6175
 30
0.0
 40
1.53125
  0
LINE
  5
773
330
1F
100
AcDbEntity
  8
2
  6
CONTINUOUS
370
25
 62
7
100
AcDbLine
 10
34.624
 20
-25.14875
 30
0.0
 11
31.5615
 21
-22.08625
 31
0.0
  0
LINE
  5
774
330
1F
100
AcDbEntity
  8
SK2
  6
CONTINUOUS
370
25
 62
7
100
AcDbLine
 10
-29.376
 20
0.0
 30
0.0
 11
-29.376
 21
19.50001
 31
0.0
  0
LINE
  5
775
330
1F
100
AcDbEntity
  8
SK2
  6
CONTINUOUS
370
25
 62
7
100
AcDbLine
 10
15.624
 20
19.50001
 30
0.0
 11
15.624
 21
1.140000000000001
 31
0.0
  0
LINE
  5
776
330
1F
100
AcDbEntity
  8
SK2
  6
CONTINUOUS
370
25
 62
7
100
AcDbLine
 10
-29.376
 20
18.50001
 30
0.0
 11
15.624
 21
18.50001
 31
0.0
  0
LINE
  5
777
330
1F
100
AcDbEntity
  8
SK2
  6
CONTINUOUS
370
25
 62
7
100
AcDbLine
 10
-29.376
 20
18.50001
 30
0.0
 11
-24.376
 21
19.50001
 31
0.0
  0
LINE
  5
778
330
1F
100
AcDbEntity
  8
SK2
  6
CONTINUOUS
370
25
 62
7
100
AcDbLine
 10
-24.376
 20
19.50001
 30
0.0
 11
-24.376
 21
17.50001
 31
0.0
  0
LINE
  5
779
330
1F
100
AcDbEntity
  8
SK2
  6
CONTINUOUS
370
25
 62
7
100
AcDbLine
 10
-24.376
 20
17.50001
 30
0.0
 11
-29.376
 21
18.50001
 31
0.0
  0
LINE
  5
77A
330
1F
100
AcDbEntity
  8
SK2
  6
CONTINUOUS
370
25
 62
7
100
AcDbLine
 10
-24.4811106687341
 20
17.52103213374682
 30
0.0
 11
-24.376
 21
17.62614280248092
 31
0.0
  0
LINE
  5
77B
330
1F
100
AcDbEntity
  8
SK2
  6
CONTINUOUS
370
25
 62
7
100
AcDbLine
 10
-24.83466405932737
 20
17.59174281186547
 30
0.0
 11
-24.376
 21
18.05040687119284
 31
0.0
  0
LINE
  5
77C
330
1F
100
AcDbEntity
  8
SK2
  6
CONTINUOUS
370
25
 62
7
100
AcDbLine
 10
-25.18821744992065
 20
17.66245348998413
 30
0.0
 11
-24.376
 21
18.47467093990477
 31
0.0
  0
LINE
  5
77D
330
1F
100
AcDbEntity
  8
SK2
  6
CONTINUOUS
370
25
 62
7
100
AcDbLine
 10
-25.54177084051392
 20
17.73316416810278
 30
0.0
 11
-24.376
 21
18.8989350086167
 31
0.0
  0
LINE
  5
77E
330
1F
100
AcDbEntity
  8
SK2
  6
CONTINUOUS
370
25
 62
7
100
AcDbLine
 10
-25.89532423110719
 20
17.80387484622144
 30
0.0
 11
-24.376
 21
19.32319907732863
 31
0.0
  0
LINE
  5
77F
330
1F
100
AcDbEntity
  8
SK2
  6
CONTINUOUS
370
25
 62
7
100
AcDbLine
 10
-26.24887762170047
 20
17.87458552434009
 30
0.0
 11
-24.6853164325507
 21
19.43814671348986
 31
0.0
  0
LINE
  5
780
330
1F
100
AcDbEntity
  8
SK2
  6
CONTINUOUS
370
25
 62
7
100
AcDbLine
 10
-26.60243101229374
 20
17.94529620245875
 30
0.0
 11
-25.2156465184406
 21
19.33208069631188
 31
0.0
  0
LINE
  5
781
330
1F
100
AcDbEntity
  8
SK2
  6
CONTINUOUS
370
25
 62
7
100
AcDbLine
 10
-26.95598440288701
 20
18.0160068805774
 30
0.0
 11
-25.74597660433052
 21
19.2260146791339
 31
0.0
  0
LINE
  5
782
330
1F
100
AcDbEntity
  8
SK2
  6
CONTINUOUS
370
25
 62
7
100
AcDbLine
 10
-27.30953779348029
 20
18.08671755869605
 30
0.0
 11
-26.27630669022042
 21
19.11994866195592
 31
0.0
  0
LINE
  5
783
330
1F
100
AcDbEntity
  8
SK2
  6
CONTINUOUS
370
25
 62
7
100
AcDbLine
 10
-27.66309118407355
 20
18.15742823681471
 30
0.0
 11
-26.80663677611033
 21
19.01388264477793
 31
0.0
  0
LINE
  5
784
330
1F
100
AcDbEntity
  8
SK2
  6
CONTINUOUS
370
25
 62
7
100
AcDbLine
 10
-28.01664457466683
 20
18.22813891493336
 30
0.0
 11
-27.33696686200024
 21
18.90781662759995
 31
0.0
  0
LINE
  5
785
330
1F
100
AcDbEntity
  8
SK2
  6
CONTINUOUS
370
25
 62
7
100
AcDbLine
 10
-28.3701979652601
 20
18.29884959305202
 30
0.0
 11
-27.86729694789015
 21
18.80175061042197
 31
0.0
  0
LINE
  5
786
330
1F
100
AcDbEntity
  8
SK2
  6
CONTINUOUS
370
25
 62
7
100
AcDbLine
 10
-28.72375135585337
 20
18.36956027117067
 30
0.0
 11
-28.39762703378006
 21
18.69568459324399
 31
0.0
  0
LINE
  5
787
330
1F
100
AcDbEntity
  8
SK2
  6
CONTINUOUS
370
25
 62
7
100
AcDbLine
 10
-29.07730474644665
 20
18.44027094928933
 30
0.0
 11
-28.92795711966998
 21
18.589618576066
 31
0.0
  0
LINE
  5
788
330
1F
100
AcDbEntity
  8
SK2
  6
CONTINUOUS
370
25
 62
7
100
AcDbLine
 10
-29.23297177040244
 20
18.52861564591952
 30
0.0
 11
-29.16145765560366
 21
18.45710153112073
 31
0.0
  0
LINE
  5
789
330
1F
100
AcDbEntity
  8
SK2
  6
CONTINUOUS
370
25
 62
7
100
AcDbLine
 10
-28.87941837980916
 20
18.59932632403817
 30
0.0
 11
-28.63112756971374
 21
18.35103551394275
 31
0.0
  0
LINE
  5
78A
330
1F
100
AcDbEntity
  8
SK2
  6
CONTINUOUS
370
25
 62
7
100
AcDbLine
 10
-28.52586498921589
 20
18.67003700215682
 30
0.0
 11
-28.10079748382383
 21
18.24496949676477
 31
0.0
  0
LINE
  5
78B
330
1F
100
AcDbEntity
  8
SK2
  6
CONTINUOUS
370
25
 62
7
100
AcDbLine
 10
-28.17231159862261
 20
18.74074768027548
 30
0.0
 11
-27.57046739793392
 21
18.13890347958678
 31
0.0
  0
LINE
  5
78C
330
1F
100
AcDbEntity
  8
SK2
  6
CONTINUOUS
370
25
 62
7
100
AcDbLine
 10
-27.81875820802934
 20
18.81145835839413
 30
0.0
 11
-27.04013731204401
 21
18.0328374624088
 31
0.0
  0
LINE
  5
78D
330
1F
100
AcDbEntity
  8
SK2
  6
CONTINUOUS
370
25
 62
7
100
AcDbLine
 10
-27.46520481743607
 20
18.88216903651279
 30
0.0
 11
-26.50980722615411
 21
17.92677144523082
 31
0.0
  0
LINE
  5
78E
330
1F
100
AcDbEntity
  8
SK2
  6
CONTINUOUS
370
25
 62
7
100
AcDbLine
 10
-27.1116514268428
 20
18.95287971463144
 30
0.0
 11
-25.9794771402642
 21
17.82070542805284
 31
0.0
  0
LINE
  5
78F
330
1F
100
AcDbEntity
  8
SK2
  6
CONTINUOUS
370
25
 62
7
100
AcDbLine
 10
-26.75809803624952
 20
19.0235903927501
 30
0.0
 11
-25.44914705437428
 21
17.71463941087485
 31
0.0
  0
LINE
  5
790
330
1F
100
AcDbEntity
  8
SK2
  6
CONTINUOUS
370
25
 62
7
100
AcDbLine
 10
-26.40454464565625
 20
19.09430107086875
 30
0.0
 11
-24.91881696848437
 21
17.60857339369687
 31
0.0
  0
LINE
  5
791
330
1F
100
AcDbEntity
  8
SK2
  6
CONTINUOUS
370
25
 62
7
100
AcDbLine
 10
-26.05099125506298
 20
19.16501174898741
 30
0.0
 11
-24.38848688259447
 21
17.50250737651889
 31
0.0
  0
LINE
  5
792
330
1F
100
AcDbEntity
  8
SK2
  6
CONTINUOUS
370
25
 62
7
100
AcDbLine
 10
-25.69743786446971
 20
19.23572242710606
 30
0.0
 11
-24.376
 21
17.91428456263635
 31
0.0
  0
LINE
  5
793
330
1F
100
AcDbEntity
  8
SK2
  6
CONTINUOUS
370
25
 62
7
100
AcDbLine
 10
-25.34388447387643
 20
19.30643310522471
 30
0.0
 11
-24.376
 21
18.33854863134828
 31
0.0
  0
LINE
  5
794
330
1F
100
AcDbEntity
  8
SK2
  6
CONTINUOUS
370
25
 62
7
100
AcDbLine
 10
-24.99033108328316
 20
19.37714378334337
 30
0.0
 11
-24.376
 21
18.76281270006021
 31
0.0
  0
LINE
  5
795
330
1F
100
AcDbEntity
  8
SK2
  6
CONTINUOUS
370
25
 62
7
100
AcDbLine
 10
-24.63677769268989
 20
19.44785446146202
 30
0.0
 11
-24.376
 21
19.18707676877214
 31
0.0
  0
LINE
  5
796
330
1F
100
AcDbEntity
  8
SK2
  6
CONTINUOUS
370
25
 62
7
100
AcDbLine
 10
15.624
 20
18.50001
 30
0.0
 11
10.624
 21
17.50001
 31
0.0
  0
LINE
  5
797
330
1F
100
AcDbEntity
  8
SK2
  6
CONTINUOUS
370
25
 62
7
100
AcDbLine
 10
10.624
 20
17.50001
 30
0.0
 11
10.624
 21
19.50001
 31
0.0
  0
LINE
  5
798
330
1F
100
AcDbEntity
  8
SK2
  6
CONTINUOUS
370
25
 62
7
100
AcDbLine
 10
10.624
 20
19.50001
 30
0.0
 11
15.624
 21
18.50001
 31
0.0
  0
LINE
  5
799
330
1F
100
AcDbEntity
  8
SK2
  6
CONTINUOUS
370
25
 62
7
100
AcDbLine
 10
15.50670189877063
 20
18.47655037975412
 30
0.0
 11
15.54580126584709
 21
18.51564974683058
 31
0.0
  0
LINE
  5
79A
330
1F
100
AcDbEntity
  8
SK2
  6
CONTINUOUS
370
25
 62
7
100
AcDbLine
 10
14.97637181288072
 20
18.37048436257614
 30
0.0
 11
15.19224787525381
 21
18.58636042494924
 31
0.0
  0
LINE
  5
79B
330
1F
100
AcDbEntity
  8
SK2
  6
CONTINUOUS
370
25
 62
7
100
AcDbLine
 10
14.44604172699081
 20
18.26441834539816
 30
0.0
 11
14.83869448466054
 21
18.65707110306789
 31
0.0
  0
LINE
  5
79C
330
1F
100
AcDbEntity
  8
SK2
  6
CONTINUOUS
370
25
 62
7
100
AcDbLine
 10
13.9157116411009
 20
18.15835232822018
 30
0.0
 11
14.48514109406727
 21
18.72778178118655
 31
0.0
  0
LINE
  5
79D
330
1F
100
AcDbEntity
  8
SK2
  6
CONTINUOUS
370
25
 62
7
100
AcDbLine
 10
13.38538155521099
 20
18.0522863110422
 30
0.0
 11
14.13158770347399
 21
18.7984924593052
 31
0.0
  0
LINE
  5
79E
330
1F
100
AcDbEntity
  8
SK2
  6
CONTINUOUS
370
25
 62
7
100
AcDbLine
 10
12.85505146932108
 20
17.94622029386422
 30
0.0
 11
13.77803431288072
 21
18.86920313742386
 31
0.0
  0
LINE
  5
79F
330
1F
100
AcDbEntity
  8
SK2
  6
CONTINUOUS
370
25
 62
7
100
AcDbLine
 10
12.32472138343117
 20
17.84015427668623
 30
0.0
 11
13.42448092228745
 21
18.93991381554251
 31
0.0
  0
LINE
  5
7A0
330
1F
100
AcDbEntity
  8
SK2
  6
CONTINUOUS
370
25
 62
7
100
AcDbLine
 10
11.79439129754126
 20
17.73408825950825
 30
0.0
 11
13.07092753169418
 21
19.01062449366117
 31
0.0
  0
LINE
  5
7A1
330
1F
100
AcDbEntity
  8
SK2
  6
CONTINUOUS
370
25
 62
7
100
AcDbLine
 10
11.26406121165135
 20
17.62802224233027
 30
0.0
 11
12.7173741411009
 21
19.08133517177982
 31
0.0
  0
LINE
  5
7A2
330
1F
100
AcDbEntity
  8
SK2
  6
CONTINUOUS
370
25
 62
7
100
AcDbLine
 10
10.73373112576144
 20
17.52195622515229
 30
0.0
 11
12.36382075050763
 21
19.15204584989848
 31
0.0
  0
LINE
  5
7A3
330
1F
100
AcDbEntity
  8
SK2
  6
CONTINUOUS
370
25
 62
7
100
AcDbLine
 10
10.624
 20
17.83648916810277
 30
0.0
 11
12.01026735991436
 21
19.22275652801713
 31
0.0
  0
LINE
  5
7A4
330
1F
100
AcDbEntity
  8
SK2
  6
CONTINUOUS
370
25
 62
7
100
AcDbLine
 10
10.624
 20
18.2607532368147
 30
0.0
 11
11.65671396932108
 21
19.29346720613578
 31
0.0
  0
LINE
  5
7A5
330
1F
100
AcDbEntity
  8
SK2
  6
CONTINUOUS
370
25
 62
7
100
AcDbLine
 10
10.624
 20
18.68501730552663
 30
0.0
 11
11.30316057872781
 21
19.36417788425444
 31
0.0
  0
LINE
  5
7A6
330
1F
100
AcDbEntity
  8
SK2
  6
CONTINUOUS
370
25
 62
7
100
AcDbLine
 10
10.624
 20
19.10928137423856
 30
0.0
 11
10.94960718813454
 21
19.43488856237309
 31
0.0
  0
LINE
  5
7A7
330
1F
100
AcDbEntity
  8
SK2
  6
CONTINUOUS
370
25
 62
7
100
AcDbLine
 10
10.624
 20
17.8016926036992
 30
0.0
 11
10.87540216974934
 21
17.55029043394987
 31
0.0
  0
LINE
  5
7A8
330
1F
100
AcDbEntity
  8
SK2
  6
CONTINUOUS
370
25
 62
7
100
AcDbLine
 10
10.624
 20
18.22595667241113
 30
0.0
 11
11.22895556034261
 21
17.62100111206852
 31
0.0
  0
LINE
  5
7A9
330
1F
100
AcDbEntity
  8
SK2
  6
CONTINUOUS
370
25
 62
7
100
AcDbLine
 10
10.624
 20
18.65022074112306
 30
0.0
 11
11.58250895093588
 21
17.69171179018717
 31
0.0
  0
LINE
  5
7AA
330
1F
100
AcDbEntity
  8
SK2
  6
CONTINUOUS
370
25
 62
7
100
AcDbLine
 10
10.624
 20
19.07448480983498
 30
0.0
 11
11.93606234152916
 21
17.76242246830583
 31
0.0
  0
LINE
  5
7AB
330
1F
100
AcDbEntity
  8
SK2
  6
CONTINUOUS
370
25
 62
7
100
AcDbLine
 10
10.624
 20
19.49874887854691
 30
0.0
 11
12.28961573212243
 21
17.83313314642449
 31
0.0
  0
LINE
  5
7AC
330
1F
100
AcDbEntity
  8
SK2
  6
CONTINUOUS
370
25
 62
7
100
AcDbLine
 10
11.15275368407355
 20
19.39425926318529
 30
0.0
 11
12.6431691227157
 21
17.90384382454314
 31
0.0
  0
LINE
  5
7AD
330
1F
100
AcDbEntity
  8
SK2
  6
CONTINUOUS
370
25
 62
7
100
AcDbLine
 10
11.68308376996346
 20
19.28819324600731
 30
0.0
 11
12.99672251330898
 21
17.9745545026618
 31
0.0
  0
LINE
  5
7AE
330
1F
100
AcDbEntity
  8
SK2
  6
CONTINUOUS
370
25
 62
7
100
AcDbLine
 10
12.21341385585337
 20
19.18212722882933
 30
0.0
 11
13.35027590390225
 21
18.04526518078045
 31
0.0
  0
LINE
  5
7AF
330
1F
100
AcDbEntity
  8
SK2
  6
CONTINUOUS
370
25
 62
7
100
AcDbLine
 10
12.74374394174328
 20
19.07606121165134
 30
0.0
 11
13.70382929449552
 21
18.11597585889911
 31
0.0
  0
LINE
  5
7B0
330
1F
100
AcDbEntity
  8
SK2
  6
CONTINUOUS
370
25
 62
7
100
AcDbLine
 10
13.27407402763318
 20
18.96999519447336
 30
0.0
 11
14.05738268508879
 21
18.18668653701776
 31
0.0
  0
LINE
  5
7B1
330
1F
100
AcDbEntity
  8
SK2
  6
CONTINUOUS
370
25
 62
7
100
AcDbLine
 10
13.8044041135231
 20
18.86392917729538
 30
0.0
 11
14.41093607568207
 21
18.25739721513641
 31
0.0
  0
LINE
  5
7B2
330
1F
100
AcDbEntity
  8
SK2
  6
CONTINUOUS
370
25
 62
7
100
AcDbLine
 10
14.334734199413
 20
18.7578631601174
 30
0.0
 11
14.76448946627534
 21
18.32810789325507
 31
0.0
  0
LINE
  5
7B3
330
1F
100
AcDbEntity
  8
SK2
  6
CONTINUOUS
370
25
 62
7
100
AcDbLine
 10
14.86506428530292
 20
18.65179714293942
 30
0.0
 11
15.11804285686862
 21
18.39881857137372
 31
0.0
  0
LINE
  5
7B4
330
1F
100
AcDbEntity
  8
SK2
  6
CONTINUOUS
370
25
 62
7
100
AcDbLine
 10
15.39539437119282
 20
18.54573112576144
 30
0.0
 11
15.47159624746188
 21
18.46952924949237
 31
0.0
  0
TEXT
  5
7B5
330
1F
100
AcDbEntity
  8
SK2
  6
CONTINUOUS
370
25
 62
7
100
AcDbText
 10
-9.792666666666669
 20
19.50001
 30
0.0
 40
3.5
  1
45
 72
     1
 11
-6.876000000000001
 21
19.50001
 31
0.0
100
AcDbText
  0
LINE
  5
7B6
330
1F
100
AcDbEntity
  8
2
  6
CONTINUOUS
370
25
 62
7
100
AcDbLine
 10
-0.0000000000000001
 20
0.0
 30
0.0
 11
0.0000000000000007
 21
12.50001
 31
0.0
  0
LINE
  5
7B7
330
1F
100
AcDbEntity
  8
2
  6
CONTINUOUS
370
25
 62
7
100
AcDbLine
 10
15.624
 20
12.50001
 30
0.0
 11
15.624
 21
1.140000000000001
 31
0.0
  0
LINE
  5
7B8
330
1F
100
AcDbEntity
  8
2
  6
CONTINUOUS
370
25
 62
7
100
AcDbLine
 10
40.8365
 20
11.50001
 30
0.0
 11
-10.00000000000001
 21
11.50001
 31
0.0
  0
LINE
  5
7B9
330
1F
100
AcDbEntity
  8
2
  6
CONTINUOUS
370
25
 62
7
100
AcDbLine
 10
0.0
 20
11.50001
 30
0.0
 11
-5.0
 21
10.50001
 31
0.0
  0
LINE
  5
7BA
330
1F
100
AcDbEntity
  8
2
  6
CONTINUOUS
370
25
 62
7
100
AcDbLine
 10
-5.0
 20
10.50001
 30
0.0
 11
-5.0
 21
12.50001
 31
0.0
  0
LINE
  5
7BB
330
1F
100
AcDbEntity
  8
2
  6
CONTINUOUS
370
25
 62
7
100
AcDbLine
 10
-5.0
 20
12.50001
 30
0.0
 11
0.0
 21
11.50001
 31
0.0
  0
LINE
  5
7BC
330
1F
100
AcDbEntity
  8
2
  6
CONTINUOUS
370
25
 62
7
100
AcDbLine
 10
-0.4742299049174958
 20
11.4051640190165
 30
0.0
 11
-0.3161532699449973
 21
11.563240653989
 31
0.0
  0
LINE
  5
7BD
330
1F
100
AcDbEntity
  8
2
  6
CONTINUOUS
370
25
 62
7
100
AcDbLine
 10
-1.004559990807405
 20
11.29909800183852
 30
0.0
 11
-0.6697066605382703
 21
11.63395133210765
 31
0.0
  0
LINE
  5
7BE
330
1F
100
AcDbEntity
  8
2
  6
CONTINUOUS
370
25
 62
7
100
AcDbLine
 10
-1.534890076697315
 20
11.19303198466054
 30
0.0
 11
-1.023260051131544
 21
11.70466201022631
 31
0.0
  0
LINE
  5
7BF
330
1F
100
AcDbEntity
  8
2
  6
CONTINUOUS
370
25
 62
7
100
AcDbLine
 10
-2.065220162587224
 20
11.08696596748256
 30
0.0
 11
-1.376813441724816
 21
11.77537268834496
 31
0.0
  0
LINE
  5
7C0
330
1F
100
AcDbEntity
  8
2
  6
CONTINUOUS
370
25
 62
7
100
AcDbLine
 10
-2.595550248477133
 20
10.98089995030457
 30
0.0
 11
-1.730366832318089
 21
11.84608336646362
 31
0.0
  0
LINE
  5
7C1
330
1F
100
AcDbEntity
  8
2
  6
CONTINUOUS
370
25
 62
7
100
AcDbLine
 10
-3.125880334367046
 20
10.87483393312659
 30
0.0
 11
-2.083920222911365
 21
11.91679404458227
 31
0.0
  0
LINE
  5
7C2
330
1F
100
AcDbEntity
  8
2
  6
CONTINUOUS
370
25
 62
7
100
AcDbLine
 10
-3.656210420256955
 20
10.76876791594861
 30
0.0
 11
-2.437473613504637
 21
11.98750472270093
 31
0.0
  0
LINE
  5
7C3
330
1F
100
AcDbEntity
  8
2
  6
CONTINUOUS
370
25
 62
7
100
AcDbLine
 10
-4.186540506146864
 20
10.66270189877063
 30
0.0
 11
-2.79102700409791
 21
12.05821540081958
 31
0.0
  0
LINE
  5
7C4
330
1F
100
AcDbEntity
  8
2
  6
CONTINUOUS
370
25
 62
7
100
AcDbLine
 10
-4.716870592036773
 20
10.55663588159264
 30
0.0
 11
-3.144580394691183
 21
12.12892607893824
 31
0.0
  0
LINE
  5
7C5
330
1F
100
AcDbEntity
  8
2
  6
CONTINUOUS
370
25
 62
7
100
AcDbLine
 10
-5.0
 20
10.69777054234135
 30
0.0
 11
-3.498133785284456
 21
12.19963675705689
 31
0.0
  0
LINE
  5
7C6
330
1F
100
AcDbEntity
  8
2
  6
CONTINUOUS
370
25
 62
7
100
AcDbLine
 10
-5.0
 20
11.12203461105328
 30
0.0
 11
-3.851687175877732
 21
12.27034743517554
 31
0.0
  0
LINE
  5
7C7
330
1F
100
AcDbEntity
  8
2
  6
CONTINUOUS
370
25
 62
7
100
AcDbLine
 10
-5.0
 20
11.5462986797652
 30
0.0
 11
-4.205240566471005
 21
12.3410581132942
 31
0.0
  0
LINE
  5
7C8
330
1F
100
AcDbEntity
  8
2
  6
CONTINUOUS
370
25
 62
7
100
AcDbLine
 10
-5.0
 20
11.97056274847713
 30
0.0
 11
-4.558793957064277
 21
12.41176879141286
 31
0.0
  0
LINE
  5
7C9
330
1F
100
AcDbEntity
  8
2
  6
CONTINUOUS
370
25
 62
7
100
AcDbLine
 10
-5.0
 20
12.39482681718906
 30
0.0
 11
-4.91234734765755
 21
12.48247946953151
 31
0.0
  0
LINE
  5
7CA
330
1F
100
AcDbEntity
  8
2
  6
CONTINUOUS
370
25
 62
7
100
AcDbLine
 10
-5.0
 20
10.51543289325507
 30
0.0
 11
-4.987147588954107
 21
10.50258048220918
 31
0.0
  0
LINE
  5
7CB
330
1F
100
AcDbEntity
  8
2
  6
CONTINUOUS
370
25
 62
7
100
AcDbLine
 10
-5.0
 20
10.939696961967
 30
0.0
 11
-4.633594198360833
 21
10.57329116032783
 31
0.0
  0
LINE
  5
7CC
330
1F
100
AcDbEntity
  8
2
  6
CONTINUOUS
370
25
 62
7
100
AcDbLine
 10
-5.0
 20
11.36396103067893
 30
0.0
 11
-4.280040807767561
 21
10.64400183844649
 31
0.0
  0
LINE
  5
7CD
330
1F
100
AcDbEntity
  8
2
  6
CONTINUOUS
370
25
 62
7
100
AcDbLine
 10
-5.0
 20
11.78822509939085
 30
0.0
 11
-3.926487417174286
 21
10.71471251656514
 31
0.0
  0
LINE
  5
7CE
330
1F
100
AcDbEntity
  8
2
  6
CONTINUOUS
370
25
 62
7
100
AcDbLine
 10
-5.0
 20
12.21248916810278
 30
0.0
 11
-3.572934026581012
 21
10.7854231946838
 31
0.0
  0
LINE
  5
7CF
330
1F
100
AcDbEntity
  8
2
  6
CONTINUOUS
370
25
 62
7
100
AcDbLine
 10
-4.829070953981613
 20
12.46582419079632
 30
0.0
 11
-3.219380635987739
 21
10.85613387280245
 31
0.0
  0
LINE
  5
7D0
330
1F
100
AcDbEntity
  8
2
  6
CONTINUOUS
370
25
 62
7
100
AcDbLine
 10
-4.298740868091702
 20
12.35975817361834
 30
0.0
 11
-2.865827245394465
 21
10.92684455092111
 31
0.0
  0
LINE
  5
7D1
330
1F
100
AcDbEntity
  8
2
  6
CONTINUOUS
370
25
 62
7
100
AcDbLine
 10
-3.768410782201792
 20
12.25369215644036
 30
0.0
 11
-2.512273854801192
 21
10.99755522903976
 31
0.0
  0
LINE
  5
7D2
330
1F
100
AcDbEntity
  8
2
  6
CONTINUOUS
370
25
 62
7
100
AcDbLine
 10
-3.23808069631188
 20
12.14762613926238
 30
0.0
 11
-2.158720464207918
 21
11.06826590715842
 31
0.0
  0
LINE
  5
7D3
330
1F
100
AcDbEntity
  8
2
  6
CONTINUOUS
370
25
 62
7
100
AcDbLine
 10
-2.707750610421966
 20
12.04156012208439
 30
0.0
 11
-1.805167073614642
 21
11.13897658527707
 31
0.0
  0
LINE
  5
7D4
330
1F
100
AcDbEntity
  8
2
  6
CONTINUOUS
370
25
 62
7
100
AcDbLine
 10
-2.177420524532055
 20
11.93549410490641
 30
0.0
 11
-1.451613683021368
 21
11.20968726339573
 31
0.0
  0
LINE
  5
7D5
330
1F
100
AcDbEntity
  8
2
  6
CONTINUOUS
370
25
 62
7
100
AcDbLine
 10
-1.647090438642143
 20
11.82942808772843
 30
0.0
 11
-1.098060292428094
 21
11.28039794151438
 31
0.0
  0
LINE
  5
7D6
330
1F
100
AcDbEntity
  8
2
  6
CONTINUOUS
370
25
 62
7
100
AcDbLine
 10
-1.116760352752233
 20
11.72336207055045
 30
0.0
 11
-0.7445069018348208
 21
11.35110861963303
 31
0.0
  0
LINE
  5
7D7
330
1F
100
AcDbEntity
  8
2
  6
CONTINUOUS
370
25
 62
7
100
AcDbLine
 10
-0.5864302668623211
 20
11.61729605337246
 30
0.0
 11
-0.390953511241547
 21
11.42181929775169
 31
0.0
  0
LINE
  5
7D8
330
1F
100
AcDbEntity
  8
2
  6
CONTINUOUS
370
25
 62
7
100
AcDbLine
 10
-0.0561001809724095
 20
11.51123003619448
 30
0.0
 11
-0.037400120648273
 21
11.49252997587035
 31
0.0
  0
LINE
  5
7D9
330
1F
100
AcDbEntity
  8
2
  6
CONTINUOUS
370
25
 62
7
100
AcDbLine
 10
15.624
 20
11.50001
 30
0.0
 11
20.624
 21
12.50001
 31
0.0
  0
LINE
  5
7DA
330
1F
100
AcDbEntity
  8
2
  6
CONTINUOUS
370
25
 62
7
100
AcDbLine
 10
20.624
 20
12.50001
 30
0.0
 11
20.624
 21
10.50001
 31
0.0
  0
LINE
  5
7DB
330
1F
100
AcDbEntity
  8
2
  6
CONTINUOUS
370
25
 62
7
100
AcDbLine
 10
20.624
 20
10.50001
 30
0.0
 11
15.624
 21
11.50001
 31
0.0
  0
LINE
  5
7DC
330
1F
100
AcDbEntity
  8
2
  6
CONTINUOUS
370
25
 62
7
100
AcDbLine
 10
20.30895878062888
 20
10.56301824387423
 30
0.0
 11
20.624
 21
10.87805946324535
 31
0.0
  0
LINE
  5
7DD
330
1F
100
AcDbEntity
  8
2
  6
CONTINUOUS
370
25
 62
7
100
AcDbLine
 10
19.95540539003561
 20
10.63372892199288
 30
0.0
 11
20.624
 21
11.30232353195727
 31
0.0
  0
LINE
  5
7DE
330
1F
100
AcDbEntity
  8
2
  6
CONTINUOUS
370
25
 62
7
100
AcDbLine
 10
19.60185199944234
 20
10.70443960011153
 30
0.0
 11
20.624
 21
11.7265876006692
 31
0.0
  0
LINE
  5
7DF
330
1F
100
AcDbEntity
  8
2
  6
CONTINUOUS
370
25
 62
7
100
AcDbLine
 10
19.24829860884906
 20
10.77515027823019
 30
0.0
 11
20.624
 21
12.15085166938113
 31
0.0
  0
LINE
  5
7E0
330
1F
100
AcDbEntity
  8
2
  6
CONTINUOUS
370
25
 62
7
100
AcDbLine
 10
18.89474521825579
 20
10.84586095634884
 30
0.0
 11
20.53011782738368
 21
12.48123356547674
 31
0.0
  0
LINE
  5
7E1
330
1F
100
AcDbEntity
  8
2
  6
CONTINUOUS
370
25
 62
7
100
AcDbLine
 10
18.54119182766252
 20
10.9165716344675
 30
0.0
 11
19.99978774149377
 21
12.37516754829876
 31
0.0
  0
LINE
  5
7E2
330
1F
100
AcDbEntity
  8
2
  6
CONTINUOUS
370
25
 62
7
100
AcDbLine
 10
18.18763843706924
 20
10.98728231258615
 30
0.0
 11
19.46945765560386
 21
12.26910153112077
 31
0.0
  0
LINE
  5
7E3
330
1F
100
AcDbEntity
  8
2
  6
CONTINUOUS
370
25
 62
7
100
AcDbLine
 10
17.83408504647597
 20
11.05799299070481
 30
0.0
 11
18.93912756971395
 21
12.16303551394279
 31
0.0
  0
LINE
  5
7E4
330
1F
100
AcDbEntity
  8
2
  6
CONTINUOUS
370
25
 62
7
100
AcDbLine
 10
17.4805316558827
 20
11.12870366882346
 30
0.0
 11
18.40879748382405
 21
12.05696949676481
 31
0.0
  0
LINE
  5
7E5
330
1F
100
AcDbEntity
  8
2
  6
CONTINUOUS
370
25
 62
7
100
AcDbLine
 10
17.12697826528942
 20
11.19941434694212
 30
0.0
 11
17.87846739793413
 21
11.95090347958683
 31
0.0
  0
LINE
  5
7E6
330
1F
100
AcDbEntity
  8
2
  6
CONTINUOUS
370
25
 62
7
100
AcDbLine
 10
16.77342487469615
 20
11.27012502506077
 30
0.0
 11
17.34813731204423
 21
11.84483746240885
 31
0.0
  0
LINE
  5
7E7
330
1F
100
AcDbEntity
  8
2
  6
CONTINUOUS
370
25
 62
7
100
AcDbLine
 10
16.41987148410288
 20
11.34083570317943
 30
0.0
 11
16.81780722615432
 21
11.73877144523086
 31
0.0
  0
LINE
  5
7E8
330
1F
100
AcDbEntity
  8
2
  6
CONTINUOUS
370
25
 62
7
100
AcDbLine
 10
16.0663180935096
 20
11.41154638129808
 30
0.0
 11
16.28747714026441
 21
11.63270542805288
 31
0.0
  0
LINE
  5
7E9
330
1F
100
AcDbEntity
  8
2
  6
CONTINUOUS
370
25
 62
7
100
AcDbLine
 10
15.71276470291633
 20
11.48225705941674
 30
0.0
 11
15.7571470543745
 21
11.5266394108749
 31
0.0
  0
LINE
  5
7EA
330
1F
100
AcDbEntity
  8
2
  6
CONTINUOUS
370
25
 62
7
100
AcDbLine
 10
15.64807533130286
 20
11.50482506626057
 30
0.0
 11
15.6601129969543
 21
11.49278740060914
 31
0.0
  0
LINE
  5
7EB
330
1F
100
AcDbEntity
  8
2
  6
CONTINUOUS
370
25
 62
7
100
AcDbLine
 10
16.00162872189614
 20
11.57553574437923
 30
0.0
 11
16.19044308284421
 21
11.38672138343116
 31
0.0
  0
LINE
  5
7EC
330
1F
100
AcDbEntity
  8
2
  6
CONTINUOUS
370
25
 62
7
100
AcDbLine
 10
16.35518211248941
 20
11.64624642249788
 30
0.0
 11
16.72077316873412
 21
11.28065536625317
 31
0.0
  0
LINE
  5
7ED
330
1F
100
AcDbEntity
  8
2
  6
CONTINUOUS
370
25
 62
7
100
AcDbLine
 10
16.70873550308269
 20
11.71695710061654
 30
0.0
 11
17.25110325462403
 21
11.17458934907519
 31
0.0
  0
LINE
  5
7EE
330
1F
100
AcDbEntity
  8
2
  6
CONTINUOUS
370
25
 62
7
100
AcDbLine
 10
17.06228889367596
 20
11.78766777873519
 30
0.0
 11
17.78143334051394
 21
11.06852333189721
 31
0.0
  0
LINE
  5
7EF
330
1F
100
AcDbEntity
  8
2
  6
CONTINUOUS
370
25
 62
7
100
AcDbLine
 10
17.41584228426924
 20
11.85837845685385
 30
0.0
 11
18.31176342640386
 21
10.96245731471923
 31
0.0
  0
LINE
  5
7F0
330
1F
100
AcDbEntity
  8
2
  6
CONTINUOUS
370
25
 62
7
100
AcDbLine
 10
17.76939567486251
 20
11.9290891349725
 30
0.0
 11
18.84209351229376
 21
10.85639129754125
 31
0.0
  0
LINE
  5
7F1
330
1F
100
AcDbEntity
  8
2
  6
CONTINUOUS
370
25
 62
7
100
AcDbLine
 10
18.12294906545578
 20
11.99979981309116
 30
0.0
 11
19.37242359818367
 21
10.75032528036327
 31
0.0
  0
LINE
  5
7F2
330
1F
100
AcDbEntity
  8
2
  6
CONTINUOUS
370
25
 62
7
100
AcDbLine
 10
18.47650245604905
 20
12.07051049120981
 30
0.0
 11
19.90275368407358
 21
10.64425926318528
 31
0.0
  0
LINE
  5
7F3
330
1F
100
AcDbEntity
  8
2
  6
CONTINUOUS
370
25
 62
7
100
AcDbLine
 10
18.83005584664233
 20
12.14122116932847
 30
0.0
 11
20.4330837699635
 21
10.5381932460073
 31
0.0
  0
LINE
  5
7F4
330
1F
100
AcDbEntity
  8
2
  6
CONTINUOUS
370
25
 62
7
100
AcDbLine
 10
19.1836092372356
 20
12.21193184744712
 30
0.0
 11
20.624
 21
10.77154108468272
 31
0.0
  0
LINE
  5
7F5
330
1F
100
AcDbEntity
  8
2
  6
CONTINUOUS
370
25
 62
7
100
AcDbLine
 10
19.53716262782887
 20
12.28264252556578
 30
0.0
 11
20.624
 21
11.19580515339465
 31
0.0
  0
LINE
  5
7F6
330
1F
100
AcDbEntity
  8
2
  6
CONTINUOUS
370
25
 62
7
100
AcDbLine
 10
19.89071601842215
 20
12.35335320368443
 30
0.0
 11
20.624
 21
11.62006922210658
 31
0.0
  0
LINE
  5
7F7
330
1F
100
AcDbEntity
  8
2
  6
CONTINUOUS
370
25
 62
7
100
AcDbLine
 10
20.24426940901542
 20
12.42406388180309
 30
0.0
 11
20.624
 21
12.04433329081851
 31
0.0
  0
LINE
  5
7F8
330
1F
100
AcDbEntity
  8
2
  6
CONTINUOUS
370
25
 62
7
100
AcDbLine
 10
20.5978227996087
 20
12.49477455992174
 30
0.0
 11
20.624
 21
12.46859735953043
 31
0.0
  0
TEXT
  5
7F9
330
1F
100
AcDbEntity
  8
2
  6
CONTINUOUS
370
25
 62
7
100
AcDbText
 10
22.56358333333333
 20
12.50001
 30
0.0
 40
3.5
  1
15.624
 72
     1
 11
30.73025
 21
12.50001
 31
0.0
100
AcDbText
  0
LINE
  5
7FA
330
1F
100
AcDbEntity
  8
2
  6
CONTINUOUS
370
25
 62
7
100
AcDbLine
 10
2.624
 20
-1.14
 30
0.0
 11
2.623999999999999
 21
-12.50001
 31
0.0
  0
LINE
  5
7FB
330
1F
100
AcDbEntity
  8
2
  6
CONTINUOUS
370
25
 62
7
100
AcDbLine
 10
15.624
 20
-12.50001
 30
0.0
 11
15.624
 21
-1.140000000000001
 31
0.0
  0
LINE
  5
7FC
330
1F
100
AcDbEntity
  8
2
  6
CONTINUOUS
370
25
 62
7
100
AcDbLine
 10
25.624
 20
-11.50001
 30
0.0
 11
-7.376000000000001
 21
-11.50001
 31
0.0
  0
LINE
  5
7FD
330
1F
100
AcDbEntity
  8
2
  6
CONTINUOUS
370
25
 62
7
100
AcDbLine
 10
2.623999999999999
 20
-11.50001
 30
0.0
 11
-2.376000000000001
 21
-12.50001
 31
0.0
  0
LINE
  5
7FE
330
1F
100
AcDbEntity
  8
2
  6
CONTINUOUS
370
25
 62
7
100
AcDbLine
 10
-2.376000000000001
 20
-12.50001
 30
0.0
 11
-2.376000000000001
 21
-10.50001
 31
0.0
  0
LINE
  5
7FF
330
1F
100
AcDbEntity
  8
2
  6
CONTINUOUS
370
25
 62
7
100
AcDbLine
 10
-2.376000000000001
 20
-10.50001
 30
0.0
 11
2.623999999999999
 21
-11.50001
 31
0.0
  0
LINE
  5
800
330
1F
100
AcDbEntity
  8
2
  6
CONTINUOUS
370
25
 62
7
100
AcDbLine
 10
2.226841968484518
 20
-11.5794416063031
 30
0.0
 11
2.359227978989677
 21
-11.44705559579794
 31
0.0
  0
LINE
  5
801
330
1F
100
AcDbEntity
  8
2
  6
CONTINUOUS
370
25
 62
7
100
AcDbLine
 10
1.696511882594608
 20
-11.68550762348108
 30
0.0
 11
2.005674588396404
 21
-11.37634491767928
 31
0.0
  0
LINE
  5
802
330
1F
100
AcDbEntity
  8
2
  6
CONTINUOUS
370
25
 62
7
100
AcDbLine
 10
1.166181796704696
 20
-11.79157364065906
 30
0.0
 11
1.652121197803129
 21
-11.30563423956063
 31
0.0
  0
LINE
  5
803
330
1F
100
AcDbEntity
  8
2
  6
CONTINUOUS
370
25
 62
7
100
AcDbLine
 10
0.6358517108147881
 20
-11.89763965783704
 30
0.0
 11
1.298567807209857
 21
-11.23492356144197
 31
0.0
  0
LINE
  5
804
330
1F
100
AcDbEntity
  8
2
  6
CONTINUOUS
370
25
 62
7
100
AcDbLine
 10
0.1055216249248781
 20
-12.00370567501502
 30
0.0
 11
0.9450144166165841
 21
-11.16421288332332
 31
0.0
  0
LINE
  5
805
330
1F
100
AcDbEntity
  8
2
  6
CONTINUOUS
370
25
 62
7
100
AcDbLine
 10
-0.4248084609650319
 20
-12.10977169219301
 30
0.0
 11
0.591461026023311
 21
-11.09350220520466
 31
0.0
  0
LINE
  5
806
330
1F
100
AcDbEntity
  8
2
  6
CONTINUOUS
370
25
 62
7
100
AcDbLine
 10
-0.9551385468549419
 20
-12.21583770937099
 30
0.0
 11
0.2379076354300377
 21
-11.02279152708601
 31
0.0
  0
LINE
  5
807
330
1F
100
AcDbEntity
  8
2
  6
CONTINUOUS
370
25
 62
7
100
AcDbLine
 10
-1.485468632744852
 20
-12.32190372654897
 30
0.0
 11
-0.1156457551632355
 21
-10.95208084896735
 31
0.0
  0
LINE
  5
808
330
1F
100
AcDbEntity
  8
2
  6
CONTINUOUS
370
25
 62
7
100
AcDbLine
 10
-2.015798718634762
 20
-12.42796974372695
 30
0.0
 11
-0.4691991457565087
 21
-10.8813701708487
 31
0.0
  0
LINE
  5
809
330
1F
100
AcDbEntity
  8
2
  6
CONTINUOUS
370
25
 62
7
100
AcDbLine
 10
-2.376000000000001
 20
-12.36390695638026
 30
0.0
 11
-0.8227525363497832
 21
-10.81065949273004
 31
0.0
  0
LINE
  5
80A
330
1F
100
AcDbEntity
  8
2
  6
CONTINUOUS
370
25
 62
7
100
AcDbLine
 10
-2.376000000000001
 20
-11.93964288766833
 30
0.0
 11
-1.176305926943056
 21
-10.73994881461139
 31
0.0
  0
LINE
  5
80B
330
1F
100
AcDbEntity
  8
2
  6
CONTINUOUS
370
25
 62
7
100
AcDbLine
 10
-2.376000000000001
 20
-11.51537881895641
 30
0.0
 11
-1.52985931753633
 21
-10.66923813649274
 31
0.0
  0
LINE
  5
80C
330
1F
100
AcDbEntity
  8
2
  6
CONTINUOUS
370
25
 62
7
100
AcDbLine
 10
-2.376000000000001
 20
-11.09111475024448
 30
0.0
 11
-1.883412708129603
 21
-10.59852745837408
 31
0.0
  0
LINE
  5
80D
330
1F
100
AcDbEntity
  8
2
  6
CONTINUOUS
370
25
 62
7
100
AcDbLine
 10
-2.376000000000001
 20
-10.66685068153255
 30
0.0
 11
-2.236966098722876
 21
-10.52781678025543
 31
0.0
  0
LINE
  5
80E
330
1F
100
AcDbEntity
  8
2
  6
CONTINUOUS
370
25
 62
7
100
AcDbLine
 10
-2.376000000000001
 20
-12.2070757809234
 30
0.0
 11
-2.131888150769502
 21
-12.4511876301539
 31
0.0
  0
LINE
  5
80F
330
1F
100
AcDbEntity
  8
2
  6
CONTINUOUS
370
25
 62
7
100
AcDbLine
 10
-2.376000000000001
 20
-11.78281171221147
 30
0.0
 11
-1.778334760176228
 21
-12.38047695203525
 31
0.0
  0
LINE
  5
810
330
1F
100
AcDbEntity
  8
2
  6
CONTINUOUS
370
25
 62
7
100
AcDbLine
 10
-2.376000000000001
 20
-11.35854764349954
 30
0.0
 11
-1.424781369582955
 21
-12.30976627391659
 31
0.0
  0
LINE
  5
811
330
1F
100
AcDbEntity
  8
2
  6
CONTINUOUS
370
25
 62
7
100
AcDbLine
 10
-2.376000000000001
 20
-10.93428357478762
 30
0.0
 11
-1.071227978989681
 21
-12.23905559579793
 31
0.0
  0
LINE
  5
812
330
1F
100
AcDbEntity
  8
2
  6
CONTINUOUS
370
25
 62
7
100
AcDbLine
 10
-2.376000000000001
 20
-10.51001950607569
 30
0.0
 11
-0.717674588396408
 21
-12.16834491767928
 31
0.0
  0
LINE
  5
813
330
1F
100
AcDbEntity
  8
2
  6
CONTINUOUS
370
25
 62
7
100
AcDbLine
 10
-1.8581817967047
 20
-10.60357364065906
 30
0.0
 11
-0.3641211978031331
 21
-12.09763423956062
 31
0.0
  0
LINE
  5
814
330
1F
100
AcDbEntity
  8
2
  6
CONTINUOUS
370
25
 62
7
100
AcDbLine
 10
-1.327851710814791
 20
-10.70963965783704
 30
0.0
 11
-0.010567807209861
 21
-12.02692356144197
 31
0.0
  0
LINE
  5
815
330
1F
100
AcDbEntity
  8
2
  6
CONTINUOUS
370
25
 62
7
100
AcDbLine
 10
-0.7975216249248807
 20
-10.81570567501502
 30
0.0
 11
0.3429855833834124
 21
-11.95621288332332
 31
0.0
  0
LINE
  5
816
330
1F
100
AcDbEntity
  8
2
  6
CONTINUOUS
370
25
 62
7
100
AcDbLine
 10
-0.2671915390349703
 20
-10.92177169219301
 30
0.0
 11
0.6965389739766857
 21
-11.88550220520466
 31
0.0
  0
LINE
  5
817
330
1F
100
AcDbEntity
  8
2
  6
CONTINUOUS
370
25
 62
7
100
AcDbLine
 10
0.2631385468549422
 20
-11.02783770937099
 30
0.0
 11
1.050092364569961
 21
-11.81479152708601
 31
0.0
  0
LINE
  5
818
330
1F
100
AcDbEntity
  8
2
  6
CONTINUOUS
370
25
 62
7
100
AcDbLine
 10
0.7934686327448524
 20
-11.13390372654897
 30
0.0
 11
1.403645755163234
 21
-11.74408084896735
 31
0.0
  0
LINE
  5
819
330
1F
100
AcDbEntity
  8
2
  6
CONTINUOUS
370
25
 62
7
100
AcDbLine
 10
1.323798718634762
 20
-11.23996974372695
 30
0.0
 11
1.757199145756507
 21
-11.6733701708487
 31
0.0
  0
LINE
  5
81A
330
1F
100
AcDbEntity
  8
2
  6
CONTINUOUS
370
25
 62
7
100
AcDbLine
 10
1.854128804524674
 20
-11.34603576090494
 30
0.0
 11
2.110752536349781
 21
-11.60265949273004
 31
0.0
  0
LINE
  5
81B
330
1F
100
AcDbEntity
  8
2
  6
CONTINUOUS
370
25
 62
7
100
AcDbLine
 10
2.384458890414584
 20
-11.45210177808292
 30
0.0
 11
2.464305926943054
 21
-11.53194881461139
 31
0.0
  0
LINE
  5
81C
330
1F
100
AcDbEntity
  8
2
  6
CONTINUOUS
370
25
 62
7
100
AcDbLine
 10
15.624
 20
-11.50001
 30
0.0
 11
20.624
 21
-10.50001
 31
0.0
  0
LINE
  5
81D
330
1F
100
AcDbEntity
  8
2
  6
CONTINUOUS
370
25
 62
7
100
AcDbLine
 10
20.624
 20
-10.50001
 30
0.0
 11
20.624
 21
-12.50001
 31
0.0
  0
LINE
  5
81E
330
1F
100
AcDbEntity
  8
2
  6
CONTINUOUS
370
25
 62
7
100
AcDbLine
 10
20.624
 20
-12.50001
 30
0.0
 11
15.624
 21
-11.50001
 31
0.0
  0
LINE
  5
81F
330
1F
100
AcDbEntity
  8
2
  6
CONTINUOUS
370
25
 62
7
100
AcDbLine
 10
20.3837590219254
 20
-12.45196180438508
 30
0.0
 11
20.624
 21
-12.21172082631048
 31
0.0
  0
LINE
  5
820
330
1F
100
AcDbEntity
  8
2
  6
CONTINUOUS
370
25
 62
7
100
AcDbLine
 10
20.03020563133212
 20
-12.38125112626642
 30
0.0
 11
20.624
 21
-11.78745675759855
 31
0.0
  0
LINE
  5
821
330
1F
100
AcDbEntity
  8
2
  6
CONTINUOUS
370
25
 62
7
100
AcDbLine
 10
19.67665224073885
 20
-12.31054044814777
 30
0.0
 11
20.624
 21
-11.36319268888662
 31
0.0
  0
LINE
  5
822
330
1F
100
AcDbEntity
  8
2
  6
CONTINUOUS
370
25
 62
7
100
AcDbLine
 10
19.32309885014558
 20
-12.23982977002911
 30
0.0
 11
20.624
 21
-10.93892862017469
 31
0.0
  0
LINE
  5
823
330
1F
100
AcDbEntity
  8
2
  6
CONTINUOUS
370
25
 62
7
100
AcDbLine
 10
18.9695454595523
 20
-12.16911909191046
 30
0.0
 11
20.624
 21
-10.51466455146277
 31
0.0
  0
LINE
  5
824
330
1F
100
AcDbEntity
  8
2
  6
CONTINUOUS
370
25
 62
7
100
AcDbLine
 10
18.61599206895903
 20
-12.09840841379181
 30
0.0
 11
20.11198810343855
 21
-10.60241237931229
 31
0.0
  0
LINE
  5
825
330
1F
100
AcDbEntity
  8
2
  6
CONTINUOUS
370
25
 62
7
100
AcDbLine
 10
18.26243867836576
 20
-12.02769773567315
 30
0.0
 11
19.58165801754863
 21
-10.70847839649027
 31
0.0
  0
LINE
  5
826
330
1F
100
AcDbEntity
  8
2
  6
CONTINUOUS
370
25
 62
7
100
AcDbLine
 10
17.90888528777248
 20
-11.9569870575545
 30
0.0
 11
19.05132793165873
 21
-10.81454441366825
 31
0.0
  0
LINE
  5
827
330
1F
100
AcDbEntity
  8
2
  6
CONTINUOUS
370
25
 62
7
100
AcDbLine
 10
17.55533189717921
 20
-11.88627637943584
 30
0.0
 11
18.52099784576881
 21
-10.92061043084624
 31
0.0
  0
LINE
  5
828
330
1F
100
AcDbEntity
  8
2
  6
CONTINUOUS
370
25
 62
7
100
AcDbLine
 10
17.20177850658594
 20
-11.81556570131719
 30
0.0
 11
17.99066775987891
 21
-11.02667644802422
 31
0.0
  0
LINE
  5
829
330
1F
100
AcDbEntity
  8
2
  6
CONTINUOUS
370
25
 62
7
100
AcDbLine
 10
16.84822511599267
 20
-11.74485502319853
 30
0.0
 11
17.460337673989
 21
-11.1327424652022
 31
0.0
  0
LINE
  5
82A
330
1F
100
AcDbEntity
  8
2
  6
CONTINUOUS
370
25
 62
7
100
AcDbLine
 10
16.49467172539939
 20
-11.67414434507988
 30
0.0
 11
16.93000758809909
 21
-11.23880848238018
 31
0.0
  0
LINE
  5
82B
330
1F
100
AcDbEntity
  8
2
  6
CONTINUOUS
370
25
 62
7
100
AcDbLine
 10
16.14111833480612
 20
-11.60343366696122
 30
0.0
 11
16.39967750220918
 21
-11.34487449955817
 31
0.0
  0
LINE
  5
82C
330
1F
100
AcDbEntity
  8
2
  6
CONTINUOUS
370
25
 62
7
100
AcDbLine
 10
15.78756494421285
 20
-11.53272298884257
 30
0.0
 11
15.86934741631927
 21
-11.45094051673615
 31
0.0
  0
LINE
  5
82D
330
1F
100
AcDbEntity
  8
2
  6
CONTINUOUS
370
25
 62
7
100
AcDbLine
 10
15.72287557259943
 20
-11.48023488548011
 30
0.0
 11
15.77231335889915
 21
-11.52967267177983
 31
0.0
  0
LINE
  5
82E
330
1F
100
AcDbEntity
  8
2
  6
CONTINUOUS
370
25
 62
7
100
AcDbLine
 10
16.07642896319271
 20
-11.40952420736146
 30
0.0
 11
16.30264344478906
 21
-11.63573868895781
 31
0.0
  0
LINE
  5
82F
330
1F
100
AcDbEntity
  8
2
  6
CONTINUOUS
370
25
 62
7
100
AcDbLine
 10
16.42998235378598
 20
-11.33881352924281
 30
0.0
 11
16.83297353067897
 21
-11.74180470613579
 31
0.0
  0
LINE
  5
830
330
1F
100
AcDbEntity
  8
2
  6
CONTINUOUS
370
25
 62
7
100
AcDbLine
 10
16.78353574437925
 20
-11.26810285112415
 30
0.0
 11
17.36330361656888
 21
-11.84787072331378
 31
0.0
  0
LINE
  5
831
330
1F
100
AcDbEntity
  8
2
  6
CONTINUOUS
370
25
 62
7
100
AcDbLine
 10
17.13708913497253
 20
-11.19739217300549
 30
0.0
 11
17.89363370245879
 21
-11.95393674049176
 31
0.0
  0
LINE
  5
832
330
1F
100
AcDbEntity
  8
2
  6
CONTINUOUS
370
25
 62
7
100
AcDbLine
 10
17.4906425255658
 20
-11.12668149488684
 30
0.0
 11
18.4239637883487
 21
-12.06000275766974
 31
0.0
  0
LINE
  5
833
330
1F
100
AcDbEntity
  8
2
  6
CONTINUOUS
370
25
 62
7
100
AcDbLine
 10
17.84419591615907
 20
-11.05597081676818
 30
0.0
 11
18.95429387423861
 21
-12.16606877484772
 31
0.0
  0
LINE
  5
834
330
1F
100
AcDbEntity
  8
2
  6
CONTINUOUS
370
25
 62
7
100
AcDbLine
 10
18.19774930675235
 20
-10.98526013864953
 30
0.0
 11
19.48462396012852
 21
-12.27213479202571
 31
0.0
  0
LINE
  5
835
330
1F
100
AcDbEntity
  8
2
  6
CONTINUOUS
370
25
 62
7
100
AcDbLine
 10
18.55130269734562
 20
-10.91454946053088
 30
0.0
 11
20.01495404601843
 21
-12.37820080920369
 31
0.0
  0
LINE
  5
836
330
1F
100
AcDbEntity
  8
2
  6
CONTINUOUS
370
25
 62
7
100
AcDbLine
 10
18.90485608793889
 20
-10.84383878241222
 30
0.0
 11
20.54528413190834
 21
-12.48426682638167
 31
0.0
  0
LINE
  5
837
330
1F
100
AcDbEntity
  8
2
  6
CONTINUOUS
370
25
 62
7
100
AcDbLine
 10
19.25840947853217
 20
-10.77312810429356
 30
0.0
 11
20.624
 21
-12.1387186257614
 31
0.0
  0
LINE
  5
838
330
1F
100
AcDbEntity
  8
2
  6
CONTINUOUS
370
25
 62
7
100
AcDbLine
 10
19.61196286912544
 20
-10.70241742617491
 30
0.0
 11
20.624
 21
-11.71445455704947
 31
0.0
  0
LINE
  5
839
330
1F
100
AcDbEntity
  8
2
  6
CONTINUOUS
370
25
 62
7
100
AcDbLine
 10
19.96551625971872
 20
-10.63170674805626
 30
0.0
 11
20.624
 21
-11.29019048833754
 31
0.0
  0
LINE
  5
83A
330
1F
100
AcDbEntity
  8
2
  6
CONTINUOUS
370
25
 62
7
100
AcDbLine
 10
20.31906965031199
 20
-10.5609960699376
 30
0.0
 11
20.624
 21
-10.86592641962561
 31
0.0
  0
TEXT
  5
83B
330
1F
100
AcDbEntity
  8
2
  6
CONTINUOUS
370
25
 62
7
100
AcDbText
 10
6.790666666666665
 20
-10.50001
 30
0.0
 40
3.5
  1
13
 72
     1
 11
9.123999999999999
 21
-10.50001
 31
0.0
100
AcDbText
  0
LINE
  5
83C
330
1F
100
AcDbEntity
  8
4
  6
LONGDASH_DASH
370
25
 62
2
100
AcDbLine
 10
0.0
 20
0.0
 30
0.0
 11
15.624
 21
0.0
 31
0.0
  0
LINE
  5
83D
330
1F
100
AcDbEntity
  8
SK4
  6
LONGDASH_DASH
370
25
 62
2
100
AcDbLine
 10
-34.376
 20
0.0
 30
0.0
 11
20.624
 21
0.0
 31
0.0
  0
LINE
  5
83E
330
1F
100
AcDbEntity
  8
2
  6
CONTINUOUS
370
25
 62
7
100
AcDbLine
 10
15.624
 20
0.0
 30
0.0
 11
22.38589218785119
 21
14.5009245925864
 31
0.0
  0
LINE
  5
83F
330
1F
100
AcDbEntity
  8
2
  6
CONTINUOUS
370
25
 62
7
100
AcDbLine
 10
15.624
 20
0.0
 30
0.0
 11
22.38589218785119
 21
-14.5009245925864
 31
0.0
  0
ARC
  5
840
330
1F
100
AcDbEntity
  8
2
  6
CONTINUOUS
370
25
 62
7
100
AcDbCircle
 10
15.62400000000001
 20
-0.0000000000000008
 30
0.0
 40
14.99999999999999
100
AcDbArc
 50
295.0000000000001
 51
65.00000000000004
  0
LINE
  5
841
330
1F
100
AcDbEntity
  8
2
  6
CONTINUOUS
370
25
 62
7
100
AcDbLine
 10
21.96327392611049
 20
13.59461680554975
 30
0.0
 11
26.55826649949901
 21
11.3841771998368
 31
0.0
  0
LINE
  5
842
330
1F
100
AcDbEntity
  8
2
  6
CONTINUOUS
370
25
 62
7
100
AcDbLine
 10
26.55826649949901
 20
11.3841771998368
 30
0.0
 11
25.35463645319491
 21
9.786906179742216
 31
0.0
  0
LINE
  5
843
330
1F
100
AcDbEntity
  8
2
  6
CONTINUOUS
370
25
 62
7
100
AcDbLine
 10
25.35463645319491
 20
9.786906179742216
 30
0.0
 11
21.96327392611049
 21
13.59461680554975
 31
0.0
  0
LINE
  5
844
330
1F
100
AcDbEntity
  8
2
  6
CONTINUOUS
370
25
 62
7
100
AcDbLine
 10
25.24339639690187
 20
9.911802866834703
 30
0.0
 11
26.07666819861603
 21
10.74507466854887
 31
0.0
  0
LINE
  5
845
330
1F
100
AcDbEntity
  8
2
  6
CONTINUOUS
370
25
 62
7
100
AcDbLine
 10
25.04353271533336
 20
10.13620325397812
 30
0.0
 11
26.37815163777679
 21
11.47082217642155
 31
0.0
  0
LINE
  5
846
330
1F
100
AcDbEntity
  8
2
  6
CONTINUOUS
370
25
 62
7
100
AcDbLine
 10
24.84366903376485
 20
10.36060364112154
 30
0.0
 11
26.09169073513587
 21
11.60862534249256
 31
0.0
  0
LINE
  5
847
330
1F
100
AcDbEntity
  8
2
  6
CONTINUOUS
370
25
 62
7
100
AcDbLine
 10
24.64380535219634
 20
10.58500402826496
 30
0.0
 11
25.80522983249497
 21
11.74642850856358
 31
0.0
  0
LINE
  5
848
330
1F
100
AcDbEntity
  8
2
  6
CONTINUOUS
370
25
 62
7
100
AcDbLine
 10
24.44394167062783
 20
10.80940441540838
 30
0.0
 11
25.51876892985405
 21
11.8842316746346
 31
0.0
  0
LINE
  5
849
330
1F
100
AcDbEntity
  8
2
  6
CONTINUOUS
370
25
 62
7
100
AcDbLine
 10
24.24407798905932
 20
11.0338048025518
 30
0.0
 11
25.23230802721314
 21
12.02203484070562
 31
0.0
  0
LINE
  5
84A
330
1F
100
AcDbEntity
  8
2
  6
CONTINUOUS
370
25
 62
7
100
AcDbLine
 10
24.04421430749082
 20
11.25820518969522
 30
0.0
 11
24.94584712457224
 21
12.15983800677664
 31
0.0
  0
LINE
  5
84B
330
1F
100
AcDbEntity
  8
2
  6
CONTINUOUS
370
25
 62
7
100
AcDbLine
 10
23.84435062592231
 20
11.48260557683863
 30
0.0
 11
24.65938622193132
 21
12.29764117284765
 31
0.0
  0
LINE
  5
84C
330
1F
100
AcDbEntity
  8
2
  6
CONTINUOUS
370
25
 62
7
100
AcDbLine
 10
23.6444869443538
 20
11.70700596398205
 30
0.0
 11
24.37292531929041
 21
12.43544433891867
 31
0.0
  0
LINE
  5
84D
330
1F
100
AcDbEntity
  8
2
  6
CONTINUOUS
370
25
 62
7
100
AcDbLine
 10
23.44462326278529
 20
11.93140635112547
 30
0.0
 11
24.0864644166495
 21
12.57324750498969
 31
0.0
  0
LINE
  5
84E
330
1F
100
AcDbEntity
  8
2
  6
CONTINUOUS
370
25
 62
7
100
AcDbLine
 10
23.24475958121678
 20
12.15580673826889
 30
0.0
 11
23.80000351400859
 21
12.7110506710607
 31
0.0
  0
LINE
  5
84F
330
1F
100
AcDbEntity
  8
2
  6
CONTINUOUS
370
25
 62
7
100
AcDbLine
 10
23.04489589964827
 20
12.38020712541231
 30
0.0
 11
23.51354261136768
 21
12.84885383713172
 31
0.0
  0
LINE
  5
850
330
1F
100
AcDbEntity
  8
2
  6
CONTINUOUS
370
25
 62
7
100
AcDbLine
 10
22.84503221807976
 20
12.60460751255573
 30
0.0
 11
23.22708170872677
 21
12.98665700320274
 31
0.0
  0
LINE
  5
851
330
1F
100
AcDbEntity
  8
2
  6
CONTINUOUS
370
25
 62
7
100
AcDbLine
 10
22.64516853651125
 20
12.82900789969914
 30
0.0
 11
22.94062080608586
 21
13.12446016927376
 31
0.0
  0
LINE
  5
852
330
1F
100
AcDbEntity
  8
2
  6
CONTINUOUS
370
25
 62
7
100
AcDbLine
 10
22.44530485494274
 20
13.05340828684256
 30
0.0
 11
22.65415990344495
 21
13.26226333534477
 31
0.0
  0
LINE
  5
853
330
1F
100
AcDbEntity
  8
2
  6
CONTINUOUS
370
25
 62
7
100
AcDbLine
 10
22.24544117337423
 20
13.27780867398598
 30
0.0
 11
22.36769900080404
 21
13.40006650141579
 31
0.0
  0
LINE
  5
854
330
1F
100
AcDbEntity
  8
2
  6
CONTINUOUS
370
25
 62
7
100
AcDbLine
 10
22.04557749180572
 20
13.5022090611294
 30
0.0
 11
22.08123809816313
 21
13.53786966748681
 31
0.0
  0
LINE
  5
855
330
1F
100
AcDbEntity
  8
2
  6
CONTINUOUS
370
25
 62
7
100
AcDbLine
 10
24.76510547763721
 20
10.44881222545287
 30
0.0
 11
25.38573816188592
 21
9.828179541204161
 31
0.0
  0
LINE
  5
856
330
1F
100
AcDbEntity
  8
2
  6
CONTINUOUS
370
25
 62
7
100
AcDbLine
 10
22.11799338009715
 20
13.52018839170485
 30
0.0
 11
25.56805698306637
 21
10.07012478873563
 31
0.0
  0
LINE
  5
857
330
1F
100
AcDbEntity
  8
2
  6
CONTINUOUS
370
25
 62
7
100
AcDbLine
 10
22.93554294654158
 20
13.12690289397236
 30
0.0
 11
25.75037580424684
 21
10.31207003626711
 31
0.0
  0
LINE
  5
858
330
1F
100
AcDbEntity
  8
2
  6
CONTINUOUS
370
25
 62
7
100
AcDbLine
 10
23.75309251298598
 20
12.73361739623988
 30
0.0
 11
25.9326946254273
 21
10.55401528379857
 31
0.0
  0
LINE
  5
859
330
1F
100
AcDbEntity
  8
2
  6
CONTINUOUS
370
25
 62
7
100
AcDbLine
 10
24.5706420794304
 20
12.34033189850739
 30
0.0
 11
26.11501344660776
 21
10.79596053133003
 31
0.0
  0
LINE
  5
85A
330
1F
100
AcDbEntity
  8
2
  6
CONTINUOUS
370
25
 62
7
100
AcDbLine
 10
25.38819164587482
 20
11.94704640077489
 30
0.0
 11
26.29733226778822
 21
11.0379057788615
 31
0.0
  0
LINE
  5
85B
330
1F
100
AcDbEntity
  8
2
  6
CONTINUOUS
370
25
 62
7
100
AcDbLine
 10
26.20574121231924
 20
11.55376090304241
 30
0.0
 11
26.47965108896868
 21
11.27985102639297
 31
0.0
  0
LINE
  5
85C
330
1F
100
AcDbEntity
  8
2
  6
CONTINUOUS
370
25
 62
7
100
AcDbLine
 10
21.96327392611049
 20
-13.59461680554975
 30
0.0
 11
25.51149116457272
 21
-9.932629035406398
 31
0.0
  0
LINE
  5
85D
330
1F
100
AcDbEntity
  8
2
  6
CONTINUOUS
370
25
 62
7
100
AcDbLine
 10
25.51149116457272
 20
-9.932629035406398
 30
0.0
 11
26.64700821166922
 21
-11.57901934021059
 31
0.0
  0
LINE
  5
85E
330
1F
100
AcDbEntity
  8
2
  6
CONTINUOUS
370
25
 62
7
100
AcDbLine
 10
26.64700821166922
 20
-11.57901934021059
 30
0.0
 11
21.96327392611049
 21
-13.59461680554975
 31
0.0
  0
LINE
  5
85F
330
1F
100
AcDbEntity
  8
2
  6
CONTINUOUS
370
25
 62
7
100
AcDbLine
 10
26.44584903661492
 20
-11.66558614751631
 30
0.0
 11
26.60023397709352
 21
-11.51120120703771
 31
0.0
  0
LINE
  5
860
330
1F
100
AcDbEntity
  8
2
  6
CONTINUOUS
370
25
 62
7
100
AcDbLine
 10
25.70108207050665
 20
-11.98608904491265
 30
0.0
 11
26.42705815865235
 21
-11.26011295676696
 31
0.0
  0
LINE
  5
861
330
1F
100
AcDbEntity
  8
2
  6
CONTINUOUS
370
25
 62
7
100
AcDbLine
 10
24.95631510439838
 20
-12.30659194230899
 30
0.0
 11
26.25388234021118
 21
-11.0090247064962
 31
0.0
  0
LINE
  5
862
330
1F
100
AcDbEntity
  8
2
  6
CONTINUOUS
370
25
 62
7
100
AcDbLine
 10
24.21154813829011
 20
-12.62709483970534
 30
0.0
 11
26.08070652177
 21
-10.75793645622544
 31
0.0
  0
LINE
  5
863
330
1F
100
AcDbEntity
  8
2
  6
CONTINUOUS
370
25
 62
7
100
AcDbLine
 10
23.46678117218184
 20
-12.94759773710168
 30
0.0
 11
25.90753070332883
 21
-10.50684820595469
 31
0.0
  0
LINE
  5
864
330
1F
100
AcDbEntity
  8
2
  6
CONTINUOUS
370
25
 62
7
100
AcDbLine
 10
22.72201420607356
 20
-13.26810063449803
 30
0.0
 11
25.73435488488766
 21
-10.25575995568393
 31
0.0
  0
LINE
  5
865
330
1F
100
AcDbEntity
  8
2
  6
CONTINUOUS
370
25
 62
7
100
AcDbLine
 10
21.97724723996529
 20
-13.58860353189437
 30
0.0
 11
25.56117906644649
 21
-10.00467170541318
 31
0.0
  0
LINE
  5
866
330
1F
100
AcDbEntity
  8
2
  6
CONTINUOUS
370
25
 62
7
100
AcDbLine
 10
22.02066594018345
 20
-13.53538456594479
 30
0.0
 11
22.0448099711654
 21
-13.55952859692674
 31
0.0
  0
LINE
  5
867
330
1F
100
AcDbEntity
  8
2
  6
CONTINUOUS
370
25
 62
7
100
AcDbLine
 10
22.229450722373
 20
-13.31990527942241
 30
0.0
 11
22.34142763970978
 21
-13.43188219675919
 31
0.0
  0
LINE
  5
868
330
1F
100
AcDbEntity
  8
2
  6
CONTINUOUS
370
25
 62
7
100
AcDbLine
 10
22.43823550456257
 20
-13.10442599290005
 30
0.0
 11
22.63804530825416
 21
-13.30423579659165
 31
0.0
  0
LINE
  5
869
330
1F
100
AcDbEntity
  8
2
  6
CONTINUOUS
370
25
 62
7
100
AcDbLine
 10
22.64702028675212
 20
-12.88894670637768
 30
0.0
 11
22.93466297679855
 21
-13.17658939642411
 31
0.0
  0
LINE
  5
86A
330
1F
100
AcDbEntity
  8
2
  6
CONTINUOUS
370
25
 62
7
100
AcDbLine
 10
22.85580506894168
 20
-12.67346741985531
 30
0.0
 11
23.23128064534293
 21
-13.04894299625656
 31
0.0
  0
LINE
  5
86B
330
1F
100
AcDbEntity
  8
2
  6
CONTINUOUS
370
25
 62
7
100
AcDbLine
 10
23.06458985113124
 20
-12.45798813333294
 30
0.0
 11
23.52789831388732
 21
-12.92129659608902
 31
0.0
  0
LINE
  5
86C
330
1F
100
AcDbEntity
  8
2
  6
CONTINUOUS
370
25
 62
7
100
AcDbLine
 10
23.2733746333208
 20
-12.24250884681057
 30
0.0
 11
23.8245159824317
 21
-12.79365019592148
 31
0.0
  0
LINE
  5
86D
330
1F
100
AcDbEntity
  8
2
  6
CONTINUOUS
370
25
 62
7
100
AcDbLine
 10
23.48215941551036
 20
-12.02702956028821
 30
0.0
 11
24.12113365097608
 21
-12.66600379575393
 31
0.0
  0
LINE
  5
86E
330
1F
100
AcDbEntity
  8
2
  6
CONTINUOUS
370
25
 62
7
100
AcDbLine
 10
23.69094419769992
 20
-11.81155027376584
 30
0.0
 11
24.41775131952047
 21
-12.53835739558639
 31
0.0
  0
LINE
  5
86F
330
1F
100
AcDbEntity
  8
2
  6
CONTINUOUS
370
25
 62
7
100
AcDbLine
 10
23.89972897988947
 20
-11.59607098724346
 30
0.0
 11
24.71436898806485
 21
-12.41071099541884
 31
0.0
  0
LINE
  5
870
330
1F
100
AcDbEntity
  8
2
  6
CONTINUOUS
370
25
 62
7
100
AcDbLine
 10
24.10851376207904
 20
-11.3805917007211
 30
0.0
 11
25.01098665660924
 21
-12.2830645952513
 31
0.0
  0
LINE
  5
871
330
1F
100
AcDbEntity
  8
2
  6
CONTINUOUS
370
25
 62
7
100
AcDbLine
 10
24.3172985442686
 20
-11.16511241419873
 30
0.0
 11
25.30760432515362
 21
-12.15541819508375
 31
0.0
  0
LINE
  5
872
330
1F
100
AcDbEntity
  8
2
  6
CONTINUOUS
370
25
 62
7
100
AcDbLine
 10
24.52608332645816
 20
-10.94963312767636
 30
0.0
 11
25.60422199369801
 21
-12.02777179491621
 31
0.0
  0
LINE
  5
873
330
1F
100
AcDbEntity
  8
2
  6
CONTINUOUS
370
25
 62
7
100
AcDbLine
 10
24.73486810864772
 20
-10.734153841154
 30
0.0
 11
25.9008396622424
 21
-11.90012539474867
 31
0.0
  0
LINE
  5
874
330
1F
100
AcDbEntity
  8
2
  6
CONTINUOUS
370
25
 62
7
100
AcDbLine
 10
24.94365289083728
 20
-10.51867455463163
 30
0.0
 11
26.19745733078678
 21
-11.77247899458113
 31
0.0
  0
LINE
  5
875
330
1F
100
AcDbEntity
  8
2
  6
CONTINUOUS
370
25
 62
7
100
AcDbLine
 10
25.15243767302683
 20
-10.30319526810925
 30
0.0
 11
26.49407499933117
 21
-11.64483259441359
 31
0.0
  0
LINE
  5
876
330
1F
100
AcDbEntity
  8
2
  6
CONTINUOUS
370
25
 62
7
100
AcDbLine
 10
25.3612224552164
 20
-10.08771598158689
 30
0.0
 11
26.19020461660423
 21
-10.91669814297473
 31
0.0
  0
TEXT
  5
877
330
1F
100
AcDbEntity
  8
2
  6
CONTINUOUS
370
25
 62
7
100
AcDbText
 10
29.624
 20
-4.958333333333333
 30
0.0
 40
3.5
  1
130°
 50
90.0
 72
     1
 11
29.624
 21
0.0
 31
0.0
100
AcDbText
  0
LINE
  5
878
330
1F
100
AcDbEntity
  8
1
  6
CONTINUOUS
370
50
 62
4
100
AcDbLine
 10
0.0
 20
0.0
 30
0.0
 11
3.0625
 21
0.0
 31
0.0
  0
LINE
  5
879
330
1F
100
AcDbEntity
  8
1
  6
CONTINUOUS
370
50
 62
4
100
AcDbLine
 10
0.0
 20
0.0
 30
0.0
 11
0.0
 21
3.0625
 31
0.0
  0
ARC
  5
87A
330
1F
100
AcDbEntity
  8
1
  6
CONTINUOUS
370
50
 62
4
100
AcDbCircle
 10
0.0
 20
0.0
 30
0.0
 40
3.0625
100
AcDbArc
 50
0.0
 51
90.0
  0
LINE
  5
87B
330
1F
100
AcDbEntity
  8
1
  6
CONTINUOUS
370
50
 62
4
100
AcDbLine
 10
0.0
 20
0.0
 30
0.0
 11
-3.0625
 21
0.0
 31
0.0
  0
ARC
  5
87C
330
1F
100
AcDbEntity
  8
1
  6
CONTINUOUS
370
50
 62
4
100
AcDbCircle
 10
0.0
 20
0.0
 30
0.0
 40
3.0625
100
AcDbArc
 50
180.0
 51
270.0
  0
LINE
  5
87D
330
1F
100
AcDbEntity
  8
1
  6
CONTINUOUS
370
50
 62
4
100
AcDbLine
 10
0.0
 20
-3.0625
 30
0.0
 11
0.0
 21
0.0
 31
0.0
  0
ARC
  5
87E
330
1F
100
AcDbEntity
  8
1
  6
CONTINUOUS
370
50
 62
4
100
AcDbCircle
 10
0.0
 20
0.0
 30
0.0
 40
3.0625
100
AcDbArc
 50
270.0
 51
0.0
  0
ARC
  5
87F
330
1F
100
AcDbEntity
  8
1
  6
CONTINUOUS
370
50
 62
4
100
AcDbCircle
 10
0.0
 20
0.0
 30
0.0
 40
3.0625
100
AcDbArc
 50
90.0
 51
180.0
  0
LINE
  5
880
330
1F
100
AcDbEntity
  8
CUT
  6
CONTINUOUS
370
25
 62
1
100
AcDbLine
 10
2.624000000000001
 20
0.0
 30
0.0
 11
15.624
 21
0.0
 31
0.0
  0
LINE
  5
881
330
1F
100
AcDbEntity
  8
CUT
  6
CONTINUOUS
370
25
 62
1
100
AcDbLine
 10
15.624
 20
0.0
 30
0.0
 11
15.0924092697033
 21
1.14
 31
0.0
  0
LINE
  5
882
330
1F
100
AcDbEntity
  8
CUT
  6
CONTINUOUS
370
25
 62
1
100
AcDbLine
 10
15.0924092697033
 20
1.14
 30
0.0
 11
2.624000000000001
 21
1.14
 31
0.0
  0
LINE
  5
883
330
1F
100
AcDbEntity
  8
CUT
  6
CONTINUOUS
370
25
 62
1
100
AcDbLine
 10
2.624000000000001
 20
1.14
 30
0.0
 11
2.624000000000001
 21
0.0
 31
0.0
  0
LINE
  5
884
330
1F
100
AcDbEntity
  8
NOCUT
  6
CONTINUOUS
370
25
 62
7
100
AcDbLine
 10
1.0
 20
0.0
 30
0.0
 11
2.624000000000001
 21
0.0
 31
0.0
  0
LINE
  5
885
330
1F
100
AcDbEntity
  8
NOCUT
  6
CONTINUOUS
370
25
 62
7
100
AcDbLine
 10
2.624000000000001
 20
0.0
 30
0.0
 11
2.624000000000001
 21
1.14
 31
0.0
  0
LINE
  5
886
330
1F
100
AcDbEntity
  8
NOCUT
  6
CONTINUOUS
370
25
 62
7
100
AcDbLine
 10
2.624000000000001
 20
1.14
 30
0.0
 11
1.623538290724796
 21
1.14
 31
0.0
  0
LINE
  5
887
330
1F
100
AcDbEntity
  8
NOCUT
  6
CONTINUOUS
370
25
 62
7
100
AcDbLine
 10
1.623538290724796
 20
1.14
 30
0.0
 11
1.0
 21
1.5
 31
0.0
  0
LINE
  5
888
330
1F
100
AcDbEntity
  8
INFTOTAL
  6
CONTINUOUS
370
18
 62
9
100
AcDbLine
 10
-58.71361100000001
 20
-35.75001100000001
 30
0.0
 11
51.286411
 21
-35.75001100000001
 31
0.0
  0
LINE
  5
889
330
1F
100
AcDbEntity
  8
INFTOTAL
  6
CONTINUOUS
370
18
 62
9
100
AcDbLine
 10
51.286411
 20
-35.75001100000001
 30
0.0
 11
51.286411
 21
35.75001100000001
 31
0.0
  0
LINE
  5
88A
330
1F
100
AcDbEntity
  8
INFTOTAL
  6
CONTINUOUS
370
18
 62
9
100
AcDbLine
 10
51.286411
 20
35.75001100000001
 30
0.0
 11
-58.713611
 21
35.75001100000001
 31
0.0
  0
LINE
  5
88B
330
1F
100
AcDbEntity
  8
INFTOTAL
  6
CONTINUOUS
370
18
 62
9
100
AcDbLine
 10
-58.713611
 20
35.75001100000001
 30
0.0
 11
-58.713611
 21
-35.75001100000001
 31
0.0
  0
ARC
  5
88C
330
1F
100
AcDbEntity
  8
SK6
  6
CONTINUOUS
370
25
 62
5
100
AcDbCircle
 10
32.0093910083765
 20
-25.34525475338786
 30
0.0
 40
2.76048912849221
100
AcDbArc
 50
338.9379403434233
 51
90.44457437511379
  0
LINE
  5
88D
330
1F
100
AcDbEntity
  8
SK6
  6
CONTINUOUS
370
25
 62
5
100
AcDbLine
 10
31.98797179695983
 20
-22.58484872421281
 30
0.0
 11
31.98797179695983
 21
-23.68790735613463
 31
0.0
  0
ARC
  5
88E
330
1F
100
AcDbEntity
  8
SK6
  6
CONTINUOUS
370
25
 62
5
100
AcDbCircle
 10
31.99851802936916
 20
-25.36524824566821
 30
0.0
 40
1.677374043771784
100
AcDbArc
 50
243.4214706017865
 51
90.36024081226107
  0
ARC
  5
88F
330
1F
100
AcDbEntity
  8
SK6
  6
CONTINUOUS
370
25
 62
5
100
AcDbCircle
 10
34.52076889684957
 20
-24.93384099215561
 30
0.0
 40
3.800217030022751
100
AcDbArc
 50
210.548373128854
 51
236.9780169366801
  0
LINE
  5
890
330
1F
100
AcDbEntity
  8
SK6
  6
CONTINUOUS
370
25
 62
5
100
AcDbLine
 10
32.44979968512487
 20
-28.12017681867535
 30
0.0
 11
36.59173996742671
 21
-28.12017681867535
 31
0.0
  0
ARC
  5
891
330
1F
100
AcDbEntity
  8
SK6
  6
CONTINUOUS
370
25
 62
5
100
AcDbCircle
 10
34.52077083877257
 20
-24.9338410937346
 30
0.0
 40
3.800216899582468
100
AcDbArc
 50
303.0219828477958
 51
326.3732153033476
  0
LINE
  5
892
330
1F
100
AcDbEntity
  8
SK6
  6
CONTINUOUS
370
25
 62
5
100
AcDbLine
 10
37.68506875135722
 20
-27.0383284907709
 30
0.0
 11
34.32777070575462
 21
-27.0383284907709
 31
0.0
  0
LINE
  5
893
330
1F
100
AcDbEntity
  8
SK6
  6
CONTINUOUS
370
25
 62
5
100
AcDbLine
 10
34.32777070575462
 20
-27.0383284907709
 30
0.0
 11
38.24763009771987
 21
-25.67692729641694
 31
0.0
  0
ARC
  5
894
330
1F
100
AcDbEntity
  8
SK6
  6
CONTINUOUS
370
25
 62
5
100
AcDbCircle
 10
34.5207715615721
 20
-24.9338416048594
 30
0.0
 40
3.80021721661473
100
AcDbArc
 50
348.7238644184695
 51
53.46910512608842
  0
LINE
  5
895
330
1F
100
AcDbEntity
  8
SK6
  6
CONTINUOUS
370
25
 62
5
100
AcDbLine
 10
36.78287424538545
 20
-21.88023024429967
 30
0.0
 11
34.58545947882736
 21
-26.33731873507057
 31
0.0
  0
LINE
  5
896
330
1F
100
AcDbEntity
  8
0
  6
cc_dim_arrow
 62
     4
100
AcDbLine
 10
-0.048814392220427
 20
0.0
 30
0.0
 11
0.0
 21
-0.0488143922204269
 31
0.0
  0
LINE
  5
897
330
1F
100
AcDbEntity
  8
0
  6
cc_dim_arrow
 62
     4
100
AcDbLine
 10
-3.060074868475705
 20
-0.0771689363588064
 30
0.0
 11
-2.982905932116899
 21
0.0
 31
0.0
  0
LINE
  5
898
330
1F
100
AcDbEntity
  8
0
  6
cc_dim_arrow
 62
     4
100
AcDbLine
 10
0.0
 20
2.982905932116899
 30
0.0
 11
0.0771689363588069
 21
3.060074868475706
 31
0.0
  0
LINE
  5
899
330
1F
100
AcDbEntity
  8
0
  6
cc_dim_arrow
 62
     4
100
AcDbLine
 10
0.0
 20
0.384288511256333
 30
0.0
 11
0.3842885112563335
 21
0.0
 31
0.0
  0
LINE
  5
89A
330
1F
100
AcDbEntity
  8
0
  6
cc_dim_arrow
 62
     4
100
AcDbLine
 10
-0.3899505408176486
 20
-3.037382353898634
 30
0.0
 11
0.0
 21
-2.647431813080986
 31
0.0
  0
LINE
  5
89B
330
1F
100
AcDbEntity
  8
0
  6
cc_dim_arrow
 62
     4
100
AcDbLine
 10
2.647431813080986
 20
0.0
 30
0.0
 11
3.037382353898634
 21
0.3899505408176478
 31
0.0
  0
LINE
  5
89C
330
1F
100
AcDbEntity
  8
0
  6
cc_dim_arrow
 62
     4
100
AcDbLine
 10
-3.024033693605082
 20
-0.4742306649649457
 30
0.0
 11
-2.549803028640137
 21
0.0
 31
0.0
  0
LINE
  5
89D
330
1F
100
AcDbEntity
  8
0
  6
cc_dim_arrow
 62
     4
100
AcDbLine
 10
0.0
 20
2.549803028640136
 30
0.0
 11
0.4742306649649455
 21
3.024033693605082
 31
0.0
  0
LINE
  5
89E
330
1F
100
AcDbEntity
  8
0
  6
cc_dim_arrow
 62
     4
100
AcDbLine
 10
-0.4819172956971874
 20
0.0
 30
0.0
 11
0.0
 21
-0.4819172956971869
 31
0.0
  0
LINE
  5
89F
330
1F
100
AcDbEntity
  8
0
  6
cc_dim_arrow
 62
     4
100
AcDbLine
 10
1.82018752194426
 20
2.462027120602918
 30
0.0
 11
2.462027120602917
 21
1.820187521944262
 31
0.0
  0
LINE
  5
8A0
330
1F
100
AcDbEntity
  8
0
  6
cc_dim_arrow
 62
     4
100
AcDbLine
 10
-0.7537210351890704
 20
-2.968049944793296
 30
0.0
 11
0.0
 21
-2.214328909604226
 31
0.0
  0
LINE
  5
8A1
330
1F
100
AcDbEntity
  8
0
  6
cc_dim_arrow
 62
     4
100
AcDbLine
 10
2.214328909604226
 20
0.0
 30
0.0
 11
2.968049944793296
 21
0.75372103518907
 31
0.0
  0
LINE
  5
8A2
330
1F
100
AcDbEntity
  8
0
  6
cc_dim_arrow
 62
     4
100
AcDbLine
 10
0.0
 20
0.8173914147330921
 30
0.0
 11
0.817391414733093
 21
0.0
 31
0.0
  0
LINE
  5
8A3
330
1F
100
AcDbEntity
  8
0
  6
cc_dim_arrow
 62
     4
100
AcDbLine
 10
-2.946481208032973
 20
-0.8297810828695971
 30
0.0
 11
-2.116700125163376
 21
0.0
 31
0.0
  0
LINE
  5
8A4
330
1F
100
AcDbEntity
  8
0
  6
cc_dim_arrow
 62
     4
100
AcDbLine
 10
0.0
 20
2.116700125163375
 30
0.0
 11
0.829781082869597
 21
2.946481208032972
 31
0.0
  0
LINE
  5
8A5
330
1F
100
AcDbEntity
  8
0
  6
cc_dim_arrow
 62
     4
100
AcDbLine
 10
-0.915020199173947
 20
0.0
 30
0.0
 11
0.0
 21
-0.915020199173946
 31
0.0
  0
LINE
  5
8A6
330
1F
100
AcDbEntity
  8
0
  6
cc_dim_arrow
 62
     4
100
AcDbLine
 10
-1.082406468805194
 20
-2.863632474932658
 30
0.0
 11
0.0
 21
-1.781226006127464
 31
0.0
  0
LINE
  5
8A7
330
1F
100
AcDbEntity
  8
0
  6
cc_dim_arrow
 62
     4
100
AcDbLine
 10
1.781226006127464
 20
0.0
 30
0.0
 11
2.863632474932658
 21
1.082406468805194
 31
0.0
  0
LINE
  5
8A8
330
1F
100
AcDbEntity
  8
0
  6
cc_dim_arrow
 62
     4
100
AcDbLine
 10
-2.836427704795208
 20
-1.152830483108593
 30
0.0
 11
-1.683597221686615
 21
0.0
 31
0.0
  0
LINE
  5
8A9
330
1F
100
AcDbEntity
  8
0
  6
cc_dim_arrow
 62
     4
100
AcDbLine
 10
0.0
 20
1.683597221686615
 30
0.0
 11
1.152830483108594
 21
2.836427704795208
 31
0.0
  0
LINE
  5
8AA
330
1F
100
AcDbEntity
  8
0
  6
cc_dim_arrow
 62
     4
100
AcDbLine
 10
0.0
 20
1.250494318209852
 30
0.0
 11
1.250494318209853
 21
0.0
 31
0.0
  0
LINE
  5
8AB
330
1F
100
AcDbEntity
  8
0
  6
cc_dim_arrow
 62
     4
100
AcDbLine
 10
-1.348123102650707
 20
0.0
 30
0.0
 11
0.0
 21
-1.348123102650706
 31
0.0
  0
LINE
  5
8AC
330
1F
100
AcDbEntity
  8
0
  6
cc_dim_arrow
 62
     4
100
AcDbLine
 10
-1.382755744557608
 20
-2.730878847208312
 30
0.0
 11
0.0
 21
-1.348123102650704
 31
0.0
  0
LINE
  5
8AD
330
1F
100
AcDbEntity
  8
0
  6
cc_dim_arrow
 62
     4
100
AcDbLine
 10
1.348123102650704
 20
0.0
 30
0.0
 11
2.730878847208312
 21
1.382755744557608
 31
0.0
  0
LINE
  5
8AE
330
1F
100
AcDbEntity
  8
0
  6
cc_dim_arrow
 62
     4
100
AcDbLine
 10
-2.697925212479942
 20
-1.447430894270086
 30
0.0
 11
-1.250494318209856
 21
0.0
 31
0.0
  0
LINE
  5
8AF
330
1F
100
AcDbEntity
  8
0
  6
cc_dim_arrow
 62
     4
100
AcDbLine
 10
0.0
 20
1.250494318209856
 30
0.0
 11
1.447430894270087
 21
2.697925212479942
 31
0.0
  0
LINE
  5
8B0
330
1F
100
AcDbEntity
  8
0
  6
cc_dim_arrow
 62
     4
100
AcDbLine
 10
-1.658690758414022
 20
-2.573710957587966
 30
0.0
 11
0.0
 21
-0.9150201991739442
 31
0.0
  0
LINE
  5
8B1
330
1F
100
AcDbEntity
  8
0
  6
cc_dim_arrow
 62
     4
100
AcDbLine
 10
0.9150201991739443
 20
0.0
 30
0.0
 11
2.573710957587966
 21
1.658690758414021
 31
0.0
  0
LINE
  5
8B2
330
1F
100
AcDbEntity
  8
0
  6
cc_dim_arrow
 62
     4
100
AcDbLine
 10
0.0
 20
1.683597221686613
 30
0.0
 11
1.683597221686615
 21
0.0
 31
0.0
  0
LINE
  5
8B3
330
1F
100
AcDbEntity
  8
0
  6
cc_dim_arrow
 62
     4
100
AcDbLine
 10
-2.534208408698686
 20
-1.71681699396559
 30
0.0
 11
-0.8173914147330957
 21
0.0
 31
0.0
  0
LINE
  5
8B4
330
1F
100
AcDbEntity
  8
0
  6
cc_dim_arrow
 62
     4
100
AcDbLine
 10
0.0
 20
0.8173914147330956
 30
0.0
 11
1.71681699396559
 21
2.534208408698686
 31
0.0
  0
LINE
  5
8B5
330
1F
100
AcDbEntity
  8
0
  6
cc_dim_arrow
 62
     4
100
AcDbLine
 10
-2.863237798364061
 20
-1.08350272514721
 30
0.0
 11
-1.083502725147208
 21
-2.863237798364062
 31
0.0
  0
LINE
  5
8B6
330
1F
100
AcDbEntity
  8
0
  6
cc_dim_arrow
 62
     4
100
AcDbLine
 10
-1.781226006127468
 20
0.0
 30
0.0
 11
0.0
 21
-1.781226006127466
 31
0.0
  0
LINE
  5
8B7
330
1F
100
AcDbEntity
  8
0
  6
cc_dim_arrow
 62
     4
100
AcDbLine
 10
-1.910250115991394
 20
-2.392167411688578
 30
0.0
 11
0.0
 21
-0.4819172956971842
 31
0.0
  0
LINE
  5
8B8
330
1F
100
AcDbEntity
  8
0
  6
cc_dim_arrow
 62
     4
100
AcDbLine
 10
0.4819172956971843
 20
0.0
 30
0.0
 11
2.392167411688578
 21
1.910250115991393
 31
0.0
  0
LINE
  5
8B9
330
1F
100
AcDbEntity
  8
0
  6
cc_dim_arrow
 62
     4
100
AcDbLine
 10
-2.348781014692249
 20
-1.964492503435912
 30
0.0
 11
-0.3842885112563357
 21
0.0
 31
0.0
  0
LINE
  5
8BA
330
1F
100
AcDbEntity
  8
0
  6
cc_dim_arrow
 62
     4
100
AcDbLine
 10
0.0
 20
0.3842885112563357
 30
0.0
 11
1.964492503435913
 21
2.348781014692249
 31
0.0
  0
LINE
  5
8BB
330
1F
100
AcDbEntity
  8
0
  6
cc_dim_arrow
 62
     4
100
AcDbLine
 10
0.9324621340962547
 20
2.916649604974163
 30
0.0
 11
2.916649604974161
 21
0.9324621340962582
 31
0.0
  0
LINE
  5
8BC
330
1F
100
AcDbEntity
  8
0
  6
cc_dim_arrow
 62
     4
100
AcDbLine
 10
0.0
 20
2.116700125163374
 30
0.0
 11
2.116700125163376
 21
0.0
 31
0.0
  0
LINE
  5
8BD
330
1F
100
AcDbEntity
  8
0
  6
cc_dim_arrow
 62
     4
100
AcDbLine
 10
-2.140038770582129
 20
-2.188853162802553
 30
0.0
 11
0.0
 21
-0.0488143922204243
 31
0.0
  0
LINE
  5
8BE
330
1F
100
AcDbEntity
  8
0
  6
cc_dim_arrow
 62
     4
100
AcDbLine
 10
0.0488143922204243
 20
0.0
 30
0.0
 11
2.188853162802553
 21
2.140038770582128
 31
0.0
  0
LINE
  5
8BF
330
1F
100
AcDbEntity
  8
0
  6
cc_dim_arrow
 62
     4
100
AcDbLine
 10
-2.214328909604228
 20
0.0
 30
0.0
 11
0.0
 21
-2.214328909604225
 31
0.0
  0
LINE
  5
8C0
330
1F
100
AcDbEntity
  8
0
  6
cc_dim_arrow
 62
     4
100
AcDbLine
 10
-3.021140584768129
 20
-0.4924970352663824
 30
0.0
 11
-0.492497035266379
 21
-3.021140584768129
 31
0.0
  0
LINE
  5
8C1
330
1F
100
AcDbEntity
  8
0
  6
cc_dim_arrow
 62
     4
100
AcDbLine
 10
0.0
 20
2.549803028640134
 30
0.0
 11
2.549803028640136
 21
0.0
 31
0.0
  0
LINE
  5
8C2
330
1F
100
AcDbEntity
  8
0
  6
cc_dim_arrow
 62
     4
100
AcDbLine
 10
-2.647431813080989
 20
0.0
 30
0.0
 11
0.0
 21
-2.647431813080986
 31
0.0
  0
LINE
  5
8C3
330
1F
100
AcDbEntity
  8
0
  6
cc_dim_arrow
 62
     4
100
AcDbLine
 10
0.3770128678948154
 20
3.038995967698841
 30
0.0
 11
3.038995967698841
 21
0.3770128678948184
 31
0.0
  0
LINE
  5
8C4
330
1F
100
AcDbEntity
  8
0
  6
cc_dim_arrow
 62
     4
100
AcDbLine
 10
0.0
 20
2.982905932116894
 30
0.0
 11
2.982905932116897
 21
0.0
 31
0.0
  0
LINE
  5
8C5
330
1F
100
AcDbEntity
  8
0
  6
cc_dim_arrow
 62
     4
100
AcDbLine
 10
-3.061914847026416
 20
-0.018619869531336
 30
0.0
 11
-0.0186198695313321
 21
-3.061914847026416
 31
0.0
  0
ENDSEC
  0
SECTION
  2
OBJECTS
  0
DICTIONARY
  5
C
330
0
100
AcDbDictionary
281
     1
  3
ACAD_GROUP
350
D
  3
ACAD_LAYOUT
350
1A
  3
ACAD_MATERIAL
350
3B
  3
ACAD_MLEADERSTYLE
350
8C8
  3
ACAD_MLINESTYLE
350
17
  3
ACAD_PLOTSETTINGS
350
19
  3
ACAD_PLOTSTYLENAME
350
E
  3
ACAD_SCALELIST
350
252
  3
ACAD_VISUALSTYLE
350
2A
  3
AcDbVariableDictionary
350
8C6
  0
DICTIONARY
  5
D
102
{ACAD_REACTORS
330
C
102
}
330
C
100
AcDbDictionary
281
     1
  0
DICTIONARY
  5
1A
102
{ACAD_REACTORS
330
C
102
}
330
C
100
AcDbDictionary
281
     1
  3
Layout1
350
1E
  3
Layout2
350
26
  3
Model
350
22
  0
DICTIONARY
  5
3B
102
{ACAD_REACTORS
330
C
102
}
330
C
100
AcDbDictionary
281
     1
  3
ByBlock
350
3D
  3
ByLayer
350
3C
  3
Global
350
3E
  0
DICTIONARY
  5
8C8
102
{ACAD_REACTORS
330
C
102
}
330
C
100
AcDbDictionary
281
     1
  0
DICTIONARY
  5
17
102
{ACAD_REACTORS
330
C
102
}
330
C
100
AcDbDictionary
281
     1
  3
Standard
350
18
  0
DICTIONARY
  5
19
102
{ACAD_REACTORS
330
C
102
}
330
C
100
AcDbDictionary
281
     1
  0
ACDBDICTIONARYWDFLT
  5
E
102
{ACAD_REACTORS
330
C
102
}
330
C
100
AcDbDictionary
281
     1
  3
Normal
350
F
100
AcDbDictionaryWithDefault
340
F
  0
DICTIONARY
  5
252
102
{ACAD_REACTORS
330
C
102
}
330
C
100
AcDbDictionary
281
     1
  3
A0
350
253
  3
A1
350
254
  3
A2
350
255
  3
A3
350
256
  3
A4
350
257
  3
A5
350
258
  3
A6
350
259
  3
A7
350
25A
  3
A8
350
25B
  3
A9
350
25C
  3
B0
350
25D
  3
B1
350
25E
  3
B2
350
25F
  3
B3
350
260
  3
B4
350
261
  3
B5
350
262
  3
B6
350
263
  3
B7
350
264
  3
B8
350
265
  3
B9
350
266
  3
C0
350
267
  3
C1
350
268
  3
C2
350
269
  3
C3
350
26A
  3
C4
350
26B
  3
C5
350
26C
  3
C6
350
26D
  3
C7
350
26E
  3
C8
350
26F
  3
C9
350
270
  3
D0
350
271
  3
D1
350
272
  3
D2
350
273
  0
DICTIONARY
  5
2A
102
{ACAD_REACTORS
330
C
102
}
330
C
100
AcDbDictionary
281
     1
  3
2dWireframe
350
2F
  3
3D Hidden
350
31
  3
3dWireframe
350
30
  3
Basic
350
32
  3
Brighten
350
36
  3
ColorChange
350
3A
  3
Conceptual
350
34
  3
Dim
350
35
  3
Facepattern
350
39
  3
Flat
350
2B
  3
FlatWithEdges
350
2C
  3
Gouraud
350
2D
  3
GouraudWithEdges
350
2E
  3
Linepattern
350
38
  3
Realistic
350
33
  3
Thicken
350
37
  0
DICTIONARY
  5
8C6
102
{ACAD_REACTORS
330
C
102
}
330
C
100
AcDbDictionary
281
     1
  3
CANNOSCALE
350
8CB
  3
DIMASSOC
350
8CC
  3
HIDETEXT
350
8CD
  3
PSOLHEIGHT
350
8CA
  3
PSOLWIDTH
350
8C9
  0
LAYOUT
  5
1E
102
{ACAD_REACTORS
330
1A
102
}
330
1A
100
AcDbPlotSettings
  1

  2
none_device
  4

  6

 40
0.0
 41
0.0
 42
0.0
 43
0.0
 44
0.0
 45
0.0
 46
0.0
 47
0.0
 48
0.0
 49
0.0
140
0.0
141
0.0
142
1.0
143
1.0
 70
   688
 72
     0
 73
     0
 74
     5
  7

 75
    16
147
1.0
148
0.0
149
0.0
100
AcDbLayout
  1
Layout1
 70
     1
 71
     1
 10
0.0
 20
0.0
 11
420.0
 21
297.0
 12
0.0
 22
0.0
 32
0.0
 14
1.000000000000000E+20
 24
1.000000000000000E+20
 34
1.000000000000000E+20
 15
-1.000000000000000E+20
 25
-1.000000000000000E+20
 35
-1.000000000000000E+20
146
0.0
 13
0.0
 23
0.0
 33
0.0
 16
1.0
 26
0.0
 36
0.0
 17
0.0
 27
1.0
 37
0.0
 76
     0
330
1B
  0
LAYOUT
  5
26
102
{ACAD_REACTORS
330
1A
102
}
330
1A
100
AcDbPlotSettings
  1

  2
none_device
  4

  6

 40
0.0
 41
0.0
 42
0.0
 43
0.0
 44
0.0
 45
0.0
 46
0.0
 47
0.0
 48
0.0
 49
0.0
140
0.0
141
0.0
142
1.0
143
1.0
 70
   688
 72
     0
 73
     0
 74
     5
  7

 75
    16
147
1.0
148
0.0
149
0.0
100
AcDbLayout
  1
Layout2
 70
     1
 71
     2
 10
0.0
 20
0.0
 11
0.0
 21
0.0
 12
0.0
 22
0.0
 32
0.0
 14
0.0
 24
0.0
 34
0.0
 15
0.0
 25
0.0
 35
0.0
146
0.0
 13
0.0
 23
0.0
 33
0.0
 16
1.0
 26
0.0
 36
0.0
 17
0.0
 27
1.0
 37
0.0
 76
     0
330
23
  0
LAYOUT
  5
22
102
{ACAD_REACTORS
330
1A
102
}
330
1A
100
AcDbPlotSettings
  1

  2
none_device
  4

  6

 40
0.0
 41
0.0
 42
0.0
 43
0.0
 44
0.0
 45
0.0
 46
0.0
 47
0.0
 48
0.0
 49
0.0
140
0.0
141
0.0
142
1.0
143
1.0
 70
  1712
 72
     0
 73
     0
 74
     0
  7

 75
     0
147
1.0
148
0.0
149
0.0
100
AcDbLayout
  1
Model
 70
     1
 71
     0
 10
0.0
 20
0.0
 11
420.0
 21
297.0
 12
0.0
 22
0.0
 32
0.0
 14
0.0
 24
0.0
 34
0.0
 15
25.0
 25
35.0
 35
0.0
146
0.0
 13
0.0
 23
0.0
 33
0.0
 16
1.0
 26
0.0
 36
0.0
 17
0.0
 27
1.0
 37
0.0
 76
     0
330
1F
331
29
  0
MATERIAL
  5
3D
102
{ACAD_REACTORS
330
3B
102
}
102
{ACAD_XDICTIONARY
360
8F0
102
}
330
3B
100
AcDbMaterial
  1
ByBlock
  0
MATERIAL
  5
3C
102
{ACAD_REACTORS
330
3B
102
}
102
{ACAD_XDICTIONARY
360
8EE
102
}
330
3B
100
AcDbMaterial
  1
ByLayer
  0
MATERIAL
  5
3E
102
{ACAD_REACTORS
330
3B
102
}
102
{ACAD_XDICTIONARY
360
8F2
102
}
330
3B
100
AcDbMaterial
  1
Global
  0
MLINESTYLE
  5
18
102
{ACAD_REACTORS
330
17
102
}
330
17
100
AcDbMlineStyle
  2
Standard
 70
     0
  3

 62
   256
 51
90.0
 52
90.0
 71
     2
 49
0.5
 62
   256
  6
BYLAYER
 49
-0.5
 62
   256
  6
BYLAYER
  0
ACDBPLACEHOLDER
  5
F
102
{ACAD_REACTORS
330
E
102
}
330
E
  0
SCALE
  5
253
102
{ACAD_REACTORS
330
252
102
}
330
252
100
AcDbScale
 70
     0
300
1:1
140
1.0
141
1.0
290
     1
  0
SCALE
  5
254
102
{ACAD_REACTORS
330
252
102
}
330
252
100
AcDbScale
 70
     0
300
1:2
140
1.0
141
2.0
290
     0
  0
SCALE
  5
255
102
{ACAD_REACTORS
330
252
102
}
330
252
100
AcDbScale
 70
     0
300
1:4
140
1.0
141
4.0
290
     0
  0
SCALE
  5
256
102
{ACAD_REACTORS
330
252
102
}
330
252
100
AcDbScale
 70
     0
300
1:5
140
1.0
141
5.0
290
     0
  0
SCALE
  5
257
102
{ACAD_REACTORS
330
252
102
}
330
252
100
AcDbScale
 70
     0
300
1:8
140
1.0
141
8.0
290
     0
  0
SCALE
  5
258
102
{ACAD_REACTORS
330
252
102
}
330
252
100
AcDbScale
 70
     0
300
1:10
140
1.0
141
10.0
290
     0
  0
SCALE
  5
259
102
{ACAD_REACTORS
330
252
102
}
330
252
100
AcDbScale
 70
     0
300
1:16
140
1.0
141
16.0
290
     0
  0
SCALE
  5
25A
102
{ACAD_REACTORS
330
252
102
}
330
252
100
AcDbScale
 70
     0
300
1:20
140
1.0
141
20.0
290
     0
  0
SCALE
  5
25B
102
{ACAD_REACTORS
330
252
102
}
330
252
100
AcDbScale
 70
     0
300
1:30
140
1.0
141
30.0
290
     0
  0
SCALE
  5
25C
102
{ACAD_REACTORS
330
252
102
}
330
252
100
AcDbScale
 70
     0
300
1:40
140
1.0
141
40.0
290
     0
  0
SCALE
  5
25D
102
{ACAD_REACTORS
330
252
102
}
330
252
100
AcDbScale
 70
     0
300
1:50
140
1.0
141
50.0
290
     0
  0
SCALE
  5
25E
102
{ACAD_REACTORS
330
252
102
}
330
252
100
AcDbScale
 70
     0
300
1:100
140
1.0
141
100.0
290
     0
  0
SCALE
  5
25F
102
{ACAD_REACTORS
330
252
102
}
330
252
100
AcDbScale
 70
     0
300
2:1
140
2.0
141
1.0
290
     0
  0
SCALE
  5
260
102
{ACAD_REACTORS
330
252
102
}
330
252
100
AcDbScale
 70
     0
300
4:1
140
4.0
141
1.0
290
     0
  0
SCALE
  5
261
102
{ACAD_REACTORS
330
252
102
}
330
252
100
AcDbScale
 70
     0
300
8:1
140
8.0
141
1.0
290
     0
  0
SCALE
  5
262
102
{ACAD_REACTORS
330
252
102
}
330
252
100
AcDbScale
 70
     0
300
10:1
140
10.0
141
1.0
290
     0
  0
SCALE
  5
263
102
{ACAD_REACTORS
330
252
102
}
330
252
100
AcDbScale
 70
     0
300
100:1
140
100.0
141
1.0
290
     0
  0
SCALE
  5
264
102
{ACAD_REACTORS
330
252
102
}
330
252
100
AcDbScale
 70
     0
300
1/128" = 1'-0"
140
0.0078125
141
12.0
290
     0
  0
SCALE
  5
265
102
{ACAD_REACTORS
330
252
102
}
330
252
100
AcDbScale
 70
     0
300
1/64" = 1'-0"
140
0.015625
141
12.0
290
     0
  0
SCALE
  5
266
102
{ACAD_REACTORS
330
252
102
}
330
252
100
AcDbScale
 70
     0
300
1/32" = 1'-0"
140
0.03125
141
12.0
290
     0
  0
SCALE
  5
267
102
{ACAD_REACTORS
330
252
102
}
330
252
100
AcDbScale
 70
     0
300
1/16" = 1'-0"
140
0.0625
141
12.0
290
     0
  0
SCALE
  5
268
102
{ACAD_REACTORS
330
252
102
}
330
252
100
AcDbScale
 70
     0
300
3/32" = 1'-0"
140
0.09375
141
12.0
290
     0
  0
SCALE
  5
269
102
{ACAD_REACTORS
330
252
102
}
330
252
100
AcDbScale
 70
     0
300
1/8" = 1'-0"
140
0.125
141
12.0
290
     0
  0
SCALE
  5
26A
102
{ACAD_REACTORS
330
252
102
}
330
252
100
AcDbScale
 70
     0
300
3/16" = 1'-0"
140
0.1875
141
12.0
290
     0
  0
SCALE
  5
26B
102
{ACAD_REACTORS
330
252
102
}
330
252
100
AcDbScale
 70
     0
300
1/4" = 1'-0"
140
0.25
141
12.0
290
     0
  0
SCALE
  5
26C
102
{ACAD_REACTORS
330
252
102
}
330
252
100
AcDbScale
 70
     0
300
3/8" = 1'-0"
140
0.375
141
12.0
290
     0
  0
SCALE
  5
26D
102
{ACAD_REACTORS
330
252
102
}
330
252
100
AcDbScale
 70
     0
300
1/2" = 1'-0"
140
0.5
141
12.0
290
     0
  0
SCALE
  5
26E
102
{ACAD_REACTORS
330
252
102
}
330
252
100
AcDbScale
 70
     0
300
3/4" = 1'-0"
140
0.75
141
12.0
290
     0
  0
SCALE
  5
26F
102
{ACAD_REACTORS
330
252
102
}
330
252
100
AcDbScale
 70
     0
300
1" = 1'-0"
140
1.0
141
12.0
290
     0
  0
SCALE
  5
270
102
{ACAD_REACTORS
330
252
102
}
330
252
100
AcDbScale
 70
     0
300
1-1/2" = 1'-0"
140
1.5
141
12.0
290
     0
  0
SCALE
  5
271
102
{ACAD_REACTORS
330
252
102
}
330
252
100
AcDbScale
 70
     0
300
3" = 1'-0"
140
3.0
141
12.0
290
     0
  0
SCALE
  5
272
102
{ACAD_REACTORS
330
252
102
}
330
252
100
AcDbScale
 70
     0
300
6" = 1'-0"
140
6.0
141
12.0
290
     0
  0
SCALE
  5
273
102
{ACAD_REACTORS
330
252
102
}
330
252
100
AcDbScale
 70
     0
300
1'-0" = 1'-0"
140
12.0
141
12.0
290
     0
  0
VISUALSTYLE
  5
2F
102
{ACAD_REACTORS
330
2A
102
}
102
{ACAD_XDICTIONARY
360
8D6
102
}
330
2A
100
AcDbVisualStyle
  2
2dWireframe
 70
     4
 71
     0
 72
     2
 73
     0
 90
        0
 40
-0.6
 41
-30.0
 62
     5
 63
     7
 74
     1
 91
        4
 64
     7
 65
   257
 75
     1
175
     1
 42
1.0
 92
        0
 66
   257
 43
1.0
 76
     1
 77
     6
 78
     2
 67
     7
 79
     5
170
     0
171
     0
290
     0
174
     0
 93
        1
 44
0.0
173
     0
291
     0
 45
0.0
1001
ACAD
1000
AcDbSavedByObjectVersion
1070
     0
  0
VISUALSTYLE
  5
31
102
{ACAD_REACTORS
330
2A
102
}
102
{ACAD_XDICTIONARY
360
8DA
102
}
330
2A
100
AcDbVisualStyle
  2
3D Hidden
 70
     6
 71
     1
 72
     2
 73
     2
 90
        0
 40
-0.6
 41
-30.0
 62
     5
 63
     7
 74
     2
 91
        2
 64
     7
 65
   257
 75
     2
175
     1
 42
40.0
 92
        0
 66
   257
 43
1.0
 76
     1
 77
     6
 78
     2
 67
     7
 79
     3
170
     0
171
     0
290
     0
174
     0
 93
        1
 44
0.0
173
     0
291
     0
 45
0.0
1001
ACAD
1000
AcDbSavedByObjectVersion
1070
     0
  0
VISUALSTYLE
  5
30
102
{ACAD_REACTORS
330
2A
102
}
102
{ACAD_XDICTIONARY
360
8D8
102
}
330
2A
100
AcDbVisualStyle
  2
3dWireframe
 70
     5
 71
     0
 72
     2
 73
     0
 90
        0
 40
-0.6
 41
-30.0
 62
     5
 63
     7
 74
     1
 91
        4
 64
     7
 65
   257
 75
     1
175
     1
 42
1.0
 92
        0
 66
   257
 43
1.0
 76
     1
 77
     6
 78
     2
 67
     7
 79
     5
170
     0
171
     0
290
     0
174
     0
 93
        1
 44
0.0
173
     0
291
     0
 45
0.0
1001
ACAD
1000
AcDbSavedByObjectVersion
1070
     0
  0
VISUALSTYLE
  5
32
102
{ACAD_REACTORS
330
2A
102
}
102
{ACAD_XDICTIONARY
360
8DC
102
}
330
2A
100
AcDbVisualStyle
  2
Basic
 70
     7
 71
     1
 72
     0
 73
     1
 90
        0
 40
-0.6
 41
-30.0
 62
     5
 63
     7
 74
     0
 91
        4
 64
     7
 65
   257
 75
     1
175
     1
 42
1.0
 92
        8
 66
     7
 43
1.0
 76
     1
 77
     6
 78
     2
 67
     7
 79
     5
170
     0
171
     0
290
     0
174
     0
 93
        1
 44
0.0
173
     0
291
     1
 45
0.0
1001
ACAD
1000
AcDbSavedByObjectVersion
1070
     0
  0
VISUALSTYLE
  5
36
102
{ACAD_REACTORS
330
2A
102
}
102
{ACAD_XDICTIONARY
360
8E4
102
}
330
2A
100
AcDbVisualStyle
  2
Brighten
 70
    12
 71
     2
 72
     2
 73
     0
 90
        0
 40
-0.6
 41
-30.0
 62
     5
 63
     7
 74
     1
 91
        4
 64
     7
 65
   257
 75
     1
175
     1
 42
1.0
 92
        8
 66
     7
 43
1.0
 76
     1
 77
     6
 78
     2
 67
     7
 79
     5
170
     0
171
     0
290
     0
174
     0
 93
        1
 44
50.0
173
     0
291
     1
 45
0.0
1001
ACAD
1000
AcDbSavedByObjectVersion
1070
     0
  0
VISUALSTYLE
  5
3A
102
{ACAD_REACTORS
330
2A
102
}
102
{ACAD_XDICTIONARY
360
8EC
102
}
330
2A
100
AcDbVisualStyle
  2
ColorChange
 70
    16
 71
     2
 72
     2
 73
     3
 90
        0
 40
-0.6
 41
-30.0
 62
     5
 63
     8
 74
     1
 91
        4
 64
     7
 65
   257
 75
     1
175
     1
 42
1.0
 92
        8
 66
     8
 43
1.0
 76
     1
 77
     6
 78
     2
 67
     7
 79
     5
170
     0
171
     0
290
     0
174
     0
 93
        1
 44
0.0
173
     0
291
     1
 45
0.0
1001
ACAD
1000
AcDbSavedByObjectVersion
1070
     0
  0
VISUALSTYLE
  5
34
102
{ACAD_REACTORS
330
2A
102
}
102
{ACAD_XDICTIONARY
360
8E0
102
}
330
2A
100
AcDbVisualStyle
  2
Conceptual
 70
     9
 71
     3
 72
     2
 73
     0
 90
        0
 40
-0.6
 41
-30.0
 62
     5
 63
     7
 74
     2
 91
        2
 64
     7
 65
   257
 75
     1
175
     1
 42
40.0
 92
        8
 66
     7
 43
1.0
 76
     1
 77
     6
 78
     2
 67
     7
 79
     3
170
     0
171
     0
290
     0
174
     0
 93
        1
 44
0.0
173
     0
291
     0
 45
0.0
1001
ACAD
1000
AcDbSavedByObjectVersion
1070
     0
  0
VISUALSTYLE
  5
35
102
{ACAD_REACTORS
330
2A
102
}
102
{ACAD_XDICTIONARY
360
8E2
102
}
330
2A
100
AcDbVisualStyle
  2
Dim
 70
    11
 71
     2
 72
     2
 73
     0
 90
        0
 40
-0.6
 41
-30.0
 62
     5
 63
     7
 74
     1
 91
        4
 64
     7
 65
   257
 75
     1
175
     1
 42
1.0
 92
        8
 66
     7
 43
1.0
 76
     1
 77
     6
 78
     2
 67
     7
 79
     5
170
     0
171
     0
290
     0
174
     0
 93
        1
 44
-50.0
173
     0
291
     1
 45
0.0
1001
ACAD
1000
AcDbSavedByObjectVersion
1070
     0
  0
VISUALSTYLE
  5
39
102
{ACAD_REACTORS
330
2A
102
}
102
{ACAD_XDICTIONARY
360
8EA
102
}
330
2A
100
AcDbVisualStyle
  2
Facepattern
 70
    15
 71
     2
 72
     2
 73
     0
 90
        0
 40
-0.6
 41
-30.0
 62
     5
 63
     7
 74
     1
 91
        4
 64
     7
 65
   257
 75
     1
175
     1
 42
1.0
 92
        8
 66
     7
 43
1.0
 76
     1
 77
     6
 78
     2
 67
     7
 79
     5
170
     0
171
     0
290
     0
174
     0
 93
        1
 44
0.0
173
     0
291
     1
 45
0.0
1001
ACAD
1000
AcDbSavedByObjectVersion
1070
     0
  0
VISUALSTYLE
  5
2B
102
{ACAD_REACTORS
330
2A
102
}
102
{ACAD_XDICTIONARY
360
8CE
102
}
330
2A
100
AcDbVisualStyle
  2
Flat
 70
     0
 71
     2
 72
     1
 73
     1
 90
        2
 40
-0.6
 41
30.0
 62
     5
 63
     7
 74
     0
 91
        4
 64
     7
 65
   257
 75
     1
175
     1
 42
1.0
 92
        8
 66
     7
 43
1.0
 76
     1
 77
     6
 78
     2
 67
     7
 79
     5
170
     0
171
     0
290
     0
174
     0
 93
       13
 44
0.0
173
     0
291
     1
 45
0.0
1001
ACAD
1000
AcDbSavedByObjectVersion
1070
     0
  0
VISUALSTYLE
  5
2C
102
{ACAD_REACTORS
330
2A
102
}
102
{ACAD_XDICTIONARY
360
8D0
102
}
330
2A
100
AcDbVisualStyle
  2
FlatWithEdges
 70
     1
 71
     2
 72
     1
 73
     1
 90
        2
 40
-0.6
 41
30.0
 62
     5
 63
     7
 74
     1
 91
        4
 64
     7
 65
   257
 75
     1
175
     1
 42
1.0
 92
        0
 66
   257
 43
1.0
 76
     1
 77
     6
 78
     2
 67
     7
 79
     5
170
     0
171
     0
290
     0
174
     0
 93
       13
 44
0.0
173
     0
291
     1
 45
0.0
1001
ACAD
1000
AcDbSavedByObjectVersion
1070
     0
  0
VISUALSTYLE
  5
2D
102
{ACAD_REACTORS
330
2A
102
}
102
{ACAD_XDICTIONARY
360
8D2
102
}
330
2A
100
AcDbVisualStyle
  2
Gouraud
 70
     2
 71
     2
 72
     2
 73
     1
 90
        2
 40
-0.6
 41
30.0
 62
     5
 63
     7
 74
     0
 91
        4
 64
     7
 65
   257
 75
     1
175
     1
 42
1.0
 92
        0
 66
     7
 43
1.0
 76
     1
 77
     6
 78
     2
 67
     7
 79
     5
170
     0
171
     0
290
     0
174
     0
 93
       13
 44
0.0
173
     0
291
     1
 45
0.0
1001
ACAD
1000
AcDbSavedByObjectVersion
1070
     0
  0
VISUALSTYLE
  5
2E
102
{ACAD_REACTORS
330
2A
102
}
102
{ACAD_XDICTIONARY
360
8D4
102
}
330
2A
100
AcDbVisualStyle
  2
GouraudWithEdges
 70
     3
 71
     2
 72
     2
 73
     1
 90
        2
 40
-0.6
 41
30.0
 62
     5
 63
     7
 74
     1
 91
        4
 64
     7
 65
   257
 75
     1
175
     1
 42
1.0
 92
        0
 66
   257
 43
1.0
 76
     1
 77
     6
 78
     2
 67
     7
 79
     5
170
     0
171
     0
290
     0
174
     0
 93
       13
 44
0.0
173
     0
291
     1
 45
0.0
1001
ACAD
1000
AcDbSavedByObjectVersion
1070
     0
  0
VISUALSTYLE
  5
38
102
{ACAD_REACTORS
330
2A
102
}
102
{ACAD_XDICTIONARY
360
8E8
102
}
330
2A
100
AcDbVisualStyle
  2
Linepattern
 70
    14
 71
     2
 72
     2
 73
     0
 90
        0
 40
-0.6
 41
-30.0
 62
     5
 63
     7
 74
     1
 91
        4
 64
     7
 65
   257
 75
     7
175
     7
 42
1.0
 92
        8
 66
     7
 43
1.0
 76
     1
 77
     6
 78
     2
 67
     7
 79
     5
170
     0
171
     0
290
     0
174
     0
 93
        1
 44
0.0
173
     0
291
     1
 45
0.0
1001
ACAD
1000
AcDbSavedByObjectVersion
1070
     0
  0
VISUALSTYLE
  5
33
102
{ACAD_REACTORS
330
2A
102
}
102
{ACAD_XDICTIONARY
360
8DE
102
}
330
2A
100
AcDbVisualStyle
  2
Realistic
 70
     8
 71
     2
 72
     2
 73
     0
 90
        0
 40
-0.6
 41
-30.0
 62
     5
 63
     7
 74
     1
 91
        0
 64
     7
 65
   257
 75
     1
175
     1
 42
1.0
 92
        8
 66
     8
 43
1.0
 76
     1
 77
     6
 78
     2
 67
     7
 79
     5
170
     0
171
     0
290
     0
174
     0
 93
       13
 44
0.0
173
     0
291
     0
 45
0.0
1001
ACAD
1000
AcDbSavedByObjectVersion
1070
     0
  0
VISUALSTYLE
  5
37
102
{ACAD_REACTORS
330
2A
102
}
102
{ACAD_XDICTIONARY
360
8E6
102
}
330
2A
100
AcDbVisualStyle
  2
Thicken
 70
    13
 71
     2
 72
     2
 73
     0
 90
        0
 40
-0.6
 41
-30.0
 62
     5
 63
     7
 74
     1
 91
        4
 64
     7
 65
   257
 75
     1
175
     1
 42
1.0
 92
       12
 66
     7
 43
1.0
 76
     1
 77
     6
 78
     2
 67
     7
 79
     5
170
     0
171
     0
290
     0
174
     0
 93
        1
 44
0.0
173
     0
291
     1
 45
0.0
1001
ACAD
1000
AcDbSavedByObjectVersion
1070
     0
  0
DICTIONARYVAR
  5
8CB
102
{ACAD_REACTORS
330
8C6
102
}
330
8C6
100
DictionaryVariables
280
     0
  1
1:1
  0
DICTIONARYVAR
  5
8CC
102
{ACAD_REACTORS
330
8C6
102
}
330
8C6
100
DictionaryVariables
280
     0
  1
2
  0
DICTIONARYVAR
  5
8CD
102
{ACAD_REACTORS
330
8C6
102
}
330
8C6
100
DictionaryVariables
280
     0
  1
1
  0
DICTIONARYVAR
  5
8CA
102
{ACAD_REACTORS
330
8C6
102
}
330
8C6
100
DictionaryVariables
280
     0
  1
80.000000
  0
DICTIONARYVAR
  5
8C9
102
{ACAD_REACTORS
330
8C6
102
}
330
8C6
100
DictionaryVariables
280
     0
  1
5.000000
  0
DICTIONARY
  5
8F0
330
3D
100
AcDbDictionary
280
     1
281
     1
  3
ACAD_XREC_ROUNDTRIP
360
8F1
  0
DICTIONARY
  5
8EE
330
3C
100
AcDbDictionary
280
     1
281
     1
  3
ACAD_XREC_ROUNDTRIP
360
8EF
  0
DICTIONARY
  5
8F2
330
3E
100
AcDbDictionary
280
     1
281
     1
  3
ACAD_XREC_ROUNDTRIP
360
8F3
  0
DICTIONARY
  5
8D6
330
2F
100
AcDbDictionary
280
     1
281
     1
  3
ACAD_XREC_ROUNDTRIP
360
8D7
  0
DICTIONARY
  5
8DA
330
31
100
AcDbDictionary
280
     1
281
     1
  3
ACAD_XREC_ROUNDTRIP
360
8DB
  0
DICTIONARY
  5
8D8
330
30
100
AcDbDictionary
280
     1
281
     1
  3
ACAD_XREC_ROUNDTRIP
360
8D9
  0
DICTIONARY
  5
8DC
330
32
100
AcDbDictionary
280
     1
281
     1
  3
ACAD_XREC_ROUNDTRIP
360
8DD
  0
DICTIONARY
  5
8E4
330
36
100
AcDbDictionary
280
     1
281
     1
  3
ACAD_XREC_ROUNDTRIP
360
8E5
  0
DICTIONARY
  5
8EC
330
3A
100
AcDbDictionary
280
     1
281
     1
  3
ACAD_XREC_ROUNDTRIP
360
8ED
  0
DICTIONARY
  5
8E0
330
34
100
AcDbDictionary
280
     1
281
     1
  3
ACAD_XREC_ROUNDTRIP
360
8E1
  0
DICTIONARY
  5
8E2
330
35
100
AcDbDictionary
280
     1
281
     1
  3
ACAD_XREC_ROUNDTRIP
360
8E3
  0
DICTIONARY
  5
8EA
330
39
100
AcDbDictionary
280
     1
281
     1
  3
ACAD_XREC_ROUNDTRIP
360
8EB
  0
DICTIONARY
  5
8CE
330
2B
100
AcDbDictionary
280
     1
281
     1
  3
ACAD_XREC_ROUNDTRIP
360
8CF
  0
DICTIONARY
  5
8D0
330
2C
100
AcDbDictionary
280
     1
281
     1
  3
ACAD_XREC_ROUNDTRIP
360
8D1
  0
DICTIONARY
  5
8D2
330
2D
100
AcDbDictionary
280
     1
281
     1
  3
ACAD_XREC_ROUNDTRIP
360
8D3
  0
DICTIONARY
  5
8D4
330
2E
100
AcDbDictionary
280
     1
281
     1
  3
ACAD_XREC_ROUNDTRIP
360
8D5
  0
DICTIONARY
  5
8E8
330
38
100
AcDbDictionary
280
     1
281
     1
  3
ACAD_XREC_ROUNDTRIP
360
8E9
  0
DICTIONARY
  5
8DE
330
33
100
AcDbDictionary
280
     1
281
     1
  3
ACAD_XREC_ROUNDTRIP
360
8DF
  0
DICTIONARY
  5
8E6
330
37
100
AcDbDictionary
280
     1
281
     1
  3
ACAD_XREC_ROUNDTRIP
360
8E7
  0
XRECORD
  5
8F1
102
{ACAD_REACTORS
330
8F0
102
}
330
8F0
100
AcDbXrecord
280
     1
102
MATERIAL
148
0.0
149
0.0
149
0.0
 93
        0
 94
      127
282
     0
 72
     1
 77
     1
171
     1
175
     1
179
     1
273
     0
  0
XRECORD
  5
8EF
102
{ACAD_REACTORS
330
8EE
102
}
330
8EE
100
AcDbXrecord
280
     1
102
MATERIAL
148
0.0
149
0.0
149
0.0
 93
        0
 94
      127
282
     0
 72
     1
 77
     1
171
     1
175
     1
179
     1
273
     0
  0
XRECORD
  5
8F3
102
{ACAD_REACTORS
330
8F2
102
}
330
8F2
100
AcDbXrecord
280
     1
102
MATERIAL
148
0.0
149
0.0
149
0.0
 93
        0
 94
      127
282
     0
 72
     1
 77
     1
171
     1
175
     1
179
     1
273
     0
  0
XRECORD
  5
8D7
102
{ACAD_REACTORS
330
8D6
102
}
330
8D6
100
AcDbXrecord
280
     1
102
RTVSPropertyOp0
 70
     1
102
RTVSPropertyOp1
 70
     1
102
RTVSPropertyOp2
 70
     1
102
RTVSPropertyOp3
 70
     1
102
RTVSPropertyOp4
 70
     1
102
RTVSPropertyOp5
 70
     1
102
RTVSPropertyOp6
 70
     1
102
RTVSPropertyOp7
 70
     1
102
RTVSPropertyOp8
 70
     1
102
RTVSPropertyOp9
 70
     1
102
RTVSPropertyOp10
 70
     1
102
RTVSPropertyOp11
 70
     1
102
RTVSPropertyOp12
 70
     1
102
RTVSPropertyOp13
 70
     1
102
RTVSPropertyOp14
 70
     1
102
RTVSPropertyOp15
 70
     1
102
RTVSPropertyOp16
 70
     1
102
RTVSPropertyOp17
 70
     1
102
RTVSPropertyOp18
 70
     1
102
RTVSPropertyOp19
 70
     1
102
RTVSPropertyOp20
 70
     1
102
RTVSPropertyOp21
 70
     1
102
RTVSPropertyOp22
 70
     1
102
RTVSPropertyOp23
 70
     1
102
RTVSPropertyOp24
 70
     1
102
RTVSPropertyOp25
 70
     1
102
RTVSPropertyOp26
 70
     1
102
RTVSPropertyOp27
 70
     1
  0
XRECORD
  5
8DB
102
{ACAD_REACTORS
330
8DA
102
}
330
8DA
100
AcDbXrecord
280
     1
102
RTVSPropertyOp0
 70
     1
102
RTVSPropertyOp1
 70
     1
102
RTVSPropertyOp2
 70
     1
102
RTVSPropertyOp3
 70
     1
102
RTVSPropertyOp4
 70
     1
102
RTVSPropertyOp5
 70
     1
102
RTVSPropertyOp6
 70
     1
102
RTVSPropertyOp7
 70
     1
102
RTVSPropertyOp8
 70
     1
102
RTVSPropertyOp9
 70
     1
102
RTVSPropertyOp10
 70
     1
102
RTVSPropertyOp11
 70
     1
102
RTVSPropertyOp12
 70
     1
102
RTVSPropertyOp13
 70
     1
102
RTVSPropertyOp14
 70
     1
102
RTVSPropertyOp15
 70
     1
102
RTVSPropertyOp16
 70
     1
102
RTVSPropertyOp17
 70
     1
102
RTVSPropertyOp18
 70
     1
102
RTVSPropertyOp19
 70
     1
102
RTVSPropertyOp20
 70
     1
102
RTVSPropertyOp21
 70
     1
102
RTVSPropertyOp22
 70
     1
102
RTVSPropertyOp23
 70
     1
102
RTVSPropertyOp24
 70
     1
102
RTVSPropertyOp25
 70
     1
102
RTVSPropertyOp26
 70
     1
102
RTVSPropertyOp27
 70
     1
  0
XRECORD
  5
8D9
102
{ACAD_REACTORS
330
8D8
102
}
330
8D8
100
AcDbXrecord
280
     1
102
RTVSPropertyOp0
 70
     1
102
RTVSPropertyOp1
 70
     1
102
RTVSPropertyOp2
 70
     1
102
RTVSPropertyOp3
 70
     1
102
RTVSPropertyOp4
 70
     1
102
RTVSPropertyOp5
 70
     1
102
RTVSPropertyOp6
 70
     1
102
RTVSPropertyOp7
 70
     1
102
RTVSPropertyOp8
 70
     1
102
RTVSPropertyOp9
 70
     1
102
RTVSPropertyOp10
 70
     1
102
RTVSPropertyOp11
 70
     1
102
RTVSPropertyOp12
 70
     1
102
RTVSPropertyOp13
 70
     1
102
RTVSPropertyOp14
 70
     1
102
RTVSPropertyOp15
 70
     1
102
RTVSPropertyOp16
 70
     1
102
RTVSPropertyOp17
 70
     1
102
RTVSPropertyOp18
 70
     1
102
RTVSPropertyOp19
 70
     1
102
RTVSPropertyOp20
 70
     1
102
RTVSPropertyOp21
 70
     1
102
RTVSPropertyOp22
 70
     1
102
RTVSPropertyOp23
 70
     1
102
RTVSPropertyOp24
 70
     1
102
RTVSPropertyOp25
 70
     1
102
RTVSPropertyOp26
 70
     1
102
RTVSPropertyOp27
 70
     1
  0
XRECORD
  5
8DD
102
{ACAD_REACTORS
330
8DC
102
}
330
8DC
100
AcDbXrecord
280
     1
102
RTVSPropertyOp0
 70
     1
102
RTVSPropertyOp1
 70
     1
102
RTVSPropertyOp2
 70
     1
102
RTVSPropertyOp3
 70
     1
102
RTVSPropertyOp4
 70
     1
102
RTVSPropertyOp5
 70
     1
102
RTVSPropertyOp6
 70
     1
102
RTVSPropertyOp7
 70
     1
102
RTVSPropertyOp8
 70
     1
102
RTVSPropertyOp9
 70
     1
102
RTVSPropertyOp10
 70
     1
102
RTVSPropertyOp11
 70
     1
102
RTVSPropertyOp12
 70
     1
102
RTVSPropertyOp13
 70
     1
102
RTVSPropertyOp14
 70
     1
102
RTVSPropertyOp15
 70
     1
102
RTVSPropertyOp16
 70
     1
102
RTVSPropertyOp17
 70
     1
102
RTVSPropertyOp18
 70
     1
102
RTVSPropertyOp19
 70
     1
102
RTVSPropertyOp20
 70
     1
102
RTVSPropertyOp21
 70
     1
102
RTVSPropertyOp22
 70
     1
102
RTVSPropertyOp23
 70
     1
102
RTVSPropertyOp24
 70
     1
102
RTVSPropertyOp25
 70
     1
102
RTVSPropertyOp26
 70
     1
102
RTVSPropertyOp27
 70
     1
  0
XRECORD
  5
8E5
102
{ACAD_REACTORS
330
8E4
102
}
330
8E4
100
AcDbXrecord
280
     1
102
RTVSPropertyOp0
 70
     1
102
RTVSPropertyOp1
 70
     1
102
RTVSPropertyOp2
 70
     1
102
RTVSPropertyOp3
 70
     1
102
RTVSPropertyOp4
 70
     1
102
RTVSPropertyOp5
 70
     1
102
RTVSPropertyOp6
 70
     1
102
RTVSPropertyOp7
 70
     1
102
RTVSPropertyOp8
 70
     1
102
RTVSPropertyOp9
 70
     1
102
RTVSPropertyOp10
 70
     1
102
RTVSPropertyOp11
 70
     1
102
RTVSPropertyOp12
 70
     1
102
RTVSPropertyOp13
 70
     1
102
RTVSPropertyOp14
 70
     1
102
RTVSPropertyOp15
 70
     1
102
RTVSPropertyOp16
 70
     1
102
RTVSPropertyOp17
 70
     1
102
RTVSPropertyOp18
 70
     1
102
RTVSPropertyOp19
 70
     1
102
RTVSPropertyOp20
 70
     1
102
RTVSPropertyOp21
 70
     1
102
RTVSPropertyOp22
 70
     1
102
RTVSPropertyOp23
 70
     1
102
RTVSPropertyOp24
 70
     1
102
RTVSPropertyOp25
 70
     1
102
RTVSPropertyOp26
 70
     1
102
RTVSPropertyOp27
 70
     1
  0
XRECORD
  5
8ED
102
{ACAD_REACTORS
330
8EC
102
}
330
8EC
100
AcDbXrecord
280
     1
102
RTVSPropertyOp0
 70
     1
102
RTVSPropertyOp1
 70
     1
102
RTVSPropertyOp2
 70
     1
102
RTVSPropertyOp3
 70
     1
102
RTVSPropertyOp4
 70
     1
102
RTVSPropertyOp5
 70
     1
102
RTVSPropertyOp6
 70
     1
102
RTVSPropertyOp7
 70
     1
102
RTVSPropertyOp8
 70
     1
102
RTVSPropertyOp9
 70
     1
102
RTVSPropertyOp10
 70
     1
102
RTVSPropertyOp11
 70
     1
102
RTVSPropertyOp12
 70
     1
102
RTVSPropertyOp13
 70
     1
102
RTVSPropertyOp14
 70
     1
102
RTVSPropertyOp15
 70
     1
102
RTVSPropertyOp16
 70
     1
102
RTVSPropertyOp17
 70
     1
102
RTVSPropertyOp18
 70
     1
102
RTVSPropertyOp19
 70
     1
102
RTVSPropertyOp20
 70
     1
102
RTVSPropertyOp21
 70
     1
102
RTVSPropertyOp22
 70
     1
102
RTVSPropertyOp23
 70
     1
102
RTVSPropertyOp24
 70
     1
102
RTVSPropertyOp25
 70
     1
102
RTVSPropertyOp26
 70
     1
102
RTVSPropertyOp27
 70
     1
  0
XRECORD
  5
8E1
102
{ACAD_REACTORS
330
8E0
102
}
330
8E0
100
AcDbXrecord
280
     1
102
RTVSPropertyOp0
 70
     1
102
RTVSPropertyOp1
 70
     1
102
RTVSPropertyOp2
 70
     1
102
RTVSPropertyOp3
 70
     1
102
RTVSPropertyOp4
 70
     1
102
RTVSPropertyOp5
 70
     1
102
RTVSPropertyOp6
 70
     1
102
RTVSPropertyOp7
 70
     1
102
RTVSPropertyOp8
 70
     1
102
RTVSPropertyOp9
 70
     1
102
RTVSPropertyOp10
 70
     1
102
RTVSPropertyOp11
 70
     1
102
RTVSPropertyOp12
 70
     1
102
RTVSPropertyOp13
 70
     1
102
RTVSPropertyOp14
 70
     1
102
RTVSPropertyOp15
 70
     1
102
RTVSPropertyOp16
 70
     1
102
RTVSPropertyOp17
 70
     1
102
RTVSPropertyOp18
 70
     1
102
RTVSPropertyOp19
 70
     1
102
RTVSPropertyOp20
 70
     1
102
RTVSPropertyOp21
 70
     1
102
RTVSPropertyOp22
 70
     1
102
RTVSPropertyOp23
 70
     1
102
RTVSPropertyOp24
 70
     1
102
RTVSPropertyOp25
 70
     1
102
RTVSPropertyOp26
 70
     1
102
RTVSPropertyOp27
 70
     1
  0
XRECORD
  5
8E3
102
{ACAD_REACTORS
330
8E2
102
}
330
8E2
100
AcDbXrecord
280
     1
102
RTVSPropertyOp0
 70
     1
102
RTVSPropertyOp1
 70
     1
102
RTVSPropertyOp2
 70
     1
102
RTVSPropertyOp3
 70
     1
102
RTVSPropertyOp4
 70
     1
102
RTVSPropertyOp5
 70
     1
102
RTVSPropertyOp6
 70
     1
102
RTVSPropertyOp7
 70
     1
102
RTVSPropertyOp8
 70
     1
102
RTVSPropertyOp9
 70
     1
102
RTVSPropertyOp10
 70
     1
102
RTVSPropertyOp11
 70
     1
102
RTVSPropertyOp12
 70
     1
102
RTVSPropertyOp13
 70
     1
102
RTVSPropertyOp14
 70
     1
102
RTVSPropertyOp15
 70
     1
102
RTVSPropertyOp16
 70
     1
102
RTVSPropertyOp17
 70
     1
102
RTVSPropertyOp18
 70
     1
102
RTVSPropertyOp19
 70
     1
102
RTVSPropertyOp20
 70
     1
102
RTVSPropertyOp21
 70
     1
102
RTVSPropertyOp22
 70
     1
102
RTVSPropertyOp23
 70
     1
102
RTVSPropertyOp24
 70
     1
102
RTVSPropertyOp25
 70
     1
102
RTVSPropertyOp26
 70
     1
102
RTVSPropertyOp27
 70
     1
  0
XRECORD
  5
8EB
102
{ACAD_REACTORS
330
8EA
102
}
330
8EA
100
AcDbXrecord
280
     1
102
RTVSPropertyOp0
 70
     1
102
RTVSPropertyOp1
 70
     1
102
RTVSPropertyOp2
 70
     1
102
RTVSPropertyOp3
 70
     1
102
RTVSPropertyOp4
 70
     1
102
RTVSPropertyOp5
 70
     1
102
RTVSPropertyOp6
 70
     1
102
RTVSPropertyOp7
 70
     1
102
RTVSPropertyOp8
 70
     1
102
RTVSPropertyOp9
 70
     1
102
RTVSPropertyOp10
 70
     1
102
RTVSPropertyOp11
 70
     1
102
RTVSPropertyOp12
 70
     1
102
RTVSPropertyOp13
 70
     1
102
RTVSPropertyOp14
 70
     1
102
RTVSPropertyOp15
 70
     1
102
RTVSPropertyOp16
 70
     1
102
RTVSPropertyOp17
 70
     1
102
RTVSPropertyOp18
 70
     1
102
RTVSPropertyOp19
 70
     1
102
RTVSPropertyOp20
 70
     1
102
RTVSPropertyOp21
 70
     1
102
RTVSPropertyOp22
 70
     1
102
RTVSPropertyOp23
 70
     1
102
RTVSPropertyOp24
 70
     1
102
RTVSPropertyOp25
 70
     1
102
RTVSPropertyOp26
 70
     1
102
RTVSPropertyOp27
 70
     1
  0
XRECORD
  5
8CF
102
{ACAD_REACTORS
330
8CE
102
}
330
8CE
100
AcDbXrecord
280
     1
102
RTVSPropertyOp0
 70
     1
102
RTVSPropertyOp1
 70
     1
102
RTVSPropertyOp2
 70
     1
102
RTVSPropertyOp3
 70
     1
102
RTVSPropertyOp4
 70
     1
102
RTVSPropertyOp5
 70
     1
102
RTVSPropertyOp6
 70
     1
102
RTVSPropertyOp7
 70
     1
102
RTVSPropertyOp8
 70
     1
102
RTVSPropertyOp9
 70
     1
102
RTVSPropertyOp10
 70
     1
102
RTVSPropertyOp11
 70
     1
102
RTVSPropertyOp12
 70
     1
102
RTVSPropertyOp13
 70
     1
102
RTVSPropertyOp14
 70
     1
102
RTVSPropertyOp15
 70
     1
102
RTVSPropertyOp16
 70
     1
102
RTVSPropertyOp17
 70
     1
102
RTVSPropertyOp18
 70
     1
102
RTVSPropertyOp19
 70
     1
102
RTVSPropertyOp20
 70
     1
102
RTVSPropertyOp21
 70
     1
102
RTVSPropertyOp22
 70
     1
102
RTVSPropertyOp23
 70
     1
102
RTVSPropertyOp24
 70
     1
102
RTVSPropertyOp25
 70
     1
102
RTVSPropertyOp26
 70
     1
102
RTVSPropertyOp27
 70
     1
  0
XRECORD
  5
8D1
102
{ACAD_REACTORS
330
8D0
102
}
330
8D0
100
AcDbXrecord
280
     1
102
RTVSPropertyOp0
 70
     1
102
RTVSPropertyOp1
 70
     1
102
RTVSPropertyOp2
 70
     1
102
RTVSPropertyOp3
 70
     1
102
RTVSPropertyOp4
 70
     1
102
RTVSPropertyOp5
 70
     1
102
RTVSPropertyOp6
 70
     1
102
RTVSPropertyOp7
 70
     1
102
RTVSPropertyOp8
 70
     1
102
RTVSPropertyOp9
 70
     1
102
RTVSPropertyOp10
 70
     1
102
RTVSPropertyOp11
 70
     1
102
RTVSPropertyOp12
 70
     1
102
RTVSPropertyOp13
 70
     1
102
RTVSPropertyOp14
 70
     1
102
RTVSPropertyOp15
 70
     1
102
RTVSPropertyOp16
 70
     1
102
RTVSPropertyOp17
 70
     1
102
RTVSPropertyOp18
 70
     1
102
RTVSPropertyOp19
 70
     1
102
RTVSPropertyOp20
 70
     1
102
RTVSPropertyOp21
 70
     1
102
RTVSPropertyOp22
 70
     1
102
RTVSPropertyOp23
 70
     1
102
RTVSPropertyOp24
 70
     1
102
RTVSPropertyOp25
 70
     1
102
RTVSPropertyOp26
 70
     1
102
RTVSPropertyOp27
 70
     1
  0
XRECORD
  5
8D3
102
{ACAD_REACTORS
330
8D2
102
}
330
8D2
100
AcDbXrecord
280
     1
102
RTVSPropertyOp0
 70
     1
102
RTVSPropertyOp1
 70
     1
102
RTVSPropertyOp2
 70
     1
102
RTVSPropertyOp3
 70
     1
102
RTVSPropertyOp4
 70
     1
102
RTVSPropertyOp5
 70
     1
102
RTVSPropertyOp6
 70
     1
102
RTVSPropertyOp7
 70
     1
102
RTVSPropertyOp8
 70
     1
102
RTVSPropertyOp9
 70
     1
102
RTVSPropertyOp10
 70
     1
102
RTVSPropertyOp11
 70
     1
102
RTVSPropertyOp12
 70
     1
102
RTVSPropertyOp13
 70
     1
102
RTVSPropertyOp14
 70
     1
102
RTVSPropertyOp15
 70
     1
102
RTVSPropertyOp16
 70
     1
102
RTVSPropertyOp17
 70
     1
102
RTVSPropertyOp18
 70
     1
102
RTVSPropertyOp19
 70
     1
102
RTVSPropertyOp20
 70
     1
102
RTVSPropertyOp21
 70
     1
102
RTVSPropertyOp22
 70
     1
102
RTVSPropertyOp23
 70
     1
102
RTVSPropertyOp24
 70
     1
102
RTVSPropertyOp25
 70
     1
102
RTVSPropertyOp26
 70
     1
102
RTVSPropertyOp27
 70
     1
  0
XRECORD
  5
8D5
102
{ACAD_REACTORS
330
8D4
102
}
330
8D4
100
AcDbXrecord
280
     1
102
RTVSPropertyOp0
 70
     1
102
RTVSPropertyOp1
 70
     1
102
RTVSPropertyOp2
 70
     1
102
RTVSPropertyOp3
 70
     1
102
RTVSPropertyOp4
 70
     1
102
RTVSPropertyOp5
 70
     1
102
RTVSPropertyOp6
 70
     1
102
RTVSPropertyOp7
 70
     1
102
RTVSPropertyOp8
 70
     1
102
RTVSPropertyOp9
 70
     1
102
RTVSPropertyOp10
 70
     1
102
RTVSPropertyOp11
 70
     1
102
RTVSPropertyOp12
 70
     1
102
RTVSPropertyOp13
 70
     1
102
RTVSPropertyOp14
 70
     1
102
RTVSPropertyOp15
 70
     1
102
RTVSPropertyOp16
 70
     1
102
RTVSPropertyOp17
 70
     1
102
RTVSPropertyOp18
 70
     1
102
RTVSPropertyOp19
 70
     1
102
RTVSPropertyOp20
 70
     1
102
RTVSPropertyOp21
 70
     1
102
RTVSPropertyOp22
 70
     1
102
RTVSPropertyOp23
 70
     1
102
RTVSPropertyOp24
 70
     1
102
RTVSPropertyOp25
 70
     1
102
RTVSPropertyOp26
 70
     1
102
RTVSPropertyOp27
 70
     1
  0
XRECORD
  5
8E9
102
{ACAD_REACTORS
330
8E8
102
}
330
8E8
100
AcDbXrecord
280
     1
102
RTVSPropertyOp0
 70
     1
102
RTVSPropertyOp1
 70
     1
102
RTVSPropertyOp2
 70
     1
102
RTVSPropertyOp3
 70
     1
102
RTVSPropertyOp4
 70
     1
102
RTVSPropertyOp5
 70
     1
102
RTVSPropertyOp6
 70
     1
102
RTVSPropertyOp7
 70
     1
102
RTVSPropertyOp8
 70
     1
102
RTVSPropertyOp9
 70
     1
102
RTVSPropertyOp10
 70
     1
102
RTVSPropertyOp11
 70
     1
102
RTVSPropertyOp12
 70
     1
102
RTVSPropertyOp13
 70
     1
102
RTVSPropertyOp14
 70
     1
102
RTVSPropertyOp15
 70
     1
102
RTVSPropertyOp16
 70
     1
102
RTVSPropertyOp17
 70
     1
102
RTVSPropertyOp18
 70
     1
102
RTVSPropertyOp19
 70
     1
102
RTVSPropertyOp20
 70
     1
102
RTVSPropertyOp21
 70
     1
102
RTVSPropertyOp22
 70
     1
102
RTVSPropertyOp23
 70
     1
102
RTVSPropertyOp24
 70
     1
102
RTVSPropertyOp25
 70
     1
102
RTVSPropertyOp26
 70
     1
102
RTVSPropertyOp27
 70
     1
  0
XRECORD
  5
8DF
102
{ACAD_REACTORS
330
8DE
102
}
330
8DE
100
AcDbXrecord
280
     1
102
RTVSPropertyOp0
 70
     1
102
RTVSPropertyOp1
 70
     1
102
RTVSPropertyOp2
 70
     1
102
RTVSPropertyOp3
 70
     1
102
RTVSPropertyOp4
 70
     1
102
RTVSPropertyOp5
 70
     1
102
RTVSPropertyOp6
 70
     1
102
RTVSPropertyOp7
 70
     1
102
RTVSPropertyOp8
 70
     1
102
RTVSPropertyOp9
 70
     1
102
RTVSPropertyOp10
 70
     1
102
RTVSPropertyOp11
 70
     1
102
RTVSPropertyOp12
 70
     1
102
RTVSPropertyOp13
 70
     1
102
RTVSPropertyOp14
 70
     1
102
RTVSPropertyOp15
 70
     1
102
RTVSPropertyOp16
 70
     1
102
RTVSPropertyOp17
 70
     1
102
RTVSPropertyOp18
 70
     1
102
RTVSPropertyOp19
 70
     1
102
RTVSPropertyOp20
 70
     1
102
RTVSPropertyOp21
 70
     1
102
RTVSPropertyOp22
 70
     1
102
RTVSPropertyOp23
 70
     1
102
RTVSPropertyOp24
 70
     1
102
RTVSPropertyOp25
 70
     1
102
RTVSPropertyOp26
 70
     1
102
RTVSPropertyOp27
 70
     1
  0
XRECORD
  5
8E7
102
{ACAD_REACTORS
330
8E6
102
}
330
8E6
100
AcDbXrecord
280
     1
102
RTVSPropertyOp0
 70
     1
102
RTVSPropertyOp1
 70
     1
102
RTVSPropertyOp2
 70
     1
102
RTVSPropertyOp3
 70
     1
102
RTVSPropertyOp4
 70
     1
102
RTVSPropertyOp5
 70
     1
102
RTVSPropertyOp6
 70
     1
102
RTVSPropertyOp7
 70
     1
102
RTVSPropertyOp8
 70
     1
102
RTVSPropertyOp9
 70
     1
102
RTVSPropertyOp10
 70
     1
102
RTVSPropertyOp11
 70
     1
102
RTVSPropertyOp12
 70
     1
102
RTVSPropertyOp13
 70
     1
102
RTVSPropertyOp14
 70
     1
102
RTVSPropertyOp15
 70
     1
102
RTVSPropertyOp16
 70
     1
102
RTVSPropertyOp17
 70
     1
102
RTVSPropertyOp18
 70
     1
102
RTVSPropertyOp19
 70
     1
102
RTVSPropertyOp20
 70
     1
102
RTVSPropertyOp21
 70
     1
102
RTVSPropertyOp22
 70
     1
102
RTVSPropertyOp23
 70
     1
102
RTVSPropertyOp24
 70
     1
102
RTVSPropertyOp25
 70
     1
102
RTVSPropertyOp26
 70
     1
102
RTVSPropertyOp27
 70
     1
  0
ENDSEC
  0
EOF
