  0
SECTION
  2
HEADER
  9
$ACADVER
  1
AC1015
  9
$ACADMAINTVER
 70
     6
  9
$DWGCODEPAGE
  3
ANSI_1252
  9
$INSBASE
 10
0.0
 20
0.0
 30
0.0
  9
$EXTMIN
 10
0.0
 20
0.0
 30
0.0
  9
$EXTMAX
 10
25.0
 20
35.0
 30
0.0
  9
$LIMMIN
 10
0.0
 20
0.0
  9
$LIMMAX
 10
420.0
 20
297.0
  9
$ORTHOMODE
 70
     0
  9
$REGENMODE
 70
     1
  9
$FILLMODE
 70
     1
  9
$QTEXTMODE
 70
     0
  9
$MIRRTEXT
 70
     1
  9
$LTSCALE
 40
3.25
  9
$ATTMODE
 70
     1
  9
$TEXTSIZE
 40
2.5
  9
$TRACEWID
 40
1.0
  9
$TEXTSTYLE
  7
Standard
  9
$CLAYER
  8
0
  9
$CELTYPE
  6
ByLayer
  9
$CECOLOR
 62
   256
  9
$CELTSCALE
 40
1.0
  9
$DISPSILH
 70
     0
  9
$DIMSCALE
 40
1.0
  9
$DIMASZ
 40
2.5
  9
$DIMEXO
 40
0.625
  9
$DIMDLI
 40
3.75
  9
$DIMRND
 40
0.0
  9
$DIMDLE
 40
0.0
  9
$DIMEXE
 40
1.25
  9
$DIMTP
 40
0.0
  9
$DIMTM
 40
0.0
  9
$DIMTXT
 40
2.5
  9
$DIMCEN
 40
2.5
  9
$DIMTSZ
 40
0.0
  9
$DIMTOL
 70
     0
  9
$DIMLIM
 70
     0
  9
$DIMTIH
 70
     0
  9
$DIMTOH
 70
     0
  9
$DIMSE1
 70
     0
  9
$DIMSE2
 70
     0
  9
$DIMTAD
 70
     1
  9
$DIMZIN
 70
     8
  9
$DIMBLK
  1

  9
$DIMASO
 70
     1
  9
$DIMSHO
 70
     1
  9
$DIMPOST
  1

  9
$DIMAPOST
  1

  9
$DIMALT
 70
     0
  9
$DIMALTD
 70
     3
  9
$DIMALTF
 40
0.03937007874016
  9
$DIMLFAC
 40
1.0
  9
$DIMTOFL
 70
     1
  9
$DIMTVP
 40
0.0
  9
$DIMTIX
 70
     0
  9
$DIMSOXD
 70
     0
  9
$DIMSAH
 70
     0
  9
$DIMBLK1
  1

  9
$DIMBLK2
  1

  9
$DIMSTYLE
  2
ISO-25
  9
$DIMCLRD
 70
     0
  9
$DIMCLRE
 70
     0
  9
$DIMCLRT
 70
     0
  9
$DIMTFAC
 40
1.0
  9
$DIMGAP
 40
0.625
  9
$DIMJUST
 70
     0
  9
$DIMSD1
 70
     0
  9
$DIMSD2
 70
     0
  9
$DIMTOLJ
 70
     0
  9
$DIMTZIN
 70
     8
  9
$DIMALTZ
 70
     0
  9
$DIMALTTZ
 70
     0
  9
$DIMUPT
 70
     0
  9
$DIMDEC
 70
     2
  9
$DIMTDEC
 70
     2
  9
$DIMALTU
 70
     2
  9
$DIMALTTD
 70
     3
  9
$DIMTXSTY
  7
Standard
  9
$DIMAUNIT
 70
     0
  9
$DIMADEC
 70
     0
  9
$DIMALTRND
 40
0.0
  9
$DIMAZIN
 70
     0
  9
$DIMDSEP
 70
    44
  9
$DIMATFIT
 70
     3
  9
$DIMFRAC
 70
     0
  9
$DIMLDRBLK
  1

  9
$DIMLUNIT
 70
     2
  9
$DIMLWD
 70
    -2
  9
$DIMLWE
 70
    -2
  9
$DIMTMOVE
 70
     0
  9
$LUNITS
 70
     2
  9
$LUPREC
 70
     4
  9
$SKETCHINC
 40
1.0
  9
$FILLETRAD
 40
10.0
  9
$AUNITS
 70
     0
  9
$AUPREC
 70
     0
  9
$MENU
  1
.
  9
$ELEVATION
 40
0.0
  9
$PELEVATION
 40
0.0
  9
$THICKNESS
 40
0.0
  9
$LIMCHECK
 70
     0
  9
$CHAMFERA
 40
10.0
  9
$CHAMFERB
 40
10.0
  9
$CHAMFERC
 40
20.0
  9
$CHAMFERD
 40
0.0
  9
$SKPOLY
 70
     0
  9
$TDCREATE
 40
2457248.553472222
  9
$TDUCREATE
 40
2457248.470138889
  9
$TDUPDATE
 40
2457248.556944444
  9
$TDUUPDATE
 40
2457248.473611111
  9
$TDINDWG
 40
0.0000000116
  9
$TDUSRTIMER
 40
0.0000000116
  9
$USRTIMER
 70
     1
  9
$ANGBASE
 50
0.0
  9
$ANGDIR
 70
     0
  9
$PDMODE
 70
     0
  9
$PDSIZE
 40
0.0
  9
$PLINEWID
 40
0.0
  9
$SPLFRAME
 70
     0
  9
$SPLINETYPE
 70
     6
  9
$SPLINESEGS
 70
     8
  9
$HANDSEED
  5
5B1
  9
$SURFTAB1
 70
     6
  9
$SURFTAB2
 70
     6
  9
$SURFTYPE
 70
     6
  9
$SURFU
 70
     6
  9
$SURFV
 70
     6
  9
$UCSBASE
  2

  9
$UCSNAME
  2

  9
$UCSORG
 10
0.0
 20
0.0
 30
0.0
  9
$UCSXDIR
 10
1.0
 20
0.0
 30
0.0
  9
$UCSYDIR
 10
0.0
 20
1.0
 30
0.0
  9
$UCSORTHOREF
  2

  9
$UCSORTHOVIEW
 70
     0
  9
$UCSORGTOP
 10
0.0
 20
0.0
 30
0.0
  9
$UCSORGBOTTOM
 10
0.0
 20
0.0
 30
0.0
  9
$UCSORGLEFT
 10
0.0
 20
0.0
 30
0.0
  9
$UCSORGRIGHT
 10
0.0
 20
0.0
 30
0.0
  9
$UCSORGFRONT
 10
0.0
 20
0.0
 30
0.0
  9
$UCSORGBACK
 10
0.0
 20
0.0
 30
0.0
  9
$PUCSBASE
  2

  9
$PUCSNAME
  2

  9
$PUCSORG
 10
0.0
 20
0.0
 30
0.0
  9
$PUCSXDIR
 10
1.0
 20
0.0
 30
0.0
  9
$PUCSYDIR
 10
0.0
 20
1.0
 30
0.0
  9
$PUCSORTHOREF
  2

  9
$PUCSORTHOVIEW
 70
     0
  9
$PUCSORGTOP
 10
0.0
 20
0.0
 30
0.0
  9
$PUCSORGBOTTOM
 10
0.0
 20
0.0
 30
0.0
  9
$PUCSORGLEFT
 10
0.0
 20
0.0
 30
0.0
  9
$PUCSORGRIGHT
 10
0.0
 20
0.0
 30
0.0
  9
$PUCSORGFRONT
 10
0.0
 20
0.0
 30
0.0
  9
$PUCSORGBACK
 10
0.0
 20
0.0
 30
0.0
  9
$USERI1
 70
     0
  9
$USERI2
 70
     0
  9
$USERI3
 70
     0
  9
$USERI4
 70
     0
  9
$USERI5
 70
     0
  9
$USERR1
 40
0.0
  9
$USERR2
 40
0.0
  9
$USERR3
 40
0.0
  9
$USERR4
 40
0.0
  9
$USERR5
 40
0.0
  9
$WORLDVIEW
 70
     1
  9
$SHADEDGE
 70
     3
  9
$SHADEDIF
 70
    70
  9
$TILEMODE
 70
     1
  9
$MAXACTVP
 70
    64
  9
$PINSBASE
 10
0.0
 20
0.0
 30
0.0
  9
$PLIMCHECK
 70
     0
  9
$PEXTMIN
 10
1.000000000000000E+20
 20
1.000000000000000E+20
 30
1.000000000000000E+20
  9
$PEXTMAX
 10
-1.000000000000000E+20
 20
-1.000000000000000E+20
 30
-1.000000000000000E+20
  9
$PLIMMIN
 10
0.0
 20
0.0
  9
$PLIMMAX
 10
420.0
 20
297.0
  9
$UNITMODE
 70
     0
  9
$VISRETAIN
 70
     1
  9
$PLINEGEN
 70
     0
  9
$PSLTSCALE
 70
     1
  9
$TREEDEPTH
 70
  3020
  9
$CMLSTYLE
  2
Standard
  9
$CMLJUST
 70
     0
  9
$CMLSCALE
 40
20.0
  9
$PROXYGRAPHICS
 70
     1
  9
$MEASUREMENT
 70
     1
  9
$CELWEIGHT
370
    -1
  9
$ENDCAPS
280
     0
  9
$JOINSTYLE
280
     0
  9
$LWDISPLAY
290
     0
  9
$INSUNITS
 70
     4
  9
$HYPERLINKBASE
  1

  9
$STYLESHEET
  1

  9
$XEDIT
290
     1
  9
$CEPSNTYPE
380
     0
  9
$PSTYLEMODE
290
     1
  9
$FINGERPRINTGUID
  2
{50E4BE8B-DF82-4947-A0A7-1DC53CAC27A1}
  9
$VERSIONGUID
  2
{FAEB1C32-E019-11D5-929B-00C0DF256EC4}
  9
$EXTNAMES
290
     1
  9
$PSVPSCALE
 40
0.0
  9
$OLESTARTUP
290
     0
  0
ENDSEC
  0
SECTION
  2
CLASSES
  0
CLASS
  1
ACDBDICTIONARYWDFLT
  2
AcDbDictionaryWithDefault
  3
ObjectDBX Classes
 90
        0
280
     0
281
     0
  0
CLASS
  1
VISUALSTYLE
  2
AcDbVisualStyle
  3
ObjectDBX Classes
 90
     4095
280
     0
281
     0
  0
CLASS
  1
MATERIAL
  2
AcDbMaterial
  3
ObjectDBX Classes
 90
     1153
280
     0
281
     0
  0
CLASS
  1
SCALE
  2
AcDbScale
  3
ObjectDBX Classes
 90
     1153
280
     0
281
     0
  0
CLASS
  1
DICTIONARYVAR
  2
AcDbDictionaryVar
  3
ObjectDBX Classes
 90
        0
280
     0
281
     0
  0
CLASS
  1
ACDBPLACEHOLDER
  2
AcDbPlaceHolder
  3
ObjectDBX Classes
 90
        0
280
     0
281
     0
  0
CLASS
  1
LAYOUT
  2
AcDbLayout
  3
ObjectDBX Classes
 90
        0
280
     0
281
     0
  0
ENDSEC
  0
SECTION
  2
TABLES
  0
TABLE
  2
VPORT
  5
8
330
0
100
AcDbSymbolTable
 70
     1
  0
VPORT
  5
29
330
8
100
AcDbSymbolTableRecord
100
AcDbViewportTableRecord
  2
*Active
 70
     0
 10
0.0
 20
0.0
 11
1.0
 21
1.0
 12
11.26
 22
4.5
 13
0.0
 23
0.0
 14
10.0
 24
10.0
 15
10.0
 25
10.0
 16
0.0
 26
0.0
 36
1.0
 17
0.0
 27
0.0
 37
0.0
 40
9.0
 41
2.503333333333333
 42
50.0
 43
0.0
 44
0.0
 50
0.0
 51
0.0
 71
     0
 72
   100
 73
     1
 74
     3
 75
     0
 76
     0
 77
     0
 78
     0
281
     0
 65
     1
110
0.0
120
0.0
130
0.0
111
1.0
121
0.0
131
0.0
112
0.0
122
1.0
132
0.0
 79
     0
146
0.0
  0
ENDTAB
  0
TABLE
  2
LTYPE
  5
5
330
0
100
AcDbSymbolTable
 70
     7
  0
LTYPE
  5
14
330
5
100
AcDbSymbolTableRecord
100
AcDbLinetypeTableRecord
  2
ByBlock
 70
     0
  3

 72
    65
 73
     0
 40
0.0
  0
LTYPE
  5
15
330
5
100
AcDbSymbolTableRecord
100
AcDbLinetypeTableRecord
  2
ByLayer
 70
     0
  3

 72
    65
 73
     0
 40
0.0
  0
LTYPE
  5
16
330
5
100
AcDbSymbolTableRecord
100
AcDbLinetypeTableRecord
  2
Continuous
 70
     0
  3
Solid line
 72
    65
 73
     0
 40
0.0
  0
LTYPE
  5
D1
330
5
100
AcDbSymbolTableRecord
100
AcDbLinetypeTableRecord
  2
SK1
 70
     0
  3
THICK
 72
    65
 73
     0
 40
0.0
  0
LTYPE
  5
D8
330
5
100
AcDbSymbolTableRecord
100
AcDbLinetypeTableRecord
  2
NOCUT
 70
     0
  3
THICK
 72
    65
 73
     0
 40
0.0
  0
LTYPE
  5
DD
330
5
100
AcDbSymbolTableRecord
100
AcDbLinetypeTableRecord
  2
SK2
 70
     0
  3
THIN
 72
    65
 73
     0
 40
0.0
  0
LTYPE
  5
18A
330
5
100
AcDbSymbolTableRecord
100
AcDbLinetypeTableRecord
  2
L2
 70
     0
  3
THIN
 72
    65
 73
     0
 40
0.0
  0
LTYPE
  5
2E7
330
5
100
AcDbSymbolTableRecord
100
AcDbLinetypeTableRecord
  2
LONGDASH_DASH
 70
     0
  3
THIN_DASHDOT
 72
    65
 73
     4
 40
0.85
 49
0.4
 74
     0
 49
-0.2
 74
     0
 49
0.05
 74
     0
 49
-0.2
 74
     0
  0
LTYPE
  5
2ED
330
5
100
AcDbSymbolTableRecord
100
AcDbLinetypeTableRecord
  2
INFTOTAL
 70
     0
  3
THIN
 72
    65
 73
     0
 40
0.0
  0
ENDTAB
  0
TABLE
  2
LAYER
  5
2
330
0
100
AcDbSymbolTable
 70
    11
  0
LAYER
  5
10
330
2
100
AcDbSymbolTableRecord
100
AcDbLayerTableRecord
  2
0
 70
     0
 62
     7
  6
Continuous
370
    -3
390
F
  0
LAYER
  5
44
330
2
100
AcDbSymbolTableRecord
100
AcDbLayerTableRecord
  2
1
 70
     0
 62
4
  6
CONTINUOUS
370
50
370
    -3
390
F
  0
LAYER
  5
D0
330
2
100
AcDbSymbolTableRecord
100
AcDbLayerTableRecord
  2
SK1
 70
     0
 62
4
  6
CONTINUOUS
370
50
370
    -3
390
F
  0
LAYER
  5
D7
330
2
100
AcDbSymbolTableRecord
100
AcDbLayerTableRecord
  2
NOCUT
 70
     0
 62
7
  6
CONTINUOUS
370
25
370
    -3
390
F
  0
LAYER
  5
DC
330
2
100
AcDbSymbolTableRecord
100
AcDbLayerTableRecord
  2
SK2
 70
     0
 62
7
  6
CONTINUOUS
370
25
370
    -3
390
F
  0
LAYER
  5
189
330
2
100
AcDbSymbolTableRecord
100
AcDbLayerTableRecord
  2
2
 70
     0
 62
7
  6
CONTINUOUS
370
25
370
    -3
390
F
  0
LAYER
  5
1D5
330
2
100
AcDbSymbolTableRecord
100
AcDbLayerTableRecord
  2
CUT
 70
     0
 62
1
  6
CONTINUOUS
370
25
370
    -3
390
F
  0
LAYER
  5
2E8
330
2
100
AcDbSymbolTableRecord
100
AcDbLayerTableRecord
  2
4
 70
     0
 62
2
  6
LONGDASH_DASH
370
25
370
    -3
390
F
  0
LAYER
  5
2EA
330
2
100
AcDbSymbolTableRecord
100
AcDbLayerTableRecord
  2
SK4
 70
     0
 62
2
  6
LONGDASH_DASH
370
25
370
    -3
390
F
  0
LAYER
  5
2EC
330
2
100
AcDbSymbolTableRecord
100
AcDbLayerTableRecord
  2
INFTOTAL
 70
     0
 62
9
  6
CONTINUOUS
370
18
370
    -3
390
F
  0
LAYER
  5
2F2
330
2
100
AcDbSymbolTableRecord
100
AcDbLayerTableRecord
  2
SK6
 70
     0
 62
5
  6
CONTINUOUS
370
25
370
    -3
390
F
  0
ENDTAB
  0
TABLE
  2
STYLE
  5
3
330
0
100
AcDbSymbolTable
 70
     1
  0
STYLE
  5
11
330
3
100
AcDbSymbolTableRecord
100
AcDbTextStyleTableRecord
  2
Standard
 70
     0
 40
0.0
 41
1.0
 50
0.0
 71
     0
 42
2.5
  3
Monospac821 BT
  4

  0
ENDTAB
  0
TABLE
  2
VIEW
  5
6
330
0
100
AcDbSymbolTable
 70
     0
  0
ENDTAB
  0
TABLE
  2
UCS
  5
7
330
0
100
AcDbSymbolTable
 70
     0
  0
ENDTAB
  0
TABLE
  2
APPID
  5
9
330
0
100
AcDbSymbolTable
 70
     2
  0
APPID
  5
12
330
9
100
AcDbSymbolTableRecord
100
AcDbRegAppTableRecord
  2
ACAD
 70
     0
  0
APPID
  5
3F
330
9
100
AcDbSymbolTableRecord
100
AcDbRegAppTableRecord
  2
ccLab
 70
     0
  0
ENDTAB
  0
TABLE
  2
DIMSTYLE
  5
A
330
0
100
AcDbSymbolTable
 70
     1
100
AcDbDimStyleTable
  0
DIMSTYLE
105
27
330
A
100
AcDbSymbolTableRecord
100
AcDbDimStyleTableRecord
  2
ISO-25
 70
     0
 41
2.5
 42
0.625
 43
3.75
 44
1.25
 73
     0
 74
     0
 77
     1
 78
     8
140
2.5
141
2.5
143
0.03937007874016
147
0.625
171
     3
172
     1
271
     2
272
     2
274
     3
278
    44
283
     0
284
     8
340
11
  0
ENDTAB
  0
TABLE
  2
BLOCK_RECORD
  5
1
330
0
100
AcDbSymbolTable
 70
     2
  0
BLOCK_RECORD
  5
1F
330
1
100
AcDbSymbolTableRecord
100
AcDbBlockTableRecord
  2
*Model_Space
340
22
  0
BLOCK_RECORD
  5
1B
330
1
100
AcDbSymbolTableRecord
100
AcDbBlockTableRecord
  2
*Paper_Space
340
1E
  0
BLOCK_RECORD
  5
23
330
1
100
AcDbSymbolTableRecord
100
AcDbBlockTableRecord
  2
*Paper_Space0
340
26
  0
ENDTAB
  0
ENDSEC
  0
SECTION
  2
BLOCKS
  0
BLOCK
  5
20
330
1F
100
AcDbEntity
  8
0
100
AcDbBlockBegin
  2
*Model_Space
 70
     0
 10
0.0
 20
0.0
 30
0.0
  3
*Model_Space
  1

  0
ENDBLK
  5
21
330
1F
100
AcDbEntity
  8
0
100
AcDbBlockEnd
  0
BLOCK
  5
1C
330
1B
100
AcDbEntity
 67
     1
  8
0
100
AcDbBlockBegin
  2
*Paper_Space
 70
     0
 10
0.0
 20
0.0
 30
0.0
  3
*Paper_Space
  1

  0
ENDBLK
  5
1D
330
1B
100
AcDbEntity
 67
     1
  8
0
100
AcDbBlockEnd
  0
BLOCK
  5
24
330
23
100
AcDbEntity
  8
0
100
AcDbBlockBegin
  2
*Paper_Space0
 70
     0
 10
0.0
 20
0.0
 30
0.0
  3
*Paper_Space0
  1

  0
ENDBLK
  5
25
330
23
100
AcDbEntity
  8
0
100
AcDbBlockEnd
  0
ENDSEC
  0
SECTION
  2
ENTITIES
  0
LINE
  5
2FC
330
1F
100
AcDbEntity
  8
1
  6
CONTINUOUS
370
50
 62
4
100
AcDbLine
 10
13.25
 20
0.0
 30
0.0
 11
13.249949
 21
0.00504
 31
0.0
  0
LINE
  5
2FD
330
1F
100
AcDbEntity
  8
1
  6
CONTINUOUS
370
50
 62
4
100
AcDbLine
 10
13.249949
 20
0.00504
 30
0.0
 11
13.249798
 21
0.010062
 31
0.0
  0
LINE
  5
2FE
330
1F
100
AcDbEntity
  8
1
  6
CONTINUOUS
370
50
 62
4
100
AcDbLine
 10
13.249798
 20
0.010062
 30
0.0
 11
13.249546
 21
0.015069
 31
0.0
  0
LINE
  5
2FF
330
1F
100
AcDbEntity
  8
1
  6
CONTINUOUS
370
50
 62
4
100
AcDbLine
 10
13.249546
 20
0.015069
 30
0.0
 11
13.249196
 21
0.020063
 31
0.0
  0
LINE
  5
300
330
1F
100
AcDbEntity
  8
1
  6
CONTINUOUS
370
50
 62
4
100
AcDbLine
 10
13.249196
 20
0.020063
 30
0.0
 11
13.248749
 21
0.025047
 31
0.0
  0
LINE
  5
301
330
1F
100
AcDbEntity
  8
1
  6
CONTINUOUS
370
50
 62
4
100
AcDbLine
 10
13.248749
 20
0.025047
 30
0.0
 11
13.248203
 21
0.030025
 31
0.0
  0
LINE
  5
302
330
1F
100
AcDbEntity
  8
1
  6
CONTINUOUS
370
50
 62
4
100
AcDbLine
 10
13.248203
 20
0.030025
 30
0.0
 11
13.247561
 21
0.035
 31
0.0
  0
LINE
  5
303
330
1F
100
AcDbEntity
  8
1
  6
CONTINUOUS
370
50
 62
4
100
AcDbLine
 10
13.245495
 20
0.252087
 30
0.0
 11
13.231618
 21
0.26609
 31
0.0
  0
LINE
  5
304
330
1F
100
AcDbEntity
  8
1
  6
CONTINUOUS
370
50
 62
4
100
AcDbLine
 10
13.231618
 20
0.26609
 30
0.0
 11
13.21701
 21
0.280817
 31
0.0
  0
LINE
  5
305
330
1F
100
AcDbEntity
  8
1
  6
CONTINUOUS
370
50
 62
4
100
AcDbLine
 10
13.21701
 20
0.280817
 30
0.0
 11
13.201612
 21
0.296327
 31
0.0
  0
LINE
  5
306
330
1F
100
AcDbEntity
  8
1
  6
CONTINUOUS
370
50
 62
4
100
AcDbLine
 10
13.201612
 20
0.296327
 30
0.0
 11
13.185362
 21
0.312686
 31
0.0
  0
LINE
  5
307
330
1F
100
AcDbEntity
  8
1
  6
CONTINUOUS
370
50
 62
4
100
AcDbLine
 10
13.185362
 20
0.312686
 30
0.0
 11
13.168184
 21
0.329965
 31
0.0
  0
LINE
  5
308
330
1F
100
AcDbEntity
  8
1
  6
CONTINUOUS
370
50
 62
4
100
AcDbLine
 10
13.168184
 20
0.329965
 30
0.0
 11
13.15
 21
0.348246
 31
0.0
  0
LINE
  5
309
330
1F
100
AcDbEntity
  8
1
  6
CONTINUOUS
370
50
 62
4
100
AcDbLine
 10
13.157711
 20
0.301591
 30
0.0
 11
13.150007
 21
0.306616
 31
0.0
  0
LINE
  5
30A
330
1F
100
AcDbEntity
  8
1
  6
CONTINUOUS
370
50
 62
4
100
AcDbLine
 10
13.165273
 20
0.296764
 30
0.0
 11
13.157711
 21
0.301591
 31
0.0
  0
LINE
  5
30B
330
1F
100
AcDbEntity
  8
1
  6
CONTINUOUS
370
50
 62
4
100
AcDbLine
 10
3.197689
 20
-0.140143
 30
0.0
 11
3.189378
 21
-0.134917
 31
0.0
  0
LINE
  5
30C
330
1F
100
AcDbEntity
  8
1
  6
CONTINUOUS
370
50
 62
4
100
AcDbLine
 10
3.197689
 20
-0.140143
 30
0.0
 11
3.189378
 21
-0.134917
 31
0.0
  0
LINE
  5
30D
330
1F
100
AcDbEntity
  8
1
  6
CONTINUOUS
370
50
 62
4
100
AcDbLine
 10
13.172669
 20
0.292142
 30
0.0
 11
13.165273
 21
0.296764
 31
0.0
  0
LINE
  5
30E
330
1F
100
AcDbEntity
  8
1
  6
CONTINUOUS
370
50
 62
4
100
AcDbLine
 10
13.179877
 20
0.287733
 30
0.0
 11
13.172669
 21
0.292142
 31
0.0
  0
LINE
  5
30F
330
1F
100
AcDbEntity
  8
1
  6
CONTINUOUS
370
50
 62
4
100
AcDbLine
 10
13.186873
 20
0.283545
 30
0.0
 11
13.179877
 21
0.287733
 31
0.0
  0
LINE
  5
310
330
1F
100
AcDbEntity
  8
1
  6
CONTINUOUS
370
50
 62
4
100
AcDbLine
 10
3.206171
 20
-0.14518
 30
0.0
 11
3.197689
 21
-0.140143
 31
0.0
  0
LINE
  5
311
330
1F
100
AcDbEntity
  8
1
  6
CONTINUOUS
370
50
 62
4
100
AcDbLine
 10
13.193633
 20
0.279587
 30
0.0
 11
13.186873
 21
0.283545
 31
0.0
  0
LINE
  5
312
330
1F
100
AcDbEntity
  8
1
  6
CONTINUOUS
370
50
 62
4
100
AcDbLine
 10
3.19765
 20
-0.317855
 30
0.0
 11
3.189378
 21
-0.31305
 31
0.0
  0
LINE
  5
313
330
1F
100
AcDbEntity
  8
1
  6
CONTINUOUS
370
50
 62
4
100
AcDbLine
 10
3.19765
 20
-0.317855
 30
0.0
 11
3.189378
 21
-0.31305
 31
0.0
  0
LINE
  5
314
330
1F
100
AcDbEntity
  8
1
  6
CONTINUOUS
370
50
 62
4
100
AcDbLine
 10
3.214571
 20
-0.327681
 30
0.0
 11
3.206047
 21
-0.322731
 31
0.0
  0
LINE
  5
315
330
1F
100
AcDbEntity
  8
1
  6
CONTINUOUS
370
50
 62
4
100
AcDbLine
 10
3.214571
 20
-0.327681
 30
0.0
 11
3.206047
 21
-0.322731
 31
0.0
  0
LINE
  5
316
330
1F
100
AcDbEntity
  8
1
  6
CONTINUOUS
370
50
 62
4
100
AcDbLine
 10
3.206047
 20
-0.322731
 30
0.0
 11
3.19765
 21
-0.317855
 31
0.0
  0
LINE
  5
317
330
1F
100
AcDbEntity
  8
1
  6
CONTINUOUS
370
50
 62
4
100
AcDbLine
 10
3.206047
 20
-0.322731
 30
0.0
 11
3.19765
 21
-0.317855
 31
0.0
  0
LINE
  5
318
330
1F
100
AcDbEntity
  8
1
  6
CONTINUOUS
370
50
 62
4
100
AcDbLine
 10
3.223226
 20
-0.332706
 30
0.0
 11
3.214571
 21
-0.327681
 31
0.0
  0
LINE
  5
319
330
1F
100
AcDbEntity
  8
1
  6
CONTINUOUS
370
50
 62
4
100
AcDbLine
 10
3.223226
 20
-0.332706
 30
0.0
 11
3.214571
 21
-0.327681
 31
0.0
  0
LINE
  5
31A
330
1F
100
AcDbEntity
  8
1
  6
CONTINUOUS
370
50
 62
4
100
AcDbLine
 10
3.232013
 20
-0.337807
 30
0.0
 11
3.223226
 21
-0.332706
 31
0.0
  0
LINE
  5
31B
330
1F
100
AcDbEntity
  8
1
  6
CONTINUOUS
370
50
 62
4
100
AcDbLine
 10
3.232013
 20
-0.337807
 30
0.0
 11
3.223226
 21
-0.332706
 31
0.0
  0
LINE
  5
31C
330
1F
100
AcDbEntity
  8
1
  6
CONTINUOUS
370
50
 62
4
100
AcDbLine
 10
3.25
 20
-0.348246
 30
0.0
 11
3.240937
 21
-0.342986
 31
0.0
  0
LINE
  5
31D
330
1F
100
AcDbEntity
  8
1
  6
CONTINUOUS
370
50
 62
4
100
AcDbLine
 10
3.25
 20
-0.348246
 30
0.0
 11
3.240937
 21
-0.342986
 31
0.0
  0
LINE
  5
31E
330
1F
100
AcDbEntity
  8
1
  6
CONTINUOUS
370
50
 62
4
100
AcDbLine
 10
3.240937
 20
-0.342986
 30
0.0
 11
3.232013
 21
-0.337807
 31
0.0
  0
LINE
  5
31F
330
1F
100
AcDbEntity
  8
1
  6
CONTINUOUS
370
50
 62
4
100
AcDbLine
 10
3.240937
 20
-0.342986
 30
0.0
 11
3.232013
 21
-0.337807
 31
0.0
  0
LINE
  5
320
330
1F
100
AcDbEntity
  8
1
  6
CONTINUOUS
370
50
 62
4
100
AcDbLine
 10
3.20623
 20
-0.145085
 30
0.0
 11
3.197689
 21
-0.140143
 31
0.0
  0
LINE
  5
321
330
1F
100
AcDbEntity
  8
1
  6
CONTINUOUS
370
50
 62
4
100
AcDbLine
 10
2.186455
 20
0.315
 30
0.0
 11
1.0
 21
1.0
 31
0.0
  0
LINE
  5
322
330
1F
100
AcDbEntity
  8
1
  6
CONTINUOUS
370
50
 62
4
100
AcDbLine
 10
3.214816
 20
-0.15002
 30
0.0
 11
3.20623
 21
-0.145085
 31
0.0
  0
LINE
  5
323
330
1F
100
AcDbEntity
  8
1
  6
CONTINUOUS
370
50
 62
4
100
AcDbLine
 10
3.214759
 20
-0.150114
 30
0.0
 11
3.206171
 21
-0.14518
 31
0.0
  0
LINE
  5
324
330
1F
100
AcDbEntity
  8
1
  6
CONTINUOUS
370
50
 62
4
100
AcDbLine
 10
13.200133
 20
0.275866
 30
0.0
 11
13.193633
 21
0.279587
 31
0.0
  0
LINE
  5
325
330
1F
100
AcDbEntity
  8
1
  6
CONTINUOUS
370
50
 62
4
100
AcDbLine
 10
3.223444
 20
-0.154945
 30
0.0
 11
3.214816
 21
-0.15002
 31
0.0
  0
LINE
  5
326
330
1F
100
AcDbEntity
  8
1
  6
CONTINUOUS
370
50
 62
4
100
AcDbLine
 10
13.206498
 20
0.272308
 30
0.0
 11
13.200133
 21
0.275866
 31
0.0
  0
LINE
  5
327
330
1F
100
AcDbEntity
  8
1
  6
CONTINUOUS
370
50
 62
4
100
AcDbLine
 10
3.223444
 20
-0.154945
 30
0.0
 11
3.214759
 21
-0.150114
 31
0.0
  0
LINE
  5
328
330
1F
100
AcDbEntity
  8
1
  6
CONTINUOUS
370
50
 62
4
100
AcDbLine
 10
13.212776
 20
0.268875
 30
0.0
 11
13.206498
 21
0.272308
 31
0.0
  0
LINE
  5
329
330
1F
100
AcDbEntity
  8
1
  6
CONTINUOUS
370
50
 62
4
100
AcDbLine
 10
3.232215
 20
-0.159676
 30
0.0
 11
3.223444
 21
-0.154945
 31
0.0
  0
LINE
  5
32A
330
1F
100
AcDbEntity
  8
1
  6
CONTINUOUS
370
50
 62
4
100
AcDbLine
 10
13.218868
 20
0.265611
 30
0.0
 11
13.212776
 21
0.268875
 31
0.0
  0
LINE
  5
32B
330
1F
100
AcDbEntity
  8
1
  6
CONTINUOUS
370
50
 62
4
100
AcDbLine
 10
3.241063
 20
-0.164309
 30
0.0
 11
3.232258
 21
-0.159603
 31
0.0
  0
LINE
  5
32C
330
1F
100
AcDbEntity
  8
1
  6
CONTINUOUS
370
50
 62
4
100
AcDbLine
 10
3.232258
 20
-0.159603
 30
0.0
 11
3.223444
 21
-0.154945
 31
0.0
  0
LINE
  5
32D
330
1F
100
AcDbEntity
  8
1
  6
CONTINUOUS
370
50
 62
4
100
AcDbLine
 10
13.224677
 20
0.262559
 30
0.0
 11
13.218868
 21
0.265611
 31
0.0
  0
LINE
  5
32E
330
1F
100
AcDbEntity
  8
1
  6
CONTINUOUS
370
50
 62
4
100
AcDbLine
 10
3.241063
 20
-0.164309
 30
0.0
 11
3.232215
 21
-0.159676
 31
0.0
  0
LINE
  5
32F
330
1F
100
AcDbEntity
  8
1
  6
CONTINUOUS
370
50
 62
4
100
AcDbLine
 10
13.230103
 20
0.259762
 30
0.0
 11
13.224677
 21
0.262559
 31
0.0
  0
LINE
  5
330
330
1F
100
AcDbEntity
  8
1
  6
CONTINUOUS
370
50
 62
4
100
AcDbLine
 10
3.249977
 20
-0.168847
 30
0.0
 11
3.241063
 21
-0.164309
 31
0.0
  0
LINE
  5
331
330
1F
100
AcDbEntity
  8
1
  6
CONTINUOUS
370
50
 62
4
100
AcDbLine
 10
13.235048
 20
0.257263
 30
0.0
 11
13.230103
 21
0.259762
 31
0.0
  0
LINE
  5
332
330
1F
100
AcDbEntity
  8
1
  6
CONTINUOUS
370
50
 62
4
100
AcDbLine
 10
3.25
 20
-0.168806
 30
0.0
 11
3.241063
 21
-0.164309
 31
0.0
  0
LINE
  5
333
330
1F
100
AcDbEntity
  8
1
  6
CONTINUOUS
370
50
 62
4
100
AcDbLine
 10
13.2394
 20
0.255103
 30
0.0
 11
13.235048
 21
0.257263
 31
0.0
  0
LINE
  5
334
330
1F
100
AcDbEntity
  8
1
  6
CONTINUOUS
370
50
 62
4
100
AcDbLine
 10
13.243076
 20
0.253304
 30
0.0
 11
13.2394
 21
0.255103
 31
0.0
  0
LINE
  5
335
330
1F
100
AcDbEntity
  8
1
  6
CONTINUOUS
370
50
 62
4
100
AcDbLine
 10
13.246027
 20
0.25188
 30
0.0
 11
13.243076
 21
0.253304
 31
0.0
  0
LINE
  5
336
330
1F
100
AcDbEntity
  8
1
  6
CONTINUOUS
370
50
 62
4
100
AcDbLine
 10
13.248199
 20
0.250845
 30
0.0
 11
13.246027
 21
0.25188
 31
0.0
  0
LINE
  5
337
330
1F
100
AcDbEntity
  8
1
  6
CONTINUOUS
370
50
 62
4
100
AcDbLine
 10
13.24954
 20
0.250214
 30
0.0
 11
13.248199
 21
0.250845
 31
0.0
  0
LINE
  5
338
330
1F
100
AcDbEntity
  8
1
  6
CONTINUOUS
370
50
 62
4
100
AcDbLine
 10
13.25
 20
0.25
 30
0.0
 11
13.24954
 21
0.250214
 31
0.0
  0
LINE
  5
339
330
1F
100
AcDbEntity
  8
1
  6
CONTINUOUS
370
50
 62
4
100
AcDbLine
 10
0.0
 20
-1.0
 30
0.0
 11
1.0
 21
-1.0
 31
0.0
  0
LINE
  5
33A
330
1F
100
AcDbEntity
  8
1
  6
CONTINUOUS
370
50
 62
4
100
AcDbLine
 10
3.25
 20
-0.348246
 30
0.0
 11
13.15
 21
-0.348246
 31
0.0
  0
LINE
  5
33B
330
1F
100
AcDbEntity
  8
1
  6
CONTINUOUS
370
50
 62
4
100
AcDbLine
 10
2.186455
 20
-0.315
 30
0.0
 11
3.189378
 21
-0.315
 31
0.0
  0
LINE
  5
33C
330
1F
100
AcDbEntity
  8
1
  6
CONTINUOUS
370
50
 62
4
100
AcDbLine
 10
13.247561
 20
-0.25
 30
0.0
 11
13.25
 21
-0.25
 31
0.0
  0
LINE
  5
33D
330
1F
100
AcDbEntity
  8
1
  6
CONTINUOUS
370
50
 62
4
100
AcDbLine
 10
3.25
 20
-0.168806
 30
0.0
 11
13.15
 21
-0.168806
 31
0.0
  0
LINE
  5
33E
330
1F
100
AcDbEntity
  8
1
  6
CONTINUOUS
370
50
 62
4
100
AcDbLine
 10
3.189378
 20
0.0
 30
0.0
 11
13.25
 21
0.0
 31
0.0
  0
LINE
  5
33F
330
1F
100
AcDbEntity
  8
1
  6
CONTINUOUS
370
50
 62
4
100
AcDbLine
 10
3.189378
 20
0.035
 30
0.0
 11
13.247561
 21
0.035
 31
0.0
  0
LINE
  5
340
330
1F
100
AcDbEntity
  8
1
  6
CONTINUOUS
370
50
 62
4
100
AcDbLine
 10
3.25
 20
0.306601
 30
0.0
 11
13.15
 21
0.306601
 31
0.0
  0
LINE
  5
341
330
1F
100
AcDbEntity
  8
1
  6
CONTINUOUS
370
50
 62
4
100
AcDbLine
 10
2.186455
 20
0.315
 30
0.0
 11
3.189378
 21
0.315
 31
0.0
  0
LINE
  5
342
330
1F
100
AcDbEntity
  8
1
  6
CONTINUOUS
370
50
 62
4
100
AcDbLine
 10
6.868339
 20
0.348246
 30
0.0
 11
13.15
 21
0.348246
 31
0.0
  0
LINE
  5
343
330
1F
100
AcDbEntity
  8
1
  6
CONTINUOUS
370
50
 62
4
100
AcDbLine
 10
0.0
 20
1.0
 30
0.0
 11
1.0
 21
1.0
 31
0.0
  0
LINE
  5
344
330
1F
100
AcDbEntity
  8
1
  6
CONTINUOUS
370
50
 62
4
100
AcDbLine
 10
3.189378
 20
0.284644
 30
0.0
 11
3.197748
 21
0.287538
 31
0.0
  0
LINE
  5
345
330
1F
100
AcDbEntity
  8
1
  6
CONTINUOUS
370
50
 62
4
100
AcDbLine
 10
3.197689
 20
0.287547
 30
0.0
 11
3.20623
 21
0.290516
 31
0.0
  0
LINE
  5
346
330
1F
100
AcDbEntity
  8
1
  6
CONTINUOUS
370
50
 62
4
100
AcDbLine
 10
3.189378
 20
0.284644
 30
0.0
 11
3.197689
 21
0.287547
 31
0.0
  0
LINE
  5
347
330
1F
100
AcDbEntity
  8
1
  6
CONTINUOUS
370
50
 62
4
100
AcDbLine
 10
3.197748
 20
0.287538
 30
0.0
 11
3.20623
 21
0.290516
 31
0.0
  0
LINE
  5
348
330
1F
100
AcDbEntity
  8
1
  6
CONTINUOUS
370
50
 62
4
100
AcDbLine
 10
3.20623
 20
0.290516
 30
0.0
 11
3.214816
 21
0.293576
 31
0.0
  0
LINE
  5
349
330
1F
100
AcDbEntity
  8
1
  6
CONTINUOUS
370
50
 62
4
100
AcDbLine
 10
3.214759
 20
0.293588
 30
0.0
 11
3.223495
 21
0.296717
 31
0.0
  0
LINE
  5
34A
330
1F
100
AcDbEntity
  8
1
  6
CONTINUOUS
370
50
 62
4
100
AcDbLine
 10
3.20623
 20
0.290516
 30
0.0
 11
3.214759
 21
0.293588
 31
0.0
  0
LINE
  5
34B
330
1F
100
AcDbEntity
  8
1
  6
CONTINUOUS
370
50
 62
4
100
AcDbLine
 10
3.223444
 20
0.296729
 30
0.0
 11
3.232258
 21
0.299936
 31
0.0
  0
LINE
  5
34C
330
1F
100
AcDbEntity
  8
1
  6
CONTINUOUS
370
50
 62
4
100
AcDbLine
 10
3.214816
 20
0.293576
 30
0.0
 11
3.223444
 21
0.296729
 31
0.0
  0
LINE
  5
34D
330
1F
100
AcDbEntity
  8
1
  6
CONTINUOUS
370
50
 62
4
100
AcDbLine
 10
3.223495
 20
0.296717
 30
0.0
 11
3.232258
 21
0.299936
 31
0.0
  0
LINE
  5
34E
330
1F
100
AcDbEntity
  8
1
  6
CONTINUOUS
370
50
 62
4
100
AcDbLine
 10
3.232258
 20
0.299936
 30
0.0
 11
3.241096
 21
0.303232
 31
0.0
  0
LINE
  5
34F
330
1F
100
AcDbEntity
  8
1
  6
CONTINUOUS
370
50
 62
4
100
AcDbLine
 10
3.232258
 20
0.299936
 30
0.0
 11
3.241063
 21
0.303241
 31
0.0
  0
LINE
  5
350
330
1F
100
AcDbEntity
  8
1
  6
CONTINUOUS
370
50
 62
4
100
AcDbLine
 10
3.241063
 20
0.303241
 30
0.0
 11
3.249977
 21
0.306609
 31
0.0
  0
LINE
  5
351
330
1F
100
AcDbEntity
  8
1
  6
CONTINUOUS
370
50
 62
4
100
AcDbLine
 10
3.241096
 20
0.303232
 30
0.0
 11
3.25
 21
0.306601
 31
0.0
  0
LINE
  5
352
330
1F
100
AcDbEntity
  8
1
  6
CONTINUOUS
370
50
 62
4
100
AcDbLine
 10
13.249868
 20
-0.250061
 30
0.0
 11
13.25
 21
-0.25
 31
0.0
  0
LINE
  5
353
330
1F
100
AcDbEntity
  8
1
  6
CONTINUOUS
370
50
 62
4
100
AcDbLine
 10
13.249481
 20
-0.250241
 30
0.0
 11
13.249868
 21
-0.250061
 31
0.0
  0
LINE
  5
354
330
1F
100
AcDbEntity
  8
1
  6
CONTINUOUS
370
50
 62
4
100
AcDbLine
 10
13.248846
 20
-0.25054
 30
0.0
 11
13.249481
 21
-0.250241
 31
0.0
  0
LINE
  5
355
330
1F
100
AcDbEntity
  8
1
  6
CONTINUOUS
370
50
 62
4
100
AcDbLine
 10
13.24797
 20
-0.250954
 30
0.0
 11
13.248846
 21
-0.25054
 31
0.0
  0
LINE
  5
356
330
1F
100
AcDbEntity
  8
1
  6
CONTINUOUS
370
50
 62
4
100
AcDbLine
 10
13.246861
 20
-0.251481
 30
0.0
 11
13.24797
 21
-0.250954
 31
0.0
  0
LINE
  5
357
330
1F
100
AcDbEntity
  8
1
  6
CONTINUOUS
370
50
 62
4
100
AcDbLine
 10
13.245527
 20
-0.25212
 30
0.0
 11
13.246861
 21
-0.251481
 31
0.0
  0
LINE
  5
358
330
1F
100
AcDbEntity
  8
1
  6
CONTINUOUS
370
50
 62
4
100
AcDbLine
 10
1.0
 20
-1.0
 30
0.0
 11
2.186455
 21
-0.315
 31
0.0
  0
LINE
  5
359
330
1F
100
AcDbEntity
  8
1
  6
CONTINUOUS
370
50
 62
4
100
AcDbLine
 10
3.19053
 20
0.313719
 30
0.0
 11
3.191685
 21
0.314389
 31
0.0
  0
LINE
  5
35A
330
1F
100
AcDbEntity
  8
1
  6
CONTINUOUS
370
50
 62
4
100
AcDbLine
 10
3.19053
 20
0.313719
 30
0.0
 11
3.191685
 21
0.314389
 31
0.0
  0
LINE
  5
35B
330
1F
100
AcDbEntity
  8
1
  6
CONTINUOUS
370
50
 62
4
100
AcDbLine
 10
3.189378
 20
0.31305
 30
0.0
 11
3.19053
 21
0.313719
 31
0.0
  0
LINE
  5
35C
330
1F
100
AcDbEntity
  8
1
  6
CONTINUOUS
370
50
 62
4
100
AcDbLine
 10
3.189378
 20
0.31305
 30
0.0
 11
3.19053
 21
0.313719
 31
0.0
  0
LINE
  5
35D
330
1F
100
AcDbEntity
  8
1
  6
CONTINUOUS
370
50
 62
4
100
AcDbLine
 10
3.195163
 20
0.31641
 30
0.0
 11
3.196327
 21
0.317086
 31
0.0
  0
LINE
  5
35E
330
1F
100
AcDbEntity
  8
1
  6
CONTINUOUS
370
50
 62
4
100
AcDbLine
 10
3.195163
 20
0.31641
 30
0.0
 11
3.196327
 21
0.317086
 31
0.0
  0
LINE
  5
35F
330
1F
100
AcDbEntity
  8
1
  6
CONTINUOUS
370
50
 62
4
100
AcDbLine
 10
3.191685
 20
0.314389
 30
0.0
 11
3.192842
 21
0.315061
 31
0.0
  0
LINE
  5
360
330
1F
100
AcDbEntity
  8
1
  6
CONTINUOUS
370
50
 62
4
100
AcDbLine
 10
3.191685
 20
0.314389
 30
0.0
 11
3.192842
 21
0.315061
 31
0.0
  0
LINE
  5
361
330
1F
100
AcDbEntity
  8
1
  6
CONTINUOUS
370
50
 62
4
100
AcDbLine
 10
3.194001
 20
0.315735
 30
0.0
 11
3.195163
 21
0.31641
 31
0.0
  0
LINE
  5
362
330
1F
100
AcDbEntity
  8
1
  6
CONTINUOUS
370
50
 62
4
100
AcDbLine
 10
3.194001
 20
0.315735
 30
0.0
 11
3.195163
 21
0.31641
 31
0.0
  0
LINE
  5
363
330
1F
100
AcDbEntity
  8
1
  6
CONTINUOUS
370
50
 62
4
100
AcDbLine
 10
3.192842
 20
0.315061
 30
0.0
 11
3.194001
 21
0.315735
 31
0.0
  0
LINE
  5
364
330
1F
100
AcDbEntity
  8
1
  6
CONTINUOUS
370
50
 62
4
100
AcDbLine
 10
3.192842
 20
0.315061
 30
0.0
 11
3.194001
 21
0.315735
 31
0.0
  0
LINE
  5
365
330
1F
100
AcDbEntity
  8
1
  6
CONTINUOUS
370
50
 62
4
100
AcDbLine
 10
13.150007
 20
-0.168804
 30
0.0
 11
13.157711
 21
-0.161933
 31
0.0
  0
LINE
  5
366
330
1F
100
AcDbEntity
  8
1
  6
CONTINUOUS
370
50
 62
4
100
AcDbLine
 10
13.157711
 20
-0.161933
 30
0.0
 11
13.165273
 21
-0.154896
 31
0.0
  0
LINE
  5
367
330
1F
100
AcDbEntity
  8
1
  6
CONTINUOUS
370
50
 62
4
100
AcDbLine
 10
13.165273
 20
-0.154896
 30
0.0
 11
13.172669
 21
-0.147703
 31
0.0
  0
LINE
  5
368
330
1F
100
AcDbEntity
  8
1
  6
CONTINUOUS
370
50
 62
4
100
AcDbLine
 10
13.15
 20
-0.348246
 30
0.0
 11
13.16604
 21
-0.332121
 31
0.0
  0
LINE
  5
369
330
1F
100
AcDbEntity
  8
1
  6
CONTINUOUS
370
50
 62
4
100
AcDbLine
 10
13.16604
 20
-0.332121
 30
0.0
 11
13.181294
 21
-0.316778
 31
0.0
  0
LINE
  5
36A
330
1F
100
AcDbEntity
  8
1
  6
CONTINUOUS
370
50
 62
4
100
AcDbLine
 10
13.181294
 20
-0.316778
 30
0.0
 11
13.195819
 21
-0.302161
 31
0.0
  0
LINE
  5
36B
330
1F
100
AcDbEntity
  8
1
  6
CONTINUOUS
370
50
 62
4
100
AcDbLine
 10
13.195819
 20
-0.302161
 30
0.0
 11
13.209663
 21
-0.288219
 31
0.0
  0
LINE
  5
36C
330
1F
100
AcDbEntity
  8
1
  6
CONTINUOUS
370
50
 62
4
100
AcDbLine
 10
13.209663
 20
-0.288219
 30
0.0
 11
13.222876
 21
-0.274906
 31
0.0
  0
LINE
  5
36D
330
1F
100
AcDbEntity
  8
1
  6
CONTINUOUS
370
50
 62
4
100
AcDbLine
 10
13.222876
 20
-0.274906
 30
0.0
 11
13.235496
 21
-0.262179
 31
0.0
  0
LINE
  5
36E
330
1F
100
AcDbEntity
  8
1
  6
CONTINUOUS
370
50
 62
4
100
AcDbLine
 10
13.235496
 20
-0.262179
 30
0.0
 11
13.247561
 21
-0.25
 31
0.0
  0
LINE
  5
36F
330
1F
100
AcDbEntity
  8
1
  6
CONTINUOUS
370
50
 62
4
100
AcDbLine
 10
13.172669
 20
-0.147703
 30
0.0
 11
13.179877
 21
-0.140362
 31
0.0
  0
LINE
  5
370
330
1F
100
AcDbEntity
  8
1
  6
CONTINUOUS
370
50
 62
4
100
AcDbLine
 10
13.179877
 20
-0.140362
 30
0.0
 11
13.186873
 21
-0.132883
 31
0.0
  0
LINE
  5
371
330
1F
100
AcDbEntity
  8
1
  6
CONTINUOUS
370
50
 62
4
100
AcDbLine
 10
13.186873
 20
-0.132883
 30
0.0
 11
13.193633
 21
-0.125276
 31
0.0
  0
LINE
  5
372
330
1F
100
AcDbEntity
  8
1
  6
CONTINUOUS
370
50
 62
4
100
AcDbLine
 10
13.193633
 20
-0.125276
 30
0.0
 11
13.200133
 21
-0.117549
 31
0.0
  0
LINE
  5
373
330
1F
100
AcDbEntity
  8
1
  6
CONTINUOUS
370
50
 62
4
100
AcDbLine
 10
13.200133
 20
-0.117549
 30
0.0
 11
13.206498
 21
-0.109516
 31
0.0
  0
LINE
  5
374
330
1F
100
AcDbEntity
  8
1
  6
CONTINUOUS
370
50
 62
4
100
AcDbLine
 10
13.206498
 20
-0.109516
 30
0.0
 11
13.212776
 21
-0.101037
 31
0.0
  0
LINE
  5
375
330
1F
100
AcDbEntity
  8
1
  6
CONTINUOUS
370
50
 62
4
100
AcDbLine
 10
13.212776
 20
-0.101037
 30
0.0
 11
13.218868
 21
-0.092149
 31
0.0
  0
LINE
  5
376
330
1F
100
AcDbEntity
  8
1
  6
CONTINUOUS
370
50
 62
4
100
AcDbLine
 10
13.218868
 20
-0.092149
 30
0.0
 11
13.224677
 21
-0.082885
 31
0.0
  0
LINE
  5
377
330
1F
100
AcDbEntity
  8
1
  6
CONTINUOUS
370
50
 62
4
100
AcDbLine
 10
13.224677
 20
-0.082885
 30
0.0
 11
13.230103
 21
-0.073279
 31
0.0
  0
LINE
  5
378
330
1F
100
AcDbEntity
  8
1
  6
CONTINUOUS
370
50
 62
4
100
AcDbLine
 10
13.230103
 20
-0.073279
 30
0.0
 11
13.235048
 21
-0.063366
 31
0.0
  0
LINE
  5
379
330
1F
100
AcDbEntity
  8
1
  6
CONTINUOUS
370
50
 62
4
100
AcDbLine
 10
13.235048
 20
-0.063366
 30
0.0
 11
13.2394
 21
-0.053175
 31
0.0
  0
LINE
  5
37A
330
1F
100
AcDbEntity
  8
1
  6
CONTINUOUS
370
50
 62
4
100
AcDbLine
 10
13.2394
 20
-0.053175
 30
0.0
 11
13.243076
 21
-0.042753
 31
0.0
  0
LINE
  5
37B
330
1F
100
AcDbEntity
  8
1
  6
CONTINUOUS
370
50
 62
4
100
AcDbLine
 10
13.243076
 20
-0.042753
 30
0.0
 11
13.246027
 21
-0.032164
 31
0.0
  0
LINE
  5
37C
330
1F
100
AcDbEntity
  8
1
  6
CONTINUOUS
370
50
 62
4
100
AcDbLine
 10
13.246027
 20
-0.032164
 30
0.0
 11
13.248199
 21
-0.021469
 31
0.0
  0
LINE
  5
37D
330
1F
100
AcDbEntity
  8
1
  6
CONTINUOUS
370
50
 62
4
100
AcDbLine
 10
13.248199
 20
-0.021469
 30
0.0
 11
13.24954
 21
-0.010732
 31
0.0
  0
LINE
  5
37E
330
1F
100
AcDbEntity
  8
1
  6
CONTINUOUS
370
50
 62
4
100
AcDbLine
 10
13.24954
 20
-0.010732
 30
0.0
 11
13.25
 21
-0.000015
 31
0.0
  0
LINE
  5
37F
330
1F
100
AcDbEntity
  8
1
  6
CONTINUOUS
370
50
 62
4
100
AcDbLine
 10
0.0
 20
-1.0
 30
0.0
 11
0.0
 21
1.0
 31
0.0
  0
LINE
  5
380
330
1F
100
AcDbEntity
  8
1
  6
CONTINUOUS
370
50
 62
4
100
AcDbLine
 10
1.0
 20
-1.0
 30
0.0
 11
1.0
 21
1.0
 31
0.0
  0
LINE
  5
381
330
1F
100
AcDbEntity
  8
1
  6
CONTINUOUS
370
50
 62
4
100
AcDbLine
 10
2.186455
 20
-0.315
 30
0.0
 11
2.186455
 21
0.315
 31
0.0
  0
LINE
  5
382
330
1F
100
AcDbEntity
  8
1
  6
CONTINUOUS
370
50
 62
4
100
AcDbLine
 10
3.189378
 20
-0.315
 30
0.0
 11
3.189378
 21
0.315
 31
0.0
  0
LINE
  5
383
330
1F
100
AcDbEntity
  8
1
  6
CONTINUOUS
370
50
 62
4
100
AcDbLine
 10
3.25
 20
-0.348246
 30
0.0
 11
3.25
 21
0.306601
 31
0.0
  0
LINE
  5
384
330
1F
100
AcDbEntity
  8
1
  6
CONTINUOUS
370
50
 62
4
100
AcDbLine
 10
13.15
 20
-0.348246
 30
0.0
 11
13.15
 21
-0.168806
 31
0.0
  0
LINE
  5
385
330
1F
100
AcDbEntity
  8
1
  6
CONTINUOUS
370
50
 62
4
100
AcDbLine
 10
13.15
 20
0.035
 30
0.0
 11
13.15
 21
0.306601
 31
0.0
  0
LINE
  5
386
330
1F
100
AcDbEntity
  8
1
  6
CONTINUOUS
370
50
 62
4
100
AcDbLine
 10
13.25
 20
-0.25
 30
0.0
 11
13.25
 21
0.25
 31
0.0
  0
LINE
  5
387
330
1F
100
AcDbEntity
  8
SK1
  6
CONTINUOUS
370
50
 62
4
100
AcDbLine
 10
0.0
 20
1.0
 30
0.0
 11
-36.65
 21
1.0
 31
0.0
  0
LINE
  5
388
330
1F
100
AcDbEntity
  8
SK1
  6
CONTINUOUS
370
50
 62
4
100
AcDbLine
 10
-36.65
 20
1.0
 30
0.0
 11
-36.75
 21
0.9
 31
0.0
  0
LINE
  5
389
330
1F
100
AcDbEntity
  8
SK1
  6
CONTINUOUS
370
50
 62
4
100
AcDbLine
 10
-36.75
 20
0.9
 30
0.0
 11
-36.75
 21
-0.9
 31
0.0
  0
LINE
  5
38A
330
1F
100
AcDbEntity
  8
SK1
  6
CONTINUOUS
370
50
 62
4
100
AcDbLine
 10
-36.75
 20
-0.9
 30
0.0
 11
-36.65
 21
-1.0
 31
0.0
  0
LINE
  5
38B
330
1F
100
AcDbEntity
  8
SK1
  6
CONTINUOUS
370
50
 62
4
100
AcDbLine
 10
-36.65
 20
-1.0
 30
0.0
 11
0.0
 21
-1.0
 31
0.0
  0
LINE
  5
38C
330
1F
100
AcDbEntity
  8
NOCUT
  6
CONTINUOUS
370
25
 62
7
100
AcDbLine
 10
0.0
 20
0.0
 30
0.0
 11
0.0
 21
1.0
 31
0.0
  0
LINE
  5
38D
330
1F
100
AcDbEntity
  8
NOCUT
  6
CONTINUOUS
370
25
 62
7
100
AcDbLine
 10
0.0
 20
1.0
 30
0.0
 11
1.0
 21
1.0
 31
0.0
  0
LINE
  5
38E
330
1F
100
AcDbEntity
  8
NOCUT
  6
CONTINUOUS
370
25
 62
7
100
AcDbLine
 10
1.0
 20
0.0
 30
0.0
 11
0.0
 21
0.0
 31
0.0
  0
LINE
  5
38F
330
1F
100
AcDbEntity
  8
SK2
  6
CONTINUOUS
370
25
 62
7
100
AcDbLine
 10
-46.7500002
 20
-1.000001
 30
0.0
 11
-47.75000000000009
 21
-1.000001
 31
0.0
  0
LINE
  5
390
330
1F
100
AcDbEntity
  8
SK2
  6
CONTINUOUS
370
25
 62
7
100
AcDbLine
 10
-36.75
 20
-1.000001
 30
0.0
 11
-46.7499998
 21
-1.000001
 31
0.0
  0
LINE
  5
391
330
1F
100
AcDbEntity
  8
SK2
  6
CONTINUOUS
370
25
 62
7
100
AcDbLine
 10
-47.75
 20
0.9999999999999999
 30
0.0
 11
-36.75
 21
0.9999999999999999
 31
0.0
  0
LINE
  5
392
330
1F
100
AcDbEntity
  8
SK2
  6
CONTINUOUS
370
25
 62
7
100
AcDbLine
 10
-46.75
 20
-16.10625
 30
0.0
 11
-46.75
 21
11.0
 31
0.0
  0
LINE
  5
393
330
1F
100
AcDbEntity
  8
SK2
  6
CONTINUOUS
370
25
 62
7
100
AcDbLine
 10
-46.75
 20
-1.0
 30
0.0
 11
-45.75
 21
-6.0
 31
0.0
  0
LINE
  5
394
330
1F
100
AcDbEntity
  8
SK2
  6
CONTINUOUS
370
25
 62
7
100
AcDbLine
 10
-45.75
 20
-6.0
 30
0.0
 11
-47.75
 21
-6.0
 31
0.0
  0
LINE
  5
395
330
1F
100
AcDbEntity
  8
SK2
  6
CONTINUOUS
370
25
 62
7
100
AcDbLine
 10
-47.75
 20
-6.0
 30
0.0
 11
-46.75
 21
-1.0
 31
0.0
  0
LINE
  5
396
330
1F
100
AcDbEntity
  8
SK2
  6
CONTINUOUS
370
25
 62
7
100
AcDbLine
 10
-45.88082245892127
 20
-6.0
 30
0.0
 11
-45.77180374315355
 21
-5.890981284232282
 31
0.0
  0
LINE
  5
397
330
1F
100
AcDbEntity
  8
SK2
  6
CONTINUOUS
370
25
 62
7
100
AcDbLine
 10
-46.30508652763319
 20
-6.0
 30
0.0
 11
-45.8425144212722
 21
-5.537427893639013
 31
0.0
  0
LINE
  5
398
330
1F
100
AcDbEntity
  8
SK2
  6
CONTINUOUS
370
25
 62
7
100
AcDbLine
 10
-46.72935059634512
 20
-6.0
 30
0.0
 11
-45.91322509939086
 21
-5.183874503045743
 31
0.0
  0
LINE
  5
399
330
1F
100
AcDbEntity
  8
SK2
  6
CONTINUOUS
370
25
 62
7
100
AcDbLine
 10
-47.15361466505706
 20
-6.0
 30
0.0
 11
-45.98393577750952
 21
-4.830321112452459
 31
0.0
  0
LINE
  5
39A
330
1F
100
AcDbEntity
  8
SK2
  6
CONTINUOUS
370
25
 62
7
100
AcDbLine
 10
-47.57787873376898
 20
-6.0
 30
0.0
 11
-46.05464645562817
 21
-4.476767721859183
 31
0.0
  0
LINE
  5
39B
330
1F
100
AcDbEntity
  8
SK2
  6
CONTINUOUS
370
25
 62
7
100
AcDbLine
 10
-47.68696429937977
 20
-5.684821496898863
 30
0.0
 11
-46.12535713374682
 21
-4.123214331265913
 31
0.0
  0
LINE
  5
39C
330
1F
100
AcDbEntity
  8
SK2
  6
CONTINUOUS
370
25
 62
7
100
AcDbLine
 10
-47.58089828220179
 20
-5.154491411008934
 30
0.0
 11
-46.19606781186547
 21
-3.769660940672615
 31
0.0
  0
LINE
  5
39D
330
1F
100
AcDbEntity
  8
SK2
  6
CONTINUOUS
370
25
 62
7
100
AcDbLine
 10
-47.4748322650238
 20
-4.624161325119012
 30
0.0
 11
-46.26677848998413
 21
-3.416107550079346
 31
0.0
  0
LINE
  5
39E
330
1F
100
AcDbEntity
  8
SK2
  6
CONTINUOUS
370
25
 62
7
100
AcDbLine
 10
-47.36876624784582
 20
-4.093831239229104
 30
0.0
 11
-46.33748916810278
 21
-3.062554159486069
 31
0.0
  0
LINE
  5
39F
330
1F
100
AcDbEntity
  8
SK2
  6
CONTINUOUS
370
25
 62
7
100
AcDbLine
 10
-47.26270023066784
 20
-3.563501153339196
 30
0.0
 11
-46.40819984622144
 21
-2.709000768892793
 31
0.0
  0
LINE
  5
3A0
330
1F
100
AcDbEntity
  8
SK2
  6
CONTINUOUS
370
25
 62
7
100
AcDbLine
 10
-47.15663421348986
 20
-3.033171067449281
 30
0.0
 11
-46.47891052434009
 21
-2.355447378299516
 31
0.0
  0
LINE
  5
3A1
330
1F
100
AcDbEntity
  8
SK2
  6
CONTINUOUS
370
25
 62
7
100
AcDbLine
 10
-47.05056819631187
 20
-2.502840981559359
 30
0.0
 11
-46.54962120245875
 21
-2.001893987706232
 31
0.0
  0
LINE
  5
3A2
330
1F
100
AcDbEntity
  8
SK2
  6
CONTINUOUS
370
25
 62
7
100
AcDbLine
 10
-46.94450217913389
 20
-1.972510895669451
 30
0.0
 11
-46.62033188057741
 21
-1.64834059711297
 31
0.0
  0
LINE
  5
3A3
330
1F
100
AcDbEntity
  8
SK2
  6
CONTINUOUS
370
25
 62
7
100
AcDbLine
 10
-46.8384361619559
 20
-1.442180809779536
 30
0.0
 11
-46.69104255869606
 21
-1.294787206519693
 31
0.0
  0
LINE
  5
3A4
330
1F
100
AcDbEntity
  8
SK2
  6
CONTINUOUS
370
25
 62
7
100
AcDbLine
 10
-47.74550425468966
 20
-5.977521273448268
 30
0.0
 11
-47.72302552813792
 21
-6.0
 31
0.0
  0
LINE
  5
3A5
330
1F
100
AcDbEntity
  8
SK2
  6
CONTINUOUS
370
25
 62
7
100
AcDbLine
 10
-47.67479357657099
 20
-5.623967882854998
 30
0.0
 11
-47.29876145942599
 21
-6.0
 31
0.0
  0
LINE
  5
3A6
330
1F
100
AcDbEntity
  8
SK2
  6
CONTINUOUS
370
25
 62
7
100
AcDbLine
 10
-47.60408289845234
 20
-5.270414492261722
 30
0.0
 11
-46.87449739071406
 21
-6.0
 31
0.0
  0
LINE
  5
3A7
330
1F
100
AcDbEntity
  8
SK2
  6
CONTINUOUS
370
25
 62
7
100
AcDbLine
 10
-47.53337222033369
 20
-4.916861101668431
 30
0.0
 11
-46.45023332200212
 21
-6.0
 31
0.0
  0
LINE
  5
3A8
330
1F
100
AcDbEntity
  8
SK2
  6
CONTINUOUS
370
25
 62
7
100
AcDbLine
 10
-47.46266154221503
 20
-4.563307711075161
 30
0.0
 11
-46.02596925329019
 21
-6.0
 31
0.0
  0
LINE
  5
3A9
330
1F
100
AcDbEntity
  8
SK2
  6
CONTINUOUS
370
25
 62
7
100
AcDbLine
 10
-47.39195086409638
 20
-4.209754320481878
 30
0.0
 11
-45.78707370385543
 21
-5.814631480722824
 31
0.0
  0
LINE
  5
3AA
330
1F
100
AcDbEntity
  8
SK2
  6
CONTINUOUS
370
25
 62
7
100
AcDbLine
 10
-47.32124018597773
 20
-3.856200929888608
 30
0.0
 11
-45.89313972103341
 21
-5.284301394832923
 31
0.0
  0
LINE
  5
3AB
330
1F
100
AcDbEntity
  8
SK2
  6
CONTINUOUS
370
25
 62
7
100
AcDbLine
 10
-47.25052950785907
 20
-3.502647539295332
 30
0.0
 11
-45.9992057382114
 21
-4.753971308943001
 31
0.0
  0
LINE
  5
3AC
330
1F
100
AcDbEntity
  8
SK2
  6
CONTINUOUS
370
25
 62
7
100
AcDbLine
 10
-47.17981882974041
 20
-3.149094148702055
 30
0.0
 11
-46.10527175538938
 21
-4.223641223053086
 31
0.0
  0
LINE
  5
3AD
330
1F
100
AcDbEntity
  8
SK2
  6
CONTINUOUS
370
25
 62
7
100
AcDbLine
 10
-47.10910815162175
 20
-2.795540758108785
 30
0.0
 11
-46.21133777256737
 21
-3.693311137163171
 31
0.0
  0
LINE
  5
3AE
330
1F
100
AcDbEntity
  8
SK2
  6
CONTINUOUS
370
25
 62
7
100
AcDbLine
 10
-47.0383974735031
 20
-2.441987367515502
 30
0.0
 11
-46.31740378974535
 21
-3.162981051273256
 31
0.0
  0
LINE
  5
3AF
330
1F
100
AcDbEntity
  8
SK2
  6
CONTINUOUS
370
25
 62
7
100
AcDbLine
 10
-46.96768679538445
 20
-2.088433976922218
 30
0.0
 11
-46.42346980692334
 21
-2.632650965383334
 31
0.0
  0
LINE
  5
3B0
330
1F
100
AcDbEntity
  8
SK2
  6
CONTINUOUS
370
25
 62
7
100
AcDbLine
 10
-46.89697611726579
 20
-1.734880586328948
 30
0.0
 11
-46.52953582410132
 21
-2.102320879493419
 31
0.0
  0
LINE
  5
3B1
330
1F
100
AcDbEntity
  8
SK2
  6
CONTINUOUS
370
25
 62
7
100
AcDbLine
 10
-46.82626543914714
 20
-1.381327195735672
 30
0.0
 11
-46.6356018412793
 21
-1.571990793603504
 31
0.0
  0
LINE
  5
3B2
330
1F
100
AcDbEntity
  8
SK2
  6
CONTINUOUS
370
25
 62
7
100
AcDbLine
 10
-46.75555476102848
 20
-1.027773805142402
 30
0.0
 11
-46.74166785845728
 21
-1.041660707713596
 31
0.0
  0
LINE
  5
3B3
330
1F
100
AcDbEntity
  8
SK2
  6
CONTINUOUS
370
25
 62
7
100
AcDbLine
 10
-46.75
 20
0.9999999999999998
 30
0.0
 11
-47.75
 21
6.0
 31
0.0
  0
LINE
  5
3B4
330
1F
100
AcDbEntity
  8
SK2
  6
CONTINUOUS
370
25
 62
7
100
AcDbLine
 10
-47.75
 20
6.0
 30
0.0
 11
-45.75
 21
6.0
 31
0.0
  0
LINE
  5
3B5
330
1F
100
AcDbEntity
  8
SK2
  6
CONTINUOUS
370
25
 62
7
100
AcDbLine
 10
-45.75
 20
6.0
 30
0.0
 11
-46.75
 21
0.9999999999999998
 31
0.0
  0
LINE
  5
3B6
330
1F
100
AcDbEntity
  8
SK2
  6
CONTINUOUS
370
25
 62
7
100
AcDbLine
 10
-46.78197329407465
 20
1.159866470373245
 30
0.0
 11
-46.70204005888803
 21
1.239799705559861
 31
0.0
  0
LINE
  5
3B7
330
1F
100
AcDbEntity
  8
SK2
  6
CONTINUOUS
370
25
 62
7
100
AcDbLine
 10
-46.8526839721933
 20
1.513419860966536
 30
0.0
 11
-46.59597404171004
 21
1.77012979144979
 31
0.0
  0
LINE
  5
3B8
330
1F
100
AcDbEntity
  8
SK2
  6
CONTINUOUS
370
25
 62
7
100
AcDbLine
 10
-46.92339465031196
 20
1.866973251559806
 30
0.0
 11
-46.48990802453206
 21
2.300459877339698
 31
0.0
  0
LINE
  5
3B9
330
1F
100
AcDbEntity
  8
SK2
  6
CONTINUOUS
370
25
 62
7
100
AcDbLine
 10
-46.99410532843061
 20
2.220526642153082
 30
0.0
 11
-46.38384200735408
 21
2.83078996322962
 31
0.0
  0
LINE
  5
3BA
330
1F
100
AcDbEntity
  8
SK2
  6
CONTINUOUS
370
25
 62
7
100
AcDbLine
 10
-47.06481600654927
 20
2.574080032746359
 30
0.0
 11
-46.2777759901761
 21
3.361120049119535
 31
0.0
  0
LINE
  5
3BB
330
1F
100
AcDbEntity
  8
SK2
  6
CONTINUOUS
370
25
 62
7
100
AcDbLine
 10
-47.13552668466792
 20
2.927633423339635
 30
0.0
 11
-46.17170997299812
 21
3.891450135009443
 31
0.0
  0
LINE
  5
3BC
330
1F
100
AcDbEntity
  8
SK2
  6
CONTINUOUS
370
25
 62
7
100
AcDbLine
 10
-47.20623736278658
 20
3.281186813932912
 30
0.0
 11
-46.06564395582013
 21
4.421780220899365
 31
0.0
  0
LINE
  5
3BD
330
1F
100
AcDbEntity
  8
SK2
  6
CONTINUOUS
370
25
 62
7
100
AcDbLine
 10
-47.27694804090524
 20
3.634740204526182
 30
0.0
 11
-45.95957793864215
 21
4.952110306789272
 31
0.0
  0
LINE
  5
3BE
330
1F
100
AcDbEntity
  8
SK2
  6
CONTINUOUS
370
25
 62
7
100
AcDbLine
 10
-47.3476587190239
 20
3.988293595119458
 30
0.0
 11
-45.85351192146416
 21
5.482440392679194
 31
0.0
  0
LINE
  5
3BF
330
1F
100
AcDbEntity
  8
SK2
  6
CONTINUOUS
370
25
 62
7
100
AcDbLine
 10
-47.41836939714254
 20
4.341846985712735
 30
0.0
 11
-45.76021638285528
 21
6.0
 31
0.0
  0
LINE
  5
3C0
330
1F
100
AcDbEntity
  8
SK2
  6
CONTINUOUS
370
25
 62
7
100
AcDbLine
 10
-47.48908007526121
 20
4.695400376306004
 30
0.0
 11
-46.18448045156721
 21
6.0
 31
0.0
  0
LINE
  5
3C1
330
1F
100
AcDbEntity
  8
SK2
  6
CONTINUOUS
370
25
 62
7
100
AcDbLine
 10
-47.55979075337986
 20
5.048953766899281
 30
0.0
 11
-46.60874452027914
 21
6.0
 31
0.0
  0
LINE
  5
3C2
330
1F
100
AcDbEntity
  8
SK2
  6
CONTINUOUS
370
25
 62
7
100
AcDbLine
 10
-47.63050143149852
 20
5.402507157492558
 30
0.0
 11
-47.03300858899107
 21
6.0
 31
0.0
  0
LINE
  5
3C3
330
1F
100
AcDbEntity
  8
SK2
  6
CONTINUOUS
370
25
 62
7
100
AcDbLine
 10
-47.70121210961717
 20
5.756060548085841
 30
0.0
 11
-47.45727265770301
 21
6.0
 31
0.0
  0
LINE
  5
3C4
330
1F
100
AcDbEntity
  8
SK2
  6
CONTINUOUS
370
25
 62
7
100
AcDbLine
 10
-46.77181937747378
 20
1.109096887368864
 30
0.0
 11
-46.73545374835082
 21
1.072731258245909
 31
0.0
  0
LINE
  5
3C5
330
1F
100
AcDbEntity
  8
SK2
  6
CONTINUOUS
370
25
 62
7
100
AcDbLine
 10
-46.87788539465176
 20
1.639426973258779
 30
0.0
 11
-46.66474307023216
 21
1.426284648839186
 31
0.0
  0
LINE
  5
3C6
330
1F
100
AcDbEntity
  8
SK2
  6
CONTINUOUS
370
25
 62
7
100
AcDbLine
 10
-46.98395141182974
 20
2.169757059148694
 30
0.0
 11
-46.5940323921135
 21
1.779838039432455
 31
0.0
  0
LINE
  5
3C7
330
1F
100
AcDbEntity
  8
SK2
  6
CONTINUOUS
370
25
 62
7
100
AcDbLine
 10
-47.09001742900772
 20
2.700087145038609
 30
0.0
 11
-46.52332171399485
 21
2.133391430025739
 31
0.0
  0
LINE
  5
3C8
330
1F
100
AcDbEntity
  8
SK2
  6
CONTINUOUS
370
25
 62
7
100
AcDbLine
 10
-47.1960834461857
 20
3.230417230928524
 30
0.0
 11
-46.4526110358762
 21
2.486944820619023
 31
0.0
  0
LINE
  5
3C9
330
1F
100
AcDbEntity
  8
SK2
  6
CONTINUOUS
370
25
 62
7
100
AcDbLine
 10
-47.30214946336368
 20
3.760747316818424
 30
0.0
 11
-46.38190035775754
 21
2.840498211212285
 31
0.0
  0
LINE
  5
3CA
330
1F
100
AcDbEntity
  8
SK2
  6
CONTINUOUS
370
25
 62
7
100
AcDbLine
 10
-47.40821548054167
 20
4.291077402708346
 30
0.0
 11
-46.31118967963889
 21
3.194051601805569
 31
0.0
  0
LINE
  5
3CB
330
1F
100
AcDbEntity
  8
SK2
  6
CONTINUOUS
370
25
 62
7
100
AcDbLine
 10
-47.51428149771965
 20
4.821407488598254
 30
0.0
 11
-46.24047900152024
 21
3.547604992398846
 31
0.0
  0
LINE
  5
3CC
330
1F
100
AcDbEntity
  8
SK2
  6
CONTINUOUS
370
25
 62
7
100
AcDbLine
 10
-47.62034751489764
 20
5.351737574488183
 30
0.0
 11
-46.16976832340158
 21
3.901158382992122
 31
0.0
  0
LINE
  5
3CD
330
1F
100
AcDbEntity
  8
SK2
  6
CONTINUOUS
370
25
 62
7
100
AcDbLine
 10
-47.72641353207562
 20
5.882067660378098
 30
0.0
 11
-46.09905764528293
 21
4.254711773585406
 31
0.0
  0
LINE
  5
3CE
330
1F
100
AcDbEntity
  8
SK2
  6
CONTINUOUS
370
25
 62
7
100
AcDbLine
 10
-47.42008180298559
 20
6.0
 30
0.0
 11
-46.02834696716427
 21
4.608265164178675
 31
0.0
  0
LINE
  5
3CF
330
1F
100
AcDbEntity
  8
SK2
  6
CONTINUOUS
370
25
 62
7
100
AcDbLine
 10
-46.99581773427366
 20
6.0
 30
0.0
 11
-45.95763628904561
 21
4.961818554771952
 31
0.0
  0
LINE
  5
3D0
330
1F
100
AcDbEntity
  8
SK2
  6
CONTINUOUS
370
25
 62
7
100
AcDbLine
 10
-46.57155366556174
 20
6.0
 30
0.0
 11
-45.88692561092695
 21
5.315371945365222
 31
0.0
  0
LINE
  5
3D1
330
1F
100
AcDbEntity
  8
SK2
  6
CONTINUOUS
370
25
 62
7
100
AcDbLine
 10
-46.1472895968498
 20
6.0
 30
0.0
 11
-45.8162149328083
 21
5.668925335958498
 31
0.0
  0
TEXT
  5
3D2
330
1F
100
AcDbEntity
  8
SK2
  6
CONTINUOUS
370
25
 62
7
100
AcDbText
 10
-47.75
 20
-10.21979166666667
 30
0.0
 40
3.5
  1
2
 50
90.00000000000001
 72
     1
 11
-47.75
 21
-9.053125000000001
 31
0.0
100
AcDbText
  0
CIRCLE
  5
3D3
330
1F
100
AcDbEntity
  8
SK2
  6
CONTINUOUS
370
25
 62
7
100
AcDbCircle
 10
-49.28125
 20
-13.463125
 30
0.0
 40
1.53125
  0
LINE
  5
3D4
330
1F
100
AcDbEntity
  8
SK2
  6
CONTINUOUS
370
25
 62
7
100
AcDbLine
 10
-47.75
 20
-14.994375
 30
0.0
 11
-50.8125
 21
-11.931875
 31
0.0
  0
LINE
  5
3D5
330
1F
100
AcDbEntity
  8
SK2
  6
CONTINUOUS
370
25
 62
7
100
AcDbLine
 10
-36.75
 20
1.0
 30
0.0
 11
-36.75
 21
12.00001
 31
0.0
  0
LINE
  5
3D6
330
1F
100
AcDbEntity
  8
SK2
  6
CONTINUOUS
370
25
 62
7
100
AcDbLine
 10
0.0000000000000001
 20
12.00001
 30
0.0
 11
-0.0000000000000006
 21
1.0
 31
0.0
  0
LINE
  5
3D7
330
1F
100
AcDbEntity
  8
SK2
  6
CONTINUOUS
370
25
 62
7
100
AcDbLine
 10
-36.75
 20
11.00001
 30
0.0
 11
0.0
 21
11.00001
 31
0.0
  0
LINE
  5
3D8
330
1F
100
AcDbEntity
  8
SK2
  6
CONTINUOUS
370
25
 62
7
100
AcDbLine
 10
-36.75
 20
11.00001
 30
0.0
 11
-31.75
 21
12.00001
 31
0.0
  0
LINE
  5
3D9
330
1F
100
AcDbEntity
  8
SK2
  6
CONTINUOUS
370
25
 62
7
100
AcDbLine
 10
-31.75
 20
12.00001
 30
0.0
 11
-31.75
 21
10.00001
 31
0.0
  0
LINE
  5
3DA
330
1F
100
AcDbEntity
  8
SK2
  6
CONTINUOUS
370
25
 62
7
100
AcDbLine
 10
-31.75
 20
10.00001
 30
0.0
 11
-36.75
 21
11.00001
 31
0.0
  0
LINE
  5
3DB
330
1F
100
AcDbEntity
  8
SK2
  6
CONTINUOUS
370
25
 62
7
100
AcDbLine
 10
-31.96011066873408
 20
10.04203213374682
 30
0.0
 11
-31.75
 21
10.2521428024809
 31
0.0
  0
LINE
  5
3DC
330
1F
100
AcDbEntity
  8
SK2
  6
CONTINUOUS
370
25
 62
7
100
AcDbLine
 10
-32.31366405932735
 20
10.11274281186548
 30
0.0
 11
-31.75
 21
10.67640687119283
 31
0.0
  0
LINE
  5
3DD
330
1F
100
AcDbEntity
  8
SK2
  6
CONTINUOUS
370
25
 62
7
100
AcDbLine
 10
-32.66721744992063
 20
10.18345348998412
 30
0.0
 11
-31.75
 21
11.10067093990476
 31
0.0
  0
LINE
  5
3DE
330
1F
100
AcDbEntity
  8
SK2
  6
CONTINUOUS
370
25
 62
7
100
AcDbLine
 10
-33.0207708405139
 20
10.25416416810278
 30
0.0
 11
-31.75
 21
11.52493500861668
 31
0.0
  0
LINE
  5
3DF
330
1F
100
AcDbEntity
  8
SK2
  6
CONTINUOUS
370
25
 62
7
100
AcDbLine
 10
-33.37432423110718
 20
10.32487484622144
 30
0.0
 11
-31.75
 21
11.94919907732862
 31
0.0
  0
LINE
  5
3E0
330
1F
100
AcDbEntity
  8
SK2
  6
CONTINUOUS
370
25
 62
7
100
AcDbLine
 10
-33.72787762170046
 20
10.39558552434009
 30
0.0
 11
-32.21681643255069
 21
11.90664671348986
 31
0.0
  0
LINE
  5
3E1
330
1F
100
AcDbEntity
  8
SK2
  6
CONTINUOUS
370
25
 62
7
100
AcDbLine
 10
-34.08143101229373
 20
10.46629620245874
 30
0.0
 11
-32.74714651844059
 21
11.80058069631188
 31
0.0
  0
LINE
  5
3E2
330
1F
100
AcDbEntity
  8
SK2
  6
CONTINUOUS
370
25
 62
7
100
AcDbLine
 10
-34.43498440288701
 20
10.5370068805774
 30
0.0
 11
-33.2774766043305
 21
11.6945146791339
 31
0.0
  0
LINE
  5
3E3
330
1F
100
AcDbEntity
  8
SK2
  6
CONTINUOUS
370
25
 62
7
100
AcDbLine
 10
-34.78853779348028
 20
10.60771755869606
 30
0.0
 11
-33.80780669022042
 21
11.58844866195592
 31
0.0
  0
LINE
  5
3E4
330
1F
100
AcDbEntity
  8
SK2
  6
CONTINUOUS
370
25
 62
7
100
AcDbLine
 10
-35.14209118407355
 20
10.67842823681472
 30
0.0
 11
-34.33813677611033
 21
11.48238264477793
 31
0.0
  0
LINE
  5
3E5
330
1F
100
AcDbEntity
  8
SK2
  6
CONTINUOUS
370
25
 62
7
100
AcDbLine
 10
-35.49564457466683
 20
10.74913891493337
 30
0.0
 11
-34.86846686200025
 21
11.37631662759995
 31
0.0
  0
LINE
  5
3E6
330
1F
100
AcDbEntity
  8
SK2
  6
CONTINUOUS
370
25
 62
7
100
AcDbLine
 10
-35.84919796526011
 20
10.81984959305203
 30
0.0
 11
-35.39879694789017
 21
11.27025061042196
 31
0.0
  0
LINE
  5
3E7
330
1F
100
AcDbEntity
  8
SK2
  6
CONTINUOUS
370
25
 62
7
100
AcDbLine
 10
-36.20275135585338
 20
10.89056027117068
 30
0.0
 11
-35.92912703378008
 21
11.16418459324398
 31
0.0
  0
LINE
  5
3E8
330
1F
100
AcDbEntity
  8
SK2
  6
CONTINUOUS
370
25
 62
7
100
AcDbLine
 10
-36.55630474644666
 20
10.96127094928933
 30
0.0
 11
-36.45945711966999
 21
11.058118576066
 31
0.0
  0
LINE
  5
3E9
330
1F
100
AcDbEntity
  8
SK2
  6
CONTINUOUS
370
25
 62
7
100
AcDbLine
 10
-36.62760309963798
 20
11.02448938007241
 30
0.0
 11
-36.56640464945696
 21
10.96329092989139
 31
0.0
  0
LINE
  5
3EA
330
1F
100
AcDbEntity
  8
SK2
  6
CONTINUOUS
370
25
 62
7
100
AcDbLine
 10
-36.2740497090447
 20
11.09520005819105
 30
0.0
 11
-36.03607456356705
 21
10.85722491271341
 31
0.0
  0
LINE
  5
3EB
330
1F
100
AcDbEntity
  8
SK2
  6
CONTINUOUS
370
25
 62
7
100
AcDbLine
 10
-35.92049631845143
 20
11.16591073630972
 30
0.0
 11
-35.50574447767713
 21
10.75115889553543
 31
0.0
  0
LINE
  5
3EC
330
1F
100
AcDbEntity
  8
SK2
  6
CONTINUOUS
370
25
 62
7
100
AcDbLine
 10
-35.56694292785814
 20
11.23662141442837
 30
0.0
 11
-34.97541439178722
 21
10.64509287835745
 31
0.0
  0
LINE
  5
3ED
330
1F
100
AcDbEntity
  8
SK2
  6
CONTINUOUS
370
25
 62
7
100
AcDbLine
 10
-35.21338953726488
 20
11.30733209254703
 30
0.0
 11
-34.44508430589731
 21
10.53902686117946
 31
0.0
  0
LINE
  5
3EE
330
1F
100
AcDbEntity
  8
SK2
  6
CONTINUOUS
370
25
 62
7
100
AcDbLine
 10
-34.8598361466716
 20
11.37804277066569
 30
0.0
 11
-33.9147542200074
 21
10.43296084400148
 31
0.0
  0
LINE
  5
3EF
330
1F
100
AcDbEntity
  8
SK2
  6
CONTINUOUS
370
25
 62
7
100
AcDbLine
 10
-34.50628275607833
 20
11.44875344878434
 30
0.0
 11
-33.38442413411748
 21
10.32689482682349
 31
0.0
  0
LINE
  5
3F0
330
1F
100
AcDbEntity
  8
SK2
  6
CONTINUOUS
370
25
 62
7
100
AcDbLine
 10
-34.15272936548504
 20
11.51946412690299
 30
0.0
 11
-32.85409404822757
 21
10.22082880964551
 31
0.0
  0
LINE
  5
3F1
330
1F
100
AcDbEntity
  8
SK2
  6
CONTINUOUS
370
25
 62
7
100
AcDbLine
 10
-33.79917597489177
 20
11.59017480502165
 30
0.0
 11
-32.32376396233766
 21
10.11476279246753
 31
0.0
  0
LINE
  5
3F2
330
1F
100
AcDbEntity
  8
SK2
  6
CONTINUOUS
370
25
 62
7
100
AcDbLine
 10
-33.4456225842985
 20
11.66088548314031
 30
0.0
 11
-31.79343387644775
 21
10.00869677528955
 31
0.0
  0
LINE
  5
3F3
330
1F
100
AcDbEntity
  8
SK2
  6
CONTINUOUS
370
25
 62
7
100
AcDbLine
 10
-33.09206919370523
 20
11.73159616125896
 30
0.0
 11
-31.75
 21
10.38952696755372
 31
0.0
  0
LINE
  5
3F4
330
1F
100
AcDbEntity
  8
SK2
  6
CONTINUOUS
370
25
 62
7
100
AcDbLine
 10
-32.73851580311195
 20
11.80230683937761
 30
0.0
 11
-31.75
 21
10.81379103626566
 31
0.0
  0
LINE
  5
3F5
330
1F
100
AcDbEntity
  8
SK2
  6
CONTINUOUS
370
25
 62
7
100
AcDbLine
 10
-32.38496241251868
 20
11.87301751749626
 30
0.0
 11
-31.75
 21
11.23805510497759
 31
0.0
  0
LINE
  5
3F6
330
1F
100
AcDbEntity
  8
SK2
  6
CONTINUOUS
370
25
 62
7
100
AcDbLine
 10
-32.0314090219254
 20
11.94372819561492
 30
0.0
 11
-31.75
 21
11.66231917368952
 31
0.0
  0
LINE
  5
3F7
330
1F
100
AcDbEntity
  8
SK2
  6
CONTINUOUS
370
25
 62
7
100
AcDbLine
 10
0.0
 20
11.00001
 30
0.0
 11
-5.0
 21
10.00001
 31
0.0
  0
LINE
  5
3F8
330
1F
100
AcDbEntity
  8
SK2
  6
CONTINUOUS
370
25
 62
7
100
AcDbLine
 10
-5.0
 20
10.00001
 30
0.0
 11
-5.0
 21
12.00001
 31
0.0
  0
LINE
  5
3F9
330
1F
100
AcDbEntity
  8
SK2
  6
CONTINUOUS
370
25
 62
7
100
AcDbLine
 10
-5.0
 20
12.00001
 30
0.0
 11
0.0
 21
11.00001
 31
0.0
  0
LINE
  5
3FA
330
1F
100
AcDbEntity
  8
SK2
  6
CONTINUOUS
370
25
 62
7
100
AcDbLine
 10
-0.0385697331376744
 20
10.99229605337247
 30
0.0
 11
-0.0257131554251163
 21
11.00515263108502
 31
0.0
  0
LINE
  5
3FB
330
1F
100
AcDbEntity
  8
SK2
  6
CONTINUOUS
370
25
 62
7
100
AcDbLine
 10
-0.568899819027584
 20
10.88623003619448
 30
0.0
 11
-0.3792665460183894
 21
11.07586330920368
 31
0.0
  0
LINE
  5
3FC
330
1F
100
AcDbEntity
  8
SK2
  6
CONTINUOUS
370
25
 62
7
100
AcDbLine
 10
-1.099229904917494
 20
10.7801640190165
 30
0.0
 11
-0.7328199366116624
 21
11.14657398732233
 31
0.0
  0
LINE
  5
3FD
330
1F
100
AcDbEntity
  8
SK2
  6
CONTINUOUS
370
25
 62
7
100
AcDbLine
 10
-1.629559990807405
 20
10.67409800183852
 30
0.0
 11
-1.086373327204937
 21
11.21728466544099
 31
0.0
  0
LINE
  5
3FE
330
1F
100
AcDbEntity
  8
SK2
  6
CONTINUOUS
370
25
 62
7
100
AcDbLine
 10
-2.159890076697314
 20
10.56803198466054
 30
0.0
 11
-1.43992671779821
 21
11.28799534355964
 31
0.0
  0
LINE
  5
3FF
330
1F
100
AcDbEntity
  8
SK2
  6
CONTINUOUS
370
25
 62
7
100
AcDbLine
 10
-2.690220162587224
 20
10.46196596748256
 30
0.0
 11
-1.793480108391483
 21
11.3587060216783
 31
0.0
  0
LINE
  5
400
330
1F
100
AcDbEntity
  8
SK2
  6
CONTINUOUS
370
25
 62
7
100
AcDbLine
 10
-3.220550248477135
 20
10.35589995030457
 30
0.0
 11
-2.147033498984757
 21
11.42941669979695
 31
0.0
  0
LINE
  5
401
330
1F
100
AcDbEntity
  8
SK2
  6
CONTINUOUS
370
25
 62
7
100
AcDbLine
 10
-3.750880334367044
 20
10.24983393312659
 30
0.0
 11
-2.50058688957803
 21
11.50012737791561
 31
0.0
  0
LINE
  5
402
330
1F
100
AcDbEntity
  8
SK2
  6
CONTINUOUS
370
25
 62
7
100
AcDbLine
 10
-4.281210420256954
 20
10.14376791594861
 30
0.0
 11
-2.854140280171304
 21
11.57083805603426
 31
0.0
  0
LINE
  5
403
330
1F
100
AcDbEntity
  8
SK2
  6
CONTINUOUS
370
25
 62
7
100
AcDbLine
 10
-4.811540506146863
 20
10.03770189877063
 30
0.0
 11
-3.207693670764577
 21
11.64154873415291
 31
0.0
  0
LINE
  5
404
330
1F
100
AcDbEntity
  8
SK2
  6
CONTINUOUS
370
25
 62
7
100
AcDbLine
 10
-5.0
 20
10.27350647362942
 30
0.0
 11
-3.56124706135785
 21
11.71225941227157
 31
0.0
  0
LINE
  5
405
330
1F
100
AcDbEntity
  8
SK2
  6
CONTINUOUS
370
25
 62
7
100
AcDbLine
 10
-5.0
 20
10.69777054234135
 30
0.0
 11
-3.914800451951122
 21
11.78297009039022
 31
0.0
  0
LINE
  5
406
330
1F
100
AcDbEntity
  8
SK2
  6
CONTINUOUS
370
25
 62
7
100
AcDbLine
 10
-5.0
 20
11.12203461105327
 30
0.0
 11
-4.268353842544395
 21
11.85368076850888
 31
0.0
  0
LINE
  5
407
330
1F
100
AcDbEntity
  8
SK2
  6
CONTINUOUS
370
25
 62
7
100
AcDbLine
 10
-5.0
 20
11.5462986797652
 30
0.0
 11
-4.621907233137668
 21
11.92439144662753
 31
0.0
  0
LINE
  5
408
330
1F
100
AcDbEntity
  8
SK2
  6
CONTINUOUS
370
25
 62
7
100
AcDbLine
 10
-5.0
 20
11.97056274847713
 30
0.0
 11
-4.975460623730941
 21
11.99510212474619
 31
0.0
  0
LINE
  5
409
330
1F
100
AcDbEntity
  8
SK2
  6
CONTINUOUS
370
25
 62
7
100
AcDbLine
 10
-5.0
 20
10.09116882454313
 30
0.0
 11
-4.924034312880724
 21
10.01520313742386
 31
0.0
  0
LINE
  5
40A
330
1F
100
AcDbEntity
  8
SK2
  6
CONTINUOUS
370
25
 62
7
100
AcDbLine
 10
-5.0
 20
10.51543289325506
 30
0.0
 11
-4.570480922287449
 21
10.08591381554251
 31
0.0
  0
LINE
  5
40B
330
1F
100
AcDbEntity
  8
SK2
  6
CONTINUOUS
370
25
 62
7
100
AcDbLine
 10
-5.0
 20
10.93969696196699
 30
0.0
 11
-4.216927531694176
 21
10.15662449366116
 31
0.0
  0
LINE
  5
40C
330
1F
100
AcDbEntity
  8
SK2
  6
CONTINUOUS
370
25
 62
7
100
AcDbLine
 10
-5.0
 20
11.36396103067892
 30
0.0
 11
-3.863374141100901
 21
10.22733517177982
 31
0.0
  0
LINE
  5
40D
330
1F
100
AcDbEntity
  8
SK2
  6
CONTINUOUS
370
25
 62
7
100
AcDbLine
 10
-5.0
 20
11.78822509939084
 30
0.0
 11
-3.509820750507628
 21
10.29804584989847
 31
0.0
  0
LINE
  5
40E
330
1F
100
AcDbEntity
  8
SK2
  6
CONTINUOUS
370
25
 62
7
100
AcDbLine
 10
-4.734401039871538
 20
11.94689020797431
 30
0.0
 11
-3.156267359914355
 21
10.36875652801713
 31
0.0
  0
LINE
  5
40F
330
1F
100
AcDbEntity
  8
SK2
  6
CONTINUOUS
370
25
 62
7
100
AcDbLine
 10
-4.204070953981626
 20
11.84082419079633
 30
0.0
 11
-2.802713969321081
 21
10.43946720613578
 31
0.0
  0
LINE
  5
410
330
1F
100
AcDbEntity
  8
SK2
  6
CONTINUOUS
370
25
 62
7
100
AcDbLine
 10
-3.673740868091716
 20
11.73475817361834
 30
0.0
 11
-2.449160578727807
 21
10.51017788425444
 31
0.0
  0
LINE
  5
411
330
1F
100
AcDbEntity
  8
SK2
  6
CONTINUOUS
370
25
 62
7
100
AcDbLine
 10
-3.143410782201804
 20
11.62869215644036
 30
0.0
 11
-2.095607188134534
 21
10.58088856237309
 31
0.0
  0
LINE
  5
412
330
1F
100
AcDbEntity
  8
SK2
  6
CONTINUOUS
370
25
 62
7
100
AcDbLine
 10
-2.613080696311893
 20
11.52262613926238
 30
0.0
 11
-1.74205379754126
 21
10.65159924049175
 31
0.0
  0
LINE
  5
413
330
1F
100
AcDbEntity
  8
SK2
  6
CONTINUOUS
370
25
 62
7
100
AcDbLine
 10
-2.08275061042198
 20
11.41656012208439
 30
0.0
 11
-1.388500406947985
 21
10.7223099186104
 31
0.0
  0
LINE
  5
414
330
1F
100
AcDbEntity
  8
SK2
  6
CONTINUOUS
370
25
 62
7
100
AcDbLine
 10
-1.552420524532067
 20
11.31049410490641
 30
0.0
 11
-1.03494701635471
 21
10.79302059672906
 31
0.0
  0
LINE
  5
415
330
1F
100
AcDbEntity
  8
SK2
  6
CONTINUOUS
370
25
 62
7
100
AcDbLine
 10
-1.022090438642158
 20
11.20442808772843
 30
0.0
 11
-0.6813936257614376
 21
10.86373127484771
 31
0.0
  0
LINE
  5
416
330
1F
100
AcDbEntity
  8
SK2
  6
CONTINUOUS
370
25
 62
7
100
AcDbLine
 10
-0.4917603527522461
 20
11.09836207055045
 30
0.0
 11
-0.3278402351681636
 21
10.93444195296637
 31
0.0
  0
TEXT
  5
417
330
1F
100
AcDbEntity
  8
SK2
  6
CONTINUOUS
370
25
 62
7
100
AcDbText
 10
-25.375
 20
12.00001
 30
0.0
 40
3.5
  1
36.75
 72
     1
 11
-18.375
 21
12.00001
 31
0.0
100
AcDbText
  0
LINE
  5
418
330
1F
100
AcDbEntity
  8
2
  6
CONTINUOUS
370
25
 62
7
100
AcDbLine
 10
0.0
 20
-1.00001
 30
0.0
 11
-0.0000000000000007
 21
-12.00001
 31
0.0
  0
LINE
  5
419
330
1F
100
AcDbEntity
  8
2
  6
CONTINUOUS
370
25
 62
7
100
AcDbLine
 10
1.009999999999999
 20
-12.00001
 30
0.0
 11
1.01
 21
-1.00001
 31
0.0
  0
LINE
  5
41A
330
1F
100
AcDbEntity
  8
2
  6
CONTINUOUS
370
25
 62
7
100
AcDbLine
 10
-18.475
 20
-11.00001
 30
0.0
 11
11.01
 21
-11.00001
 31
0.0
  0
LINE
  5
41B
330
1F
100
AcDbEntity
  8
2
  6
CONTINUOUS
370
25
 62
7
100
AcDbLine
 10
0.0
 20
-11.00001
 30
0.0
 11
-5.0
 21
-12.00001
 31
0.0
  0
LINE
  5
41C
330
1F
100
AcDbEntity
  8
2
  6
CONTINUOUS
370
25
 62
7
100
AcDbLine
 10
-5.0
 20
-12.00001
 30
0.0
 11
-5.0
 21
-10.00001
 31
0.0
  0
LINE
  5
41D
330
1F
100
AcDbEntity
  8
2
  6
CONTINUOUS
370
25
 62
7
100
AcDbLine
 10
-5.0
 20
-10.00001
 30
0.0
 11
0.0
 21
-11.00001
 31
0.0
  0
LINE
  5
41E
330
1F
100
AcDbEntity
  8
2
  6
CONTINUOUS
370
25
 62
7
100
AcDbLine
 10
-0.0595173443961983
 20
-11.01191346887924
 30
0.0
 11
-0.0396782295974655
 21
-10.99207435408051
 31
0.0
  0
LINE
  5
41F
330
1F
100
AcDbEntity
  8
2
  6
CONTINUOUS
370
25
 62
7
100
AcDbLine
 10
-0.5898474302861079
 20
-11.11797948605722
 30
0.0
 11
-0.3932316201907386
 21
-10.92136367596185
 31
0.0
  0
LINE
  5
420
330
1F
100
AcDbEntity
  8
2
  6
CONTINUOUS
370
25
 62
7
100
AcDbLine
 10
-1.120177516176017
 20
-11.2240455032352
 30
0.0
 11
-0.7467850107840117
 21
-10.8506529978432
 31
0.0
  0
LINE
  5
421
330
1F
100
AcDbEntity
  8
2
  6
CONTINUOUS
370
25
 62
7
100
AcDbLine
 10
-1.650507602065927
 20
-11.33011152041319
 30
0.0
 11
-1.100338401377285
 21
-10.77994231972454
 31
0.0
  0
LINE
  5
422
330
1F
100
AcDbEntity
  8
2
  6
CONTINUOUS
370
25
 62
7
100
AcDbLine
 10
-2.180837687955836
 20
-11.43617753759117
 30
0.0
 11
-1.453891791970558
 21
-10.70923164160589
 31
0.0
  0
LINE
  5
423
330
1F
100
AcDbEntity
  8
2
  6
CONTINUOUS
370
25
 62
7
100
AcDbLine
 10
-2.711167773845745
 20
-11.54224355476915
 30
0.0
 11
-1.80744518256383
 21
-10.63852096348723
 31
0.0
  0
LINE
  5
424
330
1F
100
AcDbEntity
  8
2
  6
CONTINUOUS
370
25
 62
7
100
AcDbLine
 10
-3.241497859735659
 20
-11.64830957194713
 30
0.0
 11
-2.160998573157106
 21
-10.56781028536858
 31
0.0
  0
LINE
  5
425
330
1F
100
AcDbEntity
  8
2
  6
CONTINUOUS
370
25
 62
7
100
AcDbLine
 10
-3.771827945625566
 20
-11.75437558912511
 30
0.0
 11
-2.514551963750378
 21
-10.49709960724992
 31
0.0
  0
LINE
  5
426
330
1F
100
AcDbEntity
  8
2
  6
CONTINUOUS
370
25
 62
7
100
AcDbLine
 10
-4.302158031515476
 20
-11.86044160630309
 30
0.0
 11
-2.868105354343651
 21
-10.42638892913127
 31
0.0
  0
LINE
  5
427
330
1F
100
AcDbEntity
  8
2
  6
CONTINUOUS
370
25
 62
7
100
AcDbLine
 10
-4.832488117405385
 20
-11.96650762348107
 30
0.0
 11
-3.221658744936924
 21
-10.35567825101261
 31
0.0
  0
LINE
  5
428
330
1F
100
AcDbEntity
  8
2
  6
CONTINUOUS
370
25
 62
7
100
AcDbLine
 10
-5.0
 20
-11.70975543736376
 30
0.0
 11
-3.575212135530198
 21
-10.28496757289396
 31
0.0
  0
LINE
  5
429
330
1F
100
AcDbEntity
  8
2
  6
CONTINUOUS
370
25
 62
7
100
AcDbLine
 10
-5.0
 20
-11.28549136865183
 30
0.0
 11
-3.928765526123471
 21
-10.21425689477531
 31
0.0
  0
LINE
  5
42A
330
1F
100
AcDbEntity
  8
2
  6
CONTINUOUS
370
25
 62
7
100
AcDbLine
 10
-5.0
 20
-10.86122729993991
 30
0.0
 11
-4.282318916716743
 21
-10.14354621665665
 31
0.0
  0
LINE
  5
42B
330
1F
100
AcDbEntity
  8
2
  6
CONTINUOUS
370
25
 62
7
100
AcDbLine
 10
-5.0
 20
-10.43696323122798
 30
0.0
 11
-4.635872307310017
 21
-10.072835538538
 31
0.0
  0
LINE
  5
42C
330
1F
100
AcDbEntity
  8
2
  6
CONTINUOUS
370
25
 62
7
100
AcDbLine
 10
-5.0
 20
-10.01269916251605
 30
0.0
 11
-4.98942569790329
 21
-10.00212486041934
 31
0.0
  0
LINE
  5
42D
330
1F
100
AcDbEntity
  8
2
  6
CONTINUOUS
370
25
 62
7
100
AcDbLine
 10
-5.0
 20
-11.70975543736376
 30
0.0
 11
-4.758121197803133
 21
-11.95163423956063
 31
0.0
  0
LINE
  5
42E
330
1F
100
AcDbEntity
  8
2
  6
CONTINUOUS
370
25
 62
7
100
AcDbLine
 10
-5.0
 20
-11.28549136865183
 30
0.0
 11
-4.404567807209859
 21
-11.88092356144197
 31
0.0
  0
LINE
  5
42F
330
1F
100
AcDbEntity
  8
2
  6
CONTINUOUS
370
25
 62
7
100
AcDbLine
 10
-5.0
 20
-10.8612272999399
 30
0.0
 11
-4.051014416616583
 21
-11.81021288332332
 31
0.0
  0
LINE
  5
430
330
1F
100
AcDbEntity
  8
2
  6
CONTINUOUS
370
25
 62
7
100
AcDbLine
 10
-5.0
 20
-10.43696323122797
 30
0.0
 11
-3.697461026023309
 21
-11.73950220520466
 31
0.0
  0
LINE
  5
431
330
1F
100
AcDbEntity
  8
2
  6
CONTINUOUS
370
25
 62
7
100
AcDbLine
 10
-5.0
 20
-10.01269916251604
 30
0.0
 11
-3.343907635430036
 21
-11.66879152708601
 31
0.0
  0
LINE
  5
432
330
1F
100
AcDbEntity
  8
2
  6
CONTINUOUS
370
25
 62
7
100
AcDbLine
 10
-4.485531367255144
 20
-10.10290372654897
 30
0.0
 11
-2.990354244836762
 21
-11.59808084896735
 31
0.0
  0
LINE
  5
433
330
1F
100
AcDbEntity
  8
2
  6
CONTINUOUS
370
25
 62
7
100
AcDbLine
 10
-3.955201281365234
 20
-10.20896974372695
 30
0.0
 11
-2.636800854243488
 21
-11.5273701708487
 31
0.0
  0
LINE
  5
434
330
1F
100
AcDbEntity
  8
2
  6
CONTINUOUS
370
25
 62
7
100
AcDbLine
 10
-3.424871195475323
 20
-10.31503576090493
 30
0.0
 11
-2.283247463650215
 21
-11.45665949273004
 31
0.0
  0
LINE
  5
435
330
1F
100
AcDbEntity
  8
2
  6
CONTINUOUS
370
25
 62
7
100
AcDbLine
 10
-2.894541109585413
 20
-10.42110177808292
 30
0.0
 11
-1.929694073056942
 21
-11.38594881461139
 31
0.0
  0
LINE
  5
436
330
1F
100
AcDbEntity
  8
2
  6
CONTINUOUS
370
25
 62
7
100
AcDbLine
 10
-2.364211023695503
 20
-10.5271677952609
 30
0.0
 11
-1.576140682463668
 21
-11.31523813649273
 31
0.0
  0
LINE
  5
437
330
1F
100
AcDbEntity
  8
2
  6
CONTINUOUS
370
25
 62
7
100
AcDbLine
 10
-1.833880937805593
 20
-10.63323381243888
 30
0.0
 11
-1.222587291870395
 21
-11.24452745837408
 31
0.0
  0
LINE
  5
438
330
1F
100
AcDbEntity
  8
2
  6
CONTINUOUS
370
25
 62
7
100
AcDbLine
 10
-1.303550851915681
 20
-10.73929982961686
 30
0.0
 11
-0.8690339012771205
 21
-11.17381678025542
 31
0.0
  0
LINE
  5
439
330
1F
100
AcDbEntity
  8
2
  6
CONTINUOUS
370
25
 62
7
100
AcDbLine
 10
-0.7732207660257732
 20
-10.84536584679485
 30
0.0
 11
-0.5154805106838487
 21
-11.10310610213677
 31
0.0
  0
LINE
  5
43A
330
1F
100
AcDbEntity
  8
2
  6
CONTINUOUS
370
25
 62
7
100
AcDbLine
 10
-0.2428906801358611
 20
-10.95143186397283
 30
0.0
 11
-0.1619271200905741
 21
-11.03239542401811
 31
0.0
  0
LINE
  5
43B
330
1F
100
AcDbEntity
  8
2
  6
CONTINUOUS
370
25
 62
7
100
AcDbLine
 10
1.009999999999999
 20
-11.00001
 30
0.0
 11
6.01
 21
-10.00001
 31
0.0
  0
LINE
  5
43C
330
1F
100
AcDbEntity
  8
2
  6
CONTINUOUS
370
25
 62
7
100
AcDbLine
 10
6.01
 20
-10.00001
 30
0.0
 11
6.01
 21
-12.00001
 31
0.0
  0
LINE
  5
43D
330
1F
100
AcDbEntity
  8
2
  6
CONTINUOUS
370
25
 62
7
100
AcDbLine
 10
6.01
 20
-12.00001
 30
0.0
 11
1.009999999999999
 21
-11.00001
 31
0.0
  0
LINE
  5
43E
330
1F
100
AcDbEntity
  8
2
  6
CONTINUOUS
370
25
 62
7
100
AcDbLine
 10
5.90268108328325
 20
-11.97854621665665
 30
0.0
 11
6.01
 21
-11.8712272999399
 31
0.0
  0
LINE
  5
43F
330
1F
100
AcDbEntity
  8
2
  6
CONTINUOUS
370
25
 62
7
100
AcDbLine
 10
5.549127692689977
 20
-11.907835538538
 30
0.0
 11
6.01
 21
-11.44696323122797
 31
0.0
  0
LINE
  5
440
330
1F
100
AcDbEntity
  8
2
  6
CONTINUOUS
370
25
 62
7
100
AcDbLine
 10
5.195574302096704
 20
-11.83712486041934
 30
0.0
 11
6.01
 21
-11.02269916251604
 31
0.0
  0
LINE
  5
441
330
1F
100
AcDbEntity
  8
2
  6
CONTINUOUS
370
25
 62
7
100
AcDbLine
 10
4.842020911503431
 20
-11.76641418230069
 30
0.0
 11
6.01
 21
-10.59843509380412
 31
0.0
  0
LINE
  5
442
330
1F
100
AcDbEntity
  8
2
  6
CONTINUOUS
370
25
 62
7
100
AcDbLine
 10
4.488467520910158
 20
-11.69570350418203
 30
0.0
 11
6.01
 21
-10.17417102509219
 31
0.0
  0
LINE
  5
443
330
1F
100
AcDbEntity
  8
2
  6
CONTINUOUS
370
25
 62
7
100
AcDbLine
 10
4.134914130316884
 20
-11.62499282606338
 30
0.0
 11
5.697371195475327
 21
-10.06253576090493
 31
0.0
  0
LINE
  5
444
330
1F
100
AcDbEntity
  8
2
  6
CONTINUOUS
370
25
 62
7
100
AcDbLine
 10
3.78136073972361
 20
-11.55428214794472
 30
0.0
 11
5.167041109585417
 21
-10.16860177808292
 31
0.0
  0
LINE
  5
445
330
1F
100
AcDbEntity
  8
2
  6
CONTINUOUS
370
25
 62
7
100
AcDbLine
 10
3.427807349130337
 20
-11.48357146982607
 30
0.0
 11
4.636711023695507
 21
-10.2746677952609
 31
0.0
  0
LINE
  5
446
330
1F
100
AcDbEntity
  8
2
  6
CONTINUOUS
370
25
 62
7
100
AcDbLine
 10
3.074253958537064
 20
-11.41286079170741
 30
0.0
 11
4.106380937805598
 21
-10.38073381243888
 31
0.0
  0
LINE
  5
447
330
1F
100
AcDbEntity
  8
2
  6
CONTINUOUS
370
25
 62
7
100
AcDbLine
 10
2.720700567943791
 20
-11.34215011358876
 30
0.0
 11
3.576050851915688
 21
-10.48679982961686
 31
0.0
  0
LINE
  5
448
330
1F
100
AcDbEntity
  8
2
  6
CONTINUOUS
370
25
 62
7
100
AcDbLine
 10
2.367147177350517
 20
-11.2714394354701
 30
0.0
 11
3.045720766025778
 21
-10.59286584679484
 31
0.0
  0
LINE
  5
449
330
1F
100
AcDbEntity
  8
2
  6
CONTINUOUS
370
25
 62
7
100
AcDbLine
 10
2.013593786757243
 20
-11.20072875735145
 30
0.0
 11
2.515390680135865
 21
-10.69893186397283
 31
0.0
  0
LINE
  5
44A
330
1F
100
AcDbEntity
  8
2
  6
CONTINUOUS
370
25
 62
7
100
AcDbLine
 10
1.66004039616397
 20
-11.13001807923279
 30
0.0
 11
1.985060594245955
 21
-10.80499788115081
 31
0.0
  0
LINE
  5
44B
330
1F
100
AcDbEntity
  8
2
  6
CONTINUOUS
370
25
 62
7
100
AcDbLine
 10
1.306487005570697
 20
-11.05930740111414
 30
0.0
 11
1.454730508356046
 21
-10.91106389832879
 31
0.0
  0
LINE
  5
44C
330
1F
100
AcDbEntity
  8
2
  6
CONTINUOUS
370
25
 62
7
100
AcDbLine
 10
1.184238115077582
 20
-10.96516237698448
 30
0.0
 11
1.271357172616373
 21
-11.05228143452327
 31
0.0
  0
LINE
  5
44D
330
1F
100
AcDbEntity
  8
2
  6
CONTINUOUS
370
25
 62
7
100
AcDbLine
 10
1.537791505670856
 20
-10.89445169886583
 30
0.0
 11
1.801687258506285
 21
-11.15834745170126
 31
0.0
  0
LINE
  5
44E
330
1F
100
AcDbEntity
  8
2
  6
CONTINUOUS
370
25
 62
7
100
AcDbLine
 10
1.891344896264129
 20
-10.82374102074717
 30
0.0
 11
2.332017344396194
 21
-11.26441346887924
 31
0.0
  0
LINE
  5
44F
330
1F
100
AcDbEntity
  8
2
  6
CONTINUOUS
370
25
 62
7
100
AcDbLine
 10
2.244898286857404
 20
-10.75303034262852
 30
0.0
 11
2.862347430286105
 21
-11.37047948605722
 31
0.0
  0
LINE
  5
450
330
1F
100
AcDbEntity
  8
2
  6
CONTINUOUS
370
25
 62
7
100
AcDbLine
 10
2.598451677450676
 20
-10.68231966450986
 30
0.0
 11
3.392677516176013
 21
-11.4765455032352
 31
0.0
  0
LINE
  5
451
330
1F
100
AcDbEntity
  8
2
  6
CONTINUOUS
370
25
 62
7
100
AcDbLine
 10
2.952005068043951
 20
-10.61160898639121
 30
0.0
 11
3.923007602065925
 21
-11.58261152041318
 31
0.0
  0
LINE
  5
452
330
1F
100
AcDbEntity
  8
2
  6
CONTINUOUS
370
25
 62
7
100
AcDbLine
 10
3.305558458637224
 20
-10.54089830827255
 30
0.0
 11
4.453337687955836
 21
-11.68867753759117
 31
0.0
  0
LINE
  5
453
330
1F
100
AcDbEntity
  8
2
  6
CONTINUOUS
370
25
 62
7
100
AcDbLine
 10
3.659111849230497
 20
-10.4701876301539
 30
0.0
 11
4.983667773845745
 21
-11.79474355476915
 31
0.0
  0
LINE
  5
454
330
1F
100
AcDbEntity
  8
2
  6
CONTINUOUS
370
25
 62
7
100
AcDbLine
 10
4.01266523982377
 20
-10.39947695203525
 30
0.0
 11
5.513997859735654
 21
-11.90080957194713
 31
0.0
  0
LINE
  5
455
330
1F
100
AcDbEntity
  8
2
  6
CONTINUOUS
370
25
 62
7
100
AcDbLine
 10
4.366218630417045
 20
-10.32876627391659
 30
0.0
 11
6.01
 21
-11.97254764349955
 31
0.0
  0
LINE
  5
456
330
1F
100
AcDbEntity
  8
2
  6
CONTINUOUS
370
25
 62
7
100
AcDbLine
 10
4.719772021010319
 20
-10.25805559579794
 30
0.0
 11
6.01
 21
-11.54828357478762
 31
0.0
  0
LINE
  5
457
330
1F
100
AcDbEntity
  8
2
  6
CONTINUOUS
370
25
 62
7
100
AcDbLine
 10
5.073325411603592
 20
-10.18734491767928
 30
0.0
 11
6.01
 21
-11.12401950607569
 31
0.0
  0
LINE
  5
458
330
1F
100
AcDbEntity
  8
2
  6
CONTINUOUS
370
25
 62
7
100
AcDbLine
 10
5.426878802196864
 20
-10.11663423956063
 30
0.0
 11
6.01
 21
-10.69975543736376
 31
0.0
  0
LINE
  5
459
330
1F
100
AcDbEntity
  8
2
  6
CONTINUOUS
370
25
 62
7
100
AcDbLine
 10
5.780432192790139
 20
-10.04592356144197
 30
0.0
 11
6.01
 21
-10.27549136865183
 31
0.0
  0
TEXT
  5
45A
330
1F
100
AcDbEntity
  8
2
  6
CONTINUOUS
370
25
 62
7
100
AcDbText
 10
-15.52916666666667
 20
-10.00001
 30
0.0
 40
3.5
  1
1.01
 72
     1
 11
-11.7375
 21
-10.00001
 31
0.0
100
AcDbText
  0
LINE
  5
45B
330
1F
100
AcDbEntity
  8
NOCUT
  6
CONTINUOUS
370
25
 62
7
100
AcDbLine
 10
1.0
 20
0.0
 30
0.0
 11
13.25
 21
0.0
 31
0.0
  0
LINE
  5
45C
330
1F
100
AcDbEntity
  8
NOCUT
  6
CONTINUOUS
370
25
 62
7
100
AcDbLine
 10
13.25
 20
0.0
 30
0.0
 11
13.25
 21
0.25
 31
0.0
  0
LINE
  5
45D
330
1F
100
AcDbEntity
  8
NOCUT
  6
CONTINUOUS
370
25
 62
7
100
AcDbLine
 10
13.25
 20
0.25
 30
0.0
 11
3.25
 21
0.25
 31
0.0
  0
LINE
  5
45E
330
1F
100
AcDbEntity
  8
NOCUT
  6
CONTINUOUS
370
25
 62
7
100
AcDbLine
 10
3.25
 20
0.25
 30
0.0
 11
3.25
 21
0.35
 31
0.0
  0
LINE
  5
45F
330
1F
100
AcDbEntity
  8
NOCUT
  6
CONTINUOUS
370
25
 62
7
100
AcDbLine
 10
3.25
 20
0.35
 30
0.0
 11
3.189378221735089
 21
0.315
 31
0.0
  0
LINE
  5
460
330
1F
100
AcDbEntity
  8
NOCUT
  6
CONTINUOUS
370
25
 62
7
100
AcDbLine
 10
3.189378221735089
 20
0.315
 30
0.0
 11
2.186454803184681
 21
0.315
 31
0.0
  0
LINE
  5
461
330
1F
100
AcDbEntity
  8
NOCUT
  6
CONTINUOUS
370
25
 62
7
100
AcDbLine
 10
2.186454803184681
 20
0.315
 30
0.0
 11
1.0
 21
1.0
 31
0.0
  0
LINE
  5
462
330
1F
100
AcDbEntity
  8
CUT
  6
CONTINUOUS
370
25
 62
1
100
AcDbLine
 10
3.076794919243112
 20
0.25
 30
0.0
 11
3.25
 21
0.35
 31
0.0
  0
LINE
  5
463
330
1F
100
AcDbEntity
  8
CUT
  6
CONTINUOUS
370
25
 62
1
100
AcDbLine
 10
3.25
 20
0.35
 30
0.0
 11
13.15
 21
0.35
 31
0.0
  0
LINE
  5
464
330
1F
100
AcDbEntity
  8
CUT
  6
CONTINUOUS
370
25
 62
1
100
AcDbLine
 10
13.15
 20
0.35
 30
0.0
 11
13.25
 21
0.25
 31
0.0
  0
LINE
  5
465
330
1F
100
AcDbEntity
  8
CUT
  6
CONTINUOUS
370
25
 62
1
100
AcDbLine
 10
13.25
 20
0.25
 30
0.0
 11
3.076794919243111
 21
0.25
 31
0.0
  0
LINE
  5
466
330
1F
100
AcDbEntity
  8
2
  6
CONTINUOUS
370
25
 62
7
100
AcDbLine
 10
13.25
 20
-0.35
 30
0.0
 11
24.25
 21
-0.35
 31
0.0
  0
LINE
  5
467
330
1F
100
AcDbEntity
  8
2
  6
CONTINUOUS
370
25
 62
7
100
AcDbLine
 10
24.25
 20
0.35
 30
0.0
 11
13.25
 21
0.35
 31
0.0
  0
LINE
  5
468
330
1F
100
AcDbEntity
  8
2
  6
CONTINUOUS
370
25
 62
7
100
AcDbLine
 10
23.25
 20
22.19375
 30
0.0
 11
23.25
 21
-10.35
 31
0.0
  0
LINE
  5
469
330
1F
100
AcDbEntity
  8
2
  6
CONTINUOUS
370
25
 62
7
100
AcDbLine
 10
23.25
 20
-0.3499999999999999
 30
0.0
 11
24.25
 21
-5.35
 31
0.0
  0
LINE
  5
46A
330
1F
100
AcDbEntity
  8
2
  6
CONTINUOUS
370
25
 62
7
100
AcDbLine
 10
24.25
 20
-5.35
 30
0.0
 11
22.25
 21
-5.35
 31
0.0
  0
LINE
  5
46B
330
1F
100
AcDbEntity
  8
2
  6
CONTINUOUS
370
25
 62
7
100
AcDbLine
 10
22.25
 20
-5.35
 30
0.0
 11
23.25
 21
-0.3499999999999999
 31
0.0
  0
LINE
  5
46C
330
1F
100
AcDbEntity
  8
2
  6
CONTINUOUS
370
25
 62
7
100
AcDbLine
 10
23.83181337600593
 20
-5.350000000000001
 30
0.0
 11
24.18030222933432
 21
-5.001511146671614
 31
0.0
  0
LINE
  5
46D
330
1F
100
AcDbEntity
  8
2
  6
CONTINUOUS
370
25
 62
7
100
AcDbLine
 10
23.407549307294
 20
-5.350000000000001
 30
0.0
 11
24.10959155121567
 21
-4.647957756078331
 31
0.0
  0
LINE
  5
46E
330
1F
100
AcDbEntity
  8
2
  6
CONTINUOUS
370
25
 62
7
100
AcDbLine
 10
22.98328523858207
 20
-5.350000000000001
 30
0.0
 11
24.03888087309701
 21
-4.294404365485057
 31
0.0
  0
LINE
  5
46F
330
1F
100
AcDbEntity
  8
2
  6
CONTINUOUS
370
25
 62
7
100
AcDbLine
 10
22.55902116987015
 20
-5.350000000000001
 30
0.0
 11
23.96817019497836
 21
-3.940850974891788
 31
0.0
  0
LINE
  5
470
330
1F
100
AcDbEntity
  8
2
  6
CONTINUOUS
370
25
 62
7
100
AcDbLine
 10
22.27881072471044
 20
-5.205946376447777
 30
0.0
 11
23.89745951685971
 21
-3.587297584298511
 31
0.0
  0
LINE
  5
471
330
1F
100
AcDbEntity
  8
2
  6
CONTINUOUS
370
25
 62
7
100
AcDbLine
 10
22.38487674188843
 20
-4.675616290557866
 30
0.0
 11
23.82674883874105
 21
-3.233744193705238
 31
0.0
  0
LINE
  5
472
330
1F
100
AcDbEntity
  8
2
  6
CONTINUOUS
370
25
 62
7
100
AcDbLine
 10
22.49094275906641
 20
-4.145286204667954
 30
0.0
 11
23.7560381606224
 21
-2.880190803111969
 31
0.0
  0
LINE
  5
473
330
1F
100
AcDbEntity
  8
2
  6
CONTINUOUS
370
25
 62
7
100
AcDbLine
 10
22.59700877624439
 20
-3.614956118778046
 30
0.0
 11
23.68532748250374
 21
-2.526637412518696
 31
0.0
  0
LINE
  5
474
330
1F
100
AcDbEntity
  8
2
  6
CONTINUOUS
370
25
 62
7
100
AcDbLine
 10
22.70307479342237
 20
-3.084626032888139
 30
0.0
 11
23.61461680438509
 21
-2.173084021925419
 31
0.0
  0
LINE
  5
475
330
1F
100
AcDbEntity
  8
2
  6
CONTINUOUS
370
25
 62
7
100
AcDbLine
 10
22.80914081060035
 20
-2.554295946998227
 30
0.0
 11
23.54390612626643
 21
-1.81953063133215
 31
0.0
  0
LINE
  5
476
330
1F
100
AcDbEntity
  8
2
  6
CONTINUOUS
370
25
 62
7
100
AcDbLine
 10
22.91520682777834
 20
-2.023965861108312
 30
0.0
 11
23.47319544814777
 21
-1.465977240738876
 31
0.0
  0
LINE
  5
477
330
1F
100
AcDbEntity
  8
2
  6
CONTINUOUS
370
25
 62
7
100
AcDbLine
 10
23.02127284495632
 20
-1.493635775218404
 30
0.0
 11
23.40248477002912
 21
-1.112423850145603
 31
0.0
  0
LINE
  5
478
330
1F
100
AcDbEntity
  8
2
  6
CONTINUOUS
370
25
 62
7
100
AcDbLine
 10
23.1273388621343
 20
-0.9633056893284966
 30
0.0
 11
23.33177409191047
 21
-0.7588704595523268
 31
0.0
  0
LINE
  5
479
330
1F
100
AcDbEntity
  8
2
  6
CONTINUOUS
370
25
 62
7
100
AcDbLine
 10
23.23340487931228
 20
-0.4329756034385852
 30
0.0
 11
23.26106341379181
 21
-0.4053170689590537
 31
0.0
  0
LINE
  5
47A
330
1F
100
AcDbEntity
  8
2
  6
CONTINUOUS
370
25
 62
7
100
AcDbLine
 10
22.26176045807953
 20
-5.291197709602343
 30
0.0
 11
22.32056274847719
 21
-5.349999999999998
 31
0.0
  0
LINE
  5
47B
330
1F
100
AcDbEntity
  8
2
  6
CONTINUOUS
370
25
 62
7
100
AcDbLine
 10
22.33247113619818
 20
-4.937644319009067
 30
0.0
 11
22.74482681718912
 21
-5.350000000000001
 31
0.0
  0
LINE
  5
47C
330
1F
100
AcDbEntity
  8
2
  6
CONTINUOUS
370
25
 62
7
100
AcDbLine
 10
22.40318181431684
 20
-4.584090928415797
 30
0.0
 11
23.16909088590105
 21
-5.350000000000001
 31
0.0
  0
LINE
  5
47D
330
1F
100
AcDbEntity
  8
2
  6
CONTINUOUS
370
25
 62
7
100
AcDbLine
 10
22.4738924924355
 20
-4.230537537822524
 30
0.0
 11
23.59335495461297
 21
-5.350000000000001
 31
0.0
  0
LINE
  5
47E
330
1F
100
AcDbEntity
  8
2
  6
CONTINUOUS
370
25
 62
7
100
AcDbLine
 10
22.54460317055415
 20
-3.876984147229251
 30
0.0
 11
24.0176190233249
 21
-5.350000000000001
 31
0.0
  0
LINE
  5
47F
330
1F
100
AcDbEntity
  8
2
  6
CONTINUOUS
370
25
 62
7
100
AcDbLine
 10
22.6153138486728
 20
-3.523430756635978
 30
0.0
 11
24.2020292269908
 21
-5.110146134953968
 31
0.0
  0
LINE
  5
480
330
1F
100
AcDbEntity
  8
2
  6
CONTINUOUS
370
25
 62
7
100
AcDbLine
 10
22.68602452679146
 20
-3.169877366042705
 30
0.0
 11
24.09596320981281
 21
-4.579816049064053
 31
0.0
  0
LINE
  5
481
330
1F
100
AcDbEntity
  8
2
  6
CONTINUOUS
370
25
 62
7
100
AcDbLine
 10
22.75673520491011
 20
-2.816323975449432
 30
0.0
 11
23.98989719263483
 21
-4.049485963174149
 31
0.0
  0
LINE
  5
482
330
1F
100
AcDbEntity
  8
2
  6
CONTINUOUS
370
25
 62
7
100
AcDbLine
 10
22.82744588302877
 20
-2.462770584856155
 30
0.0
 11
23.88383117545685
 21
-3.519155877284241
 31
0.0
  0
LINE
  5
483
330
1F
100
AcDbEntity
  8
2
  6
CONTINUOUS
370
25
 62
7
100
AcDbLine
 10
22.89815656114742
 20
-2.109217194262882
 30
0.0
 11
23.77776515827887
 21
-2.988825791394333
 31
0.0
  0
LINE
  5
484
330
1F
100
AcDbEntity
  8
2
  6
CONTINUOUS
370
25
 62
7
100
AcDbLine
 10
22.96886723926608
 20
-1.755663803669613
 30
0.0
 11
23.67169914110089
 21
-2.458495705504422
 31
0.0
  0
LINE
  5
485
330
1F
100
AcDbEntity
  8
2
  6
CONTINUOUS
370
25
 62
7
100
AcDbLine
 10
23.03957791738473
 20
-1.40211041307634
 30
0.0
 11
23.5656331239229
 21
-1.928165619614511
 31
0.0
  0
LINE
  5
486
330
1F
100
AcDbEntity
  8
2
  6
CONTINUOUS
370
25
 62
7
100
AcDbLine
 10
23.11028859550339
 20
-1.048557022483063
 30
0.0
 11
23.45956710674492
 21
-1.397835533724592
 31
0.0
  0
LINE
  5
487
330
1F
100
AcDbEntity
  8
2
  6
CONTINUOUS
370
25
 62
7
100
AcDbLine
 10
23.18099927362204
 20
-0.6950036318897865
 30
0.0
 11
23.35350108956694
 21
-0.8675054478346809
 31
0.0
  0
LINE
  5
488
330
1F
100
AcDbEntity
  8
2
  6
CONTINUOUS
370
25
 62
7
100
AcDbLine
 10
23.25
 20
0.3500000000000001
 30
0.0
 11
22.25
 21
5.35
 31
0.0
  0
LINE
  5
489
330
1F
100
AcDbEntity
  8
2
  6
CONTINUOUS
370
25
 62
7
100
AcDbLine
 10
22.25
 20
5.35
 30
0.0
 11
24.25
 21
5.35
 31
0.0
  0
LINE
  5
48A
330
1F
100
AcDbEntity
  8
2
  6
CONTINUOUS
370
25
 62
7
100
AcDbLine
 10
24.25
 20
5.35
 30
0.0
 11
23.25
 21
0.3500000000000001
 31
0.0
  0
LINE
  5
48B
330
1F
100
AcDbEntity
  8
2
  6
CONTINUOUS
370
25
 62
7
100
AcDbLine
 10
23.24549703342484
 20
0.3725148328757726
 30
0.0
 11
23.25675444986274
 21
0.3837722493136688
 31
0.0
  0
LINE
  5
48C
330
1F
100
AcDbEntity
  8
2
  6
CONTINUOUS
370
25
 62
7
100
AcDbLine
 10
23.17478635530619
 20
0.7260682234690456
 30
0.0
 11
23.36282046704072
 21
0.9141023352035802
 31
0.0
  0
LINE
  5
48D
330
1F
100
AcDbEntity
  8
2
  6
CONTINUOUS
370
25
 62
7
100
AcDbLine
 10
23.10407567718754
 20
1.079621614062322
 30
0.0
 11
23.4688864842187
 21
1.444432421093481
 31
0.0
  0
LINE
  5
48E
330
1F
100
AcDbEntity
  8
2
  6
CONTINUOUS
370
25
 62
7
100
AcDbLine
 10
23.03336499906888
 20
1.433175004655595
 30
0.0
 11
23.57495250139668
 21
1.974762506983392
 31
0.0
  0
LINE
  5
48F
330
1F
100
AcDbEntity
  8
2
  6
CONTINUOUS
370
25
 62
7
100
AcDbLine
 10
22.96265432095023
 20
1.786728395248865
 30
0.0
 11
23.68101851857466
 21
2.5050925928733
 31
0.0
  0
LINE
  5
490
330
1F
100
AcDbEntity
  8
2
  6
CONTINUOUS
370
25
 62
7
100
AcDbLine
 10
22.89194364283157
 20
2.140281785842138
 30
0.0
 11
23.78708453575264
 21
3.035422678763211
 31
0.0
  0
LINE
  5
491
330
1F
100
AcDbEntity
  8
2
  6
CONTINUOUS
370
25
 62
7
100
AcDbLine
 10
22.82123296471292
 20
2.493835176435415
 30
0.0
 11
23.89315055293062
 21
3.565752764653119
 31
0.0
  0
LINE
  5
492
330
1F
100
AcDbEntity
  8
2
  6
CONTINUOUS
370
25
 62
7
100
AcDbLine
 10
22.75052228659426
 20
2.847388567028684
 30
0.0
 11
23.99921657010861
 21
4.096082850543031
 31
0.0
  0
LINE
  5
493
330
1F
100
AcDbEntity
  8
2
  6
CONTINUOUS
370
25
 62
7
100
AcDbLine
 10
22.67981160847561
 20
3.200941957621961
 30
0.0
 11
24.10528258728659
 21
4.626412936432942
 31
0.0
  0
LINE
  5
494
330
1F
100
AcDbEntity
  8
2
  6
CONTINUOUS
370
25
 62
7
100
AcDbLine
 10
22.60910093035695
 20
3.554495348215234
 30
0.0
 11
24.21134860446457
 21
5.15674302232285
 31
0.0
  0
LINE
  5
495
330
1F
100
AcDbEntity
  8
2
  6
CONTINUOUS
370
25
 62
7
100
AcDbLine
 10
22.5383902522383
 20
3.90804873880851
 30
0.0
 11
23.9803415134298
 21
5.350000000000001
 31
0.0
  0
LINE
  5
496
330
1F
100
AcDbEntity
  8
2
  6
CONTINUOUS
370
25
 62
7
100
AcDbLine
 10
22.46767957411964
 20
4.26160212940178
 30
0.0
 11
23.55607744471787
 21
5.350000000000001
 31
0.0
  0
LINE
  5
497
330
1F
100
AcDbEntity
  8
2
  6
CONTINUOUS
370
25
 62
7
100
AcDbLine
 10
22.39696889600099
 20
4.615155519995053
 30
0.0
 11
23.13181337600594
 21
5.350000000000001
 31
0.0
  0
LINE
  5
498
330
1F
100
AcDbEntity
  8
2
  6
CONTINUOUS
370
25
 62
7
100
AcDbLine
 10
22.32625821788233
 20
4.968708910588326
 30
0.0
 11
22.70754930729401
 21
5.350000000000001
 31
0.0
  0
LINE
  5
499
330
1F
100
AcDbEntity
  8
2
  6
CONTINUOUS
370
25
 62
7
100
AcDbLine
 10
22.25554753976368
 20
5.322262301181592
 30
0.0
 11
22.28328523858208
 21
5.350000000000001
 31
0.0
  0
LINE
  5
49A
330
1F
100
AcDbEntity
  8
2
  6
CONTINUOUS
370
25
 62
7
100
AcDbLine
 10
23.21030303803299
 20
0.5484848098350383
 30
0.0
 11
23.27646464131134
 21
0.4823232065566927
 31
0.0
  0
LINE
  5
49B
330
1F
100
AcDbEntity
  8
2
  6
CONTINUOUS
370
25
 62
7
100
AcDbLine
 10
23.10423702085501
 20
1.078814895724943
 30
0.0
 11
23.34717531942999
 21
0.8358765971499622
 31
0.0
  0
LINE
  5
49C
330
1F
100
AcDbEntity
  8
2
  6
CONTINUOUS
370
25
 62
7
100
AcDbLine
 10
22.99817100367703
 20
1.609144981614854
 30
0.0
 11
23.41788599754864
 21
1.189429987743239
 31
0.0
  0
LINE
  5
49D
330
1F
100
AcDbEntity
  8
2
  6
CONTINUOUS
370
25
 62
7
100
AcDbLine
 10
22.89210498649905
 20
2.139475067504769
 30
0.0
 11
23.4885966756673
 21
1.542983378336512
 31
0.0
  0
LINE
  5
49E
330
1F
100
AcDbEntity
  8
2
  6
CONTINUOUS
370
25
 62
7
100
AcDbLine
 10
22.78603896932107
 20
2.669805153394677
 30
0.0
 11
23.55930735378596
 21
1.896536768929785
 31
0.0
  0
LINE
  5
49F
330
1F
100
AcDbEntity
  8
2
  6
CONTINUOUS
370
25
 62
7
100
AcDbLine
 10
22.67997295214308
 20
3.200135239284588
 30
0.0
 11
23.63001803190461
 21
2.250090159523062
 31
0.0
  0
LINE
  5
4A0
330
1F
100
AcDbEntity
  8
2
  6
CONTINUOUS
370
25
 62
7
100
AcDbLine
 10
22.5739069349651
 20
3.730465325174496
 30
0.0
 11
23.70072871002327
 21
2.603643550116331
 31
0.0
  0
LINE
  5
4A1
330
1F
100
AcDbEntity
  8
2
  6
CONTINUOUS
370
25
 62
7
100
AcDbLine
 10
22.46784091778712
 20
4.260795411064411
 30
0.0
 11
23.77143938814192
 21
2.957196940709611
 31
0.0
  0
LINE
  5
4A2
330
1F
100
AcDbEntity
  8
2
  6
CONTINUOUS
370
25
 62
7
100
AcDbLine
 10
22.36177490060913
 20
4.791125496954322
 30
0.0
 11
23.84215006626058
 21
3.310750331302881
 31
0.0
  0
LINE
  5
4A3
330
1F
100
AcDbEntity
  8
2
  6
CONTINUOUS
370
25
 62
7
100
AcDbLine
 10
22.25570888343115
 20
5.32145558284423
 30
0.0
 11
23.91286074437923
 21
3.66430372189615
 31
0.0
  0
LINE
  5
4A4
330
1F
100
AcDbEntity
  8
2
  6
CONTINUOUS
370
25
 62
7
100
AcDbLine
 10
22.65142853498731
 20
5.349999999999998
 30
0.0
 11
23.98357142249789
 21
4.017857112489423
 31
0.0
  0
LINE
  5
4A5
330
1F
100
AcDbEntity
  8
2
  6
CONTINUOUS
370
25
 62
7
100
AcDbLine
 10
23.07569260369924
 20
5.349999999999998
 30
0.0
 11
24.05428210061654
 21
4.3714105030827
 31
0.0
  0
LINE
  5
4A6
330
1F
100
AcDbEntity
  8
2
  6
CONTINUOUS
370
25
 62
7
100
AcDbLine
 10
23.49995667241117
 20
5.349999999999998
 30
0.0
 11
24.12499277873519
 21
4.724963893675973
 31
0.0
  0
LINE
  5
4A7
330
1F
100
AcDbEntity
  8
2
  6
CONTINUOUS
370
25
 62
7
100
AcDbLine
 10
23.9242207411231
 20
5.349999999999998
 30
0.0
 11
24.19570345685385
 21
5.078517284269246
 31
0.0
  0
TEXT
  5
4A8
330
1F
100
AcDbEntity
  8
2
  6
CONTINUOUS
370
25
 62
7
100
AcDbText
 10
22.25
 20
12.06354166666667
 30
0.0
 40
3.5
  1
0.7
 50
90.00000000000001
 72
     1
 11
22.25
 21
15.271875
 31
0.0
100
AcDbText
  0
CIRCLE
  5
4A9
330
1F
100
AcDbEntity
  8
2
  6
CONTINUOUS
370
25
 62
7
100
AcDbCircle
 10
20.71875
 20
7.554374999999999
 30
0.0
 40
1.531250000000001
  0
LINE
  5
4AA
330
1F
100
AcDbEntity
  8
2
  6
CONTINUOUS
370
25
 62
7
100
AcDbLine
 10
22.25
 20
6.023124999999999
 30
0.0
 11
19.1875
 21
9.085624999999999
 31
0.0
  0
LINE
  5
4AB
330
1F
100
AcDbEntity
  8
SK2
  6
CONTINUOUS
370
25
 62
7
100
AcDbLine
 10
-36.75
 20
0.0
 30
0.0
 11
-36.75
 21
19.00001
 31
0.0
  0
LINE
  5
4AC
330
1F
100
AcDbEntity
  8
SK2
  6
CONTINUOUS
370
25
 62
7
100
AcDbLine
 10
13.25
 20
19.00001
 30
0.0
 11
13.25
 21
0.3499999999999979
 31
0.0
  0
LINE
  5
4AD
330
1F
100
AcDbEntity
  8
SK2
  6
CONTINUOUS
370
25
 62
7
100
AcDbLine
 10
-36.75
 20
18.00001
 30
0.0
 11
13.25
 21
18.00001
 31
0.0
  0
LINE
  5
4AE
330
1F
100
AcDbEntity
  8
SK2
  6
CONTINUOUS
370
25
 62
7
100
AcDbLine
 10
-36.75
 20
18.00001
 30
0.0
 11
-31.75
 21
19.00001
 31
0.0
  0
LINE
  5
4AF
330
1F
100
AcDbEntity
  8
SK2
  6
CONTINUOUS
370
25
 62
7
100
AcDbLine
 10
-31.75
 20
19.00001
 30
0.0
 11
-31.75
 21
17.00001
 31
0.0
  0
LINE
  5
4B0
330
1F
100
AcDbEntity
  8
SK2
  6
CONTINUOUS
370
25
 62
7
100
AcDbLine
 10
-31.75
 20
17.00001
 30
0.0
 11
-36.75
 21
18.00001
 31
0.0
  0
LINE
  5
4B1
330
1F
100
AcDbEntity
  8
SK2
  6
CONTINUOUS
370
25
 62
7
100
AcDbLine
 10
-31.78363158489313
 20
17.00673631697862
 30
0.0
 11
-31.75
 21
17.04036790187175
 31
0.0
  0
LINE
  5
4B2
330
1F
100
AcDbEntity
  8
SK2
  6
CONTINUOUS
370
25
 62
7
100
AcDbLine
 10
-32.1371849754864
 20
17.07744699509728
 30
0.0
 11
-31.75
 21
17.46463197058368
 31
0.0
  0
LINE
  5
4B3
330
1F
100
AcDbEntity
  8
SK2
  6
CONTINUOUS
370
25
 62
7
100
AcDbLine
 10
-32.49073836607968
 20
17.14815767321593
 30
0.0
 11
-31.75
 21
17.88889603929561
 31
0.0
  0
LINE
  5
4B4
330
1F
100
AcDbEntity
  8
SK2
  6
CONTINUOUS
370
25
 62
7
100
AcDbLine
 10
-32.84429175667295
 20
17.21886835133459
 30
0.0
 11
-31.75
 21
18.31316010800754
 31
0.0
  0
LINE
  5
4B5
330
1F
100
AcDbEntity
  8
SK2
  6
CONTINUOUS
370
25
 62
7
100
AcDbLine
 10
-33.19784514726624
 20
17.28957902945324
 30
0.0
 11
-31.75
 21
18.73742417671947
 31
0.0
  0
LINE
  5
4B6
330
1F
100
AcDbEntity
  8
SK2
  6
CONTINUOUS
370
25
 62
7
100
AcDbLine
 10
-33.55139853785951
 20
17.36028970757189
 30
0.0
 11
-31.95209780678924
 21
18.95959043864216
 31
0.0
  0
LINE
  5
4B7
330
1F
100
AcDbEntity
  8
SK2
  6
CONTINUOUS
370
25
 62
7
100
AcDbLine
 10
-33.90495192845277
 20
17.43100038569055
 30
0.0
 11
-32.48242789267915
 21
18.85352442146417
 31
0.0
  0
LINE
  5
4B8
330
1F
100
AcDbEntity
  8
SK2
  6
CONTINUOUS
370
25
 62
7
100
AcDbLine
 10
-34.25850531904604
 20
17.50171106380922
 30
0.0
 11
-33.01275797856907
 21
18.74745840428618
 31
0.0
  0
LINE
  5
4B9
330
1F
100
AcDbEntity
  8
SK2
  6
CONTINUOUS
370
25
 62
7
100
AcDbLine
 10
-34.61205870963933
 20
17.57242174192786
 30
0.0
 11
-33.54308806445898
 21
18.6413923871082
 31
0.0
  0
LINE
  5
4BA
330
1F
100
AcDbEntity
  8
SK2
  6
CONTINUOUS
370
25
 62
7
100
AcDbLine
 10
-34.9656121002326
 20
17.64313242004652
 30
0.0
 11
-34.07341815034889
 21
18.53532636993022
 31
0.0
  0
LINE
  5
4BB
330
1F
100
AcDbEntity
  8
SK2
  6
CONTINUOUS
370
25
 62
7
100
AcDbLine
 10
-35.31916549082587
 20
17.71384309816517
 30
0.0
 11
-34.6037482362388
 21
18.42926035275224
 31
0.0
  0
LINE
  5
4BC
330
1F
100
AcDbEntity
  8
SK2
  6
CONTINUOUS
370
25
 62
7
100
AcDbLine
 10
-35.67271888141915
 20
17.78455377628383
 30
0.0
 11
-35.13407832212872
 21
18.32319433557426
 31
0.0
  0
LINE
  5
4BD
330
1F
100
AcDbEntity
  8
SK2
  6
CONTINUOUS
370
25
 62
7
100
AcDbLine
 10
-36.02627227201243
 20
17.85526445440248
 30
0.0
 11
-35.66440840801864
 21
18.21712831839628
 31
0.0
  0
LINE
  5
4BE
330
1F
100
AcDbEntity
  8
SK2
  6
CONTINUOUS
370
25
 62
7
100
AcDbLine
 10
-36.3798256626057
 20
17.92597513252115
 30
0.0
 11
-36.19473849390855
 21
18.11106230121829
 31
0.0
  0
LINE
  5
4BF
330
1F
100
AcDbEntity
  8
SK2
  6
CONTINUOUS
370
25
 62
7
100
AcDbLine
 10
-36.73337905319898
 20
17.9966858106398
 30
0.0
 11
-36.72506857979847
 21
18.0049962840403
 31
0.0
  0
LINE
  5
4C0
330
1F
100
AcDbEntity
  8
SK2
  6
CONTINUOUS
370
25
 62
7
100
AcDbLine
 10
-36.45112401579706
 20
18.05978519684059
 30
0.0
 11
-36.30168602369557
 21
17.91034720473911
 31
0.0
  0
LINE
  5
4C1
330
1F
100
AcDbEntity
  8
SK2
  6
CONTINUOUS
370
25
 62
7
100
AcDbLine
 10
-36.09757062520378
 20
18.13049587495924
 30
0.0
 11
-35.77135593780567
 21
17.80428118756113
 31
0.0
  0
LINE
  5
4C2
330
1F
100
AcDbEntity
  8
SK2
  6
CONTINUOUS
370
25
 62
7
100
AcDbLine
 10
-35.7440172346105
 20
18.2012065530779
 30
0.0
 11
-35.24102585191575
 21
17.69821517038315
 31
0.0
  0
LINE
  5
4C3
330
1F
100
AcDbEntity
  8
SK2
  6
CONTINUOUS
370
25
 62
7
100
AcDbLine
 10
-35.39046384401723
 20
18.27191723119656
 30
0.0
 11
-34.71069576602584
 21
17.59214915320517
 31
0.0
  0
LINE
  5
4C4
330
1F
100
AcDbEntity
  8
SK2
  6
CONTINUOUS
370
25
 62
7
100
AcDbLine
 10
-35.03691045342396
 20
18.34262790931521
 30
0.0
 11
-34.18036568013593
 21
17.48608313602718
 31
0.0
  0
LINE
  5
4C5
330
1F
100
AcDbEntity
  8
SK2
  6
CONTINUOUS
370
25
 62
7
100
AcDbLine
 10
-34.68335706283068
 20
18.41333858743387
 30
0.0
 11
-33.65003559424602
 21
17.38001711884921
 31
0.0
  0
LINE
  5
4C6
330
1F
100
AcDbEntity
  8
SK2
  6
CONTINUOUS
370
25
 62
7
100
AcDbLine
 10
-34.3298036722374
 20
18.48404926555252
 30
0.0
 11
-33.11970550835611
 21
17.27395110167122
 31
0.0
  0
LINE
  5
4C7
330
1F
100
AcDbEntity
  8
SK2
  6
CONTINUOUS
370
25
 62
7
100
AcDbLine
 10
-33.97625028164413
 20
18.55475994367118
 30
0.0
 11
-32.5893754224662
 21
17.16788508449323
 31
0.0
  0
LINE
  5
4C8
330
1F
100
AcDbEntity
  8
SK2
  6
CONTINUOUS
370
25
 62
7
100
AcDbLine
 10
-33.62269689105086
 20
18.62547062178983
 30
0.0
 11
-32.05904533657629
 21
17.06181906731526
 31
0.0
  0
LINE
  5
4C9
330
1F
100
AcDbEntity
  8
SK2
  6
CONTINUOUS
370
25
 62
7
100
AcDbLine
 10
-33.26914350045758
 20
18.69618129990848
 30
0.0
 11
-31.75
 21
17.1770377994509
 31
0.0
  0
LINE
  5
4CA
330
1F
100
AcDbEntity
  8
SK2
  6
CONTINUOUS
370
25
 62
7
100
AcDbLine
 10
-32.9155901098643
 20
18.76689197802714
 30
0.0
 11
-31.75
 21
17.60130186816283
 31
0.0
  0
LINE
  5
4CB
330
1F
100
AcDbEntity
  8
SK2
  6
CONTINUOUS
370
25
 62
7
100
AcDbLine
 10
-32.56203671927104
 20
18.83760265614579
 30
0.0
 11
-31.75
 21
18.02556593687475
 31
0.0
  0
LINE
  5
4CC
330
1F
100
AcDbEntity
  8
SK2
  6
CONTINUOUS
370
25
 62
7
100
AcDbLine
 10
-32.20848332867777
 20
18.90831333426445
 30
0.0
 11
-31.75
 21
18.44983000558668
 31
0.0
  0
LINE
  5
4CD
330
1F
100
AcDbEntity
  8
SK2
  6
CONTINUOUS
370
25
 62
7
100
AcDbLine
 10
-31.85492993808449
 20
18.97902401238311
 30
0.0
 11
-31.75
 21
18.87409407429861
 31
0.0
  0
LINE
  5
4CE
330
1F
100
AcDbEntity
  8
SK2
  6
CONTINUOUS
370
25
 62
7
100
AcDbLine
 10
13.25
 20
18.00001
 30
0.0
 11
8.25
 21
17.00001
 31
0.0
  0
LINE
  5
4CF
330
1F
100
AcDbEntity
  8
SK2
  6
CONTINUOUS
370
25
 62
7
100
AcDbLine
 10
8.25
 20
17.00001
 30
0.0
 11
8.25
 21
19.00001
 31
0.0
  0
LINE
  5
4D0
330
1F
100
AcDbEntity
  8
SK2
  6
CONTINUOUS
370
25
 62
7
100
AcDbLine
 10
8.25
 20
19.00001
 30
0.0
 11
13.25
 21
18.00001
 31
0.0
  0
LINE
  5
4D1
330
1F
100
AcDbEntity
  8
SK2
  6
CONTINUOUS
370
25
 62
7
100
AcDbLine
 10
12.82355146932108
 20
17.91472029386421
 30
0.0
 11
12.96570097954739
 21
18.05686980409052
 31
0.0
  0
LINE
  5
4D2
330
1F
100
AcDbEntity
  8
SK2
  6
CONTINUOUS
370
25
 62
7
100
AcDbLine
 10
12.29322138343117
 20
17.80865427668623
 30
0.0
 11
12.61214758895411
 21
18.12758048220918
 31
0.0
  0
LINE
  5
4D3
330
1F
100
AcDbEntity
  8
SK2
  6
CONTINUOUS
370
25
 62
7
100
AcDbLine
 10
11.76289129754126
 20
17.70258825950825
 30
0.0
 11
12.25859419836084
 21
18.19829116032783
 31
0.0
  0
LINE
  5
4D4
330
1F
100
AcDbEntity
  8
SK2
  6
CONTINUOUS
370
25
 62
7
100
AcDbLine
 10
11.23256121165135
 20
17.59652224233027
 30
0.0
 11
11.90504080776757
 21
18.26900183844648
 31
0.0
  0
LINE
  5
4D5
330
1F
100
AcDbEntity
  8
SK2
  6
CONTINUOUS
370
25
 62
7
100
AcDbLine
 10
10.70223112576144
 20
17.49045622515229
 30
0.0
 11
11.55148741717429
 21
18.33971251656514
 31
0.0
  0
LINE
  5
4D6
330
1F
100
AcDbEntity
  8
SK2
  6
CONTINUOUS
370
25
 62
7
100
AcDbLine
 10
10.17190103987153
 20
17.38439020797431
 30
0.0
 11
11.19793402658102
 21
18.41042319468379
 31
0.0
  0
LINE
  5
4D7
330
1F
100
AcDbEntity
  8
SK2
  6
CONTINUOUS
370
25
 62
7
100
AcDbLine
 10
9.64157095398162
 20
17.27832419079632
 30
0.0
 11
10.84438063598775
 21
18.48113387280245
 31
0.0
  0
LINE
  5
4D8
330
1F
100
AcDbEntity
  8
SK2
  6
CONTINUOUS
370
25
 62
7
100
AcDbLine
 10
9.11124086809171
 20
17.17225817361834
 30
0.0
 11
10.49082724539447
 21
18.5518445509211
 31
0.0
  0
LINE
  5
4D9
330
1F
100
AcDbEntity
  8
SK2
  6
CONTINUOUS
370
25
 62
7
100
AcDbLine
 10
8.5809107822018
 20
17.06619215644036
 30
0.0
 11
10.1372738548012
 21
18.62255522903976
 31
0.0
  0
LINE
  5
4DA
330
1F
100
AcDbEntity
  8
SK2
  6
CONTINUOUS
370
25
 62
7
100
AcDbLine
 10
8.25
 20
17.15954544295049
 30
0.0
 11
9.783720464207928
 21
18.69326590715841
 31
0.0
  0
LINE
  5
4DB
330
1F
100
AcDbEntity
  8
SK2
  6
CONTINUOUS
370
25
 62
7
100
AcDbLine
 10
8.25
 20
17.58380951166242
 30
0.0
 11
9.430167073614655
 21
18.76397658527707
 31
0.0
  0
LINE
  5
4DC
330
1F
100
AcDbEntity
  8
SK2
  6
CONTINUOUS
370
25
 62
7
100
AcDbLine
 10
8.25
 20
18.00807358037434
 30
0.0
 11
9.07661368302138
 21
18.83468726339572
 31
0.0
  0
LINE
  5
4DD
330
1F
100
AcDbEntity
  8
SK2
  6
CONTINUOUS
370
25
 62
7
100
AcDbLine
 10
8.25
 20
18.43233764908627
 30
0.0
 11
8.723060292428107
 21
18.90539794151438
 31
0.0
  0
LINE
  5
4DE
330
1F
100
AcDbEntity
  8
SK2
  6
CONTINUOUS
370
25
 62
7
100
AcDbLine
 10
8.25
 20
18.8566017177982
 30
0.0
 11
8.369506901834834
 21
18.97610861963303
 31
0.0
  0
LINE
  5
4DF
330
1F
100
AcDbEntity
  8
SK2
  6
CONTINUOUS
370
25
 62
7
100
AcDbLine
 10
8.25
 20
17.20584412271571
 30
0.0
 11
8.421528435596423
 21
17.03431568711929
 31
0.0
  0
LINE
  5
4E0
330
1F
100
AcDbEntity
  8
SK2
  6
CONTINUOUS
370
25
 62
7
100
AcDbLine
 10
8.25
 20
17.63010819142764
 30
0.0
 11
8.775081826189696
 21
17.10502636523794
 31
0.0
  0
LINE
  5
4E1
330
1F
100
AcDbEntity
  8
SK2
  6
CONTINUOUS
370
25
 62
7
100
AcDbLine
 10
8.25
 20
18.05437226013957
 30
0.0
 11
9.12863521678297
 21
17.17573704335659
 31
0.0
  0
LINE
  5
4E2
330
1F
100
AcDbEntity
  8
SK2
  6
CONTINUOUS
370
25
 62
7
100
AcDbLine
 10
8.25
 20
18.47863632885149
 30
0.0
 11
9.482188607376244
 21
17.24644772147525
 31
0.0
  0
LINE
  5
4E3
330
1F
100
AcDbEntity
  8
SK2
  6
CONTINUOUS
370
25
 62
7
100
AcDbLine
 10
8.25
 20
18.90290039756342
 30
0.0
 11
9.835741997969517
 21
17.3171583995939
 31
0.0
  0
LINE
  5
4E4
330
1F
100
AcDbEntity
  8
SK2
  6
CONTINUOUS
370
25
 62
7
100
AcDbLine
 10
8.658943082844186
 20
18.91822138343116
 30
0.0
 11
10.18929538856279
 21
17.38786907771256
 31
0.0
  0
LINE
  5
4E5
330
1F
100
AcDbEntity
  8
SK2
  6
CONTINUOUS
370
25
 62
7
100
AcDbLine
 10
9.189273168734097
 20
18.81215536625318
 30
0.0
 11
10.54284877915606
 21
17.45857975583121
 31
0.0
  0
LINE
  5
4E6
330
1F
100
AcDbEntity
  8
SK2
  6
CONTINUOUS
370
25
 62
7
100
AcDbLine
 10
9.719603254624007
 20
18.7060893490752
 30
0.0
 11
10.89640216974934
 21
17.52929043394987
 31
0.0
  0
LINE
  5
4E7
330
1F
100
AcDbEntity
  8
SK2
  6
CONTINUOUS
370
25
 62
7
100
AcDbLine
 10
10.24993334051392
 20
18.60002333189721
 30
0.0
 11
11.24995556034261
 21
17.60000111206852
 31
0.0
  0
LINE
  5
4E8
330
1F
100
AcDbEntity
  8
SK2
  6
CONTINUOUS
370
25
 62
7
100
AcDbLine
 10
10.78026342640383
 20
18.49395731471923
 30
0.0
 11
11.60350895093588
 21
17.67071179018718
 31
0.0
  0
LINE
  5
4E9
330
1F
100
AcDbEntity
  8
SK2
  6
CONTINUOUS
370
25
 62
7
100
AcDbLine
 10
11.31059351229374
 20
18.38789129754125
 30
0.0
 11
11.95706234152916
 21
17.74142246830583
 31
0.0
  0
LINE
  5
4EA
330
1F
100
AcDbEntity
  8
SK2
  6
CONTINUOUS
370
25
 62
7
100
AcDbLine
 10
11.84092359818364
 20
18.28182528036327
 30
0.0
 11
12.31061573212243
 21
17.81213314642449
 31
0.0
  0
LINE
  5
4EB
330
1F
100
AcDbEntity
  8
SK2
  6
CONTINUOUS
370
25
 62
7
100
AcDbLine
 10
12.37125368407355
 20
18.17575926318528
 30
0.0
 11
12.6641691227157
 21
17.88284382454314
 31
0.0
  0
LINE
  5
4EC
330
1F
100
AcDbEntity
  8
SK2
  6
CONTINUOUS
370
25
 62
7
100
AcDbLine
 10
12.90158376996346
 20
18.0696932460073
 30
0.0
 11
13.01772251330897
 21
17.9535545026618
 31
0.0
  0
TEXT
  5
4ED
330
1F
100
AcDbEntity
  8
SK2
  6
CONTINUOUS
370
25
 62
7
100
AcDbText
 10
-14.375
 20
19.00001
 30
0.0
 40
3.5
  1
50
 72
     1
 11
-11.75
 21
19.00001
 31
0.0
100
AcDbText
  0
LINE
  5
4EE
330
1F
100
AcDbEntity
  8
2
  6
CONTINUOUS
370
25
 62
7
100
AcDbLine
 10
-0.0000000000000001
 20
0.0
 30
0.0
 11
0.0000000000000007
 21
12.00001
 31
0.0
  0
LINE
  5
4EF
330
1F
100
AcDbEntity
  8
2
  6
CONTINUOUS
370
25
 62
7
100
AcDbLine
 10
13.25
 20
12.00001
 30
0.0
 11
13.25
 21
0.3499999999999996
 31
0.0
  0
LINE
  5
4F0
330
1F
100
AcDbEntity
  8
2
  6
CONTINUOUS
370
25
 62
7
100
AcDbLine
 10
35.09375
 20
11.00001
 30
0.0
 11
-10.0
 21
11.00001
 31
0.0
  0
LINE
  5
4F1
330
1F
100
AcDbEntity
  8
2
  6
CONTINUOUS
370
25
 62
7
100
AcDbLine
 10
0.0
 20
11.00001
 30
0.0
 11
-5.0
 21
10.00001
 31
0.0
  0
LINE
  5
4F2
330
1F
100
AcDbEntity
  8
2
  6
CONTINUOUS
370
25
 62
7
100
AcDbLine
 10
-5.0
 20
10.00001
 30
0.0
 11
-5.0
 21
12.00001
 31
0.0
  0
LINE
  5
4F3
330
1F
100
AcDbEntity
  8
2
  6
CONTINUOUS
370
25
 62
7
100
AcDbLine
 10
-5.0
 20
12.00001
 30
0.0
 11
0.0
 21
11.00001
 31
0.0
  0
LINE
  5
4F4
330
1F
100
AcDbEntity
  8
2
  6
CONTINUOUS
370
25
 62
7
100
AcDbLine
 10
-0.0385697331376744
 20
10.99229605337247
 30
0.0
 11
-0.0257131554251163
 21
11.00515263108502
 31
0.0
  0
LINE
  5
4F5
330
1F
100
AcDbEntity
  8
2
  6
CONTINUOUS
370
25
 62
7
100
AcDbLine
 10
-0.568899819027584
 20
10.88623003619448
 30
0.0
 11
-0.3792665460183894
 21
11.07586330920368
 31
0.0
  0
LINE
  5
4F6
330
1F
100
AcDbEntity
  8
2
  6
CONTINUOUS
370
25
 62
7
100
AcDbLine
 10
-1.099229904917494
 20
10.7801640190165
 30
0.0
 11
-0.7328199366116624
 21
11.14657398732233
 31
0.0
  0
LINE
  5
4F7
330
1F
100
AcDbEntity
  8
2
  6
CONTINUOUS
370
25
 62
7
100
AcDbLine
 10
-1.629559990807405
 20
10.67409800183852
 30
0.0
 11
-1.086373327204937
 21
11.21728466544099
 31
0.0
  0
LINE
  5
4F8
330
1F
100
AcDbEntity
  8
2
  6
CONTINUOUS
370
25
 62
7
100
AcDbLine
 10
-2.159890076697314
 20
10.56803198466054
 30
0.0
 11
-1.43992671779821
 21
11.28799534355964
 31
0.0
  0
LINE
  5
4F9
330
1F
100
AcDbEntity
  8
2
  6
CONTINUOUS
370
25
 62
7
100
AcDbLine
 10
-2.690220162587224
 20
10.46196596748256
 30
0.0
 11
-1.793480108391483
 21
11.3587060216783
 31
0.0
  0
LINE
  5
4FA
330
1F
100
AcDbEntity
  8
2
  6
CONTINUOUS
370
25
 62
7
100
AcDbLine
 10
-3.220550248477135
 20
10.35589995030457
 30
0.0
 11
-2.147033498984757
 21
11.42941669979695
 31
0.0
  0
LINE
  5
4FB
330
1F
100
AcDbEntity
  8
2
  6
CONTINUOUS
370
25
 62
7
100
AcDbLine
 10
-3.750880334367044
 20
10.24983393312659
 30
0.0
 11
-2.50058688957803
 21
11.50012737791561
 31
0.0
  0
LINE
  5
4FC
330
1F
100
AcDbEntity
  8
2
  6
CONTINUOUS
370
25
 62
7
100
AcDbLine
 10
-4.281210420256954
 20
10.14376791594861
 30
0.0
 11
-2.854140280171304
 21
11.57083805603426
 31
0.0
  0
LINE
  5
4FD
330
1F
100
AcDbEntity
  8
2
  6
CONTINUOUS
370
25
 62
7
100
AcDbLine
 10
-4.811540506146863
 20
10.03770189877063
 30
0.0
 11
-3.207693670764577
 21
11.64154873415291
 31
0.0
  0
LINE
  5
4FE
330
1F
100
AcDbEntity
  8
2
  6
CONTINUOUS
370
25
 62
7
100
AcDbLine
 10
-5.0
 20
10.27350647362942
 30
0.0
 11
-3.56124706135785
 21
11.71225941227157
 31
0.0
  0
LINE
  5
4FF
330
1F
100
AcDbEntity
  8
2
  6
CONTINUOUS
370
25
 62
7
100
AcDbLine
 10
-5.0
 20
10.69777054234135
 30
0.0
 11
-3.914800451951122
 21
11.78297009039022
 31
0.0
  0
LINE
  5
500
330
1F
100
AcDbEntity
  8
2
  6
CONTINUOUS
370
25
 62
7
100
AcDbLine
 10
-5.0
 20
11.12203461105327
 30
0.0
 11
-4.268353842544395
 21
11.85368076850888
 31
0.0
  0
LINE
  5
501
330
1F
100
AcDbEntity
  8
2
  6
CONTINUOUS
370
25
 62
7
100
AcDbLine
 10
-5.0
 20
11.5462986797652
 30
0.0
 11
-4.621907233137668
 21
11.92439144662753
 31
0.0
  0
LINE
  5
502
330
1F
100
AcDbEntity
  8
2
  6
CONTINUOUS
370
25
 62
7
100
AcDbLine
 10
-5.0
 20
11.97056274847713
 30
0.0
 11
-4.975460623730941
 21
11.99510212474619
 31
0.0
  0
LINE
  5
503
330
1F
100
AcDbEntity
  8
2
  6
CONTINUOUS
370
25
 62
7
100
AcDbLine
 10
-5.0
 20
10.09116882454313
 30
0.0
 11
-4.924034312880724
 21
10.01520313742386
 31
0.0
  0
LINE
  5
504
330
1F
100
AcDbEntity
  8
2
  6
CONTINUOUS
370
25
 62
7
100
AcDbLine
 10
-5.0
 20
10.51543289325506
 30
0.0
 11
-4.570480922287449
 21
10.08591381554251
 31
0.0
  0
LINE
  5
505
330
1F
100
AcDbEntity
  8
2
  6
CONTINUOUS
370
25
 62
7
100
AcDbLine
 10
-5.0
 20
10.93969696196699
 30
0.0
 11
-4.216927531694176
 21
10.15662449366116
 31
0.0
  0
LINE
  5
506
330
1F
100
AcDbEntity
  8
2
  6
CONTINUOUS
370
25
 62
7
100
AcDbLine
 10
-5.0
 20
11.36396103067892
 30
0.0
 11
-3.863374141100901
 21
10.22733517177982
 31
0.0
  0
LINE
  5
507
330
1F
100
AcDbEntity
  8
2
  6
CONTINUOUS
370
25
 62
7
100
AcDbLine
 10
-5.0
 20
11.78822509939084
 30
0.0
 11
-3.509820750507628
 21
10.29804584989847
 31
0.0
  0
LINE
  5
508
330
1F
100
AcDbEntity
  8
2
  6
CONTINUOUS
370
25
 62
7
100
AcDbLine
 10
-4.734401039871538
 20
11.94689020797431
 30
0.0
 11
-3.156267359914355
 21
10.36875652801713
 31
0.0
  0
LINE
  5
509
330
1F
100
AcDbEntity
  8
2
  6
CONTINUOUS
370
25
 62
7
100
AcDbLine
 10
-4.204070953981626
 20
11.84082419079633
 30
0.0
 11
-2.802713969321081
 21
10.43946720613578
 31
0.0
  0
LINE
  5
50A
330
1F
100
AcDbEntity
  8
2
  6
CONTINUOUS
370
25
 62
7
100
AcDbLine
 10
-3.673740868091716
 20
11.73475817361834
 30
0.0
 11
-2.449160578727807
 21
10.51017788425444
 31
0.0
  0
LINE
  5
50B
330
1F
100
AcDbEntity
  8
2
  6
CONTINUOUS
370
25
 62
7
100
AcDbLine
 10
-3.143410782201804
 20
11.62869215644036
 30
0.0
 11
-2.095607188134534
 21
10.58088856237309
 31
0.0
  0
LINE
  5
50C
330
1F
100
AcDbEntity
  8
2
  6
CONTINUOUS
370
25
 62
7
100
AcDbLine
 10
-2.613080696311893
 20
11.52262613926238
 30
0.0
 11
-1.74205379754126
 21
10.65159924049175
 31
0.0
  0
LINE
  5
50D
330
1F
100
AcDbEntity
  8
2
  6
CONTINUOUS
370
25
 62
7
100
AcDbLine
 10
-2.08275061042198
 20
11.41656012208439
 30
0.0
 11
-1.388500406947985
 21
10.7223099186104
 31
0.0
  0
LINE
  5
50E
330
1F
100
AcDbEntity
  8
2
  6
CONTINUOUS
370
25
 62
7
100
AcDbLine
 10
-1.552420524532067
 20
11.31049410490641
 30
0.0
 11
-1.03494701635471
 21
10.79302059672906
 31
0.0
  0
LINE
  5
50F
330
1F
100
AcDbEntity
  8
2
  6
CONTINUOUS
370
25
 62
7
100
AcDbLine
 10
-1.022090438642158
 20
11.20442808772843
 30
0.0
 11
-0.6813936257614376
 21
10.86373127484771
 31
0.0
  0
LINE
  5
510
330
1F
100
AcDbEntity
  8
2
  6
CONTINUOUS
370
25
 62
7
100
AcDbLine
 10
-0.4917603527522461
 20
11.09836207055045
 30
0.0
 11
-0.3278402351681636
 21
10.93444195296637
 31
0.0
  0
LINE
  5
511
330
1F
100
AcDbEntity
  8
2
  6
CONTINUOUS
370
25
 62
7
100
AcDbLine
 10
13.25
 20
11.00001
 30
0.0
 11
18.25
 21
12.00001
 31
0.0
  0
LINE
  5
512
330
1F
100
AcDbEntity
  8
2
  6
CONTINUOUS
370
25
 62
7
100
AcDbLine
 10
18.25
 20
12.00001
 30
0.0
 11
18.25
 21
10.00001
 31
0.0
  0
LINE
  5
513
330
1F
100
AcDbEntity
  8
2
  6
CONTINUOUS
370
25
 62
7
100
AcDbLine
 10
18.25
 20
10.00001
 30
0.0
 11
13.25
 21
11.00001
 31
0.0
  0
LINE
  5
514
330
1F
100
AcDbEntity
  8
2
  6
CONTINUOUS
370
25
 62
7
100
AcDbLine
 10
18.14105906692857
 20
10.02179818661428
 30
0.0
 11
18.25
 21
10.13073911968571
 31
0.0
  0
LINE
  5
515
330
1F
100
AcDbEntity
  8
2
  6
CONTINUOUS
370
25
 62
7
100
AcDbLine
 10
17.7875056763353
 20
10.09250886473294
 30
0.0
 11
18.25
 21
10.55500318839764
 31
0.0
  0
LINE
  5
516
330
1F
100
AcDbEntity
  8
2
  6
CONTINUOUS
370
25
 62
7
100
AcDbLine
 10
17.43395228574203
 20
10.16321954285159
 30
0.0
 11
18.25
 21
10.97926725710956
 31
0.0
  0
LINE
  5
517
330
1F
100
AcDbEntity
  8
2
  6
CONTINUOUS
370
25
 62
7
100
AcDbLine
 10
17.08039889514875
 20
10.23393022097025
 30
0.0
 11
18.25
 21
11.40353132582149
 31
0.0
  0
LINE
  5
518
330
1F
100
AcDbEntity
  8
2
  6
CONTINUOUS
370
25
 62
7
100
AcDbLine
 10
16.72684550455548
 20
10.3046408990889
 30
0.0
 11
18.25
 21
11.82779539453342
 31
0.0
  0
LINE
  5
519
330
1F
100
AcDbEntity
  8
2
  6
CONTINUOUS
370
25
 62
7
100
AcDbLine
 10
16.37329211396221
 20
10.37535157720755
 30
0.0
 11
17.93493817094332
 21
11.93699763418866
 31
0.0
  0
LINE
  5
51A
330
1F
100
AcDbEntity
  8
2
  6
CONTINUOUS
370
25
 62
7
100
AcDbLine
 10
16.01973872336893
 20
10.44606225532621
 30
0.0
 11
17.4046080850534
 21
11.83093161701068
 31
0.0
  0
LINE
  5
51B
330
1F
100
AcDbEntity
  8
2
  6
CONTINUOUS
370
25
 62
7
100
AcDbLine
 10
15.66618533277566
 20
10.51677293344487
 30
0.0
 11
16.8742779991635
 21
11.7248655998327
 31
0.0
  0
LINE
  5
51C
330
1F
100
AcDbEntity
  8
2
  6
CONTINUOUS
370
25
 62
7
100
AcDbLine
 10
15.31263194218239
 20
10.58748361156352
 30
0.0
 11
16.34394791327358
 21
11.61879958265471
 31
0.0
  0
LINE
  5
51D
330
1F
100
AcDbEntity
  8
2
  6
CONTINUOUS
370
25
 62
7
100
AcDbLine
 10
14.95907855158912
 20
10.65819428968218
 30
0.0
 11
15.81361782738368
 21
11.51273356547673
 31
0.0
  0
LINE
  5
51E
330
1F
100
AcDbEntity
  8
2
  6
CONTINUOUS
370
25
 62
7
100
AcDbLine
 10
14.60552516099585
 20
10.72890496780083
 30
0.0
 11
15.28328774149376
 21
11.40666754829875
 31
0.0
  0
LINE
  5
51F
330
1F
100
AcDbEntity
  8
2
  6
CONTINUOUS
370
25
 62
7
100
AcDbLine
 10
14.25197177040257
 20
10.79961564591949
 30
0.0
 11
14.75295765560385
 21
11.30060153112077
 31
0.0
  0
LINE
  5
520
330
1F
100
AcDbEntity
  8
2
  6
CONTINUOUS
370
25
 62
7
100
AcDbLine
 10
13.8984183798093
 20
10.87032632403814
 30
0.0
 11
14.22262756971394
 21
11.19453551394279
 31
0.0
  0
LINE
  5
521
330
1F
100
AcDbEntity
  8
2
  6
CONTINUOUS
370
25
 62
7
100
AcDbLine
 10
13.54486498921603
 20
10.9410370021568
 30
0.0
 11
13.69229748382403
 21
11.08846949676481
 31
0.0
  0
LINE
  5
522
330
1F
100
AcDbEntity
  8
2
  6
CONTINUOUS
370
25
 62
7
100
AcDbLine
 10
13.54775498774321
 20
11.05956099754864
 30
0.0
 11
13.69663248161481
 21
10.91068350367704
 31
0.0
  0
LINE
  5
523
330
1F
100
AcDbEntity
  8
2
  6
CONTINUOUS
370
25
 62
7
100
AcDbLine
 10
13.90130837833648
 20
11.1302716756673
 30
0.0
 11
14.22696256750472
 21
10.80461748649905
 31
0.0
  0
LINE
  5
524
330
1F
100
AcDbEntity
  8
2
  6
CONTINUOUS
370
25
 62
7
100
AcDbLine
 10
14.25486176892976
 20
11.20098235378595
 30
0.0
 11
14.75729265339463
 21
10.69855146932107
 31
0.0
  0
LINE
  5
525
330
1F
100
AcDbEntity
  8
2
  6
CONTINUOUS
370
25
 62
7
100
AcDbLine
 10
14.60841515952303
 20
11.2716930319046
 30
0.0
 11
15.28762273928455
 21
10.59248545214309
 31
0.0
  0
LINE
  5
526
330
1F
100
AcDbEntity
  8
2
  6
CONTINUOUS
370
25
 62
7
100
AcDbLine
 10
14.96196855011631
 20
11.34240371002326
 30
0.0
 11
15.81795282517446
 21
10.48641943496511
 31
0.0
  0
LINE
  5
527
330
1F
100
AcDbEntity
  8
2
  6
CONTINUOUS
370
25
 62
7
100
AcDbLine
 10
15.31552194070958
 20
11.41311438814191
 30
0.0
 11
16.34828291106437
 21
10.38035341778713
 31
0.0
  0
LINE
  5
528
330
1F
100
AcDbEntity
  8
2
  6
CONTINUOUS
370
25
 62
7
100
AcDbLine
 10
15.66907533130285
 20
11.48382506626057
 30
0.0
 11
16.87861299695428
 21
10.27428740060914
 31
0.0
  0
LINE
  5
529
330
1F
100
AcDbEntity
  8
2
  6
CONTINUOUS
370
25
 62
7
100
AcDbLine
 10
16.02262872189613
 20
11.55453574437923
 30
0.0
 11
17.40894308284419
 21
10.16822138343116
 31
0.0
  0
LINE
  5
52A
330
1F
100
AcDbEntity
  8
2
  6
CONTINUOUS
370
25
 62
7
100
AcDbLine
 10
16.3761821124894
 20
11.62524642249788
 30
0.0
 11
17.9392731687341
 21
10.06215536625318
 31
0.0
  0
LINE
  5
52B
330
1F
100
AcDbEntity
  8
2
  6
CONTINUOUS
370
25
 62
7
100
AcDbLine
 10
16.72973550308267
 20
11.69595710061654
 30
0.0
 11
18.25
 21
10.17569260369921
 31
0.0
  0
LINE
  5
52C
330
1F
100
AcDbEntity
  8
2
  6
CONTINUOUS
370
25
 62
7
100
AcDbLine
 10
17.08328889367595
 20
11.76666777873519
 30
0.0
 11
18.25
 21
10.59995667241114
 31
0.0
  0
LINE
  5
52D
330
1F
100
AcDbEntity
  8
2
  6
CONTINUOUS
370
25
 62
7
100
AcDbLine
 10
17.43684228426922
 20
11.83737845685384
 30
0.0
 11
18.25
 21
11.02422074112307
 31
0.0
  0
LINE
  5
52E
330
1F
100
AcDbEntity
  8
2
  6
CONTINUOUS
370
25
 62
7
100
AcDbLine
 10
17.79039567486249
 20
11.9080891349725
 30
0.0
 11
18.25
 21
11.44848480983499
 31
0.0
  0
LINE
  5
52F
330
1F
100
AcDbEntity
  8
2
  6
CONTINUOUS
370
25
 62
7
100
AcDbLine
 10
18.14394906545577
 20
11.97879981309115
 30
0.0
 11
18.25
 21
11.87274887854692
 31
0.0
  0
TEXT
  5
530
330
1F
100
AcDbEntity
  8
2
  6
CONTINUOUS
370
25
 62
7
100
AcDbText
 10
20.25520833333333
 20
12.00001
 30
0.0
 40
3.5
  1
13.25
 72
     1
 11
26.671875
 21
12.00001
 31
0.0
100
AcDbText
  0
LINE
  5
531
330
1F
100
AcDbEntity
  8
2
  6
CONTINUOUS
370
25
 62
7
100
AcDbLine
 10
3.25
 20
-0.3500000000000001
 30
0.0
 11
3.249999999999999
 21
-12.00001
 31
0.0
  0
LINE
  5
532
330
1F
100
AcDbEntity
  8
2
  6
CONTINUOUS
370
25
 62
7
100
AcDbLine
 10
13.25
 20
-12.00001
 30
0.0
 11
13.25
 21
-0.3499999999999996
 31
0.0
  0
LINE
  5
533
330
1F
100
AcDbEntity
  8
2
  6
CONTINUOUS
370
25
 62
7
100
AcDbLine
 10
23.25
 20
-11.00001
 30
0.0
 11
-6.750000000000001
 21
-11.00001
 31
0.0
  0
LINE
  5
534
330
1F
100
AcDbEntity
  8
2
  6
CONTINUOUS
370
25
 62
7
100
AcDbLine
 10
3.249999999999999
 20
-11.00001
 30
0.0
 11
-1.750000000000001
 21
-12.00001
 31
0.0
  0
LINE
  5
535
330
1F
100
AcDbEntity
  8
2
  6
CONTINUOUS
370
25
 62
7
100
AcDbLine
 10
-1.750000000000001
 20
-12.00001
 30
0.0
 11
-1.750000000000001
 21
-10.00001
 31
0.0
  0
LINE
  5
536
330
1F
100
AcDbEntity
  8
2
  6
CONTINUOUS
370
25
 62
7
100
AcDbLine
 10
-1.750000000000001
 20
-10.00001
 30
0.0
 11
3.249999999999999
 21
-11.00001
 31
0.0
  0
LINE
  5
537
330
1F
100
AcDbEntity
  8
2
  6
CONTINUOUS
370
25
 62
7
100
AcDbLine
 10
3.010341968484515
 20
-11.0479416063031
 30
0.0
 11
3.090227978989677
 21
-10.96805559579794
 31
0.0
  0
LINE
  5
538
330
1F
100
AcDbEntity
  8
2
  6
CONTINUOUS
370
25
 62
7
100
AcDbLine
 10
2.480011882594606
 20
-11.15400762348108
 30
0.0
 11
2.736674588396404
 21
-10.89734491767928
 31
0.0
  0
LINE
  5
539
330
1F
100
AcDbEntity
  8
2
  6
CONTINUOUS
370
25
 62
7
100
AcDbLine
 10
1.949681796704696
 20
-11.26007364065906
 30
0.0
 11
2.383121197803131
 21
-10.82663423956063
 31
0.0
  0
LINE
  5
53A
330
1F
100
AcDbEntity
  8
2
  6
CONTINUOUS
370
25
 62
7
100
AcDbLine
 10
1.419351710814786
 20
-11.36613965783704
 30
0.0
 11
2.029567807209858
 21
-10.75592356144197
 31
0.0
  0
LINE
  5
53B
330
1F
100
AcDbEntity
  8
2
  6
CONTINUOUS
370
25
 62
7
100
AcDbLine
 10
0.8890216249248759
 20
-11.47220567501502
 30
0.0
 11
1.676014416616585
 21
-10.68521288332332
 31
0.0
  0
LINE
  5
53C
330
1F
100
AcDbEntity
  8
2
  6
CONTINUOUS
370
25
 62
7
100
AcDbLine
 10
0.3586915390349658
 20
-11.57827169219301
 30
0.0
 11
1.322461026023312
 21
-10.61450220520466
 31
0.0
  0
LINE
  5
53D
330
1F
100
AcDbEntity
  8
2
  6
CONTINUOUS
370
25
 62
7
100
AcDbLine
 10
-0.1716385468549444
 20
-11.68433770937099
 30
0.0
 11
0.9689076354300384
 21
-10.54379152708601
 31
0.0
  0
LINE
  5
53E
330
1F
100
AcDbEntity
  8
2
  6
CONTINUOUS
370
25
 62
7
100
AcDbLine
 10
-0.7019686327448545
 20
-11.79040372654897
 30
0.0
 11
0.6153542448367652
 21
-10.47308084896735
 31
0.0
  0
LINE
  5
53F
330
1F
100
AcDbEntity
  8
2
  6
CONTINUOUS
370
25
 62
7
100
AcDbLine
 10
-1.232298718634765
 20
-11.89646974372695
 30
0.0
 11
0.2618008542434918
 21
-10.4023701708487
 31
0.0
  0
LINE
  5
540
330
1F
100
AcDbEntity
  8
2
  6
CONTINUOUS
370
25
 62
7
100
AcDbLine
 10
-1.750000000000001
 20
-11.98990695638026
 30
0.0
 11
-0.0917525363497814
 21
-10.33165949273004
 31
0.0
  0
LINE
  5
541
330
1F
100
AcDbEntity
  8
2
  6
CONTINUOUS
370
25
 62
7
100
AcDbLine
 10
-1.750000000000001
 20
-11.56564288766833
 30
0.0
 11
-0.4453059269430547
 21
-10.26094881461139
 31
0.0
  0
LINE
  5
542
330
1F
100
AcDbEntity
  8
2
  6
CONTINUOUS
370
25
 62
7
100
AcDbLine
 10
-1.750000000000001
 20
-11.14137881895641
 30
0.0
 11
-0.798859317536328
 21
-10.19023813649273
 31
0.0
  0
LINE
  5
543
330
1F
100
AcDbEntity
  8
2
  6
CONTINUOUS
370
25
 62
7
100
AcDbLine
 10
-1.750000000000001
 20
-10.71711475024448
 30
0.0
 11
-1.1524127081296
 21
-10.11952745837408
 31
0.0
  0
LINE
  5
544
330
1F
100
AcDbEntity
  8
2
  6
CONTINUOUS
370
25
 62
7
100
AcDbLine
 10
-1.750000000000001
 20
-10.29285068153255
 30
0.0
 11
-1.505966098722873
 21
-10.04881678025543
 31
0.0
  0
LINE
  5
545
330
1F
100
AcDbEntity
  8
2
  6
CONTINUOUS
370
25
 62
7
100
AcDbLine
 10
-1.750000000000001
 20
-11.85386798705919
 30
0.0
 11
-1.62821498921599
 21
-11.9756529978432
 31
0.0
  0
LINE
  5
546
330
1F
100
AcDbEntity
  8
2
  6
CONTINUOUS
370
25
 62
7
100
AcDbLine
 10
-1.750000000000001
 20
-11.42960391834726
 30
0.0
 11
-1.274661598622716
 21
-11.90494231972454
 31
0.0
  0
LINE
  5
547
330
1F
100
AcDbEntity
  8
2
  6
CONTINUOUS
370
25
 62
7
100
AcDbLine
 10
-1.750000000000001
 20
-11.00533984963533
 30
0.0
 11
-0.9211082080294428
 21
-11.83423164160589
 31
0.0
  0
LINE
  5
548
330
1F
100
AcDbEntity
  8
2
  6
CONTINUOUS
370
25
 62
7
100
AcDbLine
 10
-1.750000000000001
 20
-10.5810757809234
 30
0.0
 11
-0.5675548174361694
 21
-11.76352096348723
 31
0.0
  0
LINE
  5
549
330
1F
100
AcDbEntity
  8
2
  6
CONTINUOUS
370
25
 62
7
100
AcDbLine
 10
-1.750000000000001
 20
-10.15681171221147
 30
0.0
 11
-0.214001426842896
 21
-11.69281028536858
 31
0.0
  0
LINE
  5
54A
330
1F
100
AcDbEntity
  8
2
  6
CONTINUOUS
370
25
 62
7
100
AcDbLine
 10
-1.415672054374437
 20
-10.06687558912511
 30
0.0
 11
0.1395519637503773
 21
-11.62209960724992
 31
0.0
  0
LINE
  5
54B
330
1F
100
AcDbEntity
  8
2
  6
CONTINUOUS
370
25
 62
7
100
AcDbLine
 10
-0.8853419684845241
 20
-10.17294160630309
 30
0.0
 11
0.4931053543436521
 21
-11.55138892913127
 31
0.0
  0
LINE
  5
54C
330
1F
100
AcDbEntity
  8
2
  6
CONTINUOUS
370
25
 62
7
100
AcDbLine
 10
-0.3550118825946118
 20
-10.27900762348108
 30
0.0
 11
0.8466587449369268
 21
-11.48067825101261
 31
0.0
  0
LINE
  5
54D
330
1F
100
AcDbEntity
  8
2
  6
CONTINUOUS
370
25
 62
7
100
AcDbLine
 10
0.1753182032952984
 20
-10.38507364065906
 30
0.0
 11
1.2002121355302
 21
-11.40996757289396
 31
0.0
  0
LINE
  5
54E
330
1F
100
AcDbEntity
  8
2
  6
CONTINUOUS
370
25
 62
7
100
AcDbLine
 10
0.7056482891852082
 20
-10.49113965783704
 30
0.0
 11
1.553765526123473
 21
-11.33925689477531
 31
0.0
  0
LINE
  5
54F
330
1F
100
AcDbEntity
  8
2
  6
CONTINUOUS
370
25
 62
7
100
AcDbLine
 10
1.235978375075118
 20
-10.59720567501502
 30
0.0
 11
1.907318916716746
 21
-11.26854621665665
 31
0.0
  0
LINE
  5
550
330
1F
100
AcDbEntity
  8
2
  6
CONTINUOUS
370
25
 62
7
100
AcDbLine
 10
1.76630846096503
 20
-10.70327169219301
 30
0.0
 11
2.260872307310021
 21
-11.197835538538
 31
0.0
  0
LINE
  5
551
330
1F
100
AcDbEntity
  8
2
  6
CONTINUOUS
370
25
 62
7
100
AcDbLine
 10
2.296638546854939
 20
-10.80933770937099
 30
0.0
 11
2.614425697903293
 21
-11.12712486041934
 31
0.0
  0
LINE
  5
552
330
1F
100
AcDbEntity
  8
2
  6
CONTINUOUS
370
25
 62
7
100
AcDbLine
 10
2.82696863274485
 20
-10.91540372654897
 30
0.0
 11
2.967979088496567
 21
-11.05641418230069
 31
0.0
  0
LINE
  5
553
330
1F
100
AcDbEntity
  8
2
  6
CONTINUOUS
370
25
 62
7
100
AcDbLine
 10
13.25
 20
-11.00001
 30
0.0
 11
18.25
 21
-10.00001
 31
0.0
  0
LINE
  5
554
330
1F
100
AcDbEntity
  8
2
  6
CONTINUOUS
370
25
 62
7
100
AcDbLine
 10
18.25
 20
-10.00001
 30
0.0
 11
18.25
 21
-12.00001
 31
0.0
  0
LINE
  5
555
330
1F
100
AcDbEntity
  8
2
  6
CONTINUOUS
370
25
 62
7
100
AcDbLine
 10
18.25
 20
-12.00001
 30
0.0
 11
13.25
 21
-11.00001
 31
0.0
  0
LINE
  5
556
330
1F
100
AcDbEntity
  8
2
  6
CONTINUOUS
370
25
 62
7
100
AcDbLine
 10
18.08963275607832
 20
-11.96793655121567
 30
0.0
 11
18.25
 21
-11.80756930729398
 31
0.0
  0
LINE
  5
557
330
1F
100
AcDbEntity
  8
2
  6
CONTINUOUS
370
25
 62
7
100
AcDbLine
 10
17.73607936548504
 20
-11.89722587309701
 30
0.0
 11
18.25
 21
-11.38330523858205
 31
0.0
  0
LINE
  5
558
330
1F
100
AcDbEntity
  8
2
  6
CONTINUOUS
370
25
 62
7
100
AcDbLine
 10
17.38252597489177
 20
-11.82651519497836
 30
0.0
 11
18.25
 21
-10.95904116987013
 31
0.0
  0
LINE
  5
559
330
1F
100
AcDbEntity
  8
2
  6
CONTINUOUS
370
25
 62
7
100
AcDbLine
 10
17.0289725842985
 20
-11.7558045168597
 30
0.0
 11
18.25
 21
-10.5347771011582
 31
0.0
  0
LINE
  5
55A
330
1F
100
AcDbEntity
  8
2
  6
CONTINUOUS
370
25
 62
7
100
AcDbLine
 10
16.67541919370523
 20
-11.68509383874104
 30
0.0
 11
18.25
 21
-10.11051303244627
 31
0.0
  0
LINE
  5
55B
330
1F
100
AcDbEntity
  8
2
  6
CONTINUOUS
370
25
 62
7
100
AcDbLine
 10
16.32186580311196
 20
-11.61438316062239
 30
0.0
 11
17.85779870466793
 21
-10.07845025906641
 31
0.0
  0
LINE
  5
55C
330
1F
100
AcDbEntity
  8
2
  6
CONTINUOUS
370
25
 62
7
100
AcDbLine
 10
15.96831241251869
 20
-11.54367248250373
 30
0.0
 11
17.32746861877802
 21
-10.18451627624439
 31
0.0
  0
LINE
  5
55D
330
1F
100
AcDbEntity
  8
2
  6
CONTINUOUS
370
25
 62
7
100
AcDbLine
 10
15.61475902192541
 20
-11.47296180438508
 30
0.0
 11
16.79713853288811
 21
-10.29058229342238
 31
0.0
  0
LINE
  5
55E
330
1F
100
AcDbEntity
  8
2
  6
CONTINUOUS
370
25
 62
7
100
AcDbLine
 10
15.26120563133214
 20
-11.40225112626642
 30
0.0
 11
16.2668084469982
 21
-10.39664831060036
 31
0.0
  0
LINE
  5
55F
330
1F
100
AcDbEntity
  8
2
  6
CONTINUOUS
370
25
 62
7
100
AcDbLine
 10
14.90765224073887
 20
-11.33154044814777
 30
0.0
 11
15.73647836110829
 21
-10.50271432777834
 31
0.0
  0
LINE
  5
560
330
1F
100
AcDbEntity
  8
2
  6
CONTINUOUS
370
25
 62
7
100
AcDbLine
 10
14.55409885014559
 20
-11.26082977002912
 30
0.0
 11
15.20614827521838
 21
-10.60878034495632
 31
0.0
  0
LINE
  5
561
330
1F
100
AcDbEntity
  8
2
  6
CONTINUOUS
370
25
 62
7
100
AcDbLine
 10
14.20054545955232
 20
-11.19011909191046
 30
0.0
 11
14.67581818932847
 21
-10.71484636213431
 31
0.0
  0
LINE
  5
562
330
1F
100
AcDbEntity
  8
2
  6
CONTINUOUS
370
25
 62
7
100
AcDbLine
 10
13.84699206895905
 20
-11.11940841379181
 30
0.0
 11
14.14548810343856
 21
-10.82091237931229
 31
0.0
  0
LINE
  5
563
330
1F
100
AcDbEntity
  8
2
  6
CONTINUOUS
370
25
 62
7
100
AcDbLine
 10
13.49343867836577
 20
-11.04869773567315
 30
0.0
 11
13.61515801754866
 21
-10.92697839649027
 31
0.0
  0
LINE
  5
564
330
1F
100
AcDbEntity
  8
2
  6
CONTINUOUS
370
25
 62
7
100
AcDbLine
 10
13.49632867689297
 20
-10.9507442646214
 30
0.0
 11
13.61949301533946
 21
-11.07390860306789
 31
0.0
  0
LINE
  5
565
330
1F
100
AcDbEntity
  8
2
  6
CONTINUOUS
370
25
 62
7
100
AcDbLine
 10
13.84988206748625
 20
-10.88003358650275
 30
0.0
 11
14.14982310122937
 21
-11.17997462024588
 31
0.0
  0
LINE
  5
566
330
1F
100
AcDbEntity
  8
2
  6
CONTINUOUS
370
25
 62
7
100
AcDbLine
 10
14.20343545807952
 20
-10.80932290838409
 30
0.0
 11
14.68015318711928
 21
-11.28604063742386
 31
0.0
  0
LINE
  5
567
330
1F
100
AcDbEntity
  8
2
  6
CONTINUOUS
370
25
 62
7
100
AcDbLine
 10
14.55698884867279
 20
-10.73861223026544
 30
0.0
 11
15.21048327300919
 21
-11.39210665460184
 31
0.0
  0
LINE
  5
568
330
1F
100
AcDbEntity
  8
2
  6
CONTINUOUS
370
25
 62
7
100
AcDbLine
 10
14.91054223926607
 20
-10.66790155214678
 30
0.0
 11
15.7408133588991
 21
-11.49817267177982
 31
0.0
  0
LINE
  5
569
330
1F
100
AcDbEntity
  8
2
  6
CONTINUOUS
370
25
 62
7
100
AcDbLine
 10
15.26409562985934
 20
-10.59719087402813
 30
0.0
 11
16.27114344478901
 21
-11.6042386889578
 31
0.0
  0
LINE
  5
56A
330
1F
100
AcDbEntity
  8
2
  6
CONTINUOUS
370
25
 62
7
100
AcDbLine
 10
15.61764902045262
 20
-10.52648019590948
 30
0.0
 11
16.80147353067893
 21
-11.71030470613579
 31
0.0
  0
LINE
  5
56B
330
1F
100
AcDbEntity
  8
2
  6
CONTINUOUS
370
25
 62
7
100
AcDbLine
 10
15.97120241104589
 20
-10.45576951779082
 30
0.0
 11
17.33180361656883
 21
-11.81637072331376
 31
0.0
  0
LINE
  5
56C
330
1F
100
AcDbEntity
  8
2
  6
CONTINUOUS
370
25
 62
7
100
AcDbLine
 10
16.32475580163916
 20
-10.38505883967217
 30
0.0
 11
17.86213370245874
 21
-11.92243674049174
 31
0.0
  0
LINE
  5
56D
330
1F
100
AcDbEntity
  8
2
  6
CONTINUOUS
370
25
 62
7
100
AcDbLine
 10
16.67830919223244
 20
-10.31434816155351
 30
0.0
 11
18.25
 21
-11.88603896932108
 31
0.0
  0
LINE
  5
56E
330
1F
100
AcDbEntity
  8
2
  6
CONTINUOUS
370
25
 62
7
100
AcDbLine
 10
17.03186258282571
 20
-10.24363748343486
 30
0.0
 11
18.25
 21
-11.46177490060915
 31
0.0
  0
LINE
  5
56F
330
1F
100
AcDbEntity
  8
2
  6
CONTINUOUS
370
25
 62
7
100
AcDbLine
 10
17.38541597341898
 20
-10.1729268053162
 30
0.0
 11
18.25
 21
-11.03751083189722
 31
0.0
  0
LINE
  5
570
330
1F
100
AcDbEntity
  8
2
  6
CONTINUOUS
370
25
 62
7
100
AcDbLine
 10
17.73896936401226
 20
-10.10221612719755
 30
0.0
 11
18.25
 21
-10.61324676318529
 31
0.0
  0
LINE
  5
571
330
1F
100
AcDbEntity
  8
2
  6
CONTINUOUS
370
25
 62
7
100
AcDbLine
 10
18.09252275460553
 20
-10.03150544907889
 30
0.0
 11
18.25
 21
-10.18898269447337
 31
0.0
  0
TEXT
  5
572
330
1F
100
AcDbEntity
  8
2
  6
CONTINUOUS
370
25
 62
7
100
AcDbText
 10
6.208333333333333
 20
-10.00001
 30
0.0
 40
3.5
  1
10
 72
     1
 11
8.25
 21
-10.00001
 31
0.0
100
AcDbText
  0
LINE
  5
573
330
1F
100
AcDbEntity
  8
4
  6
LONGDASH_DASH
370
25
 62
2
100
AcDbLine
 10
0.0
 20
0.0
 30
0.0
 11
13.25
 21
0.0
 31
0.0
  0
LINE
  5
574
330
1F
100
AcDbEntity
  8
SK4
  6
LONGDASH_DASH
370
25
 62
2
100
AcDbLine
 10
-41.75
 20
0.0
 30
0.0
 11
18.25
 21
0.0
 31
0.0
  0
LINE
  5
575
330
1F
100
AcDbEntity
  8
INFTOTAL
  6
CONTINUOUS
370
18
 62
9
100
AcDbLine
 10
-66.825011
 20
-27.500011
 30
0.0
 11
33.275011
 21
-27.500011
 31
0.0
  0
LINE
  5
576
330
1F
100
AcDbEntity
  8
INFTOTAL
  6
CONTINUOUS
370
18
 62
9
100
AcDbLine
 10
33.275011
 20
-27.500011
 30
0.0
 11
33.275011
 21
27.500011
 31
0.0
  0
LINE
  5
577
330
1F
100
AcDbEntity
  8
INFTOTAL
  6
CONTINUOUS
370
18
 62
9
100
AcDbLine
 10
33.275011
 20
27.500011
 30
0.0
 11
-66.82501099999999
 21
27.500011
 31
0.0
  0
LINE
  5
578
330
1F
100
AcDbEntity
  8
INFTOTAL
  6
CONTINUOUS
370
18
 62
9
100
AcDbLine
 10
-66.82501099999999
 20
27.500011
 30
0.0
 11
-66.82501099999999
 21
-27.500011
 31
0.0
  0
ARC
  5
579
330
1F
100
AcDbEntity
  8
SK6
  6
CONTINUOUS
370
25
 62
5
100
AcDbCircle
 10
27.26139100837651
 20
-24.34525475338786
 30
0.0
 40
2.760489128492207
100
AcDbArc
 50
338.9379403434233
 51
90.44457437511385
  0
LINE
  5
57A
330
1F
100
AcDbEntity
  8
SK6
  6
CONTINUOUS
370
25
 62
5
100
AcDbLine
 10
27.23997179695982
 20
-21.58484872421281
 30
0.0
 11
27.23997179695982
 21
-22.68790735613463
 31
0.0
  0
ARC
  5
57B
330
1F
100
AcDbEntity
  8
SK6
  6
CONTINUOUS
370
25
 62
5
100
AcDbCircle
 10
27.25051802936916
 20
-24.36524824566821
 30
0.0
 40
1.677374043771784
100
AcDbArc
 50
243.4214706017865
 51
90.36024081226107
  0
ARC
  5
57C
330
1F
100
AcDbEntity
  8
SK6
  6
CONTINUOUS
370
25
 62
5
100
AcDbCircle
 10
29.77276889684958
 20
-23.93384099215561
 30
0.0
 40
3.800217030022754
100
AcDbArc
 50
210.5483731288539
 51
236.97801693668
  0
LINE
  5
57D
330
1F
100
AcDbEntity
  8
SK6
  6
CONTINUOUS
370
25
 62
5
100
AcDbLine
 10
27.70179968512486
 20
-27.12017681867535
 30
0.0
 11
31.84373996742671
 21
-27.12017681867535
 31
0.0
  0
ARC
  5
57E
330
1F
100
AcDbEntity
  8
SK6
  6
CONTINUOUS
370
25
 62
5
100
AcDbCircle
 10
29.77277083877257
 20
-23.9338410937346
 30
0.0
 40
3.80021689958247
100
AcDbArc
 50
303.0219828477959
 51
326.3732153033475
  0
LINE
  5
57F
330
1F
100
AcDbEntity
  8
SK6
  6
CONTINUOUS
370
25
 62
5
100
AcDbLine
 10
32.93706875135722
 20
-26.0383284907709
 30
0.0
 11
29.57977070575462
 21
-26.0383284907709
 31
0.0
  0
LINE
  5
580
330
1F
100
AcDbEntity
  8
SK6
  6
CONTINUOUS
370
25
 62
5
100
AcDbLine
 10
29.57977070575462
 20
-26.0383284907709
 30
0.0
 11
33.49963009771987
 21
-24.67692729641694
 31
0.0
  0
ARC
  5
581
330
1F
100
AcDbEntity
  8
SK6
  6
CONTINUOUS
370
25
 62
5
100
AcDbCircle
 10
29.7727715615721
 20
-23.9338416048594
 30
0.0
 40
3.800217216614734
100
AcDbArc
 50
348.7238644184696
 51
53.46910512608841
  0
LINE
  5
582
330
1F
100
AcDbEntity
  8
SK6
  6
CONTINUOUS
370
25
 62
5
100
AcDbLine
 10
32.03487424538545
 20
-20.88023024429967
 30
0.0
 11
29.83745947882736
 21
-25.33731873507057
 31
0.0
  0
ENDSEC
  0
SECTION
  2
OBJECTS
  0
DICTIONARY
  5
C
330
0
100
AcDbDictionary
281
     1
  3
ACAD_GROUP
350
D
  3
ACAD_LAYOUT
350
1A
  3
ACAD_MATERIAL
350
3B
  3
ACAD_MLEADERSTYLE
350
585
  3
ACAD_MLINESTYLE
350
17
  3
ACAD_PLOTSETTINGS
350
19
  3
ACAD_PLOTSTYLENAME
350
E
  3
ACAD_SCALELIST
350
121
  3
ACAD_VISUALSTYLE
350
2A
  3
AcDbVariableDictionary
350
583
  0
DICTIONARY
  5
D
102
{ACAD_REACTORS
330
C
102
}
330
C
100
AcDbDictionary
281
     1
  0
DICTIONARY
  5
1A
102
{ACAD_REACTORS
330
C
102
}
330
C
100
AcDbDictionary
281
     1
  3
Layout1
350
1E
  3
Layout2
350
26
  3
Model
350
22
  0
DICTIONARY
  5
3B
102
{ACAD_REACTORS
330
C
102
}
330
C
100
AcDbDictionary
281
     1
  3
ByBlock
350
3D
  3
ByLayer
350
3C
  3
Global
350
3E
  0
DICTIONARY
  5
585
102
{ACAD_REACTORS
330
C
102
}
330
C
100
AcDbDictionary
281
     1
  0
DICTIONARY
  5
17
102
{ACAD_REACTORS
330
C
102
}
330
C
100
AcDbDictionary
281
     1
  3
Standard
350
18
  0
DICTIONARY
  5
19
102
{ACAD_REACTORS
330
C
102
}
330
C
100
AcDbDictionary
281
     1
  0
ACDBDICTIONARYWDFLT
  5
E
102
{ACAD_REACTORS
330
C
102
}
330
C
100
AcDbDictionary
281
     1
  3
Normal
350
F
100
AcDbDictionaryWithDefault
340
F
  0
DICTIONARY
  5
121
102
{ACAD_REACTORS
330
C
102
}
330
C
100
AcDbDictionary
281
     1
  3
A0
350
122
  3
A1
350
123
  3
A2
350
124
  3
A3
350
125
  3
A4
350
126
  3
A5
350
127
  3
A6
350
128
  3
A7
350
129
  3
A8
350
12A
  3
A9
350
12B
  3
B0
350
12C
  3
B1
350
12D
  3
B2
350
12E
  3
B3
350
12F
  3
B4
350
130
  3
B5
350
131
  3
B6
350
132
  3
B7
350
133
  3
B8
350
134
  3
B9
350
135
  3
C0
350
136
  3
C1
350
137
  3
C2
350
138
  3
C3
350
139
  3
C4
350
13A
  3
C5
350
13B
  3
C6
350
13C
  3
C7
350
13D
  3
C8
350
13E
  3
C9
350
13F
  3
D0
350
140
  3
D1
350
141
  3
D2
350
142
  0
DICTIONARY
  5
2A
102
{ACAD_REACTORS
330
C
102
}
330
C
100
AcDbDictionary
281
     1
  3
2dWireframe
350
2F
  3
3D Hidden
350
31
  3
3dWireframe
350
30
  3
Basic
350
32
  3
Brighten
350
36
  3
ColorChange
350
3A
  3
Conceptual
350
34
  3
Dim
350
35
  3
Facepattern
350
39
  3
Flat
350
2B
  3
FlatWithEdges
350
2C
  3
Gouraud
350
2D
  3
GouraudWithEdges
350
2E
  3
Linepattern
350
38
  3
Realistic
350
33
  3
Thicken
350
37
  0
DICTIONARY
  5
583
102
{ACAD_REACTORS
330
C
102
}
330
C
100
AcDbDictionary
281
     1
  3
CANNOSCALE
350
588
  3
DIMASSOC
350
589
  3
HIDETEXT
350
58A
  3
PSOLHEIGHT
350
587
  3
PSOLWIDTH
350
586
  0
LAYOUT
  5
1E
102
{ACAD_REACTORS
330
1A
102
}
330
1A
100
AcDbPlotSettings
  1

  2
none_device
  4

  6

 40
0.0
 41
0.0
 42
0.0
 43
0.0
 44
0.0
 45
0.0
 46
0.0
 47
0.0
 48
0.0
 49
0.0
140
0.0
141
0.0
142
1.0
143
1.0
 70
   688
 72
     0
 73
     0
 74
     5
  7

 75
    16
147
1.0
148
0.0
149
0.0
100
AcDbLayout
  1
Layout1
 70
     1
 71
     1
 10
0.0
 20
0.0
 11
420.0
 21
297.0
 12
0.0
 22
0.0
 32
0.0
 14
1.000000000000000E+20
 24
1.000000000000000E+20
 34
1.000000000000000E+20
 15
-1.000000000000000E+20
 25
-1.000000000000000E+20
 35
-1.000000000000000E+20
146
0.0
 13
0.0
 23
0.0
 33
0.0
 16
1.0
 26
0.0
 36
0.0
 17
0.0
 27
1.0
 37
0.0
 76
     0
330
1B
  0
LAYOUT
  5
26
102
{ACAD_REACTORS
330
1A
102
}
330
1A
100
AcDbPlotSettings
  1

  2
none_device
  4

  6

 40
0.0
 41
0.0
 42
0.0
 43
0.0
 44
0.0
 45
0.0
 46
0.0
 47
0.0
 48
0.0
 49
0.0
140
0.0
141
0.0
142
1.0
143
1.0
 70
   688
 72
     0
 73
     0
 74
     5
  7

 75
    16
147
1.0
148
0.0
149
0.0
100
AcDbLayout
  1
Layout2
 70
     1
 71
     2
 10
0.0
 20
0.0
 11
0.0
 21
0.0
 12
0.0
 22
0.0
 32
0.0
 14
0.0
 24
0.0
 34
0.0
 15
0.0
 25
0.0
 35
0.0
146
0.0
 13
0.0
 23
0.0
 33
0.0
 16
1.0
 26
0.0
 36
0.0
 17
0.0
 27
1.0
 37
0.0
 76
     0
330
23
  0
LAYOUT
  5
22
102
{ACAD_REACTORS
330
1A
102
}
330
1A
100
AcDbPlotSettings
  1

  2
none_device
  4

  6

 40
0.0
 41
0.0
 42
0.0
 43
0.0
 44
0.0
 45
0.0
 46
0.0
 47
0.0
 48
0.0
 49
0.0
140
0.0
141
0.0
142
1.0
143
1.0
 70
  1712
 72
     0
 73
     0
 74
     0
  7

 75
     0
147
1.0
148
0.0
149
0.0
100
AcDbLayout
  1
Model
 70
     1
 71
     0
 10
0.0
 20
0.0
 11
420.0
 21
297.0
 12
0.0
 22
0.0
 32
0.0
 14
0.0
 24
0.0
 34
0.0
 15
25.0
 25
35.0
 35
0.0
146
0.0
 13
0.0
 23
0.0
 33
0.0
 16
1.0
 26
0.0
 36
0.0
 17
0.0
 27
1.0
 37
0.0
 76
     0
330
1F
331
29
  0
MATERIAL
  5
3D
102
{ACAD_REACTORS
330
3B
102
}
102
{ACAD_XDICTIONARY
360
5AD
102
}
330
3B
100
AcDbMaterial
  1
ByBlock
  0
MATERIAL
  5
3C
102
{ACAD_REACTORS
330
3B
102
}
102
{ACAD_XDICTIONARY
360
5AB
102
}
330
3B
100
AcDbMaterial
  1
ByLayer
  0
MATERIAL
  5
3E
102
{ACAD_REACTORS
330
3B
102
}
102
{ACAD_XDICTIONARY
360
5AF
102
}
330
3B
100
AcDbMaterial
  1
Global
  0
MLINESTYLE
  5
18
102
{ACAD_REACTORS
330
17
102
}
330
17
100
AcDbMlineStyle
  2
Standard
 70
     0
  3

 62
   256
 51
90.0
 52
90.0
 71
     2
 49
0.5
 62
   256
  6
BYLAYER
 49
-0.5
 62
   256
  6
BYLAYER
  0
ACDBPLACEHOLDER
  5
F
102
{ACAD_REACTORS
330
E
102
}
330
E
  0
SCALE
  5
122
102
{ACAD_REACTORS
330
121
102
}
330
121
100
AcDbScale
 70
     0
300
1:1
140
1.0
141
1.0
290
     1
  0
SCALE
  5
123
102
{ACAD_REACTORS
330
121
102
}
330
121
100
AcDbScale
 70
     0
300
1:2
140
1.0
141
2.0
290
     0
  0
SCALE
  5
124
102
{ACAD_REACTORS
330
121
102
}
330
121
100
AcDbScale
 70
     0
300
1:4
140
1.0
141
4.0
290
     0
  0
SCALE
  5
125
102
{ACAD_REACTORS
330
121
102
}
330
121
100
AcDbScale
 70
     0
300
1:5
140
1.0
141
5.0
290
     0
  0
SCALE
  5
126
102
{ACAD_REACTORS
330
121
102
}
330
121
100
AcDbScale
 70
     0
300
1:8
140
1.0
141
8.0
290
     0
  0
SCALE
  5
127
102
{ACAD_REACTORS
330
121
102
}
330
121
100
AcDbScale
 70
     0
300
1:10
140
1.0
141
10.0
290
     0
  0
SCALE
  5
128
102
{ACAD_REACTORS
330
121
102
}
330
121
100
AcDbScale
 70
     0
300
1:16
140
1.0
141
16.0
290
     0
  0
SCALE
  5
129
102
{ACAD_REACTORS
330
121
102
}
330
121
100
AcDbScale
 70
     0
300
1:20
140
1.0
141
20.0
290
     0
  0
SCALE
  5
12A
102
{ACAD_REACTORS
330
121
102
}
330
121
100
AcDbScale
 70
     0
300
1:30
140
1.0
141
30.0
290
     0
  0
SCALE
  5
12B
102
{ACAD_REACTORS
330
121
102
}
330
121
100
AcDbScale
 70
     0
300
1:40
140
1.0
141
40.0
290
     0
  0
SCALE
  5
12C
102
{ACAD_REACTORS
330
121
102
}
330
121
100
AcDbScale
 70
     0
300
1:50
140
1.0
141
50.0
290
     0
  0
SCALE
  5
12D
102
{ACAD_REACTORS
330
121
102
}
330
121
100
AcDbScale
 70
     0
300
1:100
140
1.0
141
100.0
290
     0
  0
SCALE
  5
12E
102
{ACAD_REACTORS
330
121
102
}
330
121
100
AcDbScale
 70
     0
300
2:1
140
2.0
141
1.0
290
     0
  0
SCALE
  5
12F
102
{ACAD_REACTORS
330
121
102
}
330
121
100
AcDbScale
 70
     0
300
4:1
140
4.0
141
1.0
290
     0
  0
SCALE
  5
130
102
{ACAD_REACTORS
330
121
102
}
330
121
100
AcDbScale
 70
     0
300
8:1
140
8.0
141
1.0
290
     0
  0
SCALE
  5
131
102
{ACAD_REACTORS
330
121
102
}
330
121
100
AcDbScale
 70
     0
300
10:1
140
10.0
141
1.0
290
     0
  0
SCALE
  5
132
102
{ACAD_REACTORS
330
121
102
}
330
121
100
AcDbScale
 70
     0
300
100:1
140
100.0
141
1.0
290
     0
  0
SCALE
  5
133
102
{ACAD_REACTORS
330
121
102
}
330
121
100
AcDbScale
 70
     0
300
1/128" = 1'-0"
140
0.0078125
141
12.0
290
     0
  0
SCALE
  5
134
102
{ACAD_REACTORS
330
121
102
}
330
121
100
AcDbScale
 70
     0
300
1/64" = 1'-0"
140
0.015625
141
12.0
290
     0
  0
SCALE
  5
135
102
{ACAD_REACTORS
330
121
102
}
330
121
100
AcDbScale
 70
     0
300
1/32" = 1'-0"
140
0.03125
141
12.0
290
     0
  0
SCALE
  5
136
102
{ACAD_REACTORS
330
121
102
}
330
121
100
AcDbScale
 70
     0
300
1/16" = 1'-0"
140
0.0625
141
12.0
290
     0
  0
SCALE
  5
137
102
{ACAD_REACTORS
330
121
102
}
330
121
100
AcDbScale
 70
     0
300
3/32" = 1'-0"
140
0.09375
141
12.0
290
     0
  0
SCALE
  5
138
102
{ACAD_REACTORS
330
121
102
}
330
121
100
AcDbScale
 70
     0
300
1/8" = 1'-0"
140
0.125
141
12.0
290
     0
  0
SCALE
  5
139
102
{ACAD_REACTORS
330
121
102
}
330
121
100
AcDbScale
 70
     0
300
3/16" = 1'-0"
140
0.1875
141
12.0
290
     0
  0
SCALE
  5
13A
102
{ACAD_REACTORS
330
121
102
}
330
121
100
AcDbScale
 70
     0
300
1/4" = 1'-0"
140
0.25
141
12.0
290
     0
  0
SCALE
  5
13B
102
{ACAD_REACTORS
330
121
102
}
330
121
100
AcDbScale
 70
     0
300
3/8" = 1'-0"
140
0.375
141
12.0
290
     0
  0
SCALE
  5
13C
102
{ACAD_REACTORS
330
121
102
}
330
121
100
AcDbScale
 70
     0
300
1/2" = 1'-0"
140
0.5
141
12.0
290
     0
  0
SCALE
  5
13D
102
{ACAD_REACTORS
330
121
102
}
330
121
100
AcDbScale
 70
     0
300
3/4" = 1'-0"
140
0.75
141
12.0
290
     0
  0
SCALE
  5
13E
102
{ACAD_REACTORS
330
121
102
}
330
121
100
AcDbScale
 70
     0
300
1" = 1'-0"
140
1.0
141
12.0
290
     0
  0
SCALE
  5
13F
102
{ACAD_REACTORS
330
121
102
}
330
121
100
AcDbScale
 70
     0
300
1-1/2" = 1'-0"
140
1.5
141
12.0
290
     0
  0
SCALE
  5
140
102
{ACAD_REACTORS
330
121
102
}
330
121
100
AcDbScale
 70
     0
300
3" = 1'-0"
140
3.0
141
12.0
290
     0
  0
SCALE
  5
141
102
{ACAD_REACTORS
330
121
102
}
330
121
100
AcDbScale
 70
     0
300
6" = 1'-0"
140
6.0
141
12.0
290
     0
  0
SCALE
  5
142
102
{ACAD_REACTORS
330
121
102
}
330
121
100
AcDbScale
 70
     0
300
1'-0" = 1'-0"
140
12.0
141
12.0
290
     0
  0
VISUALSTYLE
  5
2F
102
{ACAD_REACTORS
330
2A
102
}
102
{ACAD_XDICTIONARY
360
593
102
}
330
2A
100
AcDbVisualStyle
  2
2dWireframe
 70
     4
 71
     0
 72
     2
 73
     0
 90
        0
 40
-0.6
 41
-30.0
 62
     5
 63
     7
 74
     1
 91
        4
 64
     7
 65
   257
 75
     1
175
     1
 42
1.0
 92
        0
 66
   257
 43
1.0
 76
     1
 77
     6
 78
     2
 67
     7
 79
     5
170
     0
171
     0
290
     0
174
     0
 93
        1
 44
0.0
173
     0
291
     0
 45
0.0
1001
ACAD
1000
AcDbSavedByObjectVersion
1070
     0
  0
VISUALSTYLE
  5
31
102
{ACAD_REACTORS
330
2A
102
}
102
{ACAD_XDICTIONARY
360
597
102
}
330
2A
100
AcDbVisualStyle
  2
3D Hidden
 70
     6
 71
     1
 72
     2
 73
     2
 90
        0
 40
-0.6
 41
-30.0
 62
     5
 63
     7
 74
     2
 91
        2
 64
     7
 65
   257
 75
     2
175
     1
 42
40.0
 92
        0
 66
   257
 43
1.0
 76
     1
 77
     6
 78
     2
 67
     7
 79
     3
170
     0
171
     0
290
     0
174
     0
 93
        1
 44
0.0
173
     0
291
     0
 45
0.0
1001
ACAD
1000
AcDbSavedByObjectVersion
1070
     0
  0
VISUALSTYLE
  5
30
102
{ACAD_REACTORS
330
2A
102
}
102
{ACAD_XDICTIONARY
360
595
102
}
330
2A
100
AcDbVisualStyle
  2
3dWireframe
 70
     5
 71
     0
 72
     2
 73
     0
 90
        0
 40
-0.6
 41
-30.0
 62
     5
 63
     7
 74
     1
 91
        4
 64
     7
 65
   257
 75
     1
175
     1
 42
1.0
 92
        0
 66
   257
 43
1.0
 76
     1
 77
     6
 78
     2
 67
     7
 79
     5
170
     0
171
     0
290
     0
174
     0
 93
        1
 44
0.0
173
     0
291
     0
 45
0.0
1001
ACAD
1000
AcDbSavedByObjectVersion
1070
     0
  0
VISUALSTYLE
  5
32
102
{ACAD_REACTORS
330
2A
102
}
102
{ACAD_XDICTIONARY
360
599
102
}
330
2A
100
AcDbVisualStyle
  2
Basic
 70
     7
 71
     1
 72
     0
 73
     1
 90
        0
 40
-0.6
 41
-30.0
 62
     5
 63
     7
 74
     0
 91
        4
 64
     7
 65
   257
 75
     1
175
     1
 42
1.0
 92
        8
 66
     7
 43
1.0
 76
     1
 77
     6
 78
     2
 67
     7
 79
     5
170
     0
171
     0
290
     0
174
     0
 93
        1
 44
0.0
173
     0
291
     1
 45
0.0
1001
ACAD
1000
AcDbSavedByObjectVersion
1070
     0
  0
VISUALSTYLE
  5
36
102
{ACAD_REACTORS
330
2A
102
}
102
{ACAD_XDICTIONARY
360
5A1
102
}
330
2A
100
AcDbVisualStyle
  2
Brighten
 70
    12
 71
     2
 72
     2
 73
     0
 90
        0
 40
-0.6
 41
-30.0
 62
     5
 63
     7
 74
     1
 91
        4
 64
     7
 65
   257
 75
     1
175
     1
 42
1.0
 92
        8
 66
     7
 43
1.0
 76
     1
 77
     6
 78
     2
 67
     7
 79
     5
170
     0
171
     0
290
     0
174
     0
 93
        1
 44
50.0
173
     0
291
     1
 45
0.0
1001
ACAD
1000
AcDbSavedByObjectVersion
1070
     0
  0
VISUALSTYLE
  5
3A
102
{ACAD_REACTORS
330
2A
102
}
102
{ACAD_XDICTIONARY
360
5A9
102
}
330
2A
100
AcDbVisualStyle
  2
ColorChange
 70
    16
 71
     2
 72
     2
 73
     3
 90
        0
 40
-0.6
 41
-30.0
 62
     5
 63
     8
 74
     1
 91
        4
 64
     7
 65
   257
 75
     1
175
     1
 42
1.0
 92
        8
 66
     8
 43
1.0
 76
     1
 77
     6
 78
     2
 67
     7
 79
     5
170
     0
171
     0
290
     0
174
     0
 93
        1
 44
0.0
173
     0
291
     1
 45
0.0
1001
ACAD
1000
AcDbSavedByObjectVersion
1070
     0
  0
VISUALSTYLE
  5
34
102
{ACAD_REACTORS
330
2A
102
}
102
{ACAD_XDICTIONARY
360
59D
102
}
330
2A
100
AcDbVisualStyle
  2
Conceptual
 70
     9
 71
     3
 72
     2
 73
     0
 90
        0
 40
-0.6
 41
-30.0
 62
     5
 63
     7
 74
     2
 91
        2
 64
     7
 65
   257
 75
     1
175
     1
 42
40.0
 92
        8
 66
     7
 43
1.0
 76
     1
 77
     6
 78
     2
 67
     7
 79
     3
170
     0
171
     0
290
     0
174
     0
 93
        1
 44
0.0
173
     0
291
     0
 45
0.0
1001
ACAD
1000
AcDbSavedByObjectVersion
1070
     0
  0
VISUALSTYLE
  5
35
102
{ACAD_REACTORS
330
2A
102
}
102
{ACAD_XDICTIONARY
360
59F
102
}
330
2A
100
AcDbVisualStyle
  2
Dim
 70
    11
 71
     2
 72
     2
 73
     0
 90
        0
 40
-0.6
 41
-30.0
 62
     5
 63
     7
 74
     1
 91
        4
 64
     7
 65
   257
 75
     1
175
     1
 42
1.0
 92
        8
 66
     7
 43
1.0
 76
     1
 77
     6
 78
     2
 67
     7
 79
     5
170
     0
171
     0
290
     0
174
     0
 93
        1
 44
-50.0
173
     0
291
     1
 45
0.0
1001
ACAD
1000
AcDbSavedByObjectVersion
1070
     0
  0
VISUALSTYLE
  5
39
102
{ACAD_REACTORS
330
2A
102
}
102
{ACAD_XDICTIONARY
360
5A7
102
}
330
2A
100
AcDbVisualStyle
  2
Facepattern
 70
    15
 71
     2
 72
     2
 73
     0
 90
        0
 40
-0.6
 41
-30.0
 62
     5
 63
     7
 74
     1
 91
        4
 64
     7
 65
   257
 75
     1
175
     1
 42
1.0
 92
        8
 66
     7
 43
1.0
 76
     1
 77
     6
 78
     2
 67
     7
 79
     5
170
     0
171
     0
290
     0
174
     0
 93
        1
 44
0.0
173
     0
291
     1
 45
0.0
1001
ACAD
1000
AcDbSavedByObjectVersion
1070
     0
  0
VISUALSTYLE
  5
2B
102
{ACAD_REACTORS
330
2A
102
}
102
{ACAD_XDICTIONARY
360
58B
102
}
330
2A
100
AcDbVisualStyle
  2
Flat
 70
     0
 71
     2
 72
     1
 73
     1
 90
        2
 40
-0.6
 41
30.0
 62
     5
 63
     7
 74
     0
 91
        4
 64
     7
 65
   257
 75
     1
175
     1
 42
1.0
 92
        8
 66
     7
 43
1.0
 76
     1
 77
     6
 78
     2
 67
     7
 79
     5
170
     0
171
     0
290
     0
174
     0
 93
       13
 44
0.0
173
     0
291
     1
 45
0.0
1001
ACAD
1000
AcDbSavedByObjectVersion
1070
     0
  0
VISUALSTYLE
  5
2C
102
{ACAD_REACTORS
330
2A
102
}
102
{ACAD_XDICTIONARY
360
58D
102
}
330
2A
100
AcDbVisualStyle
  2
FlatWithEdges
 70
     1
 71
     2
 72
     1
 73
     1
 90
        2
 40
-0.6
 41
30.0
 62
     5
 63
     7
 74
     1
 91
        4
 64
     7
 65
   257
 75
     1
175
     1
 42
1.0
 92
        0
 66
   257
 43
1.0
 76
     1
 77
     6
 78
     2
 67
     7
 79
     5
170
     0
171
     0
290
     0
174
     0
 93
       13
 44
0.0
173
     0
291
     1
 45
0.0
1001
ACAD
1000
AcDbSavedByObjectVersion
1070
     0
  0
VISUALSTYLE
  5
2D
102
{ACAD_REACTORS
330
2A
102
}
102
{ACAD_XDICTIONARY
360
58F
102
}
330
2A
100
AcDbVisualStyle
  2
Gouraud
 70
     2
 71
     2
 72
     2
 73
     1
 90
        2
 40
-0.6
 41
30.0
 62
     5
 63
     7
 74
     0
 91
        4
 64
     7
 65
   257
 75
     1
175
     1
 42
1.0
 92
        0
 66
     7
 43
1.0
 76
     1
 77
     6
 78
     2
 67
     7
 79
     5
170
     0
171
     0
290
     0
174
     0
 93
       13
 44
0.0
173
     0
291
     1
 45
0.0
1001
ACAD
1000
AcDbSavedByObjectVersion
1070
     0
  0
VISUALSTYLE
  5
2E
102
{ACAD_REACTORS
330
2A
102
}
102
{ACAD_XDICTIONARY
360
591
102
}
330
2A
100
AcDbVisualStyle
  2
GouraudWithEdges
 70
     3
 71
     2
 72
     2
 73
     1
 90
        2
 40
-0.6
 41
30.0
 62
     5
 63
     7
 74
     1
 91
        4
 64
     7
 65
   257
 75
     1
175
     1
 42
1.0
 92
        0
 66
   257
 43
1.0
 76
     1
 77
     6
 78
     2
 67
     7
 79
     5
170
     0
171
     0
290
     0
174
     0
 93
       13
 44
0.0
173
     0
291
     1
 45
0.0
1001
ACAD
1000
AcDbSavedByObjectVersion
1070
     0
  0
VISUALSTYLE
  5
38
102
{ACAD_REACTORS
330
2A
102
}
102
{ACAD_XDICTIONARY
360
5A5
102
}
330
2A
100
AcDbVisualStyle
  2
Linepattern
 70
    14
 71
     2
 72
     2
 73
     0
 90
        0
 40
-0.6
 41
-30.0
 62
     5
 63
     7
 74
     1
 91
        4
 64
     7
 65
   257
 75
     7
175
     7
 42
1.0
 92
        8
 66
     7
 43
1.0
 76
     1
 77
     6
 78
     2
 67
     7
 79
     5
170
     0
171
     0
290
     0
174
     0
 93
        1
 44
0.0
173
     0
291
     1
 45
0.0
1001
ACAD
1000
AcDbSavedByObjectVersion
1070
     0
  0
VISUALSTYLE
  5
33
102
{ACAD_REACTORS
330
2A
102
}
102
{ACAD_XDICTIONARY
360
59B
102
}
330
2A
100
AcDbVisualStyle
  2
Realistic
 70
     8
 71
     2
 72
     2
 73
     0
 90
        0
 40
-0.6
 41
-30.0
 62
     5
 63
     7
 74
     1
 91
        0
 64
     7
 65
   257
 75
     1
175
     1
 42
1.0
 92
        8
 66
     8
 43
1.0
 76
     1
 77
     6
 78
     2
 67
     7
 79
     5
170
     0
171
     0
290
     0
174
     0
 93
       13
 44
0.0
173
     0
291
     0
 45
0.0
1001
ACAD
1000
AcDbSavedByObjectVersion
1070
     0
  0
VISUALSTYLE
  5
37
102
{ACAD_REACTORS
330
2A
102
}
102
{ACAD_XDICTIONARY
360
5A3
102
}
330
2A
100
AcDbVisualStyle
  2
Thicken
 70
    13
 71
     2
 72
     2
 73
     0
 90
        0
 40
-0.6
 41
-30.0
 62
     5
 63
     7
 74
     1
 91
        4
 64
     7
 65
   257
 75
     1
175
     1
 42
1.0
 92
       12
 66
     7
 43
1.0
 76
     1
 77
     6
 78
     2
 67
     7
 79
     5
170
     0
171
     0
290
     0
174
     0
 93
        1
 44
0.0
173
     0
291
     1
 45
0.0
1001
ACAD
1000
AcDbSavedByObjectVersion
1070
     0
  0
DICTIONARYVAR
  5
588
102
{ACAD_REACTORS
330
583
102
}
330
583
100
DictionaryVariables
280
     0
  1
1:1
  0
DICTIONARYVAR
  5
589
102
{ACAD_REACTORS
330
583
102
}
330
583
100
DictionaryVariables
280
     0
  1
2
  0
DICTIONARYVAR
  5
58A
102
{ACAD_REACTORS
330
583
102
}
330
583
100
DictionaryVariables
280
     0
  1
1
  0
DICTIONARYVAR
  5
587
102
{ACAD_REACTORS
330
583
102
}
330
583
100
DictionaryVariables
280
     0
  1
80.000000
  0
DICTIONARYVAR
  5
586
102
{ACAD_REACTORS
330
583
102
}
330
583
100
DictionaryVariables
280
     0
  1
5.000000
  0
DICTIONARY
  5
5AD
330
3D
100
AcDbDictionary
280
     1
281
     1
  3
ACAD_XREC_ROUNDTRIP
360
5AE
  0
DICTIONARY
  5
5AB
330
3C
100
AcDbDictionary
280
     1
281
     1
  3
ACAD_XREC_ROUNDTRIP
360
5AC
  0
DICTIONARY
  5
5AF
330
3E
100
AcDbDictionary
280
     1
281
     1
  3
ACAD_XREC_ROUNDTRIP
360
5B0
  0
DICTIONARY
  5
593
330
2F
100
AcDbDictionary
280
     1
281
     1
  3
ACAD_XREC_ROUNDTRIP
360
594
  0
DICTIONARY
  5
597
330
31
100
AcDbDictionary
280
     1
281
     1
  3
ACAD_XREC_ROUNDTRIP
360
598
  0
DICTIONARY
  5
595
330
30
100
AcDbDictionary
280
     1
281
     1
  3
ACAD_XREC_ROUNDTRIP
360
596
  0
DICTIONARY
  5
599
330
32
100
AcDbDictionary
280
     1
281
     1
  3
ACAD_XREC_ROUNDTRIP
360
59A
  0
DICTIONARY
  5
5A1
330
36
100
AcDbDictionary
280
     1
281
     1
  3
ACAD_XREC_ROUNDTRIP
360
5A2
  0
DICTIONARY
  5
5A9
330
3A
100
AcDbDictionary
280
     1
281
     1
  3
ACAD_XREC_ROUNDTRIP
360
5AA
  0
DICTIONARY
  5
59D
330
34
100
AcDbDictionary
280
     1
281
     1
  3
ACAD_XREC_ROUNDTRIP
360
59E
  0
DICTIONARY
  5
59F
330
35
100
AcDbDictionary
280
     1
281
     1
  3
ACAD_XREC_ROUNDTRIP
360
5A0
  0
DICTIONARY
  5
5A7
330
39
100
AcDbDictionary
280
     1
281
     1
  3
ACAD_XREC_ROUNDTRIP
360
5A8
  0
DICTIONARY
  5
58B
330
2B
100
AcDbDictionary
280
     1
281
     1
  3
ACAD_XREC_ROUNDTRIP
360
58C
  0
DICTIONARY
  5
58D
330
2C
100
AcDbDictionary
280
     1
281
     1
  3
ACAD_XREC_ROUNDTRIP
360
58E
  0
DICTIONARY
  5
58F
330
2D
100
AcDbDictionary
280
     1
281
     1
  3
ACAD_XREC_ROUNDTRIP
360
590
  0
DICTIONARY
  5
591
330
2E
100
AcDbDictionary
280
     1
281
     1
  3
ACAD_XREC_ROUNDTRIP
360
592
  0
DICTIONARY
  5
5A5
330
38
100
AcDbDictionary
280
     1
281
     1
  3
ACAD_XREC_ROUNDTRIP
360
5A6
  0
DICTIONARY
  5
59B
330
33
100
AcDbDictionary
280
     1
281
     1
  3
ACAD_XREC_ROUNDTRIP
360
59C
  0
DICTIONARY
  5
5A3
330
37
100
AcDbDictionary
280
     1
281
     1
  3
ACAD_XREC_ROUNDTRIP
360
5A4
  0
XRECORD
  5
5AE
102
{ACAD_REACTORS
330
5AD
102
}
330
5AD
100
AcDbXrecord
280
     1
102
MATERIAL
148
0.0
149
0.0
149
0.0
 93
        0
 94
      127
282
     0
 72
     1
 77
     1
171
     1
175
     1
179
     1
273
     0
  0
XRECORD
  5
5AC
102
{ACAD_REACTORS
330
5AB
102
}
330
5AB
100
AcDbXrecord
280
     1
102
MATERIAL
148
0.0
149
0.0
149
0.0
 93
        0
 94
      127
282
     0
 72
     1
 77
     1
171
     1
175
     1
179
     1
273
     0
  0
XRECORD
  5
5B0
102
{ACAD_REACTORS
330
5AF
102
}
330
5AF
100
AcDbXrecord
280
     1
102
MATERIAL
148
0.0
149
0.0
149
0.0
 93
        0
 94
      127
282
     0
 72
     1
 77
     1
171
     1
175
     1
179
     1
273
     0
  0
XRECORD
  5
594
102
{ACAD_REACTORS
330
593
102
}
330
593
100
AcDbXrecord
280
     1
102
RTVSPropertyOp0
 70
     1
102
RTVSPropertyOp1
 70
     1
102
RTVSPropertyOp2
 70
     1
102
RTVSPropertyOp3
 70
     1
102
RTVSPropertyOp4
 70
     1
102
RTVSPropertyOp5
 70
     1
102
RTVSPropertyOp6
 70
     1
102
RTVSPropertyOp7
 70
     1
102
RTVSPropertyOp8
 70
     1
102
RTVSPropertyOp9
 70
     1
102
RTVSPropertyOp10
 70
     1
102
RTVSPropertyOp11
 70
     1
102
RTVSPropertyOp12
 70
     1
102
RTVSPropertyOp13
 70
     1
102
RTVSPropertyOp14
 70
     1
102
RTVSPropertyOp15
 70
     1
102
RTVSPropertyOp16
 70
     1
102
RTVSPropertyOp17
 70
     1
102
RTVSPropertyOp18
 70
     1
102
RTVSPropertyOp19
 70
     1
102
RTVSPropertyOp20
 70
     1
102
RTVSPropertyOp21
 70
     1
102
RTVSPropertyOp22
 70
     1
102
RTVSPropertyOp23
 70
     1
102
RTVSPropertyOp24
 70
     1
102
RTVSPropertyOp25
 70
     1
102
RTVSPropertyOp26
 70
     1
102
RTVSPropertyOp27
 70
     1
  0
XRECORD
  5
598
102
{ACAD_REACTORS
330
597
102
}
330
597
100
AcDbXrecord
280
     1
102
RTVSPropertyOp0
 70
     1
102
RTVSPropertyOp1
 70
     1
102
RTVSPropertyOp2
 70
     1
102
RTVSPropertyOp3
 70
     1
102
RTVSPropertyOp4
 70
     1
102
RTVSPropertyOp5
 70
     1
102
RTVSPropertyOp6
 70
     1
102
RTVSPropertyOp7
 70
     1
102
RTVSPropertyOp8
 70
     1
102
RTVSPropertyOp9
 70
     1
102
RTVSPropertyOp10
 70
     1
102
RTVSPropertyOp11
 70
     1
102
RTVSPropertyOp12
 70
     1
102
RTVSPropertyOp13
 70
     1
102
RTVSPropertyOp14
 70
     1
102
RTVSPropertyOp15
 70
     1
102
RTVSPropertyOp16
 70
     1
102
RTVSPropertyOp17
 70
     1
102
RTVSPropertyOp18
 70
     1
102
RTVSPropertyOp19
 70
     1
102
RTVSPropertyOp20
 70
     1
102
RTVSPropertyOp21
 70
     1
102
RTVSPropertyOp22
 70
     1
102
RTVSPropertyOp23
 70
     1
102
RTVSPropertyOp24
 70
     1
102
RTVSPropertyOp25
 70
     1
102
RTVSPropertyOp26
 70
     1
102
RTVSPropertyOp27
 70
     1
  0
XRECORD
  5
596
102
{ACAD_REACTORS
330
595
102
}
330
595
100
AcDbXrecord
280
     1
102
RTVSPropertyOp0
 70
     1
102
RTVSPropertyOp1
 70
     1
102
RTVSPropertyOp2
 70
     1
102
RTVSPropertyOp3
 70
     1
102
RTVSPropertyOp4
 70
     1
102
RTVSPropertyOp5
 70
     1
102
RTVSPropertyOp6
 70
     1
102
RTVSPropertyOp7
 70
     1
102
RTVSPropertyOp8
 70
     1
102
RTVSPropertyOp9
 70
     1
102
RTVSPropertyOp10
 70
     1
102
RTVSPropertyOp11
 70
     1
102
RTVSPropertyOp12
 70
     1
102
RTVSPropertyOp13
 70
     1
102
RTVSPropertyOp14
 70
     1
102
RTVSPropertyOp15
 70
     1
102
RTVSPropertyOp16
 70
     1
102
RTVSPropertyOp17
 70
     1
102
RTVSPropertyOp18
 70
     1
102
RTVSPropertyOp19
 70
     1
102
RTVSPropertyOp20
 70
     1
102
RTVSPropertyOp21
 70
     1
102
RTVSPropertyOp22
 70
     1
102
RTVSPropertyOp23
 70
     1
102
RTVSPropertyOp24
 70
     1
102
RTVSPropertyOp25
 70
     1
102
RTVSPropertyOp26
 70
     1
102
RTVSPropertyOp27
 70
     1
  0
XRECORD
  5
59A
102
{ACAD_REACTORS
330
599
102
}
330
599
100
AcDbXrecord
280
     1
102
RTVSPropertyOp0
 70
     1
102
RTVSPropertyOp1
 70
     1
102
RTVSPropertyOp2
 70
     1
102
RTVSPropertyOp3
 70
     1
102
RTVSPropertyOp4
 70
     1
102
RTVSPropertyOp5
 70
     1
102
RTVSPropertyOp6
 70
     1
102
RTVSPropertyOp7
 70
     1
102
RTVSPropertyOp8
 70
     1
102
RTVSPropertyOp9
 70
     1
102
RTVSPropertyOp10
 70
     1
102
RTVSPropertyOp11
 70
     1
102
RTVSPropertyOp12
 70
     1
102
RTVSPropertyOp13
 70
     1
102
RTVSPropertyOp14
 70
     1
102
RTVSPropertyOp15
 70
     1
102
RTVSPropertyOp16
 70
     1
102
RTVSPropertyOp17
 70
     1
102
RTVSPropertyOp18
 70
     1
102
RTVSPropertyOp19
 70
     1
102
RTVSPropertyOp20
 70
     1
102
RTVSPropertyOp21
 70
     1
102
RTVSPropertyOp22
 70
     1
102
RTVSPropertyOp23
 70
     1
102
RTVSPropertyOp24
 70
     1
102
RTVSPropertyOp25
 70
     1
102
RTVSPropertyOp26
 70
     1
102
RTVSPropertyOp27
 70
     1
  0
XRECORD
  5
5A2
102
{ACAD_REACTORS
330
5A1
102
}
330
5A1
100
AcDbXrecord
280
     1
102
RTVSPropertyOp0
 70
     1
102
RTVSPropertyOp1
 70
     1
102
RTVSPropertyOp2
 70
     1
102
RTVSPropertyOp3
 70
     1
102
RTVSPropertyOp4
 70
     1
102
RTVSPropertyOp5
 70
     1
102
RTVSPropertyOp6
 70
     1
102
RTVSPropertyOp7
 70
     1
102
RTVSPropertyOp8
 70
     1
102
RTVSPropertyOp9
 70
     1
102
RTVSPropertyOp10
 70
     1
102
RTVSPropertyOp11
 70
     1
102
RTVSPropertyOp12
 70
     1
102
RTVSPropertyOp13
 70
     1
102
RTVSPropertyOp14
 70
     1
102
RTVSPropertyOp15
 70
     1
102
RTVSPropertyOp16
 70
     1
102
RTVSPropertyOp17
 70
     1
102
RTVSPropertyOp18
 70
     1
102
RTVSPropertyOp19
 70
     1
102
RTVSPropertyOp20
 70
     1
102
RTVSPropertyOp21
 70
     1
102
RTVSPropertyOp22
 70
     1
102
RTVSPropertyOp23
 70
     1
102
RTVSPropertyOp24
 70
     1
102
RTVSPropertyOp25
 70
     1
102
RTVSPropertyOp26
 70
     1
102
RTVSPropertyOp27
 70
     1
  0
XRECORD
  5
5AA
102
{ACAD_REACTORS
330
5A9
102
}
330
5A9
100
AcDbXrecord
280
     1
102
RTVSPropertyOp0
 70
     1
102
RTVSPropertyOp1
 70
     1
102
RTVSPropertyOp2
 70
     1
102
RTVSPropertyOp3
 70
     1
102
RTVSPropertyOp4
 70
     1
102
RTVSPropertyOp5
 70
     1
102
RTVSPropertyOp6
 70
     1
102
RTVSPropertyOp7
 70
     1
102
RTVSPropertyOp8
 70
     1
102
RTVSPropertyOp9
 70
     1
102
RTVSPropertyOp10
 70
     1
102
RTVSPropertyOp11
 70
     1
102
RTVSPropertyOp12
 70
     1
102
RTVSPropertyOp13
 70
     1
102
RTVSPropertyOp14
 70
     1
102
RTVSPropertyOp15
 70
     1
102
RTVSPropertyOp16
 70
     1
102
RTVSPropertyOp17
 70
     1
102
RTVSPropertyOp18
 70
     1
102
RTVSPropertyOp19
 70
     1
102
RTVSPropertyOp20
 70
     1
102
RTVSPropertyOp21
 70
     1
102
RTVSPropertyOp22
 70
     1
102
RTVSPropertyOp23
 70
     1
102
RTVSPropertyOp24
 70
     1
102
RTVSPropertyOp25
 70
     1
102
RTVSPropertyOp26
 70
     1
102
RTVSPropertyOp27
 70
     1
  0
XRECORD
  5
59E
102
{ACAD_REACTORS
330
59D
102
}
330
59D
100
AcDbXrecord
280
     1
102
RTVSPropertyOp0
 70
     1
102
RTVSPropertyOp1
 70
     1
102
RTVSPropertyOp2
 70
     1
102
RTVSPropertyOp3
 70
     1
102
RTVSPropertyOp4
 70
     1
102
RTVSPropertyOp5
 70
     1
102
RTVSPropertyOp6
 70
     1
102
RTVSPropertyOp7
 70
     1
102
RTVSPropertyOp8
 70
     1
102
RTVSPropertyOp9
 70
     1
102
RTVSPropertyOp10
 70
     1
102
RTVSPropertyOp11
 70
     1
102
RTVSPropertyOp12
 70
     1
102
RTVSPropertyOp13
 70
     1
102
RTVSPropertyOp14
 70
     1
102
RTVSPropertyOp15
 70
     1
102
RTVSPropertyOp16
 70
     1
102
RTVSPropertyOp17
 70
     1
102
RTVSPropertyOp18
 70
     1
102
RTVSPropertyOp19
 70
     1
102
RTVSPropertyOp20
 70
     1
102
RTVSPropertyOp21
 70
     1
102
RTVSPropertyOp22
 70
     1
102
RTVSPropertyOp23
 70
     1
102
RTVSPropertyOp24
 70
     1
102
RTVSPropertyOp25
 70
     1
102
RTVSPropertyOp26
 70
     1
102
RTVSPropertyOp27
 70
     1
  0
XRECORD
  5
5A0
102
{ACAD_REACTORS
330
59F
102
}
330
59F
100
AcDbXrecord
280
     1
102
RTVSPropertyOp0
 70
     1
102
RTVSPropertyOp1
 70
     1
102
RTVSPropertyOp2
 70
     1
102
RTVSPropertyOp3
 70
     1
102
RTVSPropertyOp4
 70
     1
102
RTVSPropertyOp5
 70
     1
102
RTVSPropertyOp6
 70
     1
102
RTVSPropertyOp7
 70
     1
102
RTVSPropertyOp8
 70
     1
102
RTVSPropertyOp9
 70
     1
102
RTVSPropertyOp10
 70
     1
102
RTVSPropertyOp11
 70
     1
102
RTVSPropertyOp12
 70
     1
102
RTVSPropertyOp13
 70
     1
102
RTVSPropertyOp14
 70
     1
102
RTVSPropertyOp15
 70
     1
102
RTVSPropertyOp16
 70
     1
102
RTVSPropertyOp17
 70
     1
102
RTVSPropertyOp18
 70
     1
102
RTVSPropertyOp19
 70
     1
102
RTVSPropertyOp20
 70
     1
102
RTVSPropertyOp21
 70
     1
102
RTVSPropertyOp22
 70
     1
102
RTVSPropertyOp23
 70
     1
102
RTVSPropertyOp24
 70
     1
102
RTVSPropertyOp25
 70
     1
102
RTVSPropertyOp26
 70
     1
102
RTVSPropertyOp27
 70
     1
  0
XRECORD
  5
5A8
102
{ACAD_REACTORS
330
5A7
102
}
330
5A7
100
AcDbXrecord
280
     1
102
RTVSPropertyOp0
 70
     1
102
RTVSPropertyOp1
 70
     1
102
RTVSPropertyOp2
 70
     1
102
RTVSPropertyOp3
 70
     1
102
RTVSPropertyOp4
 70
     1
102
RTVSPropertyOp5
 70
     1
102
RTVSPropertyOp6
 70
     1
102
RTVSPropertyOp7
 70
     1
102
RTVSPropertyOp8
 70
     1
102
RTVSPropertyOp9
 70
     1
102
RTVSPropertyOp10
 70
     1
102
RTVSPropertyOp11
 70
     1
102
RTVSPropertyOp12
 70
     1
102
RTVSPropertyOp13
 70
     1
102
RTVSPropertyOp14
 70
     1
102
RTVSPropertyOp15
 70
     1
102
RTVSPropertyOp16
 70
     1
102
RTVSPropertyOp17
 70
     1
102
RTVSPropertyOp18
 70
     1
102
RTVSPropertyOp19
 70
     1
102
RTVSPropertyOp20
 70
     1
102
RTVSPropertyOp21
 70
     1
102
RTVSPropertyOp22
 70
     1
102
RTVSPropertyOp23
 70
     1
102
RTVSPropertyOp24
 70
     1
102
RTVSPropertyOp25
 70
     1
102
RTVSPropertyOp26
 70
     1
102
RTVSPropertyOp27
 70
     1
  0
XRECORD
  5
58C
102
{ACAD_REACTORS
330
58B
102
}
330
58B
100
AcDbXrecord
280
     1
102
RTVSPropertyOp0
 70
     1
102
RTVSPropertyOp1
 70
     1
102
RTVSPropertyOp2
 70
     1
102
RTVSPropertyOp3
 70
     1
102
RTVSPropertyOp4
 70
     1
102
RTVSPropertyOp5
 70
     1
102
RTVSPropertyOp6
 70
     1
102
RTVSPropertyOp7
 70
     1
102
RTVSPropertyOp8
 70
     1
102
RTVSPropertyOp9
 70
     1
102
RTVSPropertyOp10
 70
     1
102
RTVSPropertyOp11
 70
     1
102
RTVSPropertyOp12
 70
     1
102
RTVSPropertyOp13
 70
     1
102
RTVSPropertyOp14
 70
     1
102
RTVSPropertyOp15
 70
     1
102
RTVSPropertyOp16
 70
     1
102
RTVSPropertyOp17
 70
     1
102
RTVSPropertyOp18
 70
     1
102
RTVSPropertyOp19
 70
     1
102
RTVSPropertyOp20
 70
     1
102
RTVSPropertyOp21
 70
     1
102
RTVSPropertyOp22
 70
     1
102
RTVSPropertyOp23
 70
     1
102
RTVSPropertyOp24
 70
     1
102
RTVSPropertyOp25
 70
     1
102
RTVSPropertyOp26
 70
     1
102
RTVSPropertyOp27
 70
     1
  0
XRECORD
  5
58E
102
{ACAD_REACTORS
330
58D
102
}
330
58D
100
AcDbXrecord
280
     1
102
RTVSPropertyOp0
 70
     1
102
RTVSPropertyOp1
 70
     1
102
RTVSPropertyOp2
 70
     1
102
RTVSPropertyOp3
 70
     1
102
RTVSPropertyOp4
 70
     1
102
RTVSPropertyOp5
 70
     1
102
RTVSPropertyOp6
 70
     1
102
RTVSPropertyOp7
 70
     1
102
RTVSPropertyOp8
 70
     1
102
RTVSPropertyOp9
 70
     1
102
RTVSPropertyOp10
 70
     1
102
RTVSPropertyOp11
 70
     1
102
RTVSPropertyOp12
 70
     1
102
RTVSPropertyOp13
 70
     1
102
RTVSPropertyOp14
 70
     1
102
RTVSPropertyOp15
 70
     1
102
RTVSPropertyOp16
 70
     1
102
RTVSPropertyOp17
 70
     1
102
RTVSPropertyOp18
 70
     1
102
RTVSPropertyOp19
 70
     1
102
RTVSPropertyOp20
 70
     1
102
RTVSPropertyOp21
 70
     1
102
RTVSPropertyOp22
 70
     1
102
RTVSPropertyOp23
 70
     1
102
RTVSPropertyOp24
 70
     1
102
RTVSPropertyOp25
 70
     1
102
RTVSPropertyOp26
 70
     1
102
RTVSPropertyOp27
 70
     1
  0
XRECORD
  5
590
102
{ACAD_REACTORS
330
58F
102
}
330
58F
100
AcDbXrecord
280
     1
102
RTVSPropertyOp0
 70
     1
102
RTVSPropertyOp1
 70
     1
102
RTVSPropertyOp2
 70
     1
102
RTVSPropertyOp3
 70
     1
102
RTVSPropertyOp4
 70
     1
102
RTVSPropertyOp5
 70
     1
102
RTVSPropertyOp6
 70
     1
102
RTVSPropertyOp7
 70
     1
102
RTVSPropertyOp8
 70
     1
102
RTVSPropertyOp9
 70
     1
102
RTVSPropertyOp10
 70
     1
102
RTVSPropertyOp11
 70
     1
102
RTVSPropertyOp12
 70
     1
102
RTVSPropertyOp13
 70
     1
102
RTVSPropertyOp14
 70
     1
102
RTVSPropertyOp15
 70
     1
102
RTVSPropertyOp16
 70
     1
102
RTVSPropertyOp17
 70
     1
102
RTVSPropertyOp18
 70
     1
102
RTVSPropertyOp19
 70
     1
102
RTVSPropertyOp20
 70
     1
102
RTVSPropertyOp21
 70
     1
102
RTVSPropertyOp22
 70
     1
102
RTVSPropertyOp23
 70
     1
102
RTVSPropertyOp24
 70
     1
102
RTVSPropertyOp25
 70
     1
102
RTVSPropertyOp26
 70
     1
102
RTVSPropertyOp27
 70
     1
  0
XRECORD
  5
592
102
{ACAD_REACTORS
330
591
102
}
330
591
100
AcDbXrecord
280
     1
102
RTVSPropertyOp0
 70
     1
102
RTVSPropertyOp1
 70
     1
102
RTVSPropertyOp2
 70
     1
102
RTVSPropertyOp3
 70
     1
102
RTVSPropertyOp4
 70
     1
102
RTVSPropertyOp5
 70
     1
102
RTVSPropertyOp6
 70
     1
102
RTVSPropertyOp7
 70
     1
102
RTVSPropertyOp8
 70
     1
102
RTVSPropertyOp9
 70
     1
102
RTVSPropertyOp10
 70
     1
102
RTVSPropertyOp11
 70
     1
102
RTVSPropertyOp12
 70
     1
102
RTVSPropertyOp13
 70
     1
102
RTVSPropertyOp14
 70
     1
102
RTVSPropertyOp15
 70
     1
102
RTVSPropertyOp16
 70
     1
102
RTVSPropertyOp17
 70
     1
102
RTVSPropertyOp18
 70
     1
102
RTVSPropertyOp19
 70
     1
102
RTVSPropertyOp20
 70
     1
102
RTVSPropertyOp21
 70
     1
102
RTVSPropertyOp22
 70
     1
102
RTVSPropertyOp23
 70
     1
102
RTVSPropertyOp24
 70
     1
102
RTVSPropertyOp25
 70
     1
102
RTVSPropertyOp26
 70
     1
102
RTVSPropertyOp27
 70
     1
  0
XRECORD
  5
5A6
102
{ACAD_REACTORS
330
5A5
102
}
330
5A5
100
AcDbXrecord
280
     1
102
RTVSPropertyOp0
 70
     1
102
RTVSPropertyOp1
 70
     1
102
RTVSPropertyOp2
 70
     1
102
RTVSPropertyOp3
 70
     1
102
RTVSPropertyOp4
 70
     1
102
RTVSPropertyOp5
 70
     1
102
RTVSPropertyOp6
 70
     1
102
RTVSPropertyOp7
 70
     1
102
RTVSPropertyOp8
 70
     1
102
RTVSPropertyOp9
 70
     1
102
RTVSPropertyOp10
 70
     1
102
RTVSPropertyOp11
 70
     1
102
RTVSPropertyOp12
 70
     1
102
RTVSPropertyOp13
 70
     1
102
RTVSPropertyOp14
 70
     1
102
RTVSPropertyOp15
 70
     1
102
RTVSPropertyOp16
 70
     1
102
RTVSPropertyOp17
 70
     1
102
RTVSPropertyOp18
 70
     1
102
RTVSPropertyOp19
 70
     1
102
RTVSPropertyOp20
 70
     1
102
RTVSPropertyOp21
 70
     1
102
RTVSPropertyOp22
 70
     1
102
RTVSPropertyOp23
 70
     1
102
RTVSPropertyOp24
 70
     1
102
RTVSPropertyOp25
 70
     1
102
RTVSPropertyOp26
 70
     1
102
RTVSPropertyOp27
 70
     1
  0
XRECORD
  5
59C
102
{ACAD_REACTORS
330
59B
102
}
330
59B
100
AcDbXrecord
280
     1
102
RTVSPropertyOp0
 70
     1
102
RTVSPropertyOp1
 70
     1
102
RTVSPropertyOp2
 70
     1
102
RTVSPropertyOp3
 70
     1
102
RTVSPropertyOp4
 70
     1
102
RTVSPropertyOp5
 70
     1
102
RTVSPropertyOp6
 70
     1
102
RTVSPropertyOp7
 70
     1
102
RTVSPropertyOp8
 70
     1
102
RTVSPropertyOp9
 70
     1
102
RTVSPropertyOp10
 70
     1
102
RTVSPropertyOp11
 70
     1
102
RTVSPropertyOp12
 70
     1
102
RTVSPropertyOp13
 70
     1
102
RTVSPropertyOp14
 70
     1
102
RTVSPropertyOp15
 70
     1
102
RTVSPropertyOp16
 70
     1
102
RTVSPropertyOp17
 70
     1
102
RTVSPropertyOp18
 70
     1
102
RTVSPropertyOp19
 70
     1
102
RTVSPropertyOp20
 70
     1
102
RTVSPropertyOp21
 70
     1
102
RTVSPropertyOp22
 70
     1
102
RTVSPropertyOp23
 70
     1
102
RTVSPropertyOp24
 70
     1
102
RTVSPropertyOp25
 70
     1
102
RTVSPropertyOp26
 70
     1
102
RTVSPropertyOp27
 70
     1
  0
XRECORD
  5
5A4
102
{ACAD_REACTORS
330
5A3
102
}
330
5A3
100
AcDbXrecord
280
     1
102
RTVSPropertyOp0
 70
     1
102
RTVSPropertyOp1
 70
     1
102
RTVSPropertyOp2
 70
     1
102
RTVSPropertyOp3
 70
     1
102
RTVSPropertyOp4
 70
     1
102
RTVSPropertyOp5
 70
     1
102
RTVSPropertyOp6
 70
     1
102
RTVSPropertyOp7
 70
     1
102
RTVSPropertyOp8
 70
     1
102
RTVSPropertyOp9
 70
     1
102
RTVSPropertyOp10
 70
     1
102
RTVSPropertyOp11
 70
     1
102
RTVSPropertyOp12
 70
     1
102
RTVSPropertyOp13
 70
     1
102
RTVSPropertyOp14
 70
     1
102
RTVSPropertyOp15
 70
     1
102
RTVSPropertyOp16
 70
     1
102
RTVSPropertyOp17
 70
     1
102
RTVSPropertyOp18
 70
     1
102
RTVSPropertyOp19
 70
     1
102
RTVSPropertyOp20
 70
     1
102
RTVSPropertyOp21
 70
     1
102
RTVSPropertyOp22
 70
     1
102
RTVSPropertyOp23
 70
     1
102
RTVSPropertyOp24
 70
     1
102
RTVSPropertyOp25
 70
     1
102
RTVSPropertyOp26
 70
     1
102
RTVSPropertyOp27
 70
     1
  0
ENDSEC
  0
EOF
