  0
SECTION
  2
HEADER
  9
$ACADVER
  1
AC1015
  9
$ACADMAINTVER
 70
     6
  9
$DWGCODEPAGE
  3
ANSI_1252
  9
$INSBASE
 10
0.0
 20
0.0
 30
0.0
  9
$EXTMIN
 10
0.0
 20
0.0
 30
0.0
  9
$EXTMAX
 10
25.0
 20
35.0
 30
0.0
  9
$LIMMIN
 10
0.0
 20
0.0
  9
$LIMMAX
 10
420.0
 20
297.0
  9
$ORTHOMODE
 70
     0
  9
$REGENMODE
 70
     1
  9
$FILLMODE
 70
     1
  9
$QTEXTMODE
 70
     0
  9
$MIRRTEXT
 70
     1
  9
$LTSCALE
 40
3.35
  9
$ATTMODE
 70
     1
  9
$TEXTSIZE
 40
2.5
  9
$TRACEWID
 40
1.0
  9
$TEXTSTYLE
  7
Standard
  9
$CLAYER
  8
0
  9
$CELTYPE
  6
ByLayer
  9
$CECOLOR
 62
   256
  9
$CELTSCALE
 40
1.0
  9
$DISPSILH
 70
     0
  9
$DIMSCALE
 40
1.0
  9
$DIMASZ
 40
2.5
  9
$DIMEXO
 40
0.625
  9
$DIMDLI
 40
3.75
  9
$DIMRND
 40
0.0
  9
$DIMDLE
 40
0.0
  9
$DIMEXE
 40
1.25
  9
$DIMTP
 40
0.0
  9
$DIMTM
 40
0.0
  9
$DIMTXT
 40
2.5
  9
$DIMCEN
 40
2.5
  9
$DIMTSZ
 40
0.0
  9
$DIMTOL
 70
     0
  9
$DIMLIM
 70
     0
  9
$DIMTIH
 70
     0
  9
$DIMTOH
 70
     0
  9
$DIMSE1
 70
     0
  9
$DIMSE2
 70
     0
  9
$DIMTAD
 70
     1
  9
$DIMZIN
 70
     8
  9
$DIMBLK
  1

  9
$DIMASO
 70
     1
  9
$DIMSHO
 70
     1
  9
$DIMPOST
  1

  9
$DIMAPOST
  1

  9
$DIMALT
 70
     0
  9
$DIMALTD
 70
     3
  9
$DIMALTF
 40
0.03937007874016
  9
$DIMLFAC
 40
1.0
  9
$DIMTOFL
 70
     1
  9
$DIMTVP
 40
0.0
  9
$DIMTIX
 70
     0
  9
$DIMSOXD
 70
     0
  9
$DIMSAH
 70
     0
  9
$DIMBLK1
  1

  9
$DIMBLK2
  1

  9
$DIMSTYLE
  2
ISO-25
  9
$DIMCLRD
 70
     0
  9
$DIMCLRE
 70
     0
  9
$DIMCLRT
 70
     0
  9
$DIMTFAC
 40
1.0
  9
$DIMGAP
 40
0.625
  9
$DIMJUST
 70
     0
  9
$DIMSD1
 70
     0
  9
$DIMSD2
 70
     0
  9
$DIMTOLJ
 70
     0
  9
$DIMTZIN
 70
     8
  9
$DIMALTZ
 70
     0
  9
$DIMALTTZ
 70
     0
  9
$DIMUPT
 70
     0
  9
$DIMDEC
 70
     2
  9
$DIMTDEC
 70
     2
  9
$DIMALTU
 70
     2
  9
$DIMALTTD
 70
     3
  9
$DIMTXSTY
  7
Standard
  9
$DIMAUNIT
 70
     0
  9
$DIMADEC
 70
     0
  9
$DIMALTRND
 40
0.0
  9
$DIMAZIN
 70
     0
  9
$DIMDSEP
 70
    44
  9
$DIMATFIT
 70
     3
  9
$DIMFRAC
 70
     0
  9
$DIMLDRBLK
  1

  9
$DIMLUNIT
 70
     2
  9
$DIMLWD
 70
    -2
  9
$DIMLWE
 70
    -2
  9
$DIMTMOVE
 70
     0
  9
$LUNITS
 70
     2
  9
$LUPREC
 70
     4
  9
$SKETCHINC
 40
1.0
  9
$FILLETRAD
 40
10.0
  9
$AUNITS
 70
     0
  9
$AUPREC
 70
     0
  9
$MENU
  1
.
  9
$ELEVATION
 40
0.0
  9
$PELEVATION
 40
0.0
  9
$THICKNESS
 40
0.0
  9
$LIMCHECK
 70
     0
  9
$CHAMFERA
 40
10.0
  9
$CHAMFERB
 40
10.0
  9
$CHAMFERC
 40
20.0
  9
$CHAMFERD
 40
0.0
  9
$SKPOLY
 70
     0
  9
$TDCREATE
 40
2457248.579166667
  9
$TDUCREATE
 40
2457248.495833333
  9
$TDUPDATE
 40
2457248.582638889
  9
$TDUUPDATE
 40
2457248.499305556
  9
$TDINDWG
 40
0.0000000116
  9
$TDUSRTIMER
 40
0.0000000116
  9
$USRTIMER
 70
     1
  9
$ANGBASE
 50
0.0
  9
$ANGDIR
 70
     0
  9
$PDMODE
 70
     0
  9
$PDSIZE
 40
0.0
  9
$PLINEWID
 40
0.0
  9
$SPLFRAME
 70
     0
  9
$SPLINETYPE
 70
     6
  9
$SPLINESEGS
 70
     8
  9
$HANDSEED
  5
5A9
  9
$SURFTAB1
 70
     6
  9
$SURFTAB2
 70
     6
  9
$SURFTYPE
 70
     6
  9
$SURFU
 70
     6
  9
$SURFV
 70
     6
  9
$UCSBASE
  2

  9
$UCSNAME
  2

  9
$UCSORG
 10
0.0
 20
0.0
 30
0.0
  9
$UCSXDIR
 10
1.0
 20
0.0
 30
0.0
  9
$UCSYDIR
 10
0.0
 20
1.0
 30
0.0
  9
$UCSORTHOREF
  2

  9
$UCSORTHOVIEW
 70
     0
  9
$UCSORGTOP
 10
0.0
 20
0.0
 30
0.0
  9
$UCSORGBOTTOM
 10
0.0
 20
0.0
 30
0.0
  9
$UCSORGLEFT
 10
0.0
 20
0.0
 30
0.0
  9
$UCSORGRIGHT
 10
0.0
 20
0.0
 30
0.0
  9
$UCSORGFRONT
 10
0.0
 20
0.0
 30
0.0
  9
$UCSORGBACK
 10
0.0
 20
0.0
 30
0.0
  9
$PUCSBASE
  2

  9
$PUCSNAME
  2

  9
$PUCSORG
 10
0.0
 20
0.0
 30
0.0
  9
$PUCSXDIR
 10
1.0
 20
0.0
 30
0.0
  9
$PUCSYDIR
 10
0.0
 20
1.0
 30
0.0
  9
$PUCSORTHOREF
  2

  9
$PUCSORTHOVIEW
 70
     0
  9
$PUCSORGTOP
 10
0.0
 20
0.0
 30
0.0
  9
$PUCSORGBOTTOM
 10
0.0
 20
0.0
 30
0.0
  9
$PUCSORGLEFT
 10
0.0
 20
0.0
 30
0.0
  9
$PUCSORGRIGHT
 10
0.0
 20
0.0
 30
0.0
  9
$PUCSORGFRONT
 10
0.0
 20
0.0
 30
0.0
  9
$PUCSORGBACK
 10
0.0
 20
0.0
 30
0.0
  9
$USERI1
 70
     0
  9
$USERI2
 70
     0
  9
$USERI3
 70
     0
  9
$USERI4
 70
     0
  9
$USERI5
 70
     0
  9
$USERR1
 40
0.0
  9
$USERR2
 40
0.0
  9
$USERR3
 40
0.0
  9
$USERR4
 40
0.0
  9
$USERR5
 40
0.0
  9
$WORLDVIEW
 70
     1
  9
$SHADEDGE
 70
     3
  9
$SHADEDIF
 70
    70
  9
$TILEMODE
 70
     1
  9
$MAXACTVP
 70
    64
  9
$PINSBASE
 10
0.0
 20
0.0
 30
0.0
  9
$PLIMCHECK
 70
     0
  9
$PEXTMIN
 10
1.000000000000000E+20
 20
1.000000000000000E+20
 30
1.000000000000000E+20
  9
$PEXTMAX
 10
-1.000000000000000E+20
 20
-1.000000000000000E+20
 30
-1.000000000000000E+20
  9
$PLIMMIN
 10
0.0
 20
0.0
  9
$PLIMMAX
 10
420.0
 20
297.0
  9
$UNITMODE
 70
     0
  9
$VISRETAIN
 70
     1
  9
$PLINEGEN
 70
     0
  9
$PSLTSCALE
 70
     1
  9
$TREEDEPTH
 70
  3020
  9
$CMLSTYLE
  2
Standard
  9
$CMLJUST
 70
     0
  9
$CMLSCALE
 40
20.0
  9
$PROXYGRAPHICS
 70
     1
  9
$MEASUREMENT
 70
     1
  9
$CELWEIGHT
370
    -1
  9
$ENDCAPS
280
     0
  9
$JOINSTYLE
280
     0
  9
$LWDISPLAY
290
     0
  9
$INSUNITS
 70
     4
  9
$HYPERLINKBASE
  1

  9
$STYLESHEET
  1

  9
$XEDIT
290
     1
  9
$CEPSNTYPE
380
     0
  9
$PSTYLEMODE
290
     1
  9
$FINGERPRINTGUID
  2
{E96D931F-6A2A-4DA6-AA3E-D66CC2A15690}
  9
$VERSIONGUID
  2
{FAEB1C32-E019-11D5-929B-00C0DF256EC4}
  9
$EXTNAMES
290
     1
  9
$PSVPSCALE
 40
0.0
  9
$OLESTARTUP
290
     0
  0
ENDSEC
  0
SECTION
  2
CLASSES
  0
CLASS
  1
ACDBDICTIONARYWDFLT
  2
AcDbDictionaryWithDefault
  3
ObjectDBX Classes
 90
        0
280
     0
281
     0
  0
CLASS
  1
VISUALSTYLE
  2
AcDbVisualStyle
  3
ObjectDBX Classes
 90
     4095
280
     0
281
     0
  0
CLASS
  1
MATERIAL
  2
AcDbMaterial
  3
ObjectDBX Classes
 90
     1153
280
     0
281
     0
  0
CLASS
  1
SCALE
  2
AcDbScale
  3
ObjectDBX Classes
 90
     1153
280
     0
281
     0
  0
CLASS
  1
DICTIONARYVAR
  2
AcDbDictionaryVar
  3
ObjectDBX Classes
 90
        0
280
     0
281
     0
  0
CLASS
  1
ACDBPLACEHOLDER
  2
AcDbPlaceHolder
  3
ObjectDBX Classes
 90
        0
280
     0
281
     0
  0
CLASS
  1
LAYOUT
  2
AcDbLayout
  3
ObjectDBX Classes
 90
        0
280
     0
281
     0
  0
ENDSEC
  0
SECTION
  2
TABLES
  0
TABLE
  2
VPORT
  5
8
330
0
100
AcDbSymbolTable
 70
     1
  0
VPORT
  5
29
330
8
100
AcDbSymbolTableRecord
100
AcDbViewportTableRecord
  2
*Active
 70
     0
 10
0.0
 20
0.0
 11
1.0
 21
1.0
 12
11.26
 22
4.5
 13
0.0
 23
0.0
 14
10.0
 24
10.0
 15
10.0
 25
10.0
 16
0.0
 26
0.0
 36
1.0
 17
0.0
 27
0.0
 37
0.0
 40
9.0
 41
2.503333333333333
 42
50.0
 43
0.0
 44
0.0
 50
0.0
 51
0.0
 71
     0
 72
   100
 73
     1
 74
     3
 75
     0
 76
     0
 77
     0
 78
     0
281
     0
 65
     1
110
0.0
120
0.0
130
0.0
111
1.0
121
0.0
131
0.0
112
0.0
122
1.0
132
0.0
 79
     0
146
0.0
  0
ENDTAB
  0
TABLE
  2
LTYPE
  5
5
330
0
100
AcDbSymbolTable
 70
     7
  0
LTYPE
  5
14
330
5
100
AcDbSymbolTableRecord
100
AcDbLinetypeTableRecord
  2
ByBlock
 70
     0
  3

 72
    65
 73
     0
 40
0.0
  0
LTYPE
  5
15
330
5
100
AcDbSymbolTableRecord
100
AcDbLinetypeTableRecord
  2
ByLayer
 70
     0
  3

 72
    65
 73
     0
 40
0.0
  0
LTYPE
  5
16
330
5
100
AcDbSymbolTableRecord
100
AcDbLinetypeTableRecord
  2
Continuous
 70
     0
  3
Solid line
 72
    65
 73
     0
 40
0.0
  0
LTYPE
  5
D1
330
5
100
AcDbSymbolTableRecord
100
AcDbLinetypeTableRecord
  2
SK1
 70
     0
  3
THICK
 72
    65
 73
     0
 40
0.0
  0
LTYPE
  5
D8
330
5
100
AcDbSymbolTableRecord
100
AcDbLinetypeTableRecord
  2
NOCUT
 70
     0
  3
THICK
 72
    65
 73
     0
 40
0.0
  0
LTYPE
  5
DD
330
5
100
AcDbSymbolTableRecord
100
AcDbLinetypeTableRecord
  2
SK2
 70
     0
  3
THIN
 72
    65
 73
     0
 40
0.0
  0
LTYPE
  5
188
330
5
100
AcDbSymbolTableRecord
100
AcDbLinetypeTableRecord
  2
L2
 70
     0
  3
THIN
 72
    65
 73
     0
 40
0.0
  0
LTYPE
  5
2E3
330
5
100
AcDbSymbolTableRecord
100
AcDbLinetypeTableRecord
  2
LONGDASH_DASH
 70
     0
  3
THIN_DASHDOT
 72
    65
 73
     4
 40
0.85
 49
0.4
 74
     0
 49
-0.2
 74
     0
 49
0.05
 74
     0
 49
-0.2
 74
     0
  0
LTYPE
  5
2E9
330
5
100
AcDbSymbolTableRecord
100
AcDbLinetypeTableRecord
  2
INFTOTAL
 70
     0
  3
THIN
 72
    65
 73
     0
 40
0.0
  0
ENDTAB
  0
TABLE
  2
LAYER
  5
2
330
0
100
AcDbSymbolTable
 70
    11
  0
LAYER
  5
10
330
2
100
AcDbSymbolTableRecord
100
AcDbLayerTableRecord
  2
0
 70
     0
 62
     7
  6
Continuous
370
    -3
390
F
  0
LAYER
  5
44
330
2
100
AcDbSymbolTableRecord
100
AcDbLayerTableRecord
  2
1
 70
     0
 62
4
  6
CONTINUOUS
370
50
370
    -3
390
F
  0
LAYER
  5
D0
330
2
100
AcDbSymbolTableRecord
100
AcDbLayerTableRecord
  2
SK1
 70
     0
 62
4
  6
CONTINUOUS
370
50
370
    -3
390
F
  0
LAYER
  5
D7
330
2
100
AcDbSymbolTableRecord
100
AcDbLayerTableRecord
  2
NOCUT
 70
     0
 62
7
  6
CONTINUOUS
370
25
370
    -3
390
F
  0
LAYER
  5
DC
330
2
100
AcDbSymbolTableRecord
100
AcDbLayerTableRecord
  2
SK2
 70
     0
 62
7
  6
CONTINUOUS
370
25
370
    -3
390
F
  0
LAYER
  5
187
330
2
100
AcDbSymbolTableRecord
100
AcDbLayerTableRecord
  2
2
 70
     0
 62
7
  6
CONTINUOUS
370
25
370
    -3
390
F
  0
LAYER
  5
1D2
330
2
100
AcDbSymbolTableRecord
100
AcDbLayerTableRecord
  2
CUT
 70
     0
 62
1
  6
CONTINUOUS
370
25
370
    -3
390
F
  0
LAYER
  5
2E4
330
2
100
AcDbSymbolTableRecord
100
AcDbLayerTableRecord
  2
4
 70
     0
 62
2
  6
LONGDASH_DASH
370
25
370
    -3
390
F
  0
LAYER
  5
2E6
330
2
100
AcDbSymbolTableRecord
100
AcDbLayerTableRecord
  2
SK4
 70
     0
 62
2
  6
LONGDASH_DASH
370
25
370
    -3
390
F
  0
LAYER
  5
2E8
330
2
100
AcDbSymbolTableRecord
100
AcDbLayerTableRecord
  2
INFTOTAL
 70
     0
 62
9
  6
CONTINUOUS
370
18
370
    -3
390
F
  0
LAYER
  5
2EE
330
2
100
AcDbSymbolTableRecord
100
AcDbLayerTableRecord
  2
SK6
 70
     0
 62
5
  6
CONTINUOUS
370
25
370
    -3
390
F
  0
ENDTAB
  0
TABLE
  2
STYLE
  5
3
330
0
100
AcDbSymbolTable
 70
     1
  0
STYLE
  5
11
330
3
100
AcDbSymbolTableRecord
100
AcDbTextStyleTableRecord
  2
Standard
 70
     0
 40
0.0
 41
1.0
 50
0.0
 71
     0
 42
2.5
  3
Monospac821 BT
  4

  0
ENDTAB
  0
TABLE
  2
VIEW
  5
6
330
0
100
AcDbSymbolTable
 70
     0
  0
ENDTAB
  0
TABLE
  2
UCS
  5
7
330
0
100
AcDbSymbolTable
 70
     0
  0
ENDTAB
  0
TABLE
  2
APPID
  5
9
330
0
100
AcDbSymbolTable
 70
     2
  0
APPID
  5
12
330
9
100
AcDbSymbolTableRecord
100
AcDbRegAppTableRecord
  2
ACAD
 70
     0
  0
APPID
  5
3F
330
9
100
AcDbSymbolTableRecord
100
AcDbRegAppTableRecord
  2
ccLab
 70
     0
  0
ENDTAB
  0
TABLE
  2
DIMSTYLE
  5
A
330
0
100
AcDbSymbolTable
 70
     1
100
AcDbDimStyleTable
  0
DIMSTYLE
105
27
330
A
100
AcDbSymbolTableRecord
100
AcDbDimStyleTableRecord
  2
ISO-25
 70
     0
 41
2.5
 42
0.625
 43
3.75
 44
1.25
 73
     0
 74
     0
 77
     1
 78
     8
140
2.5
141
2.5
143
0.03937007874016
147
0.625
171
     3
172
     1
271
     2
272
     2
274
     3
278
    44
283
     0
284
     8
340
11
  0
ENDTAB
  0
TABLE
  2
BLOCK_RECORD
  5
1
330
0
100
AcDbSymbolTable
 70
     2
  0
BLOCK_RECORD
  5
1F
330
1
100
AcDbSymbolTableRecord
100
AcDbBlockTableRecord
  2
*Model_Space
340
22
  0
BLOCK_RECORD
  5
1B
330
1
100
AcDbSymbolTableRecord
100
AcDbBlockTableRecord
  2
*Paper_Space
340
1E
  0
BLOCK_RECORD
  5
23
330
1
100
AcDbSymbolTableRecord
100
AcDbBlockTableRecord
  2
*Paper_Space0
340
26
  0
ENDTAB
  0
ENDSEC
  0
SECTION
  2
BLOCKS
  0
BLOCK
  5
20
330
1F
100
AcDbEntity
  8
0
100
AcDbBlockBegin
  2
*Model_Space
 70
     0
 10
0.0
 20
0.0
 30
0.0
  3
*Model_Space
  1

  0
ENDBLK
  5
21
330
1F
100
AcDbEntity
  8
0
100
AcDbBlockEnd
  0
BLOCK
  5
1C
330
1B
100
AcDbEntity
 67
     1
  8
0
100
AcDbBlockBegin
  2
*Paper_Space
 70
     0
 10
0.0
 20
0.0
 30
0.0
  3
*Paper_Space
  1

  0
ENDBLK
  5
1D
330
1B
100
AcDbEntity
 67
     1
  8
0
100
AcDbBlockEnd
  0
BLOCK
  5
24
330
23
100
AcDbEntity
  8
0
100
AcDbBlockBegin
  2
*Paper_Space0
 70
     0
 10
0.0
 20
0.0
 30
0.0
  3
*Paper_Space0
  1

  0
ENDBLK
  5
25
330
23
100
AcDbEntity
  8
0
100
AcDbBlockEnd
  0
ENDSEC
  0
SECTION
  2
ENTITIES
  0
LINE
  5
2F8
330
1F
100
AcDbEntity
  8
1
  6
CONTINUOUS
370
50
 62
4
100
AcDbLine
 10
30.76
 20
0.0
 30
0.0
 11
30.759663
 21
0.02383
 31
0.0
  0
LINE
  5
2F9
330
1F
100
AcDbEntity
  8
1
  6
CONTINUOUS
370
50
 62
4
100
AcDbLine
 10
30.759663
 20
0.02383
 30
0.0
 11
30.758659
 21
0.047478
 31
0.0
  0
LINE
  5
2FA
330
1F
100
AcDbEntity
  8
1
  6
CONTINUOUS
370
50
 62
4
100
AcDbLine
 10
30.758659
 20
0.047478
 30
0.0
 11
30.757008
 21
0.070974
 31
0.0
  0
LINE
  5
2FB
330
1F
100
AcDbEntity
  8
1
  6
CONTINUOUS
370
50
 62
4
100
AcDbLine
 10
30.757008
 20
0.070974
 30
0.0
 11
30.754719
 21
0.094348
 31
0.0
  0
LINE
  5
2FC
330
1F
100
AcDbEntity
  8
1
  6
CONTINUOUS
370
50
 62
4
100
AcDbLine
 10
30.754719
 20
0.094348
 30
0.0
 11
30.751804
 21
0.117626
 31
0.0
  0
LINE
  5
2FD
330
1F
100
AcDbEntity
  8
1
  6
CONTINUOUS
370
50
 62
4
100
AcDbLine
 10
30.751804
 20
0.117626
 30
0.0
 11
30.748276
 21
0.140835
 31
0.0
  0
LINE
  5
2FE
330
1F
100
AcDbEntity
  8
1
  6
CONTINUOUS
370
50
 62
4
100
AcDbLine
 10
30.748276
 20
0.140835
 30
0.0
 11
30.744141
 21
0.164
 31
0.0
  0
LINE
  5
2FF
330
1F
100
AcDbEntity
  8
1
  6
CONTINUOUS
370
50
 62
4
100
AcDbLine
 10
30.734617
 20
0.8497
 30
0.0
 11
30.63718
 21
0.948749
 31
0.0
  0
LINE
  5
300
330
1F
100
AcDbEntity
  8
1
  6
CONTINUOUS
370
50
 62
4
100
AcDbLine
 10
30.63718
 20
0.948749
 30
0.0
 11
30.529631
 21
1.057731
 31
0.0
  0
LINE
  5
301
330
1F
100
AcDbEntity
  8
1
  6
CONTINUOUS
370
50
 62
4
100
AcDbLine
 10
30.529631
 20
1.057731
 30
0.0
 11
30.410364
 21
1.178277
 31
0.0
  0
LINE
  5
302
330
1F
100
AcDbEntity
  8
1
  6
CONTINUOUS
370
50
 62
4
100
AcDbLine
 10
30.410364
 20
1.178277
 30
0.0
 11
30.277411
 21
1.312382
 31
0.0
  0
LINE
  5
303
330
1F
100
AcDbEntity
  8
1
  6
CONTINUOUS
370
50
 62
4
100
AcDbLine
 10
30.277411
 20
1.312382
 30
0.0
 11
30.128319
 21
1.462516
 31
0.0
  0
LINE
  5
304
330
1F
100
AcDbEntity
  8
1
  6
CONTINUOUS
370
50
 62
4
100
AcDbLine
 10
30.128319
 20
1.462516
 30
0.0
 11
29.959999
 21
1.631779
 31
0.0
  0
LINE
  5
305
330
1F
100
AcDbEntity
  8
1
  6
CONTINUOUS
370
50
 62
4
100
AcDbLine
 10
30.012247
 20
1.261885
 30
0.0
 11
29.960012
 21
1.301003
 31
0.0
  0
LINE
  5
306
330
1F
100
AcDbEntity
  8
1
  6
CONTINUOUS
370
50
 62
4
100
AcDbLine
 10
30.065266
 20
1.22344
 30
0.0
 11
30.012247
 21
1.261885
 31
0.0
  0
LINE
  5
307
330
1F
100
AcDbEntity
  8
1
  6
CONTINUOUS
370
50
 62
4
100
AcDbLine
 10
30.118763
 20
1.185924
 30
0.0
 11
30.065266
 21
1.22344
 31
0.0
  0
LINE
  5
308
330
1F
100
AcDbEntity
  8
1
  6
CONTINUOUS
370
50
 62
4
100
AcDbLine
 10
30.172428
 20
1.149597
 30
0.0
 11
30.118763
 21
1.185924
 31
0.0
  0
LINE
  5
309
330
1F
100
AcDbEntity
  8
1
  6
CONTINUOUS
370
50
 62
4
100
AcDbLine
 10
30.225952
 20
1.114718
 30
0.0
 11
30.172428
 21
1.149597
 31
0.0
  0
LINE
  5
30A
330
1F
100
AcDbEntity
  8
1
  6
CONTINUOUS
370
50
 62
4
100
AcDbLine
 10
30.27903
 20
1.081517
 30
0.0
 11
30.225952
 21
1.114718
 31
0.0
  0
LINE
  5
30B
330
1F
100
AcDbEntity
  8
1
  6
CONTINUOUS
370
50
 62
4
100
AcDbLine
 10
30.331316
 20
1.050118
 30
0.0
 11
30.27903
 21
1.081517
 31
0.0
  0
LINE
  5
30C
330
1F
100
AcDbEntity
  8
1
  6
CONTINUOUS
370
50
 62
4
100
AcDbLine
 10
2.514705
 20
-1.489377
 30
0.0
 11
2.475944
 21
-1.466861
 31
0.0
  0
LINE
  5
30D
330
1F
100
AcDbEntity
  8
1
  6
CONTINUOUS
370
50
 62
4
100
AcDbLine
 10
2.514705
 20
-1.489377
 30
0.0
 11
2.475944
 21
-1.466861
 31
0.0
  0
LINE
  5
30E
330
1F
100
AcDbEntity
  8
1
  6
CONTINUOUS
370
50
 62
4
100
AcDbLine
 10
2.554049
 20
-1.512228
 30
0.0
 11
2.514705
 21
-1.489377
 31
0.0
  0
LINE
  5
30F
330
1F
100
AcDbEntity
  8
1
  6
CONTINUOUS
370
50
 62
4
100
AcDbLine
 10
2.554049
 20
-1.512228
 30
0.0
 11
2.514705
 21
-1.489377
 31
0.0
  0
LINE
  5
310
330
1F
100
AcDbEntity
  8
1
  6
CONTINUOUS
370
50
 62
4
100
AcDbLine
 10
2.593991
 20
-1.535421
 30
0.0
 11
2.554049
 21
-1.512228
 31
0.0
  0
LINE
  5
311
330
1F
100
AcDbEntity
  8
1
  6
CONTINUOUS
370
50
 62
4
100
AcDbLine
 10
2.593991
 20
-1.535421
 30
0.0
 11
2.554049
 21
-1.512228
 31
0.0
  0
LINE
  5
312
330
1F
100
AcDbEntity
  8
1
  6
CONTINUOUS
370
50
 62
4
100
AcDbLine
 10
2.634542
 20
-1.558965
 30
0.0
 11
2.593991
 21
-1.535421
 31
0.0
  0
LINE
  5
313
330
1F
100
AcDbEntity
  8
1
  6
CONTINUOUS
370
50
 62
4
100
AcDbLine
 10
2.634542
 20
-1.558965
 30
0.0
 11
2.593991
 21
-1.535421
 31
0.0
  0
LINE
  5
314
330
1F
100
AcDbEntity
  8
1
  6
CONTINUOUS
370
50
 62
4
100
AcDbLine
 10
2.675718
 20
-1.582867
 30
0.0
 11
2.634542
 21
-1.558965
 31
0.0
  0
LINE
  5
315
330
1F
100
AcDbEntity
  8
1
  6
CONTINUOUS
370
50
 62
4
100
AcDbLine
 10
2.675718
 20
-1.582867
 30
0.0
 11
2.634542
 21
-1.558965
 31
0.0
  0
LINE
  5
316
330
1F
100
AcDbEntity
  8
1
  6
CONTINUOUS
370
50
 62
4
100
AcDbLine
 10
2.717532
 20
-1.607135
 30
0.0
 11
2.675718
 21
-1.582867
 31
0.0
  0
LINE
  5
317
330
1F
100
AcDbEntity
  8
1
  6
CONTINUOUS
370
50
 62
4
100
AcDbLine
 10
2.717532
 20
-1.607135
 30
0.0
 11
2.675718
 21
-1.582867
 31
0.0
  0
LINE
  5
318
330
1F
100
AcDbEntity
  8
1
  6
CONTINUOUS
370
50
 62
4
100
AcDbLine
 10
2.76
 20
-1.631779
 30
0.0
 11
2.717532
 21
-1.607135
 31
0.0
  0
LINE
  5
319
330
1F
100
AcDbEntity
  8
1
  6
CONTINUOUS
370
50
 62
4
100
AcDbLine
 10
2.76
 20
-1.631779
 30
0.0
 11
2.717532
 21
-1.607135
 31
0.0
  0
LINE
  5
31A
330
1F
100
AcDbEntity
  8
1
  6
CONTINUOUS
370
50
 62
4
100
AcDbLine
 10
1.474582
 20
1.476
 30
0.0
 11
1.0
 21
1.75
 31
0.0
  0
LINE
  5
31B
330
1F
100
AcDbEntity
  8
1
  6
CONTINUOUS
370
50
 62
4
100
AcDbLine
 10
30.382439
 20
1.020622
 30
0.0
 11
30.331316
 21
1.050118
 31
0.0
  0
LINE
  5
31C
330
1F
100
AcDbEntity
  8
1
  6
CONTINUOUS
370
50
 62
4
100
AcDbLine
 10
30.432016
 20
0.993127
 30
0.0
 11
30.382439
 21
1.020622
 31
0.0
  0
LINE
  5
31D
330
1F
100
AcDbEntity
  8
1
  6
CONTINUOUS
370
50
 62
4
100
AcDbLine
 10
30.479675
 20
0.967734
 30
0.0
 11
30.432016
 21
0.993127
 31
0.0
  0
LINE
  5
31E
330
1F
100
AcDbEntity
  8
1
  6
CONTINUOUS
370
50
 62
4
100
AcDbLine
 10
30.52504
 20
0.9445429999999999
 30
0.0
 11
30.479675
 21
0.967734
 31
0.0
  0
LINE
  5
31F
330
1F
100
AcDbEntity
  8
1
  6
CONTINUOUS
370
50
 62
4
100
AcDbLine
 10
30.568243
 20
0.923407
 30
0.0
 11
30.52504
 21
0.9445429999999999
 31
0.0
  0
LINE
  5
320
330
1F
100
AcDbEntity
  8
1
  6
CONTINUOUS
370
50
 62
4
100
AcDbLine
 10
30.610586
 20
0.9035639999999999
 30
0.0
 11
30.568243
 21
0.923407
 31
0.0
  0
LINE
  5
321
330
1F
100
AcDbEntity
  8
1
  6
CONTINUOUS
370
50
 62
4
100
AcDbLine
 10
30.650681
 20
0.88549
 30
0.0
 11
30.610586
 21
0.9035639999999999
 31
0.0
  0
LINE
  5
322
330
1F
100
AcDbEntity
  8
1
  6
CONTINUOUS
370
50
 62
4
100
AcDbLine
 10
30.686831
 20
0.8698049999999999
 30
0.0
 11
30.650681
 21
0.88549
 31
0.0
  0
LINE
  5
323
330
1F
100
AcDbEntity
  8
1
  6
CONTINUOUS
370
50
 62
4
100
AcDbLine
 10
2.516912
 20
-0.9013909999999999
 30
0.0
 11
2.475944
 21
-0.883693
 31
0.0
  0
LINE
  5
324
330
1F
100
AcDbEntity
  8
1
  6
CONTINUOUS
370
50
 62
4
100
AcDbLine
 10
2.516912
 20
-0.9013909999999999
 30
0.0
 11
2.475944
 21
-0.883693
 31
0.0
  0
LINE
  5
325
330
1F
100
AcDbEntity
  8
1
  6
CONTINUOUS
370
50
 62
4
100
AcDbLine
 10
2.557871
 20
-0.9186329999999999
 30
0.0
 11
2.516912
 21
-0.9013909999999999
 31
0.0
  0
LINE
  5
326
330
1F
100
AcDbEntity
  8
1
  6
CONTINUOUS
370
50
 62
4
100
AcDbLine
 10
2.557871
 20
-0.9186329999999999
 30
0.0
 11
2.516912
 21
-0.9013909999999999
 31
0.0
  0
LINE
  5
327
330
1F
100
AcDbEntity
  8
1
  6
CONTINUOUS
370
50
 62
4
100
AcDbLine
 10
30.717228
 20
0.857105
 30
0.0
 11
30.686831
 21
0.8698049999999999
 31
0.0
  0
LINE
  5
328
330
1F
100
AcDbEntity
  8
1
  6
CONTINUOUS
370
50
 62
4
100
AcDbLine
 10
2.598693
 20
-0.93546
 30
0.0
 11
2.557871
 21
-0.9186329999999999
 31
0.0
  0
LINE
  5
329
330
1F
100
AcDbEntity
  8
1
  6
CONTINUOUS
370
50
 62
4
100
AcDbLine
 10
2.598693
 20
-0.93546
 30
0.0
 11
2.557871
 21
-0.9186329999999999
 31
0.0
  0
LINE
  5
32A
330
1F
100
AcDbEntity
  8
1
  6
CONTINUOUS
370
50
 62
4
100
AcDbLine
 10
30.740276
 20
0.847753
 30
0.0
 11
30.717228
 21
0.857105
 31
0.0
  0
LINE
  5
32B
330
1F
100
AcDbEntity
  8
1
  6
CONTINUOUS
370
50
 62
4
100
AcDbLine
 10
2.639347
 20
-0.9518679999999999
 30
0.0
 11
2.598693
 21
-0.93546
 31
0.0
  0
LINE
  5
32C
330
1F
100
AcDbEntity
  8
1
  6
CONTINUOUS
370
50
 62
4
100
AcDbLine
 10
2.639347
 20
-0.9518679999999999
 30
0.0
 11
2.598693
 21
-0.93546
 31
0.0
  0
LINE
  5
32D
330
1F
100
AcDbEntity
  8
1
  6
CONTINUOUS
370
50
 62
4
100
AcDbLine
 10
30.754889
 20
0.841976
 30
0.0
 11
30.740276
 21
0.847753
 31
0.0
  0
LINE
  5
32E
330
1F
100
AcDbEntity
  8
1
  6
CONTINUOUS
370
50
 62
4
100
AcDbLine
 10
2.6798
 20
-0.9678549999999999
 30
0.0
 11
2.639347
 21
-0.9518679999999999
 31
0.0
  0
LINE
  5
32F
330
1F
100
AcDbEntity
  8
1
  6
CONTINUOUS
370
50
 62
4
100
AcDbLine
 10
2.6798
 20
-0.9678549999999999
 30
0.0
 11
2.639347
 21
-0.9518679999999999
 31
0.0
  0
LINE
  5
330
330
1F
100
AcDbEntity
  8
1
  6
CONTINUOUS
370
50
 62
4
100
AcDbLine
 10
2.72002
 20
-0.9834179999999999
 30
0.0
 11
2.6798
 21
-0.9678549999999999
 31
0.0
  0
LINE
  5
331
330
1F
100
AcDbEntity
  8
1
  6
CONTINUOUS
370
50
 62
4
100
AcDbLine
 10
2.72002
 20
-0.9834179999999999
 30
0.0
 11
2.6798
 21
-0.9678549999999999
 31
0.0
  0
LINE
  5
332
330
1F
100
AcDbEntity
  8
1
  6
CONTINUOUS
370
50
 62
4
100
AcDbLine
 10
30.76
 20
0.84
 30
0.0
 11
30.754889
 21
0.841976
 31
0.0
  0
LINE
  5
333
330
1F
100
AcDbEntity
  8
1
  6
CONTINUOUS
370
50
 62
4
100
AcDbLine
 10
2.76
 20
-0.998552
 30
0.0
 11
2.72002
 21
-0.9834179999999999
 31
0.0
  0
LINE
  5
334
330
1F
100
AcDbEntity
  8
1
  6
CONTINUOUS
370
50
 62
4
100
AcDbLine
 10
2.76
 20
-0.998552
 30
0.0
 11
2.72002
 21
-0.9834179999999999
 31
0.0
  0
LINE
  5
335
330
1F
100
AcDbEntity
  8
1
  6
CONTINUOUS
370
50
 62
4
100
AcDbLine
 10
0.0
 20
-1.75
 30
0.0
 11
1.0
 21
-1.75
 31
0.0
  0
LINE
  5
336
330
1F
100
AcDbEntity
  8
1
  6
CONTINUOUS
370
50
 62
4
100
AcDbLine
 10
2.76
 20
-1.631779
 30
0.0
 11
29.959999
 21
-1.631779
 31
0.0
  0
LINE
  5
337
330
1F
100
AcDbEntity
  8
1
  6
CONTINUOUS
370
50
 62
4
100
AcDbLine
 10
1.474582
 20
-1.476
 30
0.0
 11
2.475944
 21
-1.476
 31
0.0
  0
LINE
  5
338
330
1F
100
AcDbEntity
  8
1
  6
CONTINUOUS
370
50
 62
4
100
AcDbLine
 10
2.76
 20
-0.998552
 30
0.0
 11
29.959999
 21
-0.998552
 31
0.0
  0
LINE
  5
339
330
1F
100
AcDbEntity
  8
1
  6
CONTINUOUS
370
50
 62
4
100
AcDbLine
 10
30.744141
 20
-0.84
 30
0.0
 11
30.76
 21
-0.84
 31
0.0
  0
LINE
  5
33A
330
1F
100
AcDbEntity
  8
1
  6
CONTINUOUS
370
50
 62
4
100
AcDbLine
 10
2.475944
 20
0.0
 30
0.0
 11
30.76
 21
0.0
 31
0.0
  0
LINE
  5
33B
330
1F
100
AcDbEntity
  8
1
  6
CONTINUOUS
370
50
 62
4
100
AcDbLine
 10
2.475944
 20
0.164
 30
0.0
 11
30.744141
 21
0.164
 31
0.0
  0
LINE
  5
33C
330
1F
100
AcDbEntity
  8
1
  6
CONTINUOUS
370
50
 62
4
100
AcDbLine
 10
2.76
 20
1.300959
 30
0.0
 11
29.959999
 21
1.300959
 31
0.0
  0
LINE
  5
33D
330
1F
100
AcDbEntity
  8
1
  6
CONTINUOUS
370
50
 62
4
100
AcDbLine
 10
1.474582
 20
1.476
 30
0.0
 11
2.475944
 21
1.476
 31
0.0
  0
LINE
  5
33E
330
1F
100
AcDbEntity
  8
1
  6
CONTINUOUS
370
50
 62
4
100
AcDbLine
 10
10.770204
 20
1.631779
 30
0.0
 11
29.959999
 21
1.631779
 31
0.0
  0
LINE
  5
33F
330
1F
100
AcDbEntity
  8
1
  6
CONTINUOUS
370
50
 62
4
100
AcDbLine
 10
0.0
 20
1.75
 30
0.0
 11
1.0
 21
1.75
 31
0.0
  0
LINE
  5
340
330
1F
100
AcDbEntity
  8
1
  6
CONTINUOUS
370
50
 62
4
100
AcDbLine
 10
30.759251
 20
-0.840286
 30
0.0
 11
30.76
 21
-0.84
 31
0.0
  0
LINE
  5
341
330
1F
100
AcDbEntity
  8
1
  6
CONTINUOUS
370
50
 62
4
100
AcDbLine
 10
30.757048
 20
-0.8411369999999999
 30
0.0
 11
30.759251
 21
-0.840286
 31
0.0
  0
LINE
  5
342
330
1F
100
AcDbEntity
  8
1
  6
CONTINUOUS
370
50
 62
4
100
AcDbLine
 10
30.753447
 20
-0.84254
 30
0.0
 11
30.757048
 21
-0.8411369999999999
 31
0.0
  0
LINE
  5
343
330
1F
100
AcDbEntity
  8
1
  6
CONTINUOUS
370
50
 62
4
100
AcDbLine
 10
30.748507
 20
-0.844482
 30
0.0
 11
30.753447
 21
-0.84254
 31
0.0
  0
LINE
  5
344
330
1F
100
AcDbEntity
  8
1
  6
CONTINUOUS
370
50
 62
4
100
AcDbLine
 10
30.742283
 20
-0.846951
 30
0.0
 11
30.748507
 21
-0.844482
 31
0.0
  0
LINE
  5
345
330
1F
100
AcDbEntity
  8
1
  6
CONTINUOUS
370
50
 62
4
100
AcDbLine
 10
2.475849
 20
1.182417
 30
0.0
 11
2.516912
 21
1.198811
 31
0.0
  0
LINE
  5
346
330
1F
100
AcDbEntity
  8
1
  6
CONTINUOUS
370
50
 62
4
100
AcDbLine
 10
30.734837
 20
-0.8499359999999999
 30
0.0
 11
30.742283
 21
-0.846951
 31
0.0
  0
LINE
  5
347
330
1F
100
AcDbEntity
  8
1
  6
CONTINUOUS
370
50
 62
4
100
AcDbLine
 10
2.475944
 20
1.182227
 30
0.0
 11
2.516912
 21
1.198811
 31
0.0
  0
LINE
  5
348
330
1F
100
AcDbEntity
  8
1
  6
CONTINUOUS
370
50
 62
4
100
AcDbLine
 10
2.516912
 20
1.198811
 30
0.0
 11
2.557871
 21
1.215412
 31
0.0
  0
LINE
  5
349
330
1F
100
AcDbEntity
  8
1
  6
CONTINUOUS
370
50
 62
4
100
AcDbLine
 10
2.516912
 20
1.198811
 30
0.0
 11
2.557871
 21
1.215412
 31
0.0
  0
LINE
  5
34A
330
1F
100
AcDbEntity
  8
1
  6
CONTINUOUS
370
50
 62
4
100
AcDbLine
 10
2.557871
 20
1.215412
 30
0.0
 11
2.598693
 21
1.232205
 31
0.0
  0
LINE
  5
34B
330
1F
100
AcDbEntity
  8
1
  6
CONTINUOUS
370
50
 62
4
100
AcDbLine
 10
2.557871
 20
1.215412
 30
0.0
 11
2.598693
 21
1.232205
 31
0.0
  0
LINE
  5
34C
330
1F
100
AcDbEntity
  8
1
  6
CONTINUOUS
370
50
 62
4
100
AcDbLine
 10
2.598693
 20
1.232205
 30
0.0
 11
2.639347
 21
1.249177
 31
0.0
  0
LINE
  5
34D
330
1F
100
AcDbEntity
  8
1
  6
CONTINUOUS
370
50
 62
4
100
AcDbLine
 10
2.598693
 20
1.232205
 30
0.0
 11
2.639347
 21
1.249177
 31
0.0
  0
LINE
  5
34E
330
1F
100
AcDbEntity
  8
1
  6
CONTINUOUS
370
50
 62
4
100
AcDbLine
 10
2.639347
 20
1.249177
 30
0.0
 11
2.6798
 21
1.266312
 31
0.0
  0
LINE
  5
34F
330
1F
100
AcDbEntity
  8
1
  6
CONTINUOUS
370
50
 62
4
100
AcDbLine
 10
2.639347
 20
1.249177
 30
0.0
 11
2.6798
 21
1.266312
 31
0.0
  0
LINE
  5
350
330
1F
100
AcDbEntity
  8
1
  6
CONTINUOUS
370
50
 62
4
100
AcDbLine
 10
2.6798
 20
1.266312
 30
0.0
 11
2.72002
 21
1.283596
 31
0.0
  0
LINE
  5
351
330
1F
100
AcDbEntity
  8
1
  6
CONTINUOUS
370
50
 62
4
100
AcDbLine
 10
2.6798
 20
1.266312
 30
0.0
 11
2.72002
 21
1.283596
 31
0.0
  0
LINE
  5
352
330
1F
100
AcDbEntity
  8
1
  6
CONTINUOUS
370
50
 62
4
100
AcDbLine
 10
2.72002
 20
1.283596
 30
0.0
 11
2.76
 21
1.300959
 31
0.0
  0
LINE
  5
353
330
1F
100
AcDbEntity
  8
1
  6
CONTINUOUS
370
50
 62
4
100
AcDbLine
 10
2.72002
 20
1.283596
 30
0.0
 11
2.76
 21
1.300959
 31
0.0
  0
LINE
  5
354
330
1F
100
AcDbEntity
  8
1
  6
CONTINUOUS
370
50
 62
4
100
AcDbLine
 10
1.0
 20
-1.75
 30
0.0
 11
1.474582
 21
-1.476
 31
0.0
  0
LINE
  5
355
330
1F
100
AcDbEntity
  8
1
  6
CONTINUOUS
370
50
 62
4
100
AcDbLine
 10
2.52212
 20
1.493684
 30
0.0
 11
2.533793
 21
1.500463
 31
0.0
  0
LINE
  5
356
330
1F
100
AcDbEntity
  8
1
  6
CONTINUOUS
370
50
 62
4
100
AcDbLine
 10
2.52212
 20
1.493684
 30
0.0
 11
2.533793
 21
1.500463
 31
0.0
  0
LINE
  5
357
330
1F
100
AcDbEntity
  8
1
  6
CONTINUOUS
370
50
 62
4
100
AcDbLine
 10
2.510499
 20
1.486934
 30
0.0
 11
2.52212
 21
1.493684
 31
0.0
  0
LINE
  5
358
330
1F
100
AcDbEntity
  8
1
  6
CONTINUOUS
370
50
 62
4
100
AcDbLine
 10
2.510499
 20
1.486934
 30
0.0
 11
2.52212
 21
1.493684
 31
0.0
  0
LINE
  5
359
330
1F
100
AcDbEntity
  8
1
  6
CONTINUOUS
370
50
 62
4
100
AcDbLine
 10
2.533793
 20
1.500463
 30
0.0
 11
2.545517
 21
1.507273
 31
0.0
  0
LINE
  5
35A
330
1F
100
AcDbEntity
  8
1
  6
CONTINUOUS
370
50
 62
4
100
AcDbLine
 10
2.533793
 20
1.500463
 30
0.0
 11
2.545517
 21
1.507273
 31
0.0
  0
LINE
  5
35B
330
1F
100
AcDbEntity
  8
1
  6
CONTINUOUS
370
50
 62
4
100
AcDbLine
 10
2.487411
 20
1.473522
 30
0.0
 11
2.49893
 21
1.480213
 31
0.0
  0
LINE
  5
35C
330
1F
100
AcDbEntity
  8
1
  6
CONTINUOUS
370
50
 62
4
100
AcDbLine
 10
2.487411
 20
1.473522
 30
0.0
 11
2.49893
 21
1.480213
 31
0.0
  0
LINE
  5
35D
330
1F
100
AcDbEntity
  8
1
  6
CONTINUOUS
370
50
 62
4
100
AcDbLine
 10
2.475944
 20
1.466861
 30
0.0
 11
2.487411
 21
1.473522
 31
0.0
  0
LINE
  5
35E
330
1F
100
AcDbEntity
  8
1
  6
CONTINUOUS
370
50
 62
4
100
AcDbLine
 10
2.475944
 20
1.466861
 30
0.0
 11
2.487411
 21
1.473522
 31
0.0
  0
LINE
  5
35F
330
1F
100
AcDbEntity
  8
1
  6
CONTINUOUS
370
50
 62
4
100
AcDbLine
 10
2.49893
 20
1.480213
 30
0.0
 11
2.510499
 21
1.486934
 31
0.0
  0
LINE
  5
360
330
1F
100
AcDbEntity
  8
1
  6
CONTINUOUS
370
50
 62
4
100
AcDbLine
 10
2.49893
 20
1.480213
 30
0.0
 11
2.510499
 21
1.486934
 31
0.0
  0
LINE
  5
361
330
1F
100
AcDbEntity
  8
1
  6
CONTINUOUS
370
50
 62
4
100
AcDbLine
 10
29.960012
 20
-0.9985189999999999
 30
0.0
 11
30.012247
 21
-0.963737
 31
0.0
  0
LINE
  5
362
330
1F
100
AcDbEntity
  8
1
  6
CONTINUOUS
370
50
 62
4
100
AcDbLine
 10
30.012247
 20
-0.963737
 30
0.0
 11
30.065266
 21
-0.9267249999999999
 31
0.0
  0
LINE
  5
363
330
1F
100
AcDbEntity
  8
1
  6
CONTINUOUS
370
50
 62
4
100
AcDbLine
 10
30.065266
 20
-0.9267249999999999
 30
0.0
 11
30.118763
 21
-0.88759
 31
0.0
  0
LINE
  5
364
330
1F
100
AcDbEntity
  8
1
  6
CONTINUOUS
370
50
 62
4
100
AcDbLine
 10
30.118763
 20
-0.88759
 30
0.0
 11
30.172428
 21
-0.8464379999999999
 31
0.0
  0
LINE
  5
365
330
1F
100
AcDbEntity
  8
1
  6
CONTINUOUS
370
50
 62
4
100
AcDbLine
 10
30.172428
 20
-0.8464379999999999
 30
0.0
 11
30.225952
 21
-0.803377
 31
0.0
  0
LINE
  5
366
330
1F
100
AcDbEntity
  8
1
  6
CONTINUOUS
370
50
 62
4
100
AcDbLine
 10
30.225952
 20
-0.803377
 30
0.0
 11
30.27903
 21
-0.758541
 31
0.0
  0
LINE
  5
367
330
1F
100
AcDbEntity
  8
1
  6
CONTINUOUS
370
50
 62
4
100
AcDbLine
 10
30.27903
 20
-0.758541
 30
0.0
 11
30.331316
 21
-0.712098
 31
0.0
  0
LINE
  5
368
330
1F
100
AcDbEntity
  8
1
  6
CONTINUOUS
370
50
 62
4
100
AcDbLine
 10
30.331316
 20
-0.712098
 30
0.0
 11
30.382439
 21
-0.6641969999999999
 31
0.0
  0
LINE
  5
369
330
1F
100
AcDbEntity
  8
1
  6
CONTINUOUS
370
50
 62
4
100
AcDbLine
 10
30.382439
 20
-0.6641969999999999
 30
0.0
 11
30.432016
 21
-0.614985
 31
0.0
  0
LINE
  5
36A
330
1F
100
AcDbEntity
  8
1
  6
CONTINUOUS
370
50
 62
4
100
AcDbLine
 10
29.959999
 20
-1.631779
 30
0.0
 11
30.107899
 21
-1.483062
 31
0.0
  0
LINE
  5
36B
330
1F
100
AcDbEntity
  8
1
  6
CONTINUOUS
370
50
 62
4
100
AcDbLine
 10
30.107899
 20
-1.483062
 30
0.0
 11
30.240852
 21
-1.349217
 31
0.0
  0
LINE
  5
36C
330
1F
100
AcDbEntity
  8
1
  6
CONTINUOUS
370
50
 62
4
100
AcDbLine
 10
30.240852
 20
-1.349217
 30
0.0
 11
30.360998
 21
-1.228099
 31
0.0
  0
LINE
  5
36D
330
1F
100
AcDbEntity
  8
1
  6
CONTINUOUS
370
50
 62
4
100
AcDbLine
 10
30.360998
 20
-1.228099
 30
0.0
 11
30.470081
 21
-1.117954
 31
0.0
  0
LINE
  5
36E
330
1F
100
AcDbEntity
  8
1
  6
CONTINUOUS
370
50
 62
4
100
AcDbLine
 10
30.470081
 20
-1.117954
 30
0.0
 11
30.569534
 21
-1.017331
 31
0.0
  0
LINE
  5
36F
330
1F
100
AcDbEntity
  8
1
  6
CONTINUOUS
370
50
 62
4
100
AcDbLine
 10
30.569534
 20
-1.017331
 30
0.0
 11
30.660555
 21
-0.9250189999999999
 31
0.0
  0
LINE
  5
370
330
1F
100
AcDbEntity
  8
1
  6
CONTINUOUS
370
50
 62
4
100
AcDbLine
 10
30.660555
 20
-0.9250189999999999
 30
0.0
 11
30.744141
 21
-0.84
 31
0.0
  0
LINE
  5
371
330
1F
100
AcDbEntity
  8
1
  6
CONTINUOUS
370
50
 62
4
100
AcDbLine
 10
30.432016
 20
-0.614985
 30
0.0
 11
30.479675
 21
-0.56461
 31
0.0
  0
LINE
  5
372
330
1F
100
AcDbEntity
  8
1
  6
CONTINUOUS
370
50
 62
4
100
AcDbLine
 10
30.479675
 20
-0.56461
 30
0.0
 11
30.52504
 21
-0.513222
 31
0.0
  0
LINE
  5
373
330
1F
100
AcDbEntity
  8
1
  6
CONTINUOUS
370
50
 62
4
100
AcDbLine
 10
30.52504
 20
-0.513222
 30
0.0
 11
30.568243
 21
-0.460307
 31
0.0
  0
LINE
  5
374
330
1F
100
AcDbEntity
  8
1
  6
CONTINUOUS
370
50
 62
4
100
AcDbLine
 10
30.568243
 20
-0.460307
 30
0.0
 11
30.610586
 21
-0.403284
 31
0.0
  0
LINE
  5
375
330
1F
100
AcDbEntity
  8
1
  6
CONTINUOUS
370
50
 62
4
100
AcDbLine
 10
30.610586
 20
-0.403284
 30
0.0
 11
30.650681
 21
-0.342355
 31
0.0
  0
LINE
  5
376
330
1F
100
AcDbEntity
  8
1
  6
CONTINUOUS
370
50
 62
4
100
AcDbLine
 10
30.650681
 20
-0.342355
 30
0.0
 11
30.686831
 21
-0.27807
 31
0.0
  0
LINE
  5
377
330
1F
100
AcDbEntity
  8
1
  6
CONTINUOUS
370
50
 62
4
100
AcDbLine
 10
30.686831
 20
-0.27807
 30
0.0
 11
30.717228
 21
-0.210933
 31
0.0
  0
LINE
  5
378
330
1F
100
AcDbEntity
  8
1
  6
CONTINUOUS
370
50
 62
4
100
AcDbLine
 10
30.717228
 20
-0.210933
 30
0.0
 11
30.740276
 21
-0.141593
 31
0.0
  0
LINE
  5
379
330
1F
100
AcDbEntity
  8
1
  6
CONTINUOUS
370
50
 62
4
100
AcDbLine
 10
30.740276
 20
-0.141593
 30
0.0
 11
30.754889
 21
-0.07098
 31
0.0
  0
LINE
  5
37A
330
1F
100
AcDbEntity
  8
1
  6
CONTINUOUS
370
50
 62
4
100
AcDbLine
 10
30.754889
 20
-0.07098
 30
0.0
 11
30.76
 21
-0.000032
 31
0.0
  0
LINE
  5
37B
330
1F
100
AcDbEntity
  8
1
  6
CONTINUOUS
370
50
 62
4
100
AcDbLine
 10
0.0
 20
-1.75
 30
0.0
 11
0.0
 21
1.75
 31
0.0
  0
LINE
  5
37C
330
1F
100
AcDbEntity
  8
1
  6
CONTINUOUS
370
50
 62
4
100
AcDbLine
 10
1.0
 20
-1.75
 30
0.0
 11
1.0
 21
1.75
 31
0.0
  0
LINE
  5
37D
330
1F
100
AcDbEntity
  8
1
  6
CONTINUOUS
370
50
 62
4
100
AcDbLine
 10
1.474582
 20
-1.476
 30
0.0
 11
1.474582
 21
1.476
 31
0.0
  0
LINE
  5
37E
330
1F
100
AcDbEntity
  8
1
  6
CONTINUOUS
370
50
 62
4
100
AcDbLine
 10
2.475944
 20
-1.476
 30
0.0
 11
2.475944
 21
1.476
 31
0.0
  0
LINE
  5
37F
330
1F
100
AcDbEntity
  8
1
  6
CONTINUOUS
370
50
 62
4
100
AcDbLine
 10
2.76
 20
-1.631779
 30
0.0
 11
2.76
 21
1.300959
 31
0.0
  0
LINE
  5
380
330
1F
100
AcDbEntity
  8
1
  6
CONTINUOUS
370
50
 62
4
100
AcDbLine
 10
29.959999
 20
-1.631779
 30
0.0
 11
29.959999
 21
-0.998552
 31
0.0
  0
LINE
  5
381
330
1F
100
AcDbEntity
  8
1
  6
CONTINUOUS
370
50
 62
4
100
AcDbLine
 10
29.959999
 20
0.164
 30
0.0
 11
29.959999
 21
1.300959
 31
0.0
  0
LINE
  5
382
330
1F
100
AcDbEntity
  8
1
  6
CONTINUOUS
370
50
 62
4
100
AcDbLine
 10
30.76
 20
-0.84
 30
0.0
 11
30.76
 21
0.84
 31
0.0
  0
LINE
  5
383
330
1F
100
AcDbEntity
  8
SK1
  6
CONTINUOUS
370
50
 62
4
100
AcDbLine
 10
0.0
 20
1.75
 30
0.0
 11
-28.94
 21
1.75
 31
0.0
  0
LINE
  5
384
330
1F
100
AcDbEntity
  8
SK1
  6
CONTINUOUS
370
50
 62
4
100
AcDbLine
 10
-28.94
 20
1.75
 30
0.0
 11
-29.24
 21
1.45
 31
0.0
  0
LINE
  5
385
330
1F
100
AcDbEntity
  8
SK1
  6
CONTINUOUS
370
50
 62
4
100
AcDbLine
 10
-29.24
 20
1.45
 30
0.0
 11
-29.24
 21
-1.45
 31
0.0
  0
LINE
  5
386
330
1F
100
AcDbEntity
  8
SK1
  6
CONTINUOUS
370
50
 62
4
100
AcDbLine
 10
-29.24
 20
-1.45
 30
0.0
 11
-28.94
 21
-1.75
 31
0.0
  0
LINE
  5
387
330
1F
100
AcDbEntity
  8
SK1
  6
CONTINUOUS
370
50
 62
4
100
AcDbLine
 10
-28.94
 20
-1.75
 30
0.0
 11
0.0
 21
-1.75
 31
0.0
  0
LINE
  5
388
330
1F
100
AcDbEntity
  8
NOCUT
  6
CONTINUOUS
370
25
 62
7
100
AcDbLine
 10
0.0
 20
0.0
 30
0.0
 11
0.0
 21
1.75
 31
0.0
  0
LINE
  5
389
330
1F
100
AcDbEntity
  8
NOCUT
  6
CONTINUOUS
370
25
 62
7
100
AcDbLine
 10
0.0
 20
1.75
 30
0.0
 11
1.0
 21
1.75
 31
0.0
  0
LINE
  5
38A
330
1F
100
AcDbEntity
  8
NOCUT
  6
CONTINUOUS
370
25
 62
7
100
AcDbLine
 10
1.0
 20
0.0
 30
0.0
 11
0.0
 21
0.0
 31
0.0
  0
LINE
  5
38B
330
1F
100
AcDbEntity
  8
SK2
  6
CONTINUOUS
370
25
 62
7
100
AcDbLine
 10
-39.2400002
 20
-1.750001
 30
0.0
 11
-40.24000000000009
 21
-1.750001
 31
0.0
  0
LINE
  5
38C
330
1F
100
AcDbEntity
  8
SK2
  6
CONTINUOUS
370
25
 62
7
100
AcDbLine
 10
-29.24
 20
-1.750001
 30
0.0
 11
-39.2399998
 21
-1.750001
 31
0.0
  0
LINE
  5
38D
330
1F
100
AcDbEntity
  8
SK2
  6
CONTINUOUS
370
25
 62
7
100
AcDbLine
 10
-40.23999999999999
 20
1.75
 30
0.0
 11
-29.23999999999999
 21
1.75
 31
0.0
  0
LINE
  5
38E
330
1F
100
AcDbEntity
  8
SK2
  6
CONTINUOUS
370
25
 62
7
100
AcDbLine
 10
-39.23999999999999
 20
-23.59375
 30
0.0
 11
-39.23999999999999
 21
11.75
 31
0.0
  0
LINE
  5
38F
330
1F
100
AcDbEntity
  8
SK2
  6
CONTINUOUS
370
25
 62
7
100
AcDbLine
 10
-39.23999999999999
 20
-1.75
 30
0.0
 11
-38.23999999999999
 21
-6.75
 31
0.0
  0
LINE
  5
390
330
1F
100
AcDbEntity
  8
SK2
  6
CONTINUOUS
370
25
 62
7
100
AcDbLine
 10
-38.23999999999999
 20
-6.75
 30
0.0
 11
-40.23999999999999
 21
-6.75
 31
0.0
  0
LINE
  5
391
330
1F
100
AcDbEntity
  8
SK2
  6
CONTINUOUS
370
25
 62
7
100
AcDbLine
 10
-40.23999999999999
 20
-6.75
 30
0.0
 11
-39.23999999999999
 21
-1.75
 31
0.0
  0
LINE
  5
392
330
1F
100
AcDbEntity
  8
SK2
  6
CONTINUOUS
370
25
 62
7
100
AcDbLine
 10
-38.56980515339462
 20
-6.75
 30
0.0
 11
-38.29496752556577
 21
-6.475162372171155
 31
0.0
  0
LINE
  5
393
330
1F
100
AcDbEntity
  8
SK2
  6
CONTINUOUS
370
25
 62
7
100
AcDbLine
 10
-38.99406922210655
 20
-6.75
 30
0.0
 11
-38.36567820368442
 21
-6.121608981577872
 31
0.0
  0
LINE
  5
394
330
1F
100
AcDbEntity
  8
SK2
  6
CONTINUOUS
370
25
 62
7
100
AcDbLine
 10
-39.41833329081848
 20
-6.75
 30
0.0
 11
-38.43638888180308
 21
-5.768055590984602
 31
0.0
  0
LINE
  5
395
330
1F
100
AcDbEntity
  8
SK2
  6
CONTINUOUS
370
25
 62
7
100
AcDbLine
 10
-39.84259735953042
 20
-6.75
 30
0.0
 11
-38.50709955992173
 21
-5.414502200391318
 31
0.0
  0
LINE
  5
396
330
1F
100
AcDbEntity
  8
SK2
  6
CONTINUOUS
370
25
 62
7
100
AcDbLine
 10
-40.23328464293942
 20
-6.71642321469708
 30
0.0
 11
-38.57781023804039
 21
-5.060948809798049
 31
0.0
  0
LINE
  5
397
330
1F
100
AcDbEntity
  8
SK2
  6
CONTINUOUS
370
25
 62
7
100
AcDbLine
 10
-40.12721862576143
 20
-6.186093128807158
 30
0.0
 11
-38.64852091615904
 21
-4.707395419204772
 31
0.0
  0
LINE
  5
398
330
1F
100
AcDbEntity
  8
SK2
  6
CONTINUOUS
370
25
 62
7
100
AcDbLine
 10
-40.02115260858345
 20
-5.655763042917251
 30
0.0
 11
-38.71923159427769
 21
-4.353842028611496
 31
0.0
  0
LINE
  5
399
330
1F
100
AcDbEntity
  8
SK2
  6
CONTINUOUS
370
25
 62
7
100
AcDbLine
 10
-39.91508659140546
 20
-5.125432957027328
 30
0.0
 11
-38.78994227239635
 21
-4.000288638018219
 31
0.0
  0
LINE
  5
39A
330
1F
100
AcDbEntity
  8
SK2
  6
CONTINUOUS
370
25
 62
7
100
AcDbLine
 10
-39.80902057422748
 20
-4.595102871137421
 30
0.0
 11
-38.86065295051501
 21
-3.646735247424949
 31
0.0
  0
LINE
  5
39B
330
1F
100
AcDbEntity
  8
SK2
  6
CONTINUOUS
370
25
 62
7
100
AcDbLine
 10
-39.7029545570495
 20
-4.064772785247506
 30
0.0
 11
-38.93136362863366
 21
-3.293181856831666
 31
0.0
  0
LINE
  5
39C
330
1F
100
AcDbEntity
  8
SK2
  6
CONTINUOUS
370
25
 62
7
100
AcDbLine
 10
-39.59688853987151
 20
-3.534442699357591
 30
0.0
 11
-39.00207430675232
 21
-2.939628466238396
 31
0.0
  0
LINE
  5
39D
330
1F
100
AcDbEntity
  8
SK2
  6
CONTINUOUS
370
25
 62
7
100
AcDbLine
 10
-39.49082252269353
 20
-3.004112613467676
 30
0.0
 11
-39.07278498487097
 21
-2.586075075645113
 31
0.0
  0
LINE
  5
39E
330
1F
100
AcDbEntity
  8
SK2
  6
CONTINUOUS
370
25
 62
7
100
AcDbLine
 10
-39.38475650551555
 20
-2.473782527577761
 30
0.0
 11
-39.14349566298963
 21
-2.232521685051843
 31
0.0
  0
LINE
  5
39F
330
1F
100
AcDbEntity
  8
SK2
  6
CONTINUOUS
370
25
 62
7
100
AcDbLine
 10
-39.27869048833757
 20
-1.943452441687839
 30
0.0
 11
-39.21420634110829
 21
-1.878968294458559
 31
0.0
  0
LINE
  5
3A0
330
1F
100
AcDbEntity
  8
SK2
  6
CONTINUOUS
370
25
 62
7
100
AcDbLine
 10
-40.1694977598028
 20
-6.397488799014027
 30
0.0
 11
-39.81698655881683
 21
-6.75
 31
0.0
  0
LINE
  5
3A1
330
1F
100
AcDbEntity
  8
SK2
  6
CONTINUOUS
370
25
 62
7
100
AcDbLine
 10
-40.09878708168415
 20
-6.043935408420751
 30
0.0
 11
-39.3927224901049
 21
-6.75
 31
0.0
  0
LINE
  5
3A2
330
1F
100
AcDbEntity
  8
SK2
  6
CONTINUOUS
370
25
 62
7
100
AcDbLine
 10
-40.02807640356549
 20
-5.690382017827481
 30
0.0
 11
-38.96845842139297
 21
-6.75
 31
0.0
  0
LINE
  5
3A3
330
1F
100
AcDbEntity
  8
SK2
  6
CONTINUOUS
370
25
 62
7
100
AcDbLine
 10
-39.95736572544683
 20
-5.336828627234205
 30
0.0
 11
-38.54419435268103
 21
-6.75
 31
0.0
  0
LINE
  5
3A4
330
1F
100
AcDbEntity
  8
SK2
  6
CONTINUOUS
370
25
 62
7
100
AcDbLine
 10
-39.88665504732818
 20
-4.983275236640921
 30
0.0
 11
-38.27001742900772
 21
-6.599912854961381
 31
0.0
  0
LINE
  5
3A5
330
1F
100
AcDbEntity
  8
SK2
  6
CONTINUOUS
370
25
 62
7
100
AcDbLine
 10
-39.81594436920953
 20
-4.629721846047644
 30
0.0
 11
-38.3760834461857
 21
-6.069582769071467
 31
0.0
  0
LINE
  5
3A6
330
1F
100
AcDbEntity
  8
SK2
  6
CONTINUOUS
370
25
 62
7
100
AcDbLine
 10
-39.74523369109087
 20
-4.276168455454368
 30
0.0
 11
-38.48214946336369
 21
-5.539252683181545
 31
0.0
  0
LINE
  5
3A7
330
1F
100
AcDbEntity
  8
SK2
  6
CONTINUOUS
370
25
 62
7
100
AcDbLine
 10
-39.67452301297222
 20
-3.922615064861098
 30
0.0
 11
-38.58821548054167
 21
-5.008922597291644
 31
0.0
  0
LINE
  5
3A8
330
1F
100
AcDbEntity
  8
SK2
  6
CONTINUOUS
370
25
 62
7
100
AcDbLine
 10
-39.60381233485356
 20
-3.569061674267815
 30
0.0
 11
-38.69428149771965
 21
-4.478592511401729
 31
0.0
  0
LINE
  5
3A9
330
1F
100
AcDbEntity
  8
SK2
  6
CONTINUOUS
370
25
 62
7
100
AcDbLine
 10
-39.53310165673491
 20
-3.215508283674545
 30
0.0
 11
-38.80034751489763
 21
-3.948262425511821
 31
0.0
  0
LINE
  5
3AA
330
1F
100
AcDbEntity
  8
SK2
  6
CONTINUOUS
370
25
 62
7
100
AcDbLine
 10
-39.46239097861625
 20
-2.861954893081268
 30
0.0
 11
-38.90641353207562
 21
-3.417932339621899
 31
0.0
  0
LINE
  5
3AB
330
1F
100
AcDbEntity
  8
SK2
  6
CONTINUOUS
370
25
 62
7
100
AcDbLine
 10
-39.39168030049759
 20
-2.508401502487999
 30
0.0
 11
-39.01247954925361
 21
-2.887602253731984
 31
0.0
  0
LINE
  5
3AC
330
1F
100
AcDbEntity
  8
SK2
  6
CONTINUOUS
370
25
 62
7
100
AcDbLine
 10
-39.32096962237894
 20
-2.154848111894715
 30
0.0
 11
-39.11854556643159
 21
-2.357272167842069
 31
0.0
  0
LINE
  5
3AD
330
1F
100
AcDbEntity
  8
SK2
  6
CONTINUOUS
370
25
 62
7
100
AcDbLine
 10
-39.25025894426029
 20
-1.801294721301431
 30
0.0
 11
-39.22461158360957
 21
-1.826942081952154
 31
0.0
  0
LINE
  5
3AE
330
1F
100
AcDbEntity
  8
SK2
  6
CONTINUOUS
370
25
 62
7
100
AcDbLine
 10
-39.23999999999999
 20
1.75
 30
0.0
 11
-40.23999999999999
 21
6.75
 31
0.0
  0
LINE
  5
3AF
330
1F
100
AcDbEntity
  8
SK2
  6
CONTINUOUS
370
25
 62
7
100
AcDbLine
 10
-40.23999999999999
 20
6.75
 30
0.0
 11
-38.23999999999999
 21
6.75
 31
0.0
  0
LINE
  5
3B0
330
1F
100
AcDbEntity
  8
SK2
  6
CONTINUOUS
370
25
 62
7
100
AcDbLine
 10
-38.23999999999999
 20
6.75
 30
0.0
 11
-39.23999999999999
 21
1.75
 31
0.0
  0
LINE
  5
3B1
330
1F
100
AcDbEntity
  8
SK2
  6
CONTINUOUS
370
25
 62
7
100
AcDbLine
 10
-39.26726911084284
 20
1.886345554214216
 30
0.0
 11
-39.19909633373574
 21
1.954518331321317
 31
0.0
  0
LINE
  5
3B2
330
1F
100
AcDbEntity
  8
SK2
  6
CONTINUOUS
370
25
 62
7
100
AcDbLine
 10
-39.3379797889615
 20
2.239898944807493
 30
0.0
 11
-39.09303031655775
 21
2.484848417211239
 31
0.0
  0
LINE
  5
3B3
330
1F
100
AcDbEntity
  8
SK2
  6
CONTINUOUS
370
25
 62
7
100
AcDbLine
 10
-39.40869046708015
 20
2.593452335400769
 30
0.0
 11
-38.98696429937977
 21
3.015178503101147
 31
0.0
  0
LINE
  5
3B4
330
1F
100
AcDbEntity
  8
SK2
  6
CONTINUOUS
370
25
 62
7
100
AcDbLine
 10
-39.47940114519881
 20
2.947005725994046
 30
0.0
 11
-38.88089828220178
 21
3.545508588991069
 31
0.0
  0
LINE
  5
3B5
330
1F
100
AcDbEntity
  8
SK2
  6
CONTINUOUS
370
25
 62
7
100
AcDbLine
 10
-39.55011182331746
 20
3.30055911658733
 30
0.0
 11
-38.7748322650238
 21
4.075838674880984
 31
0.0
  0
LINE
  5
3B6
330
1F
100
AcDbEntity
  8
SK2
  6
CONTINUOUS
370
25
 62
7
100
AcDbLine
 10
-39.62082250143612
 20
3.654112507180599
 30
0.0
 11
-38.66876624784582
 21
4.606168760770892
 31
0.0
  0
LINE
  5
3B7
330
1F
100
AcDbEntity
  8
SK2
  6
CONTINUOUS
370
25
 62
7
100
AcDbLine
 10
-39.69153317955477
 20
4.007665897773876
 30
0.0
 11
-38.56270023066784
 21
5.136498846660814
 31
0.0
  0
LINE
  5
3B8
330
1F
100
AcDbEntity
  8
SK2
  6
CONTINUOUS
370
25
 62
7
100
AcDbLine
 10
-39.76224385767343
 20
4.361219288367145
 30
0.0
 11
-38.45663421348985
 21
5.666828932550729
 31
0.0
  0
LINE
  5
3B9
330
1F
100
AcDbEntity
  8
SK2
  6
CONTINUOUS
370
25
 62
7
100
AcDbLine
 10
-39.83295453579208
 20
4.714772678960429
 30
0.0
 11
-38.35056819631187
 21
6.197159018440644
 31
0.0
  0
LINE
  5
3BA
330
1F
100
AcDbEntity
  8
SK2
  6
CONTINUOUS
370
25
 62
7
100
AcDbLine
 10
-39.90366521391074
 20
5.068326069553699
 30
0.0
 11
-38.24450217913388
 21
6.727489104330559
 31
0.0
  0
LINE
  5
3BB
330
1F
100
AcDbEntity
  8
SK2
  6
CONTINUOUS
370
25
 62
7
100
AcDbLine
 10
-39.97437589202939
 20
5.421879460146975
 30
0.0
 11
-38.64625535217637
 21
6.75
 31
0.0
  0
LINE
  5
3BC
330
1F
100
AcDbEntity
  8
SK2
  6
CONTINUOUS
370
25
 62
7
100
AcDbLine
 10
-40.04508657014805
 20
5.775432850740245
 30
0.0
 11
-39.0705194208883
 21
6.75
 31
0.0
  0
LINE
  5
3BD
330
1F
100
AcDbEntity
  8
SK2
  6
CONTINUOUS
370
25
 62
7
100
AcDbLine
 10
-40.1157972482667
 20
6.128986241333529
 30
0.0
 11
-39.49478348960023
 21
6.75
 31
0.0
  0
LINE
  5
3BE
330
1F
100
AcDbEntity
  8
SK2
  6
CONTINUOUS
370
25
 62
7
100
AcDbLine
 10
-40.18650792638536
 20
6.482539631926805
 30
0.0
 11
-39.91904755831217
 21
6.75
 31
0.0
  0
LINE
  5
3BF
330
1F
100
AcDbEntity
  8
SK2
  6
CONTINUOUS
370
25
 62
7
100
AcDbLine
 10
-39.31156505109212
 20
2.107825255460575
 30
0.0
 11
-39.19228996593858
 21
1.988550170307043
 31
0.0
  0
LINE
  5
3C0
330
1F
100
AcDbEntity
  8
SK2
  6
CONTINUOUS
370
25
 62
7
100
AcDbLine
 10
-39.4176310682701
 20
2.63815534135049
 30
0.0
 11
-39.12157928781993
 21
2.342103560900327
 31
0.0
  0
LINE
  5
3C1
330
1F
100
AcDbEntity
  8
SK2
  6
CONTINUOUS
370
25
 62
7
100
AcDbLine
 10
-39.52369708544808
 20
3.168485427240398
 30
0.0
 11
-39.05086860970128
 21
2.695656951493604
 31
0.0
  0
LINE
  5
3C2
330
1F
100
AcDbEntity
  8
SK2
  6
CONTINUOUS
370
25
 62
7
100
AcDbLine
 10
-39.62976310262606
 20
3.69881551313032
 30
0.0
 11
-38.98015793158262
 21
3.04921034208688
 31
0.0
  0
LINE
  5
3C3
330
1F
100
AcDbEntity
  8
SK2
  6
CONTINUOUS
370
25
 62
7
100
AcDbLine
 10
-39.73582911980404
 20
4.229145599020228
 30
0.0
 11
-38.90944725346397
 21
3.40276373268015
 31
0.0
  0
LINE
  5
3C4
330
1F
100
AcDbEntity
  8
SK2
  6
CONTINUOUS
370
25
 62
7
100
AcDbLine
 10
-39.84189513698203
 20
4.75947568491015
 30
0.0
 11
-38.83873657534531
 21
3.756317123273426
 31
0.0
  0
LINE
  5
3C5
330
1F
100
AcDbEntity
  8
SK2
  6
CONTINUOUS
370
25
 62
7
100
AcDbLine
 10
-39.94796115416001
 20
5.289805770800058
 30
0.0
 11
-38.76802589722666
 21
4.109870513866703
 31
0.0
  0
LINE
  5
3C6
330
1F
100
AcDbEntity
  8
SK2
  6
CONTINUOUS
370
25
 62
7
100
AcDbLine
 10
-40.05402717133799
 20
5.820135856689973
 30
0.0
 11
-38.697315219108
 21
4.463423904459987
 31
0.0
  0
LINE
  5
3C7
330
1F
100
AcDbEntity
  8
SK2
  6
CONTINUOUS
370
25
 62
7
100
AcDbLine
 10
-40.16009318851597
 20
6.350465942579874
 30
0.0
 11
-38.62660454098935
 21
4.816977295053256
 31
0.0
  0
LINE
  5
3C8
330
1F
100
AcDbEntity
  8
SK2
  6
CONTINUOUS
370
25
 62
7
100
AcDbLine
 10
-40.13536317722416
 20
6.75
 30
0.0
 11
-38.55589386287069
 21
5.170530685646533
 31
0.0
  0
LINE
  5
3C9
330
1F
100
AcDbEntity
  8
SK2
  6
CONTINUOUS
370
25
 62
7
100
AcDbLine
 10
-39.71109910851224
 20
6.75
 30
0.0
 11
-38.48518318475203
 21
5.524084076239802
 31
0.0
  0
LINE
  5
3CA
330
1F
100
AcDbEntity
  8
SK2
  6
CONTINUOUS
370
25
 62
7
100
AcDbLine
 10
-39.28683503980029
 20
6.75
 30
0.0
 11
-38.41447250663338
 21
5.877637466833093
 31
0.0
  0
LINE
  5
3CB
330
1F
100
AcDbEntity
  8
SK2
  6
CONTINUOUS
370
25
 62
7
100
AcDbLine
 10
-38.86257097108837
 20
6.75
 30
0.0
 11
-38.34376182851472
 21
6.231190857426363
 31
0.0
  0
LINE
  5
3CC
330
1F
100
AcDbEntity
  8
SK2
  6
CONTINUOUS
370
25
 62
7
100
AcDbLine
 10
-38.43830690237643
 20
6.75
 30
0.0
 11
-38.27305115039607
 21
6.584744248019646
 31
0.0
  0
TEXT
  5
3CD
330
1F
100
AcDbEntity
  8
SK2
  6
CONTINUOUS
370
25
 62
7
100
AcDbText
 10
-40.23999999999999
 20
-16.671875
 30
0.0
 40
3.5
  1
3.5
 50
90.00000000000001
 72
     1
 11
-40.23999999999999
 21
-13.171875
 31
0.0
100
AcDbText
  0
CIRCLE
  5
3CE
330
1F
100
AcDbEntity
  8
SK2
  6
CONTINUOUS
370
25
 62
7
100
AcDbCircle
 10
-41.77124999999999
 20
-20.889375
 30
0.0
 40
1.53125
  0
LINE
  5
3CF
330
1F
100
AcDbEntity
  8
SK2
  6
CONTINUOUS
370
25
 62
7
100
AcDbLine
 10
-40.23999999999999
 20
-22.420625
 30
0.0
 11
-43.30249999999999
 21
-19.358125
 31
0.0
  0
LINE
  5
3D0
330
1F
100
AcDbEntity
  8
SK2
  6
CONTINUOUS
370
25
 62
7
100
AcDbLine
 10
-29.24
 20
1.75
 30
0.0
 11
-29.24
 21
12.75001
 31
0.0
  0
LINE
  5
3D1
330
1F
100
AcDbEntity
  8
SK2
  6
CONTINUOUS
370
25
 62
7
100
AcDbLine
 10
0.0000000000000001
 20
12.75001
 30
0.0
 11
-0.0000000000000006
 21
1.75
 31
0.0
  0
LINE
  5
3D2
330
1F
100
AcDbEntity
  8
SK2
  6
CONTINUOUS
370
25
 62
7
100
AcDbLine
 10
-29.24
 20
11.75001
 30
0.0
 11
0.0
 21
11.75001
 31
0.0
  0
LINE
  5
3D3
330
1F
100
AcDbEntity
  8
SK2
  6
CONTINUOUS
370
25
 62
7
100
AcDbLine
 10
-29.24
 20
11.75001
 30
0.0
 11
-24.24
 21
12.75001
 31
0.0
  0
LINE
  5
3D4
330
1F
100
AcDbEntity
  8
SK2
  6
CONTINUOUS
370
25
 62
7
100
AcDbLine
 10
-24.24
 20
12.75001
 30
0.0
 11
-24.24
 21
10.75001
 31
0.0
  0
LINE
  5
3D5
330
1F
100
AcDbEntity
  8
SK2
  6
CONTINUOUS
370
25
 62
7
100
AcDbLine
 10
-24.24
 20
10.75001
 30
0.0
 11
-29.24
 21
11.75001
 31
0.0
  0
LINE
  5
3D6
330
1F
100
AcDbEntity
  8
SK2
  6
CONTINUOUS
370
25
 62
7
100
AcDbLine
 10
-24.42658975257504
 20
10.78732795051501
 30
0.0
 11
-24.24
 21
10.97391770309005
 31
0.0
  0
LINE
  5
3D7
330
1F
100
AcDbEntity
  8
SK2
  6
CONTINUOUS
370
25
 62
7
100
AcDbLine
 10
-24.78014314316831
 20
10.85803862863366
 30
0.0
 11
-24.24
 21
11.39818177180198
 31
0.0
  0
LINE
  5
3D8
330
1F
100
AcDbEntity
  8
SK2
  6
CONTINUOUS
370
25
 62
7
100
AcDbLine
 10
-25.13369653376159
 20
10.92874930675232
 30
0.0
 11
-24.24
 21
11.8224458405139
 31
0.0
  0
LINE
  5
3D9
330
1F
100
AcDbEntity
  8
SK2
  6
CONTINUOUS
370
25
 62
7
100
AcDbLine
 10
-25.48724992435486
 20
10.99945998487097
 30
0.0
 11
-24.24
 21
12.24670990922583
 31
0.0
  0
LINE
  5
3DA
330
1F
100
AcDbEntity
  8
SK2
  6
CONTINUOUS
370
25
 62
7
100
AcDbLine
 10
-25.84080331494813
 20
11.07017066298963
 30
0.0
 11
-24.24
 21
12.67097397793776
 31
0.0
  0
LINE
  5
3DB
330
1F
100
AcDbEntity
  8
SK2
  6
CONTINUOUS
370
25
 62
7
100
AcDbLine
 10
-26.19435670554141
 20
11.14088134110828
 30
0.0
 11
-24.67153505831211
 21
12.66370298833758
 31
0.0
  0
LINE
  5
3DC
330
1F
100
AcDbEntity
  8
SK2
  6
CONTINUOUS
370
25
 62
7
100
AcDbLine
 10
-26.54791009613468
 20
11.21159201922693
 30
0.0
 11
-25.20186514420202
 21
12.5576369711596
 31
0.0
  0
LINE
  5
3DD
330
1F
100
AcDbEntity
  8
SK2
  6
CONTINUOUS
370
25
 62
7
100
AcDbLine
 10
-26.90146348672796
 20
11.28230269734559
 30
0.0
 11
-25.73219523009192
 21
12.45157095398162
 31
0.0
  0
LINE
  5
3DE
330
1F
100
AcDbEntity
  8
SK2
  6
CONTINUOUS
370
25
 62
7
100
AcDbLine
 10
-27.25501687732123
 20
11.35301337546424
 30
0.0
 11
-26.26252531598184
 21
12.34550493680363
 31
0.0
  0
LINE
  5
3DF
330
1F
100
AcDbEntity
  8
SK2
  6
CONTINUOUS
370
25
 62
7
100
AcDbLine
 10
-27.6085702679145
 20
11.42372405358289
 30
0.0
 11
-26.79285540187174
 21
12.23943891962565
 31
0.0
  0
LINE
  5
3E0
330
1F
100
AcDbEntity
  8
SK2
  6
CONTINUOUS
370
25
 62
7
100
AcDbLine
 10
-27.96212365850777
 20
11.49443473170155
 30
0.0
 11
-27.32318548776166
 21
12.13337290244767
 31
0.0
  0
LINE
  5
3E1
330
1F
100
AcDbEntity
  8
SK2
  6
CONTINUOUS
370
25
 62
7
100
AcDbLine
 10
-28.31567704910104
 20
11.56514540982021
 30
0.0
 11
-27.85351557365157
 21
12.02730688526968
 31
0.0
  0
LINE
  5
3E2
330
1F
100
AcDbEntity
  8
SK2
  6
CONTINUOUS
370
25
 62
7
100
AcDbLine
 10
-28.66923043969432
 20
11.63585608793886
 30
0.0
 11
-28.38384565954148
 21
11.9212408680917
 31
0.0
  0
LINE
  5
3E3
330
1F
100
AcDbEntity
  8
SK2
  6
CONTINUOUS
370
25
 62
7
100
AcDbLine
 10
-29.0227838302876
 20
11.70656676605752
 30
0.0
 11
-28.9141757454314
 21
11.81517485091372
 31
0.0
  0
LINE
  5
3E4
330
1F
100
AcDbEntity
  8
SK2
  6
CONTINUOUS
370
25
 62
7
100
AcDbLine
 10
-28.95178418757674
 20
11.80765316248466
 30
0.0
 11
-28.8076762813651
 21
11.66354525627302
 31
0.0
  0
LINE
  5
3E5
330
1F
100
AcDbEntity
  8
SK2
  6
CONTINUOUS
370
25
 62
7
100
AcDbLine
 10
-28.59823079698346
 20
11.87836384060331
 30
0.0
 11
-28.27734619547519
 21
11.55747923909503
 31
0.0
  0
LINE
  5
3E6
330
1F
100
AcDbEntity
  8
SK2
  6
CONTINUOUS
370
25
 62
7
100
AcDbLine
 10
-28.24467740639019
 20
11.94907451872197
 30
0.0
 11
-27.74701610958527
 21
11.45141322191705
 31
0.0
  0
LINE
  5
3E7
330
1F
100
AcDbEntity
  8
SK2
  6
CONTINUOUS
370
25
 62
7
100
AcDbLine
 10
-27.89112401579691
 20
12.01978519684062
 30
0.0
 11
-27.21668602369537
 21
11.34534720473907
 31
0.0
  0
LINE
  5
3E8
330
1F
100
AcDbEntity
  8
SK2
  6
CONTINUOUS
370
25
 62
7
100
AcDbLine
 10
-27.53757062520364
 20
12.09049587495927
 30
0.0
 11
-26.68635593780546
 21
11.23928118756109
 31
0.0
  0
LINE
  5
3E9
330
1F
100
AcDbEntity
  8
SK2
  6
CONTINUOUS
370
25
 62
7
100
AcDbLine
 10
-27.18401723461036
 20
12.16120655307792
 30
0.0
 11
-26.15602585191555
 21
11.13321517038311
 31
0.0
  0
LINE
  5
3EA
330
1F
100
AcDbEntity
  8
SK2
  6
CONTINUOUS
370
25
 62
7
100
AcDbLine
 10
-26.83046384401709
 20
12.23191723119658
 30
0.0
 11
-25.62569576602564
 21
11.02714915320513
 31
0.0
  0
LINE
  5
3EB
330
1F
100
AcDbEntity
  8
SK2
  6
CONTINUOUS
370
25
 62
7
100
AcDbLine
 10
-26.47691045342382
 20
12.30262790931524
 30
0.0
 11
-25.09536568013573
 21
10.92108313602715
 31
0.0
  0
LINE
  5
3EC
330
1F
100
AcDbEntity
  8
SK2
  6
CONTINUOUS
370
25
 62
7
100
AcDbLine
 10
-26.12335706283054
 20
12.37333858743389
 30
0.0
 11
-24.56503559424582
 21
10.81501711884916
 31
0.0
  0
LINE
  5
3ED
330
1F
100
AcDbEntity
  8
SK2
  6
CONTINUOUS
370
25
 62
7
100
AcDbLine
 10
-25.76980367223727
 20
12.44404926555254
 30
0.0
 11
-24.24
 21
10.91424559331527
 31
0.0
  0
LINE
  5
3EE
330
1F
100
AcDbEntity
  8
SK2
  6
CONTINUOUS
370
25
 62
7
100
AcDbLine
 10
-25.416250281644
 20
12.5147599436712
 30
0.0
 11
-24.24
 21
11.3385096620272
 31
0.0
  0
LINE
  5
3EF
330
1F
100
AcDbEntity
  8
SK2
  6
CONTINUOUS
370
25
 62
7
100
AcDbLine
 10
-25.06269689105072
 20
12.58547062178985
 30
0.0
 11
-24.24
 21
11.76277373073913
 31
0.0
  0
LINE
  5
3F0
330
1F
100
AcDbEntity
  8
SK2
  6
CONTINUOUS
370
25
 62
7
100
AcDbLine
 10
-24.70914350045745
 20
12.65618129990851
 30
0.0
 11
-24.24
 21
12.18703779945105
 31
0.0
  0
LINE
  5
3F1
330
1F
100
AcDbEntity
  8
SK2
  6
CONTINUOUS
370
25
 62
7
100
AcDbLine
 10
-24.35559010986418
 20
12.72689197802717
 30
0.0
 11
-24.24
 21
12.61130186816298
 31
0.0
  0
LINE
  5
3F2
330
1F
100
AcDbEntity
  8
SK2
  6
CONTINUOUS
370
25
 62
7
100
AcDbLine
 10
0.0
 20
11.75001
 30
0.0
 11
-5.0
 21
10.75001
 31
0.0
  0
LINE
  5
3F3
330
1F
100
AcDbEntity
  8
SK2
  6
CONTINUOUS
370
25
 62
7
100
AcDbLine
 10
-5.0
 20
10.75001
 30
0.0
 11
-5.0
 21
12.75001
 31
0.0
  0
LINE
  5
3F4
330
1F
100
AcDbEntity
  8
SK2
  6
CONTINUOUS
370
25
 62
7
100
AcDbLine
 10
-5.0
 20
12.75001
 30
0.0
 11
0.0
 21
11.75001
 31
0.0
  0
LINE
  5
3F5
330
1F
100
AcDbEntity
  8
SK2
  6
CONTINUOUS
370
25
 62
7
100
AcDbLine
 10
-0.1617299049174936
 20
11.7176640190165
 30
0.0
 11
-0.1078199366116624
 21
11.77157398732233
 31
0.0
  0
LINE
  5
3F6
330
1F
100
AcDbEntity
  8
SK2
  6
CONTINUOUS
370
25
 62
7
100
AcDbLine
 10
-0.6920599908074032
 20
11.61159800183852
 30
0.0
 11
-0.4613733272049355
 21
11.84228466544099
 31
0.0
  0
LINE
  5
3F7
330
1F
100
AcDbEntity
  8
SK2
  6
CONTINUOUS
370
25
 62
7
100
AcDbLine
 10
-1.222390076697313
 20
11.50553198466054
 30
0.0
 11
-0.8149267177982086
 21
11.91299534355964
 31
0.0
  0
LINE
  5
3F8
330
1F
100
AcDbEntity
  8
SK2
  6
CONTINUOUS
370
25
 62
7
100
AcDbLine
 10
-1.752720162587224
 20
11.39946596748256
 30
0.0
 11
-1.168480108391483
 21
11.9837060216783
 31
0.0
  0
LINE
  5
3F9
330
1F
100
AcDbEntity
  8
SK2
  6
CONTINUOUS
370
25
 62
7
100
AcDbLine
 10
-2.283050248477133
 20
11.29339995030457
 30
0.0
 11
-1.522033498984756
 21
12.05441669979695
 31
0.0
  0
LINE
  5
3FA
330
1F
100
AcDbEntity
  8
SK2
  6
CONTINUOUS
370
25
 62
7
100
AcDbLine
 10
-2.813380334367042
 20
11.18733393312659
 30
0.0
 11
-1.875586889578029
 21
12.12512737791561
 31
0.0
  0
LINE
  5
3FB
330
1F
100
AcDbEntity
  8
SK2
  6
CONTINUOUS
370
25
 62
7
100
AcDbLine
 10
-3.343710420256955
 20
11.08126791594861
 30
0.0
 11
-2.229140280171304
 21
12.19583805603426
 31
0.0
  0
LINE
  5
3FC
330
1F
100
AcDbEntity
  8
SK2
  6
CONTINUOUS
370
25
 62
7
100
AcDbLine
 10
-3.874040506146864
 20
10.97520189877063
 30
0.0
 11
-2.582693670764577
 21
12.26654873415291
 31
0.0
  0
LINE
  5
3FD
330
1F
100
AcDbEntity
  8
SK2
  6
CONTINUOUS
370
25
 62
7
100
AcDbLine
 10
-4.404370592036774
 20
10.86913588159264
 30
0.0
 11
-2.93624706135785
 21
12.33725941227157
 31
0.0
  0
LINE
  5
3FE
330
1F
100
AcDbEntity
  8
SK2
  6
CONTINUOUS
370
25
 62
7
100
AcDbLine
 10
-4.934700677926682
 20
10.76306986441466
 30
0.0
 11
-3.289800451951123
 21
12.40797009039022
 31
0.0
  0
LINE
  5
3FF
330
1F
100
AcDbEntity
  8
SK2
  6
CONTINUOUS
370
25
 62
7
100
AcDbLine
 10
-5.0
 20
11.12203461105327
 30
0.0
 11
-3.643353842544395
 21
12.47868076850888
 31
0.0
  0
LINE
  5
400
330
1F
100
AcDbEntity
  8
SK2
  6
CONTINUOUS
370
25
 62
7
100
AcDbLine
 10
-5.0
 20
11.5462986797652
 30
0.0
 11
-3.996907233137668
 21
12.54939144662753
 31
0.0
  0
LINE
  5
401
330
1F
100
AcDbEntity
  8
SK2
  6
CONTINUOUS
370
25
 62
7
100
AcDbLine
 10
-5.0
 20
11.97056274847713
 30
0.0
 11
-4.350460623730942
 21
12.62010212474619
 31
0.0
  0
LINE
  5
402
330
1F
100
AcDbEntity
  8
SK2
  6
CONTINUOUS
370
25
 62
7
100
AcDbLine
 10
-5.0
 20
12.39482681718906
 30
0.0
 11
-4.704014014324215
 21
12.69081280286484
 31
0.0
  0
LINE
  5
403
330
1F
100
AcDbEntity
  8
SK2
  6
CONTINUOUS
370
25
 62
7
100
AcDbLine
 10
-5.0
 20
10.939696961967
 30
0.0
 11
-4.841927531694167
 21
10.78162449366117
 31
0.0
  0
LINE
  5
404
330
1F
100
AcDbEntity
  8
SK2
  6
CONTINUOUS
370
25
 62
7
100
AcDbLine
 10
-5.0
 20
11.36396103067893
 30
0.0
 11
-4.488374141100893
 21
10.85233517177982
 31
0.0
  0
LINE
  5
405
330
1F
100
AcDbEntity
  8
SK2
  6
CONTINUOUS
370
25
 62
7
100
AcDbLine
 10
-5.0
 20
11.78822509939085
 30
0.0
 11
-4.134820750507619
 21
10.92304584989848
 31
0.0
  0
LINE
  5
406
330
1F
100
AcDbEntity
  8
SK2
  6
CONTINUOUS
370
25
 62
7
100
AcDbLine
 10
-5.0
 20
12.21248916810278
 30
0.0
 11
-3.781267359914346
 21
10.99375652801713
 31
0.0
  0
LINE
  5
407
330
1F
100
AcDbEntity
  8
SK2
  6
CONTINUOUS
370
25
 62
7
100
AcDbLine
 10
-5.0
 20
12.63675323681471
 30
0.0
 11
-3.427713969321073
 21
11.06446720613578
 31
0.0
  0
LINE
  5
408
330
1F
100
AcDbEntity
  8
SK2
  6
CONTINUOUS
370
25
 62
7
100
AcDbLine
 10
-4.611240868091703
 20
12.67225817361834
 30
0.0
 11
-3.074160578727799
 21
11.13517788425444
 31
0.0
  0
LINE
  5
409
330
1F
100
AcDbEntity
  8
SK2
  6
CONTINUOUS
370
25
 62
7
100
AcDbLine
 10
-4.080910782201791
 20
12.56619215644036
 30
0.0
 11
-2.720607188134524
 21
11.20588856237309
 31
0.0
  0
LINE
  5
40A
330
1F
100
AcDbEntity
  8
SK2
  6
CONTINUOUS
370
25
 62
7
100
AcDbLine
 10
-3.550580696311881
 20
12.46012613926238
 30
0.0
 11
-2.367053797541252
 21
11.27659924049175
 31
0.0
  0
LINE
  5
40B
330
1F
100
AcDbEntity
  8
SK2
  6
CONTINUOUS
370
25
 62
7
100
AcDbLine
 10
-3.020250610421967
 20
12.35406012208439
 30
0.0
 11
-2.013500406947976
 21
11.3473099186104
 31
0.0
  0
LINE
  5
40C
330
1F
100
AcDbEntity
  8
SK2
  6
CONTINUOUS
370
25
 62
7
100
AcDbLine
 10
-2.489920524532056
 20
12.24799410490641
 30
0.0
 11
-1.659947016354702
 21
11.41802059672906
 31
0.0
  0
LINE
  5
40D
330
1F
100
AcDbEntity
  8
SK2
  6
CONTINUOUS
370
25
 62
7
100
AcDbLine
 10
-1.959590438642145
 20
12.14192808772843
 30
0.0
 11
-1.306393625761428
 21
11.48873127484771
 31
0.0
  0
LINE
  5
40E
330
1F
100
AcDbEntity
  8
SK2
  6
CONTINUOUS
370
25
 62
7
100
AcDbLine
 10
-1.429260352752234
 20
12.03586207055045
 30
0.0
 11
-0.9528402351681546
 21
11.55944195296637
 31
0.0
  0
LINE
  5
40F
330
1F
100
AcDbEntity
  8
SK2
  6
CONTINUOUS
370
25
 62
7
100
AcDbLine
 10
-0.8989302668623221
 20
11.92979605337246
 30
0.0
 11
-0.5992868445748808
 21
11.63015263108502
 31
0.0
  0
LINE
  5
410
330
1F
100
AcDbEntity
  8
SK2
  6
CONTINUOUS
370
25
 62
7
100
AcDbLine
 10
-0.3686001809724107
 20
11.82373003619448
 30
0.0
 11
-0.2457334539816068
 21
11.70086330920368
 31
0.0
  0
TEXT
  5
411
330
1F
100
AcDbEntity
  8
SK2
  6
CONTINUOUS
370
25
 62
7
100
AcDbText
 10
-21.62
 20
12.75001
 30
0.0
 40
3.5
  1
29.24
 72
     1
 11
-14.62
 21
12.75001
 31
0.0
100
AcDbText
  0
LINE
  5
412
330
1F
100
AcDbEntity
  8
2
  6
CONTINUOUS
370
25
 62
7
100
AcDbLine
 10
0.0
 20
-1.75001
 30
0.0
 11
-0.0000000000000007
 21
-12.75001
 31
0.0
  0
LINE
  5
413
330
1F
100
AcDbEntity
  8
2
  6
CONTINUOUS
370
25
 62
7
100
AcDbLine
 10
1.009999999999999
 20
-12.75001
 30
0.0
 11
1.01
 21
-1.75001
 31
0.0
  0
LINE
  5
414
330
1F
100
AcDbEntity
  8
2
  6
CONTINUOUS
370
25
 62
7
100
AcDbLine
 10
-18.475
 20
-11.75001
 30
0.0
 11
11.01
 21
-11.75001
 31
0.0
  0
LINE
  5
415
330
1F
100
AcDbEntity
  8
2
  6
CONTINUOUS
370
25
 62
7
100
AcDbLine
 10
0.0
 20
-11.75001
 30
0.0
 11
-5.0
 21
-12.75001
 31
0.0
  0
LINE
  5
416
330
1F
100
AcDbEntity
  8
2
  6
CONTINUOUS
370
25
 62
7
100
AcDbLine
 10
-5.0
 20
-12.75001
 30
0.0
 11
-5.0
 21
-10.75001
 31
0.0
  0
LINE
  5
417
330
1F
100
AcDbEntity
  8
2
  6
CONTINUOUS
370
25
 62
7
100
AcDbLine
 10
-5.0
 20
-10.75001
 30
0.0
 11
0.0
 21
-11.75001
 31
0.0
  0
LINE
  5
418
330
1F
100
AcDbEntity
  8
2
  6
CONTINUOUS
370
25
 62
7
100
AcDbLine
 10
-0.1826775161760175
 20
-11.7865455032352
 30
0.0
 11
-0.1217850107840117
 21
-11.7256529978432
 31
0.0
  0
LINE
  5
419
330
1F
100
AcDbEntity
  8
2
  6
CONTINUOUS
370
25
 62
7
100
AcDbLine
 10
-0.7130076020659271
 20
-11.89261152041319
 30
0.0
 11
-0.4753384013772847
 21
-11.65494231972454
 31
0.0
  0
LINE
  5
41A
330
1F
100
AcDbEntity
  8
2
  6
CONTINUOUS
370
25
 62
7
100
AcDbLine
 10
-1.243337687955837
 20
-11.99867753759117
 30
0.0
 11
-0.8288917919705578
 21
-11.58423164160589
 31
0.0
  0
LINE
  5
41B
330
1F
100
AcDbEntity
  8
2
  6
CONTINUOUS
370
25
 62
7
100
AcDbLine
 10
-1.773667773845746
 20
-12.10474355476915
 30
0.0
 11
-1.182445182563831
 21
-11.51352096348723
 31
0.0
  0
LINE
  5
41C
330
1F
100
AcDbEntity
  8
2
  6
CONTINUOUS
370
25
 62
7
100
AcDbLine
 10
-2.303997859735655
 20
-12.21080957194713
 30
0.0
 11
-1.535998573157104
 21
-11.44281028536858
 31
0.0
  0
LINE
  5
41D
330
1F
100
AcDbEntity
  8
2
  6
CONTINUOUS
370
25
 62
7
100
AcDbLine
 10
-2.834327945625565
 20
-12.31687558912511
 30
0.0
 11
-1.889551963750377
 21
-11.37209960724992
 31
0.0
  0
LINE
  5
41E
330
1F
100
AcDbEntity
  8
2
  6
CONTINUOUS
370
25
 62
7
100
AcDbLine
 10
-3.364658031515477
 20
-12.42294160630309
 30
0.0
 11
-2.243105354343652
 21
-11.30138892913127
 31
0.0
  0
LINE
  5
41F
330
1F
100
AcDbEntity
  8
2
  6
CONTINUOUS
370
25
 62
7
100
AcDbLine
 10
-3.894988117405387
 20
-12.52900762348108
 30
0.0
 11
-2.596658744936925
 21
-11.23067825101261
 31
0.0
  0
LINE
  5
420
330
1F
100
AcDbEntity
  8
2
  6
CONTINUOUS
370
25
 62
7
100
AcDbLine
 10
-4.425318203295296
 20
-12.63507364065906
 30
0.0
 11
-2.950212135530198
 21
-11.15996757289396
 31
0.0
  0
LINE
  5
421
330
1F
100
AcDbEntity
  8
2
  6
CONTINUOUS
370
25
 62
7
100
AcDbLine
 10
-4.955648289185204
 20
-12.74113965783704
 30
0.0
 11
-3.30376552612347
 21
-11.08925689477531
 31
0.0
  0
LINE
  5
422
330
1F
100
AcDbEntity
  8
2
  6
CONTINUOUS
370
25
 62
7
100
AcDbLine
 10
-5.0
 20
-12.36122729993991
 30
0.0
 11
-3.657318916716744
 21
-11.01854621665665
 31
0.0
  0
LINE
  5
423
330
1F
100
AcDbEntity
  8
2
  6
CONTINUOUS
370
25
 62
7
100
AcDbLine
 10
-5.0
 20
-11.93696323122798
 30
0.0
 11
-4.010872307310017
 21
-10.947835538538
 31
0.0
  0
LINE
  5
424
330
1F
100
AcDbEntity
  8
2
  6
CONTINUOUS
370
25
 62
7
100
AcDbLine
 10
-5.0
 20
-11.51269916251605
 30
0.0
 11
-4.36442569790329
 21
-10.87712486041934
 31
0.0
  0
LINE
  5
425
330
1F
100
AcDbEntity
  8
2
  6
CONTINUOUS
370
25
 62
7
100
AcDbLine
 10
-5.0
 20
-11.08843509380412
 30
0.0
 11
-4.717979088496564
 21
-10.80641418230069
 31
0.0
  0
LINE
  5
426
330
1F
100
AcDbEntity
  8
2
  6
CONTINUOUS
370
25
 62
7
100
AcDbLine
 10
-5.0
 20
-12.3612272999399
 30
0.0
 11
-4.676014416616584
 21
-12.68521288332332
 31
0.0
  0
LINE
  5
427
330
1F
100
AcDbEntity
  8
2
  6
CONTINUOUS
370
25
 62
7
100
AcDbLine
 10
-5.0
 20
-11.93696323122798
 30
0.0
 11
-4.322461026023314
 21
-12.61450220520466
 31
0.0
  0
LINE
  5
428
330
1F
100
AcDbEntity
  8
2
  6
CONTINUOUS
370
25
 62
7
100
AcDbLine
 10
-5.0
 20
-11.51269916251605
 30
0.0
 11
-3.968907635430041
 21
-12.54379152708601
 31
0.0
  0
LINE
  5
429
330
1F
100
AcDbEntity
  8
2
  6
CONTINUOUS
370
25
 62
7
100
AcDbLine
 10
-5.0
 20
-11.08843509380412
 30
0.0
 11
-3.615354244836767
 21
-12.47308084896735
 31
0.0
  0
LINE
  5
42A
330
1F
100
AcDbEntity
  8
2
  6
CONTINUOUS
370
25
 62
7
100
AcDbLine
 10
-4.892701281365238
 20
-10.77146974372695
 30
0.0
 11
-3.261800854243491
 21
-12.4023701708487
 31
0.0
  0
LINE
  5
42B
330
1F
100
AcDbEntity
  8
2
  6
CONTINUOUS
370
25
 62
7
100
AcDbLine
 10
-4.362371195475328
 20
-10.87753576090493
 30
0.0
 11
-2.908247463650217
 21
-12.33165949273004
 31
0.0
  0
LINE
  5
42C
330
1F
100
AcDbEntity
  8
2
  6
CONTINUOUS
370
25
 62
7
100
AcDbLine
 10
-3.832041109585417
 20
-10.98360177808292
 30
0.0
 11
-2.554694073056944
 21
-12.26094881461139
 31
0.0
  0
LINE
  5
42D
330
1F
100
AcDbEntity
  8
2
  6
CONTINUOUS
370
25
 62
7
100
AcDbLine
 10
-3.301711023695506
 20
-11.0896677952609
 30
0.0
 11
-2.20114068246367
 21
-12.19023813649273
 31
0.0
  0
LINE
  5
42E
330
1F
100
AcDbEntity
  8
2
  6
CONTINUOUS
370
25
 62
7
100
AcDbLine
 10
-2.771380937805596
 20
-11.19573381243888
 30
0.0
 11
-1.847587291870396
 21
-12.11952745837408
 31
0.0
  0
LINE
  5
42F
330
1F
100
AcDbEntity
  8
2
  6
CONTINUOUS
370
25
 62
7
100
AcDbLine
 10
-2.241050851915686
 20
-11.30179982961686
 30
0.0
 11
-1.494033901277123
 21
-12.04881678025542
 31
0.0
  0
LINE
  5
430
330
1F
100
AcDbEntity
  8
2
  6
CONTINUOUS
370
25
 62
7
100
AcDbLine
 10
-1.710720766025775
 20
-11.40786584679485
 30
0.0
 11
-1.14048051068385
 21
-11.97810610213677
 31
0.0
  0
LINE
  5
431
330
1F
100
AcDbEntity
  8
2
  6
CONTINUOUS
370
25
 62
7
100
AcDbLine
 10
-1.180390680135865
 20
-11.51393186397283
 30
0.0
 11
-0.7869271200905761
 21
-11.90739542401811
 31
0.0
  0
LINE
  5
432
330
1F
100
AcDbEntity
  8
2
  6
CONTINUOUS
370
25
 62
7
100
AcDbLine
 10
-0.6500605942459543
 20
-11.61999788115081
 30
0.0
 11
-0.4333737294973027
 21
-11.83668474589946
 31
0.0
  0
LINE
  5
433
330
1F
100
AcDbEntity
  8
2
  6
CONTINUOUS
370
25
 62
7
100
AcDbLine
 10
-0.1197305083560442
 20
-11.72606389832879
 30
0.0
 11
-0.0798203389040294
 21
-11.7659740677808
 31
0.0
  0
LINE
  5
434
330
1F
100
AcDbEntity
  8
2
  6
CONTINUOUS
370
25
 62
7
100
AcDbLine
 10
1.009999999999999
 20
-11.75001
 30
0.0
 11
6.01
 21
-10.75001
 31
0.0
  0
LINE
  5
435
330
1F
100
AcDbEntity
  8
2
  6
CONTINUOUS
370
25
 62
7
100
AcDbLine
 10
6.01
 20
-10.75001
 30
0.0
 11
6.01
 21
-12.75001
 31
0.0
  0
LINE
  5
436
330
1F
100
AcDbEntity
  8
2
  6
CONTINUOUS
370
25
 62
7
100
AcDbLine
 10
6.01
 20
-12.75001
 30
0.0
 11
1.009999999999999
 21
-11.75001
 31
0.0
  0
LINE
  5
437
330
1F
100
AcDbEntity
  8
2
  6
CONTINUOUS
370
25
 62
7
100
AcDbLine
 10
5.820574302096704
 20
-12.71212486041934
 30
0.0
 11
6.01
 21
-12.52269916251604
 31
0.0
  0
LINE
  5
438
330
1F
100
AcDbEntity
  8
2
  6
CONTINUOUS
370
25
 62
7
100
AcDbLine
 10
5.467020911503431
 20
-12.64141418230069
 30
0.0
 11
6.01
 21
-12.09843509380412
 31
0.0
  0
LINE
  5
439
330
1F
100
AcDbEntity
  8
2
  6
CONTINUOUS
370
25
 62
7
100
AcDbLine
 10
5.113467520910158
 20
-12.57070350418203
 30
0.0
 11
6.01
 21
-11.67417102509219
 31
0.0
  0
LINE
  5
43A
330
1F
100
AcDbEntity
  8
2
  6
CONTINUOUS
370
25
 62
7
100
AcDbLine
 10
4.759914130316885
 20
-12.49999282606338
 30
0.0
 11
6.01
 21
-11.24990695638026
 31
0.0
  0
LINE
  5
43B
330
1F
100
AcDbEntity
  8
2
  6
CONTINUOUS
370
25
 62
7
100
AcDbLine
 10
4.406360739723612
 20
-12.42928214794472
 30
0.0
 11
6.01
 21
-10.82564288766834
 31
0.0
  0
LINE
  5
43C
330
1F
100
AcDbEntity
  8
2
  6
CONTINUOUS
370
25
 62
7
100
AcDbLine
 10
4.052807349130338
 20
-12.35857146982607
 30
0.0
 11
5.57421102369551
 21
-10.8371677952609
 31
0.0
  0
LINE
  5
43D
330
1F
100
AcDbEntity
  8
2
  6
CONTINUOUS
370
25
 62
7
100
AcDbLine
 10
3.699253958537064
 20
-12.28786079170741
 30
0.0
 11
5.043880937805597
 21
-10.94323381243888
 31
0.0
  0
LINE
  5
43E
330
1F
100
AcDbEntity
  8
2
  6
CONTINUOUS
370
25
 62
7
100
AcDbLine
 10
3.345700567943791
 20
-12.21715011358876
 30
0.0
 11
4.513550851915689
 21
-11.04929982961686
 31
0.0
  0
LINE
  5
43F
330
1F
100
AcDbEntity
  8
2
  6
CONTINUOUS
370
25
 62
7
100
AcDbLine
 10
2.992147177350518
 20
-12.1464394354701
 30
0.0
 11
3.983220766025779
 21
-11.15536584679484
 31
0.0
  0
LINE
  5
440
330
1F
100
AcDbEntity
  8
2
  6
CONTINUOUS
370
25
 62
7
100
AcDbLine
 10
2.638593786757244
 20
-12.07572875735145
 30
0.0
 11
3.452890680135866
 21
-11.26143186397283
 31
0.0
  0
LINE
  5
441
330
1F
100
AcDbEntity
  8
2
  6
CONTINUOUS
370
25
 62
7
100
AcDbLine
 10
2.28504039616397
 20
-12.00501807923279
 30
0.0
 11
2.922560594245956
 21
-11.36749788115081
 31
0.0
  0
LINE
  5
442
330
1F
100
AcDbEntity
  8
2
  6
CONTINUOUS
370
25
 62
7
100
AcDbLine
 10
1.931487005570697
 20
-11.93430740111414
 30
0.0
 11
2.392230508356047
 21
-11.47356389832879
 31
0.0
  0
LINE
  5
443
330
1F
100
AcDbEntity
  8
2
  6
CONTINUOUS
370
25
 62
7
100
AcDbLine
 10
1.577933614977424
 20
-11.86359672299549
 30
0.0
 11
1.861900422466136
 21
-11.57962991550677
 31
0.0
  0
LINE
  5
444
330
1F
100
AcDbEntity
  8
2
  6
CONTINUOUS
370
25
 62
7
100
AcDbLine
 10
1.22438022438415
 20
-11.79288604487683
 30
0.0
 11
1.331570336576226
 21
-11.68569593268476
 31
0.0
  0
LINE
  5
445
330
1F
100
AcDbEntity
  8
2
  6
CONTINUOUS
370
25
 62
7
100
AcDbLine
 10
1.26634489626413
 20
-11.69874102074717
 30
0.0
 11
1.394517344396195
 21
-11.82691346887924
 31
0.0
  0
LINE
  5
446
330
1F
100
AcDbEntity
  8
2
  6
CONTINUOUS
370
25
 62
7
100
AcDbLine
 10
1.619898286857403
 20
-11.62803034262852
 30
0.0
 11
1.924847430286106
 21
-11.93297948605722
 31
0.0
  0
LINE
  5
447
330
1F
100
AcDbEntity
  8
2
  6
CONTINUOUS
370
25
 62
7
100
AcDbLine
 10
1.973451677450676
 20
-11.55731966450986
 30
0.0
 11
2.455177516176015
 21
-12.0390455032352
 31
0.0
  0
LINE
  5
448
330
1F
100
AcDbEntity
  8
2
  6
CONTINUOUS
370
25
 62
7
100
AcDbLine
 10
2.327005068043951
 20
-11.48660898639121
 30
0.0
 11
2.985507602065927
 21
-12.14511152041318
 31
0.0
  0
LINE
  5
449
330
1F
100
AcDbEntity
  8
2
  6
CONTINUOUS
370
25
 62
7
100
AcDbLine
 10
2.680558458637226
 20
-11.41589830827255
 30
0.0
 11
3.51583768795584
 21
-12.25117753759117
 31
0.0
  0
LINE
  5
44A
330
1F
100
AcDbEntity
  8
2
  6
CONTINUOUS
370
25
 62
7
100
AcDbLine
 10
3.034111849230498
 20
-11.3451876301539
 30
0.0
 11
4.046167773845748
 21
-12.35724355476915
 31
0.0
  0
LINE
  5
44B
330
1F
100
AcDbEntity
  8
2
  6
CONTINUOUS
370
25
 62
7
100
AcDbLine
 10
3.387665239823772
 20
-11.27447695203525
 30
0.0
 11
4.576497859735658
 21
-12.46330957194713
 31
0.0
  0
LINE
  5
44C
330
1F
100
AcDbEntity
  8
2
  6
CONTINUOUS
370
25
 62
7
100
AcDbLine
 10
3.741218630417046
 20
-11.20376627391659
 30
0.0
 11
5.106827945625568
 21
-12.56937558912511
 31
0.0
  0
LINE
  5
44D
330
1F
100
AcDbEntity
  8
2
  6
CONTINUOUS
370
25
 62
7
100
AcDbLine
 10
4.09477202101032
 20
-11.13305559579794
 30
0.0
 11
5.637158031515479
 21
-12.6754416063031
 31
0.0
  0
LINE
  5
44E
330
1F
100
AcDbEntity
  8
2
  6
CONTINUOUS
370
25
 62
7
100
AcDbLine
 10
4.448325411603593
 20
-11.06234491767928
 30
0.0
 11
6.01
 21
-12.62401950607569
 31
0.0
  0
LINE
  5
44F
330
1F
100
AcDbEntity
  8
2
  6
CONTINUOUS
370
25
 62
7
100
AcDbLine
 10
4.801878802196867
 20
-10.99163423956063
 30
0.0
 11
6.01
 21
-12.19975543736376
 31
0.0
  0
LINE
  5
450
330
1F
100
AcDbEntity
  8
2
  6
CONTINUOUS
370
25
 62
7
100
AcDbLine
 10
5.15543219279014
 20
-10.92092356144197
 30
0.0
 11
6.01
 21
-11.77549136865183
 31
0.0
  0
LINE
  5
451
330
1F
100
AcDbEntity
  8
2
  6
CONTINUOUS
370
25
 62
7
100
AcDbLine
 10
5.508985583383413
 20
-10.85021288332332
 30
0.0
 11
6.01
 21
-11.3512272999399
 31
0.0
  0
LINE
  5
452
330
1F
100
AcDbEntity
  8
2
  6
CONTINUOUS
370
25
 62
7
100
AcDbLine
 10
5.862538973976686
 20
-10.77950220520466
 30
0.0
 11
6.01
 21
-10.92696323122798
 31
0.0
  0
TEXT
  5
453
330
1F
100
AcDbEntity
  8
2
  6
CONTINUOUS
370
25
 62
7
100
AcDbText
 10
-15.52916666666667
 20
-10.75001
 30
0.0
 40
3.5
  1
1.01
 72
     1
 11
-11.7375
 21
-10.75001
 31
0.0
100
AcDbText
  0
LINE
  5
454
330
1F
100
AcDbEntity
  8
NOCUT
  6
CONTINUOUS
370
25
 62
7
100
AcDbLine
 10
1.0
 20
0.0
 30
0.0
 11
30.76
 21
0.0
 31
0.0
  0
LINE
  5
455
330
1F
100
AcDbEntity
  8
NOCUT
  6
CONTINUOUS
370
25
 62
7
100
AcDbLine
 10
30.76
 20
0.0
 30
0.0
 11
30.76
 21
0.84
 31
0.0
  0
LINE
  5
456
330
1F
100
AcDbEntity
  8
NOCUT
  6
CONTINUOUS
370
25
 62
7
100
AcDbLine
 10
30.76
 20
0.84
 30
0.0
 11
2.760000000000002
 21
0.84
 31
0.0
  0
LINE
  5
457
330
1F
100
AcDbEntity
  8
NOCUT
  6
CONTINUOUS
370
25
 62
7
100
AcDbLine
 10
2.760000000000002
 20
0.84
 30
0.0
 11
2.760000000000002
 21
1.64
 31
0.0
  0
LINE
  5
458
330
1F
100
AcDbEntity
  8
NOCUT
  6
CONTINUOUS
370
25
 62
7
100
AcDbLine
 10
2.760000000000002
 20
1.64
 30
0.0
 11
2.475943667558706
 21
1.476
 31
0.0
  0
LINE
  5
459
330
1F
100
AcDbEntity
  8
NOCUT
  6
CONTINUOUS
370
25
 62
7
100
AcDbLine
 10
2.475943667558706
 20
1.476
 30
0.0
 11
1.474581921273872
 21
1.476
 31
0.0
  0
LINE
  5
45A
330
1F
100
AcDbEntity
  8
NOCUT
  6
CONTINUOUS
370
25
 62
7
100
AcDbLine
 10
1.474581921273872
 20
1.476
 30
0.0
 11
1.0
 21
1.75
 31
0.0
  0
LINE
  5
45B
330
1F
100
AcDbEntity
  8
CUT
  6
CONTINUOUS
370
25
 62
1
100
AcDbLine
 10
1.374359353944899
 20
0.8399999999999999
 30
0.0
 11
2.760000000000002
 21
1.64
 31
0.0
  0
LINE
  5
45C
330
1F
100
AcDbEntity
  8
CUT
  6
CONTINUOUS
370
25
 62
1
100
AcDbLine
 10
2.760000000000002
 20
1.64
 30
0.0
 11
29.96
 21
1.64
 31
0.0
  0
LINE
  5
45D
330
1F
100
AcDbEntity
  8
CUT
  6
CONTINUOUS
370
25
 62
1
100
AcDbLine
 10
29.96
 20
1.64
 30
0.0
 11
30.76
 21
0.84
 31
0.0
  0
LINE
  5
45E
330
1F
100
AcDbEntity
  8
CUT
  6
CONTINUOUS
370
25
 62
1
100
AcDbLine
 10
30.76
 20
0.84
 30
0.0
 11
1.3743593539449
 21
0.84
 31
0.0
  0
LINE
  5
45F
330
1F
100
AcDbEntity
  8
2
  6
CONTINUOUS
370
25
 62
7
100
AcDbLine
 10
30.76
 20
-1.64
 30
0.0
 11
41.76000000000001
 21
-1.64
 31
0.0
  0
LINE
  5
460
330
1F
100
AcDbEntity
  8
2
  6
CONTINUOUS
370
25
 62
7
100
AcDbLine
 10
41.76000000000001
 20
1.64
 30
0.0
 11
30.76000000000001
 21
1.64
 31
0.0
  0
LINE
  5
461
330
1F
100
AcDbEntity
  8
2
  6
CONTINUOUS
370
25
 62
7
100
AcDbLine
 10
40.76000000000001
 20
26.8525
 30
0.0
 11
40.76000000000001
 21
-11.64000000000001
 31
0.0
  0
LINE
  5
462
330
1F
100
AcDbEntity
  8
2
  6
CONTINUOUS
370
25
 62
7
100
AcDbLine
 10
40.76000000000001
 20
-1.64
 30
0.0
 11
41.76000000000001
 21
-6.64
 31
0.0
  0
LINE
  5
463
330
1F
100
AcDbEntity
  8
2
  6
CONTINUOUS
370
25
 62
7
100
AcDbLine
 10
41.76000000000001
 20
-6.64
 30
0.0
 11
39.76000000000001
 21
-6.64
 31
0.0
  0
LINE
  5
464
330
1F
100
AcDbEntity
  8
2
  6
CONTINUOUS
370
25
 62
7
100
AcDbLine
 10
39.76000000000001
 20
-6.64
 30
0.0
 11
40.76000000000001
 21
-1.64
 31
0.0
  0
LINE
  5
465
330
1F
100
AcDbEntity
  8
2
  6
CONTINUOUS
370
25
 62
7
100
AcDbLine
 10
41.47419435268109
 20
-6.640000000000001
 30
0.0
 11
41.71236572544685
 21
-6.401828627234238
 31
0.0
  0
LINE
  5
466
330
1F
100
AcDbEntity
  8
2
  6
CONTINUOUS
370
25
 62
7
100
AcDbLine
 10
41.04993028396916
 20
-6.640000000000001
 30
0.0
 11
41.6416550473282
 21
-6.048275236640961
 31
0.0
  0
LINE
  5
467
330
1F
100
AcDbEntity
  8
2
  6
CONTINUOUS
370
25
 62
7
100
AcDbLine
 10
40.62566621525722
 20
-6.640000000000001
 30
0.0
 11
41.57094436920954
 21
-5.694721846047678
 31
0.0
  0
LINE
  5
468
330
1F
100
AcDbEntity
  8
2
  6
CONTINUOUS
370
25
 62
7
100
AcDbLine
 10
40.20140214654529
 20
-6.640000000000001
 30
0.0
 11
41.50023369109089
 21
-5.341168455454401
 31
0.0
  0
LINE
  5
469
330
1F
100
AcDbEntity
  8
2
  6
CONTINUOUS
370
25
 62
7
100
AcDbLine
 10
39.77713807783337
 20
-6.640000000000001
 30
0.0
 11
41.42952301297223
 21
-4.987615064861131
 31
0.0
  0
LINE
  5
46A
330
1F
100
AcDbEntity
  8
2
  6
CONTINUOUS
370
25
 62
7
100
AcDbLine
 10
39.86178149771964
 20
-6.131092511401796
 30
0.0
 11
41.35881233485358
 21
-4.634061674267848
 31
0.0
  0
LINE
  5
46B
330
1F
100
AcDbEntity
  8
2
  6
CONTINUOUS
370
25
 62
7
100
AcDbLine
 10
39.96784751489763
 20
-5.600762425511874
 30
0.0
 11
41.28810165673492
 21
-4.280508283674571
 31
0.0
  0
LINE
  5
46C
330
1F
100
AcDbEntity
  8
2
  6
CONTINUOUS
370
25
 62
7
100
AcDbLine
 10
40.07391353207561
 20
-5.070432339621959
 30
0.0
 11
41.21739097861627
 21
-3.926954893081302
 31
0.0
  0
LINE
  5
46D
330
1F
100
AcDbEntity
  8
2
  6
CONTINUOUS
370
25
 62
7
100
AcDbLine
 10
40.17997954925359
 20
-4.540102253732037
 30
0.0
 11
41.14668030049761
 21
-3.573401502488025
 31
0.0
  0
LINE
  5
46E
330
1F
100
AcDbEntity
  8
2
  6
CONTINUOUS
370
25
 62
7
100
AcDbLine
 10
40.28604556643158
 20
-4.009772167842129
 30
0.0
 11
41.07596962237895
 21
-3.219848111894756
 31
0.0
  0
LINE
  5
46F
330
1F
100
AcDbEntity
  8
2
  6
CONTINUOUS
370
25
 62
7
100
AcDbLine
 10
40.39211158360956
 20
-3.479442081952222
 30
0.0
 11
41.0052589442603
 21
-2.866294721301479
 31
0.0
  0
LINE
  5
470
330
1F
100
AcDbEntity
  8
2
  6
CONTINUOUS
370
25
 62
7
100
AcDbLine
 10
40.49817760078754
 20
-2.949111996062307
 30
0.0
 11
40.93454826614165
 21
-2.512741330708195
 31
0.0
  0
LINE
  5
471
330
1F
100
AcDbEntity
  8
2
  6
CONTINUOUS
370
25
 62
7
100
AcDbLine
 10
40.60424361796552
 20
-2.418781910172385
 30
0.0
 11
40.86383758802299
 21
-2.159187940114919
 31
0.0
  0
LINE
  5
472
330
1F
100
AcDbEntity
  8
2
  6
CONTINUOUS
370
25
 62
7
100
AcDbLine
 10
40.7103096351435
 20
-1.888451824282477
 30
0.0
 11
40.79312690990433
 21
-1.805634549521649
 31
0.0
  0
LINE
  5
473
330
1F
100
AcDbEntity
  8
2
  6
CONTINUOUS
370
25
 62
7
100
AcDbLine
 10
39.82614357137372
 20
-6.309282143131377
 30
0.0
 11
40.15686142824234
 21
-6.640000000000001
 31
0.0
  0
LINE
  5
474
330
1F
100
AcDbEntity
  8
2
  6
CONTINUOUS
370
25
 62
7
100
AcDbLine
 10
39.89685424949237
 20
-5.9557287525381
 30
0.0
 11
40.58112549695427
 21
-6.640000000000001
 31
0.0
  0
LINE
  5
475
330
1F
100
AcDbEntity
  8
2
  6
CONTINUOUS
370
25
 62
7
100
AcDbLine
 10
39.96756492761103
 20
-5.602175361944823
 30
0.0
 11
41.00538956566621
 21
-6.640000000000001
 31
0.0
  0
LINE
  5
476
330
1F
100
AcDbEntity
  8
2
  6
CONTINUOUS
370
25
 62
7
100
AcDbLine
 10
40.03827560572969
 20
-5.248621971351554
 30
0.0
 11
41.42965363437813
 21
-6.640000000000001
 31
0.0
  0
LINE
  5
477
330
1F
100
AcDbEntity
  8
2
  6
CONTINUOUS
370
25
 62
7
100
AcDbLine
 10
40.10898628384835
 20
-4.895068580758284
 30
0.0
 11
41.73652057422749
 21
-6.522602871137423
 31
0.0
  0
LINE
  5
478
330
1F
100
AcDbEntity
  8
2
  6
CONTINUOUS
370
25
 62
7
100
AcDbLine
 10
40.179696961967
 20
-4.541515190165001
 30
0.0
 11
41.63045455704951
 21
-5.992272785247508
 31
0.0
  0
LINE
  5
479
330
1F
100
AcDbEntity
  8
2
  6
CONTINUOUS
370
25
 62
7
100
AcDbLine
 10
40.25040764008565
 20
-4.187961799571731
 30
0.0
 11
41.52438853987152
 21
-5.461942699357593
 31
0.0
  0
LINE
  5
47A
330
1F
100
AcDbEntity
  8
2
  6
CONTINUOUS
370
25
 62
7
100
AcDbLine
 10
40.32111831820431
 20
-3.834408408978454
 30
0.0
 11
41.41832252269354
 21
-4.931612613467678
 31
0.0
  0
LINE
  5
47B
330
1F
100
AcDbEntity
  8
2
  6
CONTINUOUS
370
25
 62
7
100
AcDbLine
 10
40.39182899632297
 20
-3.480855018385185
 30
0.0
 11
41.31225650551556
 21
-4.40128252757777
 31
0.0
  0
LINE
  5
47C
330
1F
100
AcDbEntity
  8
2
  6
CONTINUOUS
370
25
 62
7
100
AcDbLine
 10
40.46253967444162
 20
-3.127301627791901
 30
0.0
 11
41.20619048833758
 21
-3.870952441687855
 31
0.0
  0
LINE
  5
47D
330
1F
100
AcDbEntity
  8
2
  6
CONTINUOUS
370
25
 62
7
100
AcDbLine
 10
40.53325035256027
 20
-2.773748237198625
 30
0.0
 11
41.1001244711596
 21
-3.340622355797947
 31
0.0
  0
LINE
  5
47E
330
1F
100
AcDbEntity
  8
2
  6
CONTINUOUS
370
25
 62
7
100
AcDbLine
 10
40.60396103067893
 20
-2.420194846605348
 30
0.0
 11
40.99405845398161
 21
-2.810292269908025
 31
0.0
  0
LINE
  5
47F
330
1F
100
AcDbEntity
  8
2
  6
CONTINUOUS
370
25
 62
7
100
AcDbLine
 10
40.67467170879759
 20
-2.066641456012071
 30
0.0
 11
40.88799243680362
 21
-2.279962184018103
 31
0.0
  0
LINE
  5
480
330
1F
100
AcDbEntity
  8
2
  6
CONTINUOUS
370
25
 62
7
100
AcDbLine
 10
40.74538238691625
 20
-1.713088065418802
 30
0.0
 11
40.78192641962564
 21
-1.749632098128195
 31
0.0
  0
LINE
  5
481
330
1F
100
AcDbEntity
  8
2
  6
CONTINUOUS
370
25
 62
7
100
AcDbLine
 10
40.76000000000001
 20
1.64
 30
0.0
 11
39.76000000000001
 21
6.640000000000001
 31
0.0
  0
LINE
  5
482
330
1F
100
AcDbEntity
  8
2
  6
CONTINUOUS
370
25
 62
7
100
AcDbLine
 10
39.76000000000001
 20
6.640000000000001
 30
0.0
 11
41.76000000000001
 21
6.640000000000001
 31
0.0
  0
LINE
  5
483
330
1F
100
AcDbEntity
  8
2
  6
CONTINUOUS
370
25
 62
7
100
AcDbLine
 10
41.76000000000001
 20
6.640000000000001
 30
0.0
 11
40.76000000000001
 21
1.64
 31
0.0
  0
LINE
  5
484
330
1F
100
AcDbEntity
  8
2
  6
CONTINUOUS
370
25
 62
7
100
AcDbLine
 10
40.70111392013064
 20
1.93443039934678
 30
0.0
 11
40.84832911980404
 21
2.081645599020177
 31
0.0
  0
LINE
  5
485
330
1F
100
AcDbEntity
  8
2
  6
CONTINUOUS
370
25
 62
7
100
AcDbLine
 10
40.63040324201199
 20
2.287983789940057
 30
0.0
 11
40.95439513698203
 21
2.611975684910099
 31
0.0
  0
LINE
  5
486
330
1F
100
AcDbEntity
  8
2
  6
CONTINUOUS
370
25
 62
7
100
AcDbLine
 10
40.55969256389333
 20
2.641537180533334
 30
0.0
 11
41.06046115416001
 21
3.142305770800014
 31
0.0
  0
LINE
  5
487
330
1F
100
AcDbEntity
  8
2
  6
CONTINUOUS
370
25
 62
7
100
AcDbLine
 10
40.48898188577468
 20
2.99509057112661
 30
0.0
 11
41.16652717133799
 21
3.672635856689922
 31
0.0
  0
LINE
  5
488
330
1F
100
AcDbEntity
  8
2
  6
CONTINUOUS
370
25
 62
7
100
AcDbLine
 10
40.41827120765602
 20
3.348643961719887
 30
0.0
 11
41.27259318851598
 21
4.202965942579844
 31
0.0
  0
LINE
  5
489
330
1F
100
AcDbEntity
  8
2
  6
CONTINUOUS
370
25
 62
7
100
AcDbLine
 10
40.34756052953737
 20
3.702197352313163
 30
0.0
 11
41.37865920569396
 21
4.733296028469752
 31
0.0
  0
LINE
  5
48A
330
1F
100
AcDbEntity
  8
2
  6
CONTINUOUS
370
25
 62
7
100
AcDbLine
 10
40.27684985141871
 20
4.05575074290644
 30
0.0
 11
41.48472522287194
 21
5.263626114359674
 31
0.0
  0
LINE
  5
48B
330
1F
100
AcDbEntity
  8
2
  6
CONTINUOUS
370
25
 62
7
100
AcDbLine
 10
40.20613917330005
 20
4.40930413349971
 30
0.0
 11
41.59079124004992
 21
5.793956200249582
 31
0.0
  0
LINE
  5
48C
330
1F
100
AcDbEntity
  8
2
  6
CONTINUOUS
370
25
 62
7
100
AcDbLine
 10
40.1354284951814
 20
4.762857524092993
 30
0.0
 11
41.6968572572279
 21
6.324286286139497
 31
0.0
  0
LINE
  5
48D
330
1F
100
AcDbEntity
  8
2
  6
CONTINUOUS
370
25
 62
7
100
AcDbLine
 10
40.06471781706275
 20
5.11641091468627
 30
0.0
 11
41.58830690237648
 21
6.640000000000001
 31
0.0
  0
LINE
  5
48E
330
1F
100
AcDbEntity
  8
2
  6
CONTINUOUS
370
25
 62
7
100
AcDbLine
 10
39.99400713894409
 20
5.469964305279547
 30
0.0
 11
41.16404283366455
 21
6.640000000000001
 31
0.0
  0
LINE
  5
48F
330
1F
100
AcDbEntity
  8
2
  6
CONTINUOUS
370
25
 62
7
100
AcDbLine
 10
39.92329646082543
 20
5.823517695872823
 30
0.0
 11
40.73977876495261
 21
6.640000000000001
 31
0.0
  0
LINE
  5
490
330
1F
100
AcDbEntity
  8
2
  6
CONTINUOUS
370
25
 62
7
100
AcDbLine
 10
39.85258578270678
 20
6.1770710864661
 30
0.0
 11
40.31551469624068
 21
6.640000000000001
 31
0.0
  0
LINE
  5
491
330
1F
100
AcDbEntity
  8
2
  6
CONTINUOUS
370
25
 62
7
100
AcDbLine
 10
39.78187510458812
 20
6.530624477059376
 30
0.0
 11
39.89125062752875
 21
6.640000000000001
 31
0.0
  0
LINE
  5
492
330
1F
100
AcDbEntity
  8
2
  6
CONTINUOUS
370
25
 62
7
100
AcDbLine
 10
40.75339828220178
 20
1.673008588991067
 30
0.0
 11
40.76440114519882
 21
1.662005725994028
 31
0.0
  0
LINE
  5
493
330
1F
100
AcDbEntity
  8
2
  6
CONTINUOUS
370
25
 62
7
100
AcDbLine
 10
40.6473322650238
 20
2.203338674880982
 30
0.0
 11
40.83511182331747
 21
2.015559116587312
 31
0.0
  0
LINE
  5
494
330
1F
100
AcDbEntity
  8
2
  6
CONTINUOUS
370
25
 62
7
100
AcDbLine
 10
40.54126624784582
 20
2.733668760770897
 30
0.0
 11
40.90582250143612
 21
2.369112507180596
 31
0.0
  0
LINE
  5
495
330
1F
100
AcDbEntity
  8
2
  6
CONTINUOUS
370
25
 62
7
100
AcDbLine
 10
40.43520023066783
 20
3.263998846660812
 30
0.0
 11
40.97653317955478
 21
2.722665897773865
 31
0.0
  0
LINE
  5
496
330
1F
100
AcDbEntity
  8
2
  6
CONTINUOUS
370
25
 62
7
100
AcDbLine
 10
40.32913421348985
 20
3.794328932550727
 30
0.0
 11
41.04724385767344
 21
3.076219288367142
 31
0.0
  0
LINE
  5
497
330
1F
100
AcDbEntity
  8
2
  6
CONTINUOUS
370
25
 62
7
100
AcDbLine
 10
40.22306819631187
 20
4.324659018440634
 30
0.0
 11
41.11795453579209
 21
3.429772678960418
 31
0.0
  0
LINE
  5
498
330
1F
100
AcDbEntity
  8
2
  6
CONTINUOUS
370
25
 62
7
100
AcDbLine
 10
40.11700217913388
 20
4.854989104330549
 30
0.0
 11
41.18866521391075
 21
3.783326069553688
 31
0.0
  0
LINE
  5
499
330
1F
100
AcDbEntity
  8
2
  6
CONTINUOUS
370
25
 62
7
100
AcDbLine
 10
40.0109361619559
 20
5.385319190220464
 30
0.0
 11
41.2593758920294
 21
4.136879460146972
 31
0.0
  0
LINE
  5
49A
330
1F
100
AcDbEntity
  8
2
  6
CONTINUOUS
370
25
 62
7
100
AcDbLine
 10
39.90487014477793
 20
5.915649276110365
 30
0.0
 11
41.33008657014805
 21
4.490432850740241
 31
0.0
  0
LINE
  5
49B
330
1F
100
AcDbEntity
  8
2
  6
CONTINUOUS
370
25
 62
7
100
AcDbLine
 10
39.79880412759995
 20
6.44597936200028
 30
0.0
 11
41.40079724826671
 21
4.843986241333525
 31
0.0
  0
LINE
  5
49C
330
1F
100
AcDbEntity
  8
2
  6
CONTINUOUS
370
25
 62
7
100
AcDbLine
 10
40.02904755831216
 20
6.640000000000001
 30
0.0
 11
41.47150792638536
 21
5.197539631926801
 31
0.0
  0
LINE
  5
49D
330
1F
100
AcDbEntity
  8
2
  6
CONTINUOUS
370
25
 62
7
100
AcDbLine
 10
40.45331162702409
 20
6.640000000000001
 30
0.0
 11
41.54221860450401
 21
5.551093022520078
 31
0.0
  0
LINE
  5
49E
330
1F
100
AcDbEntity
  8
2
  6
CONTINUOUS
370
25
 62
7
100
AcDbLine
 10
40.87757569573603
 20
6.640000000000001
 30
0.0
 11
41.61292928262267
 21
5.904646413113355
 31
0.0
  0
LINE
  5
49F
330
1F
100
AcDbEntity
  8
2
  6
CONTINUOUS
370
25
 62
7
100
AcDbLine
 10
41.30183976444795
 20
6.640000000000001
 30
0.0
 11
41.68363996074133
 21
6.258199803706624
 31
0.0
  0
LINE
  5
4A0
330
1F
100
AcDbEntity
  8
2
  6
CONTINUOUS
370
25
 62
7
100
AcDbLine
 10
41.7261038331599
 20
6.640000000000001
 30
0.0
 11
41.75435063885999
 21
6.611753194299908
 31
0.0
  0
TEXT
  5
4A1
330
1F
100
AcDbEntity
  8
2
  6
CONTINUOUS
370
25
 62
7
100
AcDbText
 10
39.76000000000001
 20
12.99625
 30
0.0
 40
3.5
  1
3.28
 50
90.00000000000001
 72
     1
 11
39.76000000000001
 21
18.24625
 31
0.0
100
AcDbText
  0
CIRCLE
  5
4A2
330
1F
100
AcDbEntity
  8
2
  6
CONTINUOUS
370
25
 62
7
100
AcDbCircle
 10
38.22875000000001
 20
8.875
 30
0.0
 40
1.53125
  0
LINE
  5
4A3
330
1F
100
AcDbEntity
  8
2
  6
CONTINUOUS
370
25
 62
7
100
AcDbLine
 10
39.76000000000001
 20
7.34375
 30
0.0
 11
36.69750000000001
 21
10.40625
 31
0.0
  0
LINE
  5
4A4
330
1F
100
AcDbEntity
  8
SK2
  6
CONTINUOUS
370
25
 62
7
100
AcDbLine
 10
-29.24
 20
0.0
 30
0.0
 11
-29.24
 21
19.75001
 31
0.0
  0
LINE
  5
4A5
330
1F
100
AcDbEntity
  8
SK2
  6
CONTINUOUS
370
25
 62
7
100
AcDbLine
 10
30.76
 20
19.75001
 30
0.0
 11
30.76
 21
1.640000000000001
 31
0.0
  0
LINE
  5
4A6
330
1F
100
AcDbEntity
  8
SK2
  6
CONTINUOUS
370
25
 62
7
100
AcDbLine
 10
-29.24
 20
18.75001
 30
0.0
 11
30.76
 21
18.75001
 31
0.0
  0
LINE
  5
4A7
330
1F
100
AcDbEntity
  8
SK2
  6
CONTINUOUS
370
25
 62
7
100
AcDbLine
 10
-29.24
 20
18.75001
 30
0.0
 11
-24.24
 21
19.75001
 31
0.0
  0
LINE
  5
4A8
330
1F
100
AcDbEntity
  8
SK2
  6
CONTINUOUS
370
25
 62
7
100
AcDbLine
 10
-24.24
 20
19.75001
 30
0.0
 11
-24.24
 21
17.75001
 31
0.0
  0
LINE
  5
4A9
330
1F
100
AcDbEntity
  8
SK2
  6
CONTINUOUS
370
25
 62
7
100
AcDbLine
 10
-24.24
 20
17.75001
 30
0.0
 11
-29.24
 21
18.75001
 31
0.0
  0
LINE
  5
4AA
330
1F
100
AcDbEntity
  8
SK2
  6
CONTINUOUS
370
25
 62
7
100
AcDbLine
 10
-24.2501106687341
 20
17.75203213374682
 30
0.0
 11
-24.24
 21
17.76214280248092
 31
0.0
  0
LINE
  5
4AB
330
1F
100
AcDbEntity
  8
SK2
  6
CONTINUOUS
370
25
 62
7
100
AcDbLine
 10
-24.60366405932737
 20
17.82274281186547
 30
0.0
 11
-24.24
 21
18.18640687119284
 31
0.0
  0
LINE
  5
4AC
330
1F
100
AcDbEntity
  8
SK2
  6
CONTINUOUS
370
25
 62
7
100
AcDbLine
 10
-24.95721744992064
 20
17.89345348998413
 30
0.0
 11
-24.24
 21
18.61067093990477
 31
0.0
  0
LINE
  5
4AD
330
1F
100
AcDbEntity
  8
SK2
  6
CONTINUOUS
370
25
 62
7
100
AcDbLine
 10
-25.31077084051391
 20
17.96416416810279
 30
0.0
 11
-24.24
 21
19.0349350086167
 31
0.0
  0
LINE
  5
4AE
330
1F
100
AcDbEntity
  8
SK2
  6
CONTINUOUS
370
25
 62
7
100
AcDbLine
 10
-25.66432423110719
 20
18.03487484622144
 30
0.0
 11
-24.24
 21
19.45919907732863
 31
0.0
  0
LINE
  5
4AF
330
1F
100
AcDbEntity
  8
SK2
  6
CONTINUOUS
370
25
 62
7
100
AcDbLine
 10
-26.01787762170046
 20
18.1055855243401
 30
0.0
 11
-24.40681643255069
 21
19.71664671348986
 31
0.0
  0
LINE
  5
4B0
330
1F
100
AcDbEntity
  8
SK2
  6
CONTINUOUS
370
25
 62
7
100
AcDbLine
 10
-26.37143101229373
 20
18.17629620245875
 30
0.0
 11
-24.93714651844061
 21
19.61058069631187
 31
0.0
  0
LINE
  5
4B1
330
1F
100
AcDbEntity
  8
SK2
  6
CONTINUOUS
370
25
 62
7
100
AcDbLine
 10
-26.724984402887
 20
18.24700688057741
 30
0.0
 11
-25.46747660433052
 21
19.50451467913389
 31
0.0
  0
LINE
  5
4B2
330
1F
100
AcDbEntity
  8
SK2
  6
CONTINUOUS
370
25
 62
7
100
AcDbLine
 10
-27.07853779348028
 20
18.31771755869606
 30
0.0
 11
-25.99780669022043
 21
19.39844866195591
 31
0.0
  0
LINE
  5
4B3
330
1F
100
AcDbEntity
  8
SK2
  6
CONTINUOUS
370
25
 62
7
100
AcDbLine
 10
-27.43209118407355
 20
18.38842823681471
 30
0.0
 11
-26.52813677611034
 21
19.29238264477793
 31
0.0
  0
LINE
  5
4B4
330
1F
100
AcDbEntity
  8
SK2
  6
CONTINUOUS
370
25
 62
7
100
AcDbLine
 10
-27.78564457466683
 20
18.45913891493337
 30
0.0
 11
-27.05846686200025
 21
19.18631662759995
 31
0.0
  0
LINE
  5
4B5
330
1F
100
AcDbEntity
  8
SK2
  6
CONTINUOUS
370
25
 62
7
100
AcDbLine
 10
-28.1391979652601
 20
18.52984959305202
 30
0.0
 11
-27.58879694789016
 21
19.08025061042197
 31
0.0
  0
LINE
  5
4B6
330
1F
100
AcDbEntity
  8
SK2
  6
CONTINUOUS
370
25
 62
7
100
AcDbLine
 10
-28.49275135585338
 20
18.60056027117068
 30
0.0
 11
-28.11912703378007
 21
18.97418459324399
 31
0.0
  0
LINE
  5
4B7
330
1F
100
AcDbEntity
  8
SK2
  6
CONTINUOUS
370
25
 62
7
100
AcDbLine
 10
-28.84630474644665
 20
18.67127094928934
 30
0.0
 11
-28.64945711966998
 21
18.86811857606601
 31
0.0
  0
LINE
  5
4B8
330
1F
100
AcDbEntity
  8
SK2
  6
CONTINUOUS
370
25
 62
7
100
AcDbLine
 10
-29.19985813703993
 20
18.74198162740799
 30
0.0
 11
-29.17978720555989
 21
18.76205255888802
 31
0.0
  0
LINE
  5
4B9
330
1F
100
AcDbEntity
  8
SK2
  6
CONTINUOUS
370
25
 62
7
100
AcDbLine
 10
-29.12885849432904
 20
18.77223830113419
 30
0.0
 11
-29.07328774149356
 21
18.71666754829871
 31
0.0
  0
LINE
  5
4BA
330
1F
100
AcDbEntity
  8
SK2
  6
CONTINUOUS
370
25
 62
7
100
AcDbLine
 10
-28.77530510373576
 20
18.84294897925285
 30
0.0
 11
-28.54295765560365
 21
18.61060153112073
 31
0.0
  0
LINE
  5
4BB
330
1F
100
AcDbEntity
  8
SK2
  6
CONTINUOUS
370
25
 62
7
100
AcDbLine
 10
-28.42175171314249
 20
18.9136596573715
 30
0.0
 11
-28.01262756971374
 21
18.50453551394275
 31
0.0
  0
LINE
  5
4BC
330
1F
100
AcDbEntity
  8
SK2
  6
CONTINUOUS
370
25
 62
7
100
AcDbLine
 10
-28.06819832254922
 20
18.98437033549016
 30
0.0
 11
-27.48229748382383
 21
18.39846949676476
 31
0.0
  0
LINE
  5
4BD
330
1F
100
AcDbEntity
  8
SK2
  6
CONTINUOUS
370
25
 62
7
100
AcDbLine
 10
-27.71464493195594
 20
19.05508101360881
 30
0.0
 11
-26.95196739793392
 21
18.29240347958678
 31
0.0
  0
LINE
  5
4BE
330
1F
100
AcDbEntity
  8
SK2
  6
CONTINUOUS
370
25
 62
7
100
AcDbLine
 10
-27.36109154136268
 20
19.12579169172747
 30
0.0
 11
-26.42163731204401
 21
18.1863374624088
 31
0.0
  0
LINE
  5
4BF
330
1F
100
AcDbEntity
  8
SK2
  6
CONTINUOUS
370
25
 62
7
100
AcDbLine
 10
-27.0075381507694
 20
19.19650236984612
 30
0.0
 11
-25.8913072261541
 21
18.08027144523082
 31
0.0
  0
LINE
  5
4C0
330
1F
100
AcDbEntity
  8
SK2
  6
CONTINUOUS
370
25
 62
7
100
AcDbLine
 10
-26.65398476017613
 20
19.26721304796478
 30
0.0
 11
-25.36097714026419
 21
17.97420542805284
 31
0.0
  0
LINE
  5
4C1
330
1F
100
AcDbEntity
  8
SK2
  6
CONTINUOUS
370
25
 62
7
100
AcDbLine
 10
-26.30043136958285
 20
19.33792372608343
 30
0.0
 11
-24.83064705437428
 21
17.86813941087486
 31
0.0
  0
LINE
  5
4C2
330
1F
100
AcDbEntity
  8
SK2
  6
CONTINUOUS
370
25
 62
7
100
AcDbLine
 10
-25.94687797898958
 20
19.40863440420208
 30
0.0
 11
-24.30031696848437
 21
17.76207339369687
 31
0.0
  0
LINE
  5
4C3
330
1F
100
AcDbEntity
  8
SK2
  6
CONTINUOUS
370
25
 62
7
100
AcDbLine
 10
-25.59332458839631
 20
19.47934508232074
 30
0.0
 11
-24.24
 21
18.12602049392443
 31
0.0
  0
LINE
  5
4C4
330
1F
100
AcDbEntity
  8
SK2
  6
CONTINUOUS
370
25
 62
7
100
AcDbLine
 10
-25.23977119780303
 20
19.55005576043939
 30
0.0
 11
-24.24
 21
18.55028456263635
 31
0.0
  0
LINE
  5
4C5
330
1F
100
AcDbEntity
  8
SK2
  6
CONTINUOUS
370
25
 62
7
100
AcDbLine
 10
-24.88621780720976
 20
19.62076643855805
 30
0.0
 11
-24.24
 21
18.97454863134828
 31
0.0
  0
LINE
  5
4C6
330
1F
100
AcDbEntity
  8
SK2
  6
CONTINUOUS
370
25
 62
7
100
AcDbLine
 10
-24.53266441661649
 20
19.6914771166767
 30
0.0
 11
-24.24
 21
19.39881270006021
 31
0.0
  0
LINE
  5
4C7
330
1F
100
AcDbEntity
  8
SK2
  6
CONTINUOUS
370
25
 62
7
100
AcDbLine
 10
30.76
 20
18.75001
 30
0.0
 11
25.76
 21
17.75001
 31
0.0
  0
LINE
  5
4C8
330
1F
100
AcDbEntity
  8
SK2
  6
CONTINUOUS
370
25
 62
7
100
AcDbLine
 10
25.76
 20
17.75001
 30
0.0
 11
25.76
 21
19.75001
 31
0.0
  0
LINE
  5
4C9
330
1F
100
AcDbEntity
  8
SK2
  6
CONTINUOUS
370
25
 62
7
100
AcDbLine
 10
25.76
 20
19.75001
 30
0.0
 11
30.76
 21
18.75001
 31
0.0
  0
LINE
  5
4CA
330
1F
100
AcDbEntity
  8
SK2
  6
CONTINUOUS
370
25
 62
7
100
AcDbLine
 10
30.37196739793407
 20
18.67240347958681
 30
0.0
 11
30.50131159862272
 21
18.80174768027546
 31
0.0
  0
LINE
  5
4CB
330
1F
100
AcDbEntity
  8
SK2
  6
CONTINUOUS
370
25
 62
7
100
AcDbLine
 10
29.84163731204416
 20
18.56633746240883
 30
0.0
 11
30.14775820802944
 21
18.87245835839411
 31
0.0
  0
LINE
  5
4CC
330
1F
100
AcDbEntity
  8
SK2
  6
CONTINUOUS
370
25
 62
7
100
AcDbLine
 10
29.31130722615425
 20
18.46027144523084
 30
0.0
 11
29.79420481743617
 21
18.94316903651277
 31
0.0
  0
LINE
  5
4CD
330
1F
100
AcDbEntity
  8
SK2
  6
CONTINUOUS
370
25
 62
7
100
AcDbLine
 10
28.78097714026434
 20
18.35420542805287
 30
0.0
 11
29.44065142684289
 21
19.01387971463142
 31
0.0
  0
LINE
  5
4CE
330
1F
100
AcDbEntity
  8
SK2
  6
CONTINUOUS
370
25
 62
7
100
AcDbLine
 10
28.25064705437443
 20
18.24813941087488
 30
0.0
 11
29.08709803624962
 21
19.08459039275007
 31
0.0
  0
LINE
  5
4CF
330
1F
100
AcDbEntity
  8
SK2
  6
CONTINUOUS
370
25
 62
7
100
AcDbLine
 10
27.72031696848452
 20
18.1420733936969
 30
0.0
 11
28.73354464565635
 21
19.15530107086873
 31
0.0
  0
LINE
  5
4D0
330
1F
100
AcDbEntity
  8
SK2
  6
CONTINUOUS
370
25
 62
7
100
AcDbLine
 10
27.18998688259461
 20
18.03600737651892
 30
0.0
 11
28.37999125506307
 21
19.22601174898739
 31
0.0
  0
LINE
  5
4D1
330
1F
100
AcDbEntity
  8
SK2
  6
CONTINUOUS
370
25
 62
7
100
AcDbLine
 10
26.6596567967047
 20
17.92994135934094
 30
0.0
 11
28.0264378644698
 21
19.29672242710604
 31
0.0
  0
LINE
  5
4D2
330
1F
100
AcDbEntity
  8
SK2
  6
CONTINUOUS
370
25
 62
7
100
AcDbLine
 10
26.12932671081479
 20
17.82387534216295
 30
0.0
 11
27.67288447387652
 21
19.36743310522469
 31
0.0
  0
LINE
  5
4D3
330
1F
100
AcDbEntity
  8
SK2
  6
CONTINUOUS
370
25
 62
7
100
AcDbLine
 10
25.76
 20
17.8788127000601
 30
0.0
 11
27.31933108328325
 21
19.43814378334335
 31
0.0
  0
LINE
  5
4D4
330
1F
100
AcDbEntity
  8
SK2
  6
CONTINUOUS
370
25
 62
7
100
AcDbLine
 10
25.76
 20
18.30307676877202
 30
0.0
 11
26.96577769268998
 21
19.508854461462
 31
0.0
  0
LINE
  5
4D5
330
1F
100
AcDbEntity
  8
SK2
  6
CONTINUOUS
370
25
 62
7
100
AcDbLine
 10
25.76
 20
18.72734083748395
 30
0.0
 11
26.6122243020967
 21
19.57956513958066
 31
0.0
  0
LINE
  5
4D6
330
1F
100
AcDbEntity
  8
SK2
  6
CONTINUOUS
370
25
 62
7
100
AcDbLine
 10
25.76
 20
19.15160490619588
 30
0.0
 11
26.25867091150343
 21
19.65027581769932
 31
0.0
  0
LINE
  5
4D7
330
1F
100
AcDbEntity
  8
SK2
  6
CONTINUOUS
370
25
 62
7
100
AcDbLine
 10
25.76
 20
19.57586897490781
 30
0.0
 11
25.90511752091016
 21
19.72098649581797
 31
0.0
  0
LINE
  5
4D8
330
1F
100
AcDbEntity
  8
SK2
  6
CONTINUOUS
370
25
 62
7
100
AcDbLine
 10
25.76
 20
17.93919907732866
 30
0.0
 11
25.91765756444055
 21
17.78154151288811
 31
0.0
  0
LINE
  5
4D9
330
1F
100
AcDbEntity
  8
SK2
  6
CONTINUOUS
370
25
 62
7
100
AcDbLine
 10
25.76
 20
18.36346314604059
 30
0.0
 11
26.27121095503383
 21
17.85225219100676
 31
0.0
  0
LINE
  5
4DA
330
1F
100
AcDbEntity
  8
SK2
  6
CONTINUOUS
370
25
 62
7
100
AcDbLine
 10
25.76
 20
18.78772721475251
 30
0.0
 11
26.6247643456271
 21
17.92296286912542
 31
0.0
  0
LINE
  5
4DB
330
1F
100
AcDbEntity
  8
SK2
  6
CONTINUOUS
370
25
 62
7
100
AcDbLine
 10
25.76
 20
19.21199128346444
 30
0.0
 11
26.97831773622037
 21
17.99367354724408
 31
0.0
  0
LINE
  5
4DC
330
1F
100
AcDbEntity
  8
SK2
  6
CONTINUOUS
370
25
 62
7
100
AcDbLine
 10
25.76
 20
19.63625535217637
 30
0.0
 11
27.33187112681365
 21
18.06438422536273
 31
0.0
  0
LINE
  5
4DD
330
1F
100
AcDbEntity
  8
SK2
  6
CONTINUOUS
370
25
 62
7
100
AcDbLine
 10
26.14813677611037
 20
19.67238264477793
 30
0.0
 11
27.68542451740692
 21
18.13509490348138
 31
0.0
  0
LINE
  5
4DE
330
1F
100
AcDbEntity
  8
SK2
  6
CONTINUOUS
370
25
 62
7
100
AcDbLine
 10
26.67846686200029
 20
19.56631662759994
 30
0.0
 11
28.0389779080002
 21
18.20580558160004
 31
0.0
  0
LINE
  5
4DF
330
1F
100
AcDbEntity
  8
SK2
  6
CONTINUOUS
370
25
 62
7
100
AcDbLine
 10
27.2087969478902
 20
19.46025061042196
 30
0.0
 11
28.39253129859346
 21
18.27651625971869
 31
0.0
  0
LINE
  5
4E0
330
1F
100
AcDbEntity
  8
SK2
  6
CONTINUOUS
370
25
 62
7
100
AcDbLine
 10
27.73912703378011
 20
19.35418459324398
 30
0.0
 11
28.74608468918674
 21
18.34722693783735
 31
0.0
  0
LINE
  5
4E1
330
1F
100
AcDbEntity
  8
SK2
  6
CONTINUOUS
370
25
 62
7
100
AcDbLine
 10
28.26945711967003
 20
19.24811857606599
 30
0.0
 11
29.09963807978001
 21
18.41793761595601
 31
0.0
  0
LINE
  5
4E2
330
1F
100
AcDbEntity
  8
SK2
  6
CONTINUOUS
370
25
 62
7
100
AcDbLine
 10
28.79978720555994
 20
19.14205255888801
 30
0.0
 11
29.45319147037329
 21
18.48864829407466
 31
0.0
  0
LINE
  5
4E3
330
1F
100
AcDbEntity
  8
SK2
  6
CONTINUOUS
370
25
 62
7
100
AcDbLine
 10
29.33011729144986
 20
19.03598654171003
 30
0.0
 11
29.80674486096657
 21
18.55935897219332
 31
0.0
  0
LINE
  5
4E4
330
1F
100
AcDbEntity
  8
SK2
  6
CONTINUOUS
370
25
 62
7
100
AcDbLine
 10
29.86044737733976
 20
18.92992052453205
 30
0.0
 11
30.16029825155984
 21
18.63006965031197
 31
0.0
  0
LINE
  5
4E5
330
1F
100
AcDbEntity
  8
SK2
  6
CONTINUOUS
370
25
 62
7
100
AcDbLine
 10
30.39077746322968
 20
18.82385450735406
 30
0.0
 11
30.51385164215311
 21
18.70078032843063
 31
0.0
  0
TEXT
  5
4E6
330
1F
100
AcDbEntity
  8
SK2
  6
CONTINUOUS
370
25
 62
7
100
AcDbText
 10
-1.864999999999998
 20
19.75001
 30
0.0
 40
3.5
  1
60
 72
     1
 11
0.7600000000000016
 21
19.75001
 31
0.0
100
AcDbText
  0
LINE
  5
4E7
330
1F
100
AcDbEntity
  8
2
  6
CONTINUOUS
370
25
 62
7
100
AcDbLine
 10
-0.0000000000000001
 20
0.0
 30
0.0
 11
0.0000000000000007
 21
12.75001
 31
0.0
  0
LINE
  5
4E8
330
1F
100
AcDbEntity
  8
2
  6
CONTINUOUS
370
25
 62
7
100
AcDbLine
 10
30.76
 20
12.75001
 30
0.0
 11
30.76
 21
1.640000000000001
 31
0.0
  0
LINE
  5
4E9
330
1F
100
AcDbEntity
  8
2
  6
CONTINUOUS
370
25
 62
7
100
AcDbLine
 10
0.0
 20
11.75001
 30
0.0
 11
30.76
 21
11.75001
 31
0.0
  0
LINE
  5
4EA
330
1F
100
AcDbEntity
  8
2
  6
CONTINUOUS
370
25
 62
7
100
AcDbLine
 10
0.0
 20
11.75001
 30
0.0
 11
5.0
 21
12.75001
 31
0.0
  0
LINE
  5
4EB
330
1F
100
AcDbEntity
  8
2
  6
CONTINUOUS
370
25
 62
7
100
AcDbLine
 10
5.0
 20
12.75001
 30
0.0
 11
5.0
 21
10.75001
 31
0.0
  0
LINE
  5
4EC
330
1F
100
AcDbEntity
  8
2
  6
CONTINUOUS
370
25
 62
7
100
AcDbLine
 10
5.0
 20
10.75001
 30
0.0
 11
0.0
 21
11.75001
 31
0.0
  0
LINE
  5
4ED
330
1F
100
AcDbEntity
  8
2
  6
CONTINUOUS
370
25
 62
7
100
AcDbLine
 10
4.841927531694168
 20
10.78162449366117
 30
0.0
 11
5.0
 21
10.939696961967
 31
0.0
  0
LINE
  5
4EE
330
1F
100
AcDbEntity
  8
2
  6
CONTINUOUS
370
25
 62
7
100
AcDbLine
 10
4.488374141100896
 20
10.85233517177982
 30
0.0
 11
5.0
 21
11.36396103067892
 31
0.0
  0
LINE
  5
4EF
330
1F
100
AcDbEntity
  8
2
  6
CONTINUOUS
370
25
 62
7
100
AcDbLine
 10
4.134820750507623
 20
10.92304584989848
 30
0.0
 11
5.0
 21
11.78822509939085
 31
0.0
  0
LINE
  5
4F0
330
1F
100
AcDbEntity
  8
2
  6
CONTINUOUS
370
25
 62
7
100
AcDbLine
 10
3.781267359914349
 20
10.99375652801713
 30
0.0
 11
5.0
 21
12.21248916810278
 31
0.0
  0
LINE
  5
4F1
330
1F
100
AcDbEntity
  8
2
  6
CONTINUOUS
370
25
 62
7
100
AcDbLine
 10
3.427713969321076
 20
11.06446720613578
 30
0.0
 11
5.0
 21
12.63675323681471
 31
0.0
  0
LINE
  5
4F2
330
1F
100
AcDbEntity
  8
2
  6
CONTINUOUS
370
25
 62
7
100
AcDbLine
 10
3.074160578727803
 20
11.13517788425444
 30
0.0
 11
4.611240868091707
 21
12.67225817361834
 31
0.0
  0
LINE
  5
4F3
330
1F
100
AcDbEntity
  8
2
  6
CONTINUOUS
370
25
 62
7
100
AcDbLine
 10
2.72060718813453
 20
11.20588856237309
 30
0.0
 11
4.080910782201796
 21
12.56619215644036
 31
0.0
  0
LINE
  5
4F4
330
1F
100
AcDbEntity
  8
2
  6
CONTINUOUS
370
25
 62
7
100
AcDbLine
 10
2.367053797541256
 20
11.27659924049175
 30
0.0
 11
3.550580696311886
 21
12.46012613926238
 31
0.0
  0
LINE
  5
4F5
330
1F
100
AcDbEntity
  8
2
  6
CONTINUOUS
370
25
 62
7
100
AcDbLine
 10
2.013500406947983
 20
11.3473099186104
 30
0.0
 11
3.020250610421976
 21
12.35406012208439
 31
0.0
  0
LINE
  5
4F6
330
1F
100
AcDbEntity
  8
2
  6
CONTINUOUS
370
25
 62
7
100
AcDbLine
 10
1.659947016354708
 20
11.41802059672906
 30
0.0
 11
2.489920524532064
 21
12.24799410490641
 31
0.0
  0
LINE
  5
4F7
330
1F
100
AcDbEntity
  8
2
  6
CONTINUOUS
370
25
 62
7
100
AcDbLine
 10
1.306393625761437
 20
11.48873127484771
 30
0.0
 11
1.959590438642156
 21
12.14192808772843
 31
0.0
  0
LINE
  5
4F8
330
1F
100
AcDbEntity
  8
2
  6
CONTINUOUS
370
25
 62
7
100
AcDbLine
 10
0.952840235168162
 20
11.55944195296637
 30
0.0
 11
1.429260352752244
 21
12.03586207055045
 31
0.0
  0
LINE
  5
4F9
330
1F
100
AcDbEntity
  8
2
  6
CONTINUOUS
370
25
 62
7
100
AcDbLine
 10
0.5992868445748887
 20
11.63015263108502
 30
0.0
 11
0.8989302668623335
 21
11.92979605337247
 31
0.0
  0
LINE
  5
4FA
330
1F
100
AcDbEntity
  8
2
  6
CONTINUOUS
370
25
 62
7
100
AcDbLine
 10
0.2457334539816153
 20
11.70086330920368
 30
0.0
 11
0.3686001809724231
 21
11.82373003619449
 31
0.0
  0
LINE
  5
4FB
330
1F
100
AcDbEntity
  8
2
  6
CONTINUOUS
370
25
 62
7
100
AcDbLine
 10
0.1078199366116626
 20
11.77157398732233
 30
0.0
 11
0.1617299049174939
 21
11.7176640190165
 31
0.0
  0
LINE
  5
4FC
330
1F
100
AcDbEntity
  8
2
  6
CONTINUOUS
370
25
 62
7
100
AcDbLine
 10
0.4613733272049361
 20
11.84228466544099
 30
0.0
 11
0.6920599908074045
 21
11.61159800183852
 31
0.0
  0
LINE
  5
4FD
330
1F
100
AcDbEntity
  8
2
  6
CONTINUOUS
370
25
 62
7
100
AcDbLine
 10
0.8149267177982096
 20
11.91299534355964
 30
0.0
 11
1.222390076697315
 21
11.50553198466054
 31
0.0
  0
LINE
  5
4FE
330
1F
100
AcDbEntity
  8
2
  6
CONTINUOUS
370
25
 62
7
100
AcDbLine
 10
1.168480108391485
 20
11.9837060216783
 30
0.0
 11
1.752720162587228
 21
11.39946596748255
 31
0.0
  0
LINE
  5
4FF
330
1F
100
AcDbEntity
  8
2
  6
CONTINUOUS
370
25
 62
7
100
AcDbLine
 10
1.522033498984758
 20
12.05441669979695
 30
0.0
 11
2.283050248477139
 21
11.29339995030457
 31
0.0
  0
LINE
  5
500
330
1F
100
AcDbEntity
  8
2
  6
CONTINUOUS
370
25
 62
7
100
AcDbLine
 10
1.875586889578032
 20
12.12512737791561
 30
0.0
 11
2.813380334367049
 21
11.18733393312659
 31
0.0
  0
LINE
  5
501
330
1F
100
AcDbEntity
  8
2
  6
CONTINUOUS
370
25
 62
7
100
AcDbLine
 10
2.229140280171306
 20
12.19583805603426
 30
0.0
 11
3.343710420256961
 21
11.08126791594861
 31
0.0
  0
LINE
  5
502
330
1F
100
AcDbEntity
  8
2
  6
CONTINUOUS
370
25
 62
7
100
AcDbLine
 10
2.582693670764579
 20
12.26654873415291
 30
0.0
 11
3.874040506146871
 21
10.97520189877062
 31
0.0
  0
LINE
  5
503
330
1F
100
AcDbEntity
  8
2
  6
CONTINUOUS
370
25
 62
7
100
AcDbLine
 10
2.936247061357853
 20
12.33725941227157
 30
0.0
 11
4.404370592036782
 21
10.86913588159264
 31
0.0
  0
LINE
  5
504
330
1F
100
AcDbEntity
  8
2
  6
CONTINUOUS
370
25
 62
7
100
AcDbLine
 10
3.289800451951126
 20
12.40797009039023
 30
0.0
 11
4.934700677926695
 21
10.76306986441466
 31
0.0
  0
LINE
  5
505
330
1F
100
AcDbEntity
  8
2
  6
CONTINUOUS
370
25
 62
7
100
AcDbLine
 10
3.6433538425444
 20
12.47868076850888
 30
0.0
 11
5.0
 21
11.12203461105328
 31
0.0
  0
LINE
  5
506
330
1F
100
AcDbEntity
  8
2
  6
CONTINUOUS
370
25
 62
7
100
AcDbLine
 10
3.996907233137674
 20
12.54939144662753
 30
0.0
 11
5.0
 21
11.54629867976521
 31
0.0
  0
LINE
  5
507
330
1F
100
AcDbEntity
  8
2
  6
CONTINUOUS
370
25
 62
7
100
AcDbLine
 10
4.350460623730947
 20
12.62010212474619
 30
0.0
 11
5.0
 21
11.97056274847714
 31
0.0
  0
LINE
  5
508
330
1F
100
AcDbEntity
  8
2
  6
CONTINUOUS
370
25
 62
7
100
AcDbLine
 10
4.704014014324221
 20
12.69081280286484
 30
0.0
 11
5.0
 21
12.39482681718907
 31
0.0
  0
LINE
  5
509
330
1F
100
AcDbEntity
  8
2
  6
CONTINUOUS
370
25
 62
7
100
AcDbLine
 10
30.76
 20
11.75001
 30
0.0
 11
25.76
 21
10.75001
 31
0.0
  0
LINE
  5
50A
330
1F
100
AcDbEntity
  8
2
  6
CONTINUOUS
370
25
 62
7
100
AcDbLine
 10
25.76
 20
10.75001
 30
0.0
 11
25.76
 21
12.75001
 31
0.0
  0
LINE
  5
50B
330
1F
100
AcDbEntity
  8
2
  6
CONTINUOUS
370
25
 62
7
100
AcDbLine
 10
25.76
 20
12.75001
 30
0.0
 11
30.76
 21
11.75001
 31
0.0
  0
LINE
  5
50C
330
1F
100
AcDbEntity
  8
2
  6
CONTINUOUS
370
25
 62
7
100
AcDbLine
 10
30.63668602369556
 20
11.72534720473911
 30
0.0
 11
30.67779068246371
 21
11.76645186350726
 31
0.0
  0
LINE
  5
50D
330
1F
100
AcDbEntity
  8
2
  6
CONTINUOUS
370
25
 62
7
100
AcDbLine
 10
30.10635593780565
 20
11.61928118756113
 30
0.0
 11
30.32423729187043
 21
11.83716254162591
 31
0.0
  0
LINE
  5
50E
330
1F
100
AcDbEntity
  8
2
  6
CONTINUOUS
370
25
 62
7
100
AcDbLine
 10
29.57602585191573
 20
11.51321517038314
 30
0.0
 11
29.97068390127716
 21
11.90787321974457
 31
0.0
  0
LINE
  5
50F
330
1F
100
AcDbEntity
  8
2
  6
CONTINUOUS
370
25
 62
7
100
AcDbLine
 10
29.04569576602582
 20
11.40714915320516
 30
0.0
 11
29.61713051068388
 21
11.97858389786322
 31
0.0
  0
LINE
  5
510
330
1F
100
AcDbEntity
  8
2
  6
CONTINUOUS
370
25
 62
7
100
AcDbLine
 10
28.51536568013591
 20
11.30108313602718
 30
0.0
 11
29.26357712009061
 21
12.04929457598188
 31
0.0
  0
LINE
  5
511
330
1F
100
AcDbEntity
  8
2
  6
CONTINUOUS
370
25
 62
7
100
AcDbLine
 10
27.985035594246
 20
11.1950171188492
 30
0.0
 11
28.91002372949734
 21
12.12000525410054
 31
0.0
  0
LINE
  5
512
330
1F
100
AcDbEntity
  8
2
  6
CONTINUOUS
370
25
 62
7
100
AcDbLine
 10
27.45470550835609
 20
11.08895110167122
 30
0.0
 11
28.55647033890406
 21
12.19071593221919
 31
0.0
  0
LINE
  5
513
330
1F
100
AcDbEntity
  8
2
  6
CONTINUOUS
370
25
 62
7
100
AcDbLine
 10
26.92437542246618
 20
10.98288508449323
 30
0.0
 11
28.20291694831079
 21
12.26142661033784
 31
0.0
  0
LINE
  5
514
330
1F
100
AcDbEntity
  8
2
  6
CONTINUOUS
370
25
 62
7
100
AcDbLine
 10
26.39404533657627
 20
10.87681906731525
 30
0.0
 11
27.84936355771751
 21
12.3321372884565
 31
0.0
  0
LINE
  5
515
330
1F
100
AcDbEntity
  8
2
  6
CONTINUOUS
370
25
 62
7
100
AcDbLine
 10
25.86371525068636
 20
10.77075305013727
 30
0.0
 11
27.49581016712424
 21
12.40284796657515
 31
0.0
  0
LINE
  5
516
330
1F
100
AcDbEntity
  8
2
  6
CONTINUOUS
370
25
 62
7
100
AcDbLine
 10
25.76
 20
11.09130186816284
 30
0.0
 11
27.14225677653097
 21
12.47355864469381
 31
0.0
  0
LINE
  5
517
330
1F
100
AcDbEntity
  8
2
  6
CONTINUOUS
370
25
 62
7
100
AcDbLine
 10
25.76
 20
11.51556593687477
 30
0.0
 11
26.78870338593769
 21
12.54426932281246
 31
0.0
  0
LINE
  5
518
330
1F
100
AcDbEntity
  8
2
  6
CONTINUOUS
370
25
 62
7
100
AcDbLine
 10
25.76
 20
11.93983000558669
 30
0.0
 11
26.43514999534442
 21
12.61498000093112
 31
0.0
  0
LINE
  5
519
330
1F
100
AcDbEntity
  8
2
  6
CONTINUOUS
370
25
 62
7
100
AcDbLine
 10
25.76
 20
12.36409407429862
 30
0.0
 11
26.08159660475115
 21
12.68569067904977
 31
0.0
  0
LINE
  5
51A
330
1F
100
AcDbEntity
  8
2
  6
CONTINUOUS
370
25
 62
7
100
AcDbLine
 10
25.76
 20
11.15097397793782
 30
0.0
 11
26.09413664828152
 21
10.81683732965631
 31
0.0
  0
LINE
  5
51B
330
1F
100
AcDbEntity
  8
2
  6
CONTINUOUS
370
25
 62
7
100
AcDbLine
 10
25.76
 20
11.57523804664974
 30
0.0
 11
26.44769003887479
 21
10.88754800777496
 31
0.0
  0
LINE
  5
51C
330
1F
100
AcDbEntity
  8
2
  6
CONTINUOUS
370
25
 62
7
100
AcDbLine
 10
25.76
 20
11.99950211536168
 30
0.0
 11
26.80124342946806
 21
10.95825868589361
 31
0.0
  0
LINE
  5
51D
330
1F
100
AcDbEntity
  8
2
  6
CONTINUOUS
370
25
 62
7
100
AcDbLine
 10
25.76
 20
12.4237661840736
 30
0.0
 11
27.15479682006134
 21
11.02896936401227
 31
0.0
  0
LINE
  5
51E
330
1F
100
AcDbEntity
  8
2
  6
CONTINUOUS
370
25
 62
7
100
AcDbLine
 10
25.88252531598191
 20
12.72550493680362
 30
0.0
 11
27.50835021065462
 21
11.09968004213092
 31
0.0
  0
LINE
  5
51F
330
1F
100
AcDbEntity
  8
2
  6
CONTINUOUS
370
25
 62
7
100
AcDbLine
 10
26.41285540187182
 20
12.61943891962564
 30
0.0
 11
27.86190360124789
 21
11.17039072024957
 31
0.0
  0
LINE
  5
520
330
1F
100
AcDbEntity
  8
2
  6
CONTINUOUS
370
25
 62
7
100
AcDbLine
 10
26.94318548776174
 20
12.51337290244765
 30
0.0
 11
28.21545699184116
 21
11.24110139836823
 31
0.0
  0
LINE
  5
521
330
1F
100
AcDbEntity
  8
2
  6
CONTINUOUS
370
25
 62
7
100
AcDbLine
 10
27.47351557365165
 20
12.40730688526967
 30
0.0
 11
28.56901038243444
 21
11.31181207648688
 31
0.0
  0
LINE
  5
522
330
1F
100
AcDbEntity
  8
2
  6
CONTINUOUS
370
25
 62
7
100
AcDbLine
 10
28.00384565954156
 20
12.30124086809169
 30
0.0
 11
28.92256377302771
 21
11.38252275460554
 31
0.0
  0
LINE
  5
523
330
1F
100
AcDbEntity
  8
2
  6
CONTINUOUS
370
25
 62
7
100
AcDbLine
 10
28.53417574543148
 20
12.1951748509137
 30
0.0
 11
29.27611716362099
 21
11.4532334327242
 31
0.0
  0
LINE
  5
524
330
1F
100
AcDbEntity
  8
2
  6
CONTINUOUS
370
25
 62
7
100
AcDbLine
 10
29.06450583132139
 20
12.08910883373572
 30
0.0
 11
29.62967055421427
 21
11.52394411084285
 31
0.0
  0
LINE
  5
525
330
1F
100
AcDbEntity
  8
2
  6
CONTINUOUS
370
25
 62
7
100
AcDbLine
 10
29.59483591721131
 20
11.98304281655774
 30
0.0
 11
29.98322394480754
 21
11.59465478896151
 31
0.0
  0
LINE
  5
526
330
1F
100
AcDbEntity
  8
2
  6
CONTINUOUS
370
25
 62
7
100
AcDbLine
 10
30.12516600310123
 20
11.87697679937975
 30
0.0
 11
30.33677733540081
 21
11.66536546708017
 31
0.0
  0
LINE
  5
527
330
1F
100
AcDbEntity
  8
2
  6
CONTINUOUS
370
25
 62
7
100
AcDbLine
 10
30.65549608899114
 20
11.77091078220177
 30
0.0
 11
30.69033072599409
 21
11.73607614519882
 31
0.0
  0
TEXT
  5
528
330
1F
100
AcDbEntity
  8
2
  6
CONTINUOUS
370
25
 62
7
100
AcDbText
 10
8.671666666666667
 20
12.75001
 30
0.0
 40
3.5
  1
30.76
 72
     1
 11
15.38
 21
12.75001
 31
0.0
100
AcDbText
  0
LINE
  5
529
330
1F
100
AcDbEntity
  8
2
  6
CONTINUOUS
370
25
 62
7
100
AcDbLine
 10
2.76
 20
-1.64
 30
0.0
 11
2.759999999999999
 21
-12.75001
 31
0.0
  0
LINE
  5
52A
330
1F
100
AcDbEntity
  8
2
  6
CONTINUOUS
370
25
 62
7
100
AcDbLine
 10
30.76
 20
-12.75001
 30
0.0
 11
30.76
 21
-1.640000000000001
 31
0.0
  0
LINE
  5
52B
330
1F
100
AcDbEntity
  8
2
  6
CONTINUOUS
370
25
 62
7
100
AcDbLine
 10
2.759999999999999
 20
-11.75001
 30
0.0
 11
30.76
 21
-11.75001
 31
0.0
  0
LINE
  5
52C
330
1F
100
AcDbEntity
  8
2
  6
CONTINUOUS
370
25
 62
7
100
AcDbLine
 10
2.759999999999999
 20
-11.75001
 30
0.0
 11
7.759999999999999
 21
-10.75001
 31
0.0
  0
LINE
  5
52D
330
1F
100
AcDbEntity
  8
2
  6
CONTINUOUS
370
25
 62
7
100
AcDbLine
 10
7.759999999999999
 20
-10.75001
 30
0.0
 11
7.759999999999999
 21
-12.75001
 31
0.0
  0
LINE
  5
52E
330
1F
100
AcDbEntity
  8
2
  6
CONTINUOUS
370
25
 62
7
100
AcDbLine
 10
7.759999999999999
 20
-12.75001
 30
0.0
 11
2.759999999999999
 21
-11.75001
 31
0.0
  0
LINE
  5
52F
330
1F
100
AcDbEntity
  8
2
  6
CONTINUOUS
370
25
 62
7
100
AcDbLine
 10
7.614694073056939
 20
-12.72094881461139
 30
0.0
 11
7.759999999999999
 21
-12.57564288766833
 31
0.0
  0
LINE
  5
530
330
1F
100
AcDbEntity
  8
2
  6
CONTINUOUS
370
25
 62
7
100
AcDbLine
 10
7.261140682463665
 20
-12.65023813649274
 30
0.0
 11
7.759999999999999
 21
-12.1513788189564
 31
0.0
  0
LINE
  5
531
330
1F
100
AcDbEntity
  8
2
  6
CONTINUOUS
370
25
 62
7
100
AcDbLine
 10
6.907587291870392
 20
-12.57952745837408
 30
0.0
 11
7.759999999999999
 21
-11.72711475024447
 31
0.0
  0
LINE
  5
532
330
1F
100
AcDbEntity
  8
2
  6
CONTINUOUS
370
25
 62
7
100
AcDbLine
 10
6.554033901277121
 20
-12.50881678025542
 30
0.0
 11
7.759999999999999
 21
-11.30285068153255
 31
0.0
  0
LINE
  5
533
330
1F
100
AcDbEntity
  8
2
  6
CONTINUOUS
370
25
 62
7
100
AcDbLine
 10
6.200480510683848
 20
-12.43810610213677
 30
0.0
 11
7.759999999999999
 21
-10.87858661282062
 31
0.0
  0
LINE
  5
534
330
1F
100
AcDbEntity
  8
2
  6
CONTINUOUS
370
25
 62
7
100
AcDbLine
 10
5.846927120090574
 20
-12.36739542401812
 30
0.0
 11
7.390390680135864
 21
-10.82393186397283
 31
0.0
  0
LINE
  5
535
330
1F
100
AcDbEntity
  8
2
  6
CONTINUOUS
370
25
 62
7
100
AcDbLine
 10
5.493373729497299
 20
-12.29668474589946
 30
0.0
 11
6.860060594245952
 21
-10.92999788115081
 31
0.0
  0
LINE
  5
536
330
1F
100
AcDbEntity
  8
2
  6
CONTINUOUS
370
25
 62
7
100
AcDbLine
 10
5.139820338904026
 20
-12.2259740677808
 30
0.0
 11
6.329730508356042
 21
-11.03606389832879
 31
0.0
  0
LINE
  5
537
330
1F
100
AcDbEntity
  8
2
  6
CONTINUOUS
370
25
 62
7
100
AcDbLine
 10
4.786266948310753
 20
-12.15526338966215
 30
0.0
 11
5.799400422466132
 21
-11.14212991550677
 31
0.0
  0
LINE
  5
538
330
1F
100
AcDbEntity
  8
2
  6
CONTINUOUS
370
25
 62
7
100
AcDbLine
 10
4.432713557717479
 20
-12.0845527115435
 30
0.0
 11
5.269070336576221
 21
-11.24819593268476
 31
0.0
  0
LINE
  5
539
330
1F
100
AcDbEntity
  8
2
  6
CONTINUOUS
370
25
 62
7
100
AcDbLine
 10
4.079160167124206
 20
-12.01384203342484
 30
0.0
 11
4.738740250686312
 21
-11.35426194986274
 31
0.0
  0
LINE
  5
53A
330
1F
100
AcDbEntity
  8
2
  6
CONTINUOUS
370
25
 62
7
100
AcDbLine
 10
3.725606776530933
 20
-11.94313135530619
 30
0.0
 11
4.208410164796402
 21
-11.46032796704072
 31
0.0
  0
LINE
  5
53B
330
1F
100
AcDbEntity
  8
2
  6
CONTINUOUS
370
25
 62
7
100
AcDbLine
 10
3.37205338593766
 20
-11.87242067718753
 30
0.0
 11
3.678080078906492
 21
-11.5663939842187
 31
0.0
  0
LINE
  5
53C
330
1F
100
AcDbEntity
  8
2
  6
CONTINUOUS
370
25
 62
7
100
AcDbLine
 10
3.018499995344387
 20
-11.80170999906888
 30
0.0
 11
3.147749993016582
 21
-11.67246000139668
 31
0.0
  0
LINE
  5
53D
330
1F
100
AcDbEntity
  8
2
  6
CONTINUOUS
370
25
 62
7
100
AcDbLine
 10
3.060464667224366
 20
-11.68991706655513
 30
0.0
 11
3.210697000836551
 21
-11.84014940016731
 31
0.0
  0
LINE
  5
53E
330
1F
100
AcDbEntity
  8
2
  6
CONTINUOUS
370
25
 62
7
100
AcDbLine
 10
3.414018057817641
 20
-11.61920638843647
 30
0.0
 11
3.741027086726463
 21
-11.94621541734529
 31
0.0
  0
LINE
  5
53F
330
1F
100
AcDbEntity
  8
2
  6
CONTINUOUS
370
25
 62
7
100
AcDbLine
 10
3.767571448410914
 20
-11.54849571031782
 30
0.0
 11
4.271357172616373
 21
-12.05228143452327
 31
0.0
  0
LINE
  5
540
330
1F
100
AcDbEntity
  8
2
  6
CONTINUOUS
370
25
 62
7
100
AcDbLine
 10
4.121124839004187
 20
-11.47778503219916
 30
0.0
 11
4.801687258506282
 21
-12.15834745170126
 31
0.0
  0
LINE
  5
541
330
1F
100
AcDbEntity
  8
2
  6
CONTINUOUS
370
25
 62
7
100
AcDbLine
 10
4.474678229597462
 20
-11.40707435408051
 30
0.0
 11
5.332017344396195
 21
-12.26441346887924
 31
0.0
  0
LINE
  5
542
330
1F
100
AcDbEntity
  8
2
  6
CONTINUOUS
370
25
 62
7
100
AcDbLine
 10
4.828231620190735
 20
-11.33636367596185
 30
0.0
 11
5.862347430286104
 21
-12.37047948605722
 31
0.0
  0
LINE
  5
543
330
1F
100
AcDbEntity
  8
2
  6
CONTINUOUS
370
25
 62
7
100
AcDbLine
 10
5.181785010784008
 20
-11.2656529978432
 30
0.0
 11
6.392677516176013
 21
-12.4765455032352
 31
0.0
  0
LINE
  5
544
330
1F
100
AcDbEntity
  8
2
  6
CONTINUOUS
370
25
 62
7
100
AcDbLine
 10
5.535338401377282
 20
-11.19494231972454
 30
0.0
 11
6.923007602065923
 21
-12.58261152041318
 31
0.0
  0
LINE
  5
545
330
1F
100
AcDbEntity
  8
2
  6
CONTINUOUS
370
25
 62
7
100
AcDbLine
 10
5.888891791970556
 20
-11.12423164160589
 30
0.0
 11
7.453337687955834
 21
-12.68867753759117
 31
0.0
  0
LINE
  5
546
330
1F
100
AcDbEntity
  8
2
  6
CONTINUOUS
370
25
 62
7
100
AcDbLine
 10
6.24244518256383
 20
-11.05352096348723
 30
0.0
 11
7.759999999999999
 21
-12.5710757809234
 31
0.0
  0
LINE
  5
547
330
1F
100
AcDbEntity
  8
2
  6
CONTINUOUS
370
25
 62
7
100
AcDbLine
 10
6.595998573157103
 20
-10.98281028536858
 30
0.0
 11
7.759999999999999
 21
-12.14681171221148
 31
0.0
  0
LINE
  5
548
330
1F
100
AcDbEntity
  8
2
  6
CONTINUOUS
370
25
 62
7
100
AcDbLine
 10
6.949551963750377
 20
-10.91209960724992
 30
0.0
 11
7.759999999999999
 21
-11.72254764349955
 31
0.0
  0
LINE
  5
549
330
1F
100
AcDbEntity
  8
2
  6
CONTINUOUS
370
25
 62
7
100
AcDbLine
 10
7.30310535434365
 20
-10.84138892913127
 30
0.0
 11
7.759999999999999
 21
-11.29828357478762
 31
0.0
  0
LINE
  5
54A
330
1F
100
AcDbEntity
  8
2
  6
CONTINUOUS
370
25
 62
7
100
AcDbLine
 10
7.656658744936923
 20
-10.77067825101262
 30
0.0
 11
7.759999999999999
 21
-10.87401950607569
 31
0.0
  0
LINE
  5
54B
330
1F
100
AcDbEntity
  8
2
  6
CONTINUOUS
370
25
 62
7
100
AcDbLine
 10
30.76
 20
-11.75001
 30
0.0
 11
25.76
 21
-12.75001
 31
0.0
  0
LINE
  5
54C
330
1F
100
AcDbEntity
  8
2
  6
CONTINUOUS
370
25
 62
7
100
AcDbLine
 10
25.76
 20
-12.75001
 30
0.0
 11
25.76
 21
-10.75001
 31
0.0
  0
LINE
  5
54D
330
1F
100
AcDbEntity
  8
2
  6
CONTINUOUS
370
25
 62
7
100
AcDbLine
 10
25.76
 20
-10.75001
 30
0.0
 11
30.76
 21
-11.75001
 31
0.0
  0
LINE
  5
54E
330
1F
100
AcDbEntity
  8
2
  6
CONTINUOUS
370
25
 62
7
100
AcDbLine
 10
30.3132262138605
 20
-11.8393647572279
 30
0.0
 11
30.46215080924034
 21
-11.69044016184807
 31
0.0
  0
LINE
  5
54F
330
1F
100
AcDbEntity
  8
2
  6
CONTINUOUS
370
25
 62
7
100
AcDbLine
 10
29.78289612797059
 20
-11.94543077440589
 30
0.0
 11
30.10859741864706
 21
-11.61972948372942
 31
0.0
  0
LINE
  5
550
330
1F
100
AcDbEntity
  8
2
  6
CONTINUOUS
370
25
 62
7
100
AcDbLine
 10
29.25256604208068
 20
-12.05149679158387
 30
0.0
 11
29.75504402805379
 21
-11.54901880561076
 31
0.0
  0
LINE
  5
551
330
1F
100
AcDbEntity
  8
2
  6
CONTINUOUS
370
25
 62
7
100
AcDbLine
 10
28.72223595619078
 20
-12.15756280876185
 30
0.0
 11
29.40149063746052
 21
-11.47830812749211
 31
0.0
  0
LINE
  5
552
330
1F
100
AcDbEntity
  8
2
  6
CONTINUOUS
370
25
 62
7
100
AcDbLine
 10
28.19190587030086
 20
-12.26362882593983
 30
0.0
 11
29.04793724686724
 21
-11.40759744937345
 31
0.0
  0
LINE
  5
553
330
1F
100
AcDbEntity
  8
2
  6
CONTINUOUS
370
25
 62
7
100
AcDbLine
 10
27.66157578441096
 20
-12.36969484311781
 30
0.0
 11
28.69438385627397
 21
-11.33688677125479
 31
0.0
  0
LINE
  5
554
330
1F
100
AcDbEntity
  8
2
  6
CONTINUOUS
370
25
 62
7
100
AcDbLine
 10
27.13124569852105
 20
-12.47576086029579
 30
0.0
 11
28.34083046568069
 21
-11.26617609313614
 31
0.0
  0
LINE
  5
555
330
1F
100
AcDbEntity
  8
2
  6
CONTINUOUS
370
25
 62
7
100
AcDbLine
 10
26.60091561263114
 20
-12.58182687747377
 30
0.0
 11
27.98727707508742
 21
-11.19546541501748
 31
0.0
  0
LINE
  5
556
330
1F
100
AcDbEntity
  8
2
  6
CONTINUOUS
370
25
 62
7
100
AcDbLine
 10
26.07058552674123
 20
-12.68789289465176
 30
0.0
 11
27.63372368449415
 21
-11.12475473689883
 31
0.0
  0
LINE
  5
557
330
1F
100
AcDbEntity
  8
2
  6
CONTINUOUS
370
25
 62
7
100
AcDbLine
 10
25.76
 20
-12.57421435268106
 30
0.0
 11
27.28017029390087
 21
-11.05404405878017
 31
0.0
  0
LINE
  5
558
330
1F
100
AcDbEntity
  8
2
  6
CONTINUOUS
370
25
 62
7
100
AcDbLine
 10
25.76
 20
-12.14995028396913
 30
0.0
 11
26.9266169033076
 21
-10.98333338066152
 31
0.0
  0
LINE
  5
559
330
1F
100
AcDbEntity
  8
2
  6
CONTINUOUS
370
25
 62
7
100
AcDbLine
 10
25.76
 20
-11.7256862152572
 30
0.0
 11
26.57306351271433
 21
-10.91262270254286
 31
0.0
  0
LINE
  5
55A
330
1F
100
AcDbEntity
  8
2
  6
CONTINUOUS
370
25
 62
7
100
AcDbLine
 10
25.76
 20
-11.30142214654527
 30
0.0
 11
26.21951012212105
 21
-10.84191202442421
 31
0.0
  0
LINE
  5
55B
330
1F
100
AcDbEntity
  8
2
  6
CONTINUOUS
370
25
 62
7
100
AcDbLine
 10
25.76
 20
-10.87715807783334
 30
0.0
 11
25.86595673152778
 21
-10.77120134630556
 31
0.0
  0
LINE
  5
55C
330
1F
100
AcDbEntity
  8
2
  6
CONTINUOUS
370
25
 62
7
100
AcDbLine
 10
25.76
 20
-12.60781386993012
 30
0.0
 11
25.87849677505823
 21
-12.72631064498836
 31
0.0
  0
LINE
  5
55D
330
1F
100
AcDbEntity
  8
2
  6
CONTINUOUS
370
25
 62
7
100
AcDbLine
 10
25.76
 20
-12.1835498012182
 30
0.0
 11
26.2320501656515
 21
-12.6555999668697
 31
0.0
  0
LINE
  5
55E
330
1F
100
AcDbEntity
  8
2
  6
CONTINUOUS
370
25
 62
7
100
AcDbLine
 10
25.76
 20
-11.75928573250627
 30
0.0
 11
26.58560355624478
 21
-12.58488928875104
 31
0.0
  0
LINE
  5
55F
330
1F
100
AcDbEntity
  8
2
  6
CONTINUOUS
370
25
 62
7
100
AcDbLine
 10
25.76
 20
-11.33502166379434
 30
0.0
 11
26.93915694683805
 21
-12.51417861063239
 31
0.0
  0
LINE
  5
560
330
1F
100
AcDbEntity
  8
2
  6
CONTINUOUS
370
25
 62
7
100
AcDbLine
 10
25.76
 20
-10.91075759508241
 30
0.0
 11
27.29271033743132
 21
-12.44346793251373
 31
0.0
  0
LINE
  5
561
330
1F
100
AcDbEntity
  8
2
  6
CONTINUOUS
370
25
 62
7
100
AcDbLine
 10
26.0893955920369
 20
-10.81588911840738
 30
0.0
 11
27.6462637280246
 21
-12.37275725439508
 31
0.0
  0
LINE
  5
562
330
1F
100
AcDbEntity
  8
2
  6
CONTINUOUS
370
25
 62
7
100
AcDbLine
 10
26.61972567792681
 20
-10.92195513558536
 30
0.0
 11
27.99981711861788
 21
-12.30204657627643
 31
0.0
  0
LINE
  5
563
330
1F
100
AcDbEntity
  8
2
  6
CONTINUOUS
370
25
 62
7
100
AcDbLine
 10
27.15005576381672
 20
-11.02802115276334
 30
0.0
 11
28.35337050921115
 21
-12.23133589815777
 31
0.0
  0
LINE
  5
564
330
1F
100
AcDbEntity
  8
2
  6
CONTINUOUS
370
25
 62
7
100
AcDbLine
 10
27.68038584970663
 20
-11.13408716994132
 30
0.0
 11
28.70692389980443
 21
-12.16062522003912
 31
0.0
  0
LINE
  5
565
330
1F
100
AcDbEntity
  8
2
  6
CONTINUOUS
370
25
 62
7
100
AcDbLine
 10
28.21071593559655
 20
-11.24015318711931
 30
0.0
 11
29.0604772903977
 21
-12.08991454192046
 31
0.0
  0
LINE
  5
566
330
1F
100
AcDbEntity
  8
2
  6
CONTINUOUS
370
25
 62
7
100
AcDbLine
 10
28.74104602148646
 20
-11.34621920429729
 30
0.0
 11
29.41403068099098
 21
-12.01920386380181
 31
0.0
  0
LINE
  5
567
330
1F
100
AcDbEntity
  8
2
  6
CONTINUOUS
370
25
 62
7
100
AcDbLine
 10
29.27137610737638
 20
-11.45228522147528
 30
0.0
 11
29.76758407158425
 21
-11.94849318568315
 31
0.0
  0
LINE
  5
568
330
1F
100
AcDbEntity
  8
2
  6
CONTINUOUS
370
25
 62
7
100
AcDbLine
 10
29.80170619326629
 20
-11.55835123865326
 30
0.0
 11
30.12113746217753
 21
-11.87778250756449
 31
0.0
  0
LINE
  5
569
330
1F
100
AcDbEntity
  8
2
  6
CONTINUOUS
370
25
 62
7
100
AcDbLine
 10
30.33203627915621
 20
-11.66441725583124
 30
0.0
 11
30.47469085277081
 21
-11.80707182944584
 31
0.0
  0
TEXT
  5
56A
330
1F
100
AcDbEntity
  8
2
  6
CONTINUOUS
370
25
 62
7
100
AcDbText
 10
13.84333333333333
 20
-10.75001
 30
0.0
 40
3.5
  1
28
 72
     1
 11
16.76
 21
-10.75001
 31
0.0
100
AcDbText
  0
LINE
  5
56B
330
1F
100
AcDbEntity
  8
4
  6
LONGDASH_DASH
370
25
 62
2
100
AcDbLine
 10
0.0
 20
0.0
 30
0.0
 11
30.76
 21
0.0
 31
0.0
  0
LINE
  5
56C
330
1F
100
AcDbEntity
  8
SK4
  6
LONGDASH_DASH
370
25
 62
2
100
AcDbLine
 10
-34.24
 20
0.0
 30
0.0
 11
35.76
 21
0.0
 31
0.0
  0
LINE
  5
56D
330
1F
100
AcDbEntity
  8
INFTOTAL
  6
CONTINUOUS
370
18
 62
9
100
AcDbLine
 10
-58.564011
 20
-28.325011
 30
0.0
 11
52.536011
 21
-28.325011
 31
0.0
  0
LINE
  5
56E
330
1F
100
AcDbEntity
  8
INFTOTAL
  6
CONTINUOUS
370
18
 62
9
100
AcDbLine
 10
52.536011
 20
-28.325011
 30
0.0
 11
52.536011
 21
28.325011
 31
0.0
  0
LINE
  5
56F
330
1F
100
AcDbEntity
  8
INFTOTAL
  6
CONTINUOUS
370
18
 62
9
100
AcDbLine
 10
52.536011
 20
28.325011
 30
0.0
 11
-58.56401099999999
 21
28.325011
 31
0.0
  0
LINE
  5
570
330
1F
100
AcDbEntity
  8
INFTOTAL
  6
CONTINUOUS
370
18
 62
9
100
AcDbLine
 10
-58.56401099999999
 20
28.325011
 30
0.0
 11
-58.56401099999999
 21
-28.325011
 31
0.0
  0
ARC
  5
571
330
1F
100
AcDbEntity
  8
SK6
  6
CONTINUOUS
370
25
 62
5
100
AcDbCircle
 10
62.28139100837651
 20
-25.84525475338786
 30
0.0
 40
2.760489128492204
100
AcDbArc
 50
338.9379403434233
 51
90.44457437511379
  0
LINE
  5
572
330
1F
100
AcDbEntity
  8
SK6
  6
CONTINUOUS
370
25
 62
5
100
AcDbLine
 10
62.25997179695983
 20
-23.08484872421281
 30
0.0
 11
62.25997179695983
 21
-24.18790735613463
 31
0.0
  0
ARC
  5
573
330
1F
100
AcDbEntity
  8
SK6
  6
CONTINUOUS
370
25
 62
5
100
AcDbCircle
 10
62.27051802936916
 20
-25.86524824566821
 30
0.0
 40
1.677374043771782
100
AcDbArc
 50
243.4214706017866
 51
90.36024081226083
  0
ARC
  5
574
330
1F
100
AcDbEntity
  8
SK6
  6
CONTINUOUS
370
25
 62
5
100
AcDbCircle
 10
64.79276889684958
 20
-25.43384099215561
 30
0.0
 40
3.800217030022754
100
AcDbArc
 50
210.5483731288539
 51
236.97801693668
  0
LINE
  5
575
330
1F
100
AcDbEntity
  8
SK6
  6
CONTINUOUS
370
25
 62
5
100
AcDbLine
 10
62.72179968512486
 20
-28.62017681867535
 30
0.0
 11
66.86373996742671
 21
-28.62017681867535
 31
0.0
  0
ARC
  5
576
330
1F
100
AcDbEntity
  8
SK6
  6
CONTINUOUS
370
25
 62
5
100
AcDbCircle
 10
64.79277083877257
 20
-25.4338410937346
 30
0.0
 40
3.800216899582472
100
AcDbArc
 50
303.0219828477959
 51
326.3732153033476
  0
LINE
  5
577
330
1F
100
AcDbEntity
  8
SK6
  6
CONTINUOUS
370
25
 62
5
100
AcDbLine
 10
67.95706875135721
 20
-27.5383284907709
 30
0.0
 11
64.59977070575462
 21
-27.5383284907709
 31
0.0
  0
LINE
  5
578
330
1F
100
AcDbEntity
  8
SK6
  6
CONTINUOUS
370
25
 62
5
100
AcDbLine
 10
64.59977070575462
 20
-27.5383284907709
 30
0.0
 11
68.51963009771987
 21
-26.17692729641694
 31
0.0
  0
ARC
  5
579
330
1F
100
AcDbEntity
  8
SK6
  6
CONTINUOUS
370
25
 62
5
100
AcDbCircle
 10
64.7927715615721
 20
-25.4338416048594
 30
0.0
 40
3.800217216614737
100
AcDbArc
 50
348.7238644184696
 51
53.46910512608813
  0
LINE
  5
57A
330
1F
100
AcDbEntity
  8
SK6
  6
CONTINUOUS
370
25
 62
5
100
AcDbLine
 10
67.05487424538546
 20
-22.38023024429967
 30
0.0
 11
64.85745947882737
 21
-26.83731873507057
 31
0.0
  0
ENDSEC
  0
SECTION
  2
OBJECTS
  0
DICTIONARY
  5
C
330
0
100
AcDbDictionary
281
     1
  3
ACAD_GROUP
350
D
  3
ACAD_LAYOUT
350
1A
  3
ACAD_MATERIAL
350
3B
  3
ACAD_MLEADERSTYLE
350
57D
  3
ACAD_MLINESTYLE
350
17
  3
ACAD_PLOTSETTINGS
350
19
  3
ACAD_PLOTSTYLENAME
350
E
  3
ACAD_SCALELIST
350
120
  3
ACAD_VISUALSTYLE
350
2A
  3
AcDbVariableDictionary
350
57B
  0
DICTIONARY
  5
D
102
{ACAD_REACTORS
330
C
102
}
330
C
100
AcDbDictionary
281
     1
  0
DICTIONARY
  5
1A
102
{ACAD_REACTORS
330
C
102
}
330
C
100
AcDbDictionary
281
     1
  3
Layout1
350
1E
  3
Layout2
350
26
  3
Model
350
22
  0
DICTIONARY
  5
3B
102
{ACAD_REACTORS
330
C
102
}
330
C
100
AcDbDictionary
281
     1
  3
ByBlock
350
3D
  3
ByLayer
350
3C
  3
Global
350
3E
  0
DICTIONARY
  5
57D
102
{ACAD_REACTORS
330
C
102
}
330
C
100
AcDbDictionary
281
     1
  0
DICTIONARY
  5
17
102
{ACAD_REACTORS
330
C
102
}
330
C
100
AcDbDictionary
281
     1
  3
Standard
350
18
  0
DICTIONARY
  5
19
102
{ACAD_REACTORS
330
C
102
}
330
C
100
AcDbDictionary
281
     1
  0
ACDBDICTIONARYWDFLT
  5
E
102
{ACAD_REACTORS
330
C
102
}
330
C
100
AcDbDictionary
281
     1
  3
Normal
350
F
100
AcDbDictionaryWithDefault
340
F
  0
DICTIONARY
  5
120
102
{ACAD_REACTORS
330
C
102
}
330
C
100
AcDbDictionary
281
     1
  3
A0
350
121
  3
A1
350
122
  3
A2
350
123
  3
A3
350
124
  3
A4
350
125
  3
A5
350
126
  3
A6
350
127
  3
A7
350
128
  3
A8
350
129
  3
A9
350
12A
  3
B0
350
12B
  3
B1
350
12C
  3
B2
350
12D
  3
B3
350
12E
  3
B4
350
12F
  3
B5
350
130
  3
B6
350
131
  3
B7
350
132
  3
B8
350
133
  3
B9
350
134
  3
C0
350
135
  3
C1
350
136
  3
C2
350
137
  3
C3
350
138
  3
C4
350
139
  3
C5
350
13A
  3
C6
350
13B
  3
C7
350
13C
  3
C8
350
13D
  3
C9
350
13E
  3
D0
350
13F
  3
D1
350
140
  3
D2
350
141
  0
DICTIONARY
  5
2A
102
{ACAD_REACTORS
330
C
102
}
330
C
100
AcDbDictionary
281
     1
  3
2dWireframe
350
2F
  3
3D Hidden
350
31
  3
3dWireframe
350
30
  3
Basic
350
32
  3
Brighten
350
36
  3
ColorChange
350
3A
  3
Conceptual
350
34
  3
Dim
350
35
  3
Facepattern
350
39
  3
Flat
350
2B
  3
FlatWithEdges
350
2C
  3
Gouraud
350
2D
  3
GouraudWithEdges
350
2E
  3
Linepattern
350
38
  3
Realistic
350
33
  3
Thicken
350
37
  0
DICTIONARY
  5
57B
102
{ACAD_REACTORS
330
C
102
}
330
C
100
AcDbDictionary
281
     1
  3
CANNOSCALE
350
580
  3
DIMASSOC
350
581
  3
HIDETEXT
350
582
  3
PSOLHEIGHT
350
57F
  3
PSOLWIDTH
350
57E
  0
LAYOUT
  5
1E
102
{ACAD_REACTORS
330
1A
102
}
330
1A
100
AcDbPlotSettings
  1

  2
none_device
  4

  6

 40
0.0
 41
0.0
 42
0.0
 43
0.0
 44
0.0
 45
0.0
 46
0.0
 47
0.0
 48
0.0
 49
0.0
140
0.0
141
0.0
142
1.0
143
1.0
 70
   688
 72
     0
 73
     0
 74
     5
  7

 75
    16
147
1.0
148
0.0
149
0.0
100
AcDbLayout
  1
Layout1
 70
     1
 71
     1
 10
0.0
 20
0.0
 11
420.0
 21
297.0
 12
0.0
 22
0.0
 32
0.0
 14
1.000000000000000E+20
 24
1.000000000000000E+20
 34
1.000000000000000E+20
 15
-1.000000000000000E+20
 25
-1.000000000000000E+20
 35
-1.000000000000000E+20
146
0.0
 13
0.0
 23
0.0
 33
0.0
 16
1.0
 26
0.0
 36
0.0
 17
0.0
 27
1.0
 37
0.0
 76
     0
330
1B
  0
LAYOUT
  5
26
102
{ACAD_REACTORS
330
1A
102
}
330
1A
100
AcDbPlotSettings
  1

  2
none_device
  4

  6

 40
0.0
 41
0.0
 42
0.0
 43
0.0
 44
0.0
 45
0.0
 46
0.0
 47
0.0
 48
0.0
 49
0.0
140
0.0
141
0.0
142
1.0
143
1.0
 70
   688
 72
     0
 73
     0
 74
     5
  7

 75
    16
147
1.0
148
0.0
149
0.0
100
AcDbLayout
  1
Layout2
 70
     1
 71
     2
 10
0.0
 20
0.0
 11
0.0
 21
0.0
 12
0.0
 22
0.0
 32
0.0
 14
0.0
 24
0.0
 34
0.0
 15
0.0
 25
0.0
 35
0.0
146
0.0
 13
0.0
 23
0.0
 33
0.0
 16
1.0
 26
0.0
 36
0.0
 17
0.0
 27
1.0
 37
0.0
 76
     0
330
23
  0
LAYOUT
  5
22
102
{ACAD_REACTORS
330
1A
102
}
330
1A
100
AcDbPlotSettings
  1

  2
none_device
  4

  6

 40
0.0
 41
0.0
 42
0.0
 43
0.0
 44
0.0
 45
0.0
 46
0.0
 47
0.0
 48
0.0
 49
0.0
140
0.0
141
0.0
142
1.0
143
1.0
 70
  1712
 72
     0
 73
     0
 74
     0
  7

 75
     0
147
1.0
148
0.0
149
0.0
100
AcDbLayout
  1
Model
 70
     1
 71
     0
 10
0.0
 20
0.0
 11
420.0
 21
297.0
 12
0.0
 22
0.0
 32
0.0
 14
0.0
 24
0.0
 34
0.0
 15
25.0
 25
35.0
 35
0.0
146
0.0
 13
0.0
 23
0.0
 33
0.0
 16
1.0
 26
0.0
 36
0.0
 17
0.0
 27
1.0
 37
0.0
 76
     0
330
1F
331
29
  0
MATERIAL
  5
3D
102
{ACAD_REACTORS
330
3B
102
}
102
{ACAD_XDICTIONARY
360
5A5
102
}
330
3B
100
AcDbMaterial
  1
ByBlock
  0
MATERIAL
  5
3C
102
{ACAD_REACTORS
330
3B
102
}
102
{ACAD_XDICTIONARY
360
5A3
102
}
330
3B
100
AcDbMaterial
  1
ByLayer
  0
MATERIAL
  5
3E
102
{ACAD_REACTORS
330
3B
102
}
102
{ACAD_XDICTIONARY
360
5A7
102
}
330
3B
100
AcDbMaterial
  1
Global
  0
MLINESTYLE
  5
18
102
{ACAD_REACTORS
330
17
102
}
330
17
100
AcDbMlineStyle
  2
Standard
 70
     0
  3

 62
   256
 51
90.0
 52
90.0
 71
     2
 49
0.5
 62
   256
  6
BYLAYER
 49
-0.5
 62
   256
  6
BYLAYER
  0
ACDBPLACEHOLDER
  5
F
102
{ACAD_REACTORS
330
E
102
}
330
E
  0
SCALE
  5
121
102
{ACAD_REACTORS
330
120
102
}
330
120
100
AcDbScale
 70
     0
300
1:1
140
1.0
141
1.0
290
     1
  0
SCALE
  5
122
102
{ACAD_REACTORS
330
120
102
}
330
120
100
AcDbScale
 70
     0
300
1:2
140
1.0
141
2.0
290
     0
  0
SCALE
  5
123
102
{ACAD_REACTORS
330
120
102
}
330
120
100
AcDbScale
 70
     0
300
1:4
140
1.0
141
4.0
290
     0
  0
SCALE
  5
124
102
{ACAD_REACTORS
330
120
102
}
330
120
100
AcDbScale
 70
     0
300
1:5
140
1.0
141
5.0
290
     0
  0
SCALE
  5
125
102
{ACAD_REACTORS
330
120
102
}
330
120
100
AcDbScale
 70
     0
300
1:8
140
1.0
141
8.0
290
     0
  0
SCALE
  5
126
102
{ACAD_REACTORS
330
120
102
}
330
120
100
AcDbScale
 70
     0
300
1:10
140
1.0
141
10.0
290
     0
  0
SCALE
  5
127
102
{ACAD_REACTORS
330
120
102
}
330
120
100
AcDbScale
 70
     0
300
1:16
140
1.0
141
16.0
290
     0
  0
SCALE
  5
128
102
{ACAD_REACTORS
330
120
102
}
330
120
100
AcDbScale
 70
     0
300
1:20
140
1.0
141
20.0
290
     0
  0
SCALE
  5
129
102
{ACAD_REACTORS
330
120
102
}
330
120
100
AcDbScale
 70
     0
300
1:30
140
1.0
141
30.0
290
     0
  0
SCALE
  5
12A
102
{ACAD_REACTORS
330
120
102
}
330
120
100
AcDbScale
 70
     0
300
1:40
140
1.0
141
40.0
290
     0
  0
SCALE
  5
12B
102
{ACAD_REACTORS
330
120
102
}
330
120
100
AcDbScale
 70
     0
300
1:50
140
1.0
141
50.0
290
     0
  0
SCALE
  5
12C
102
{ACAD_REACTORS
330
120
102
}
330
120
100
AcDbScale
 70
     0
300
1:100
140
1.0
141
100.0
290
     0
  0
SCALE
  5
12D
102
{ACAD_REACTORS
330
120
102
}
330
120
100
AcDbScale
 70
     0
300
2:1
140
2.0
141
1.0
290
     0
  0
SCALE
  5
12E
102
{ACAD_REACTORS
330
120
102
}
330
120
100
AcDbScale
 70
     0
300
4:1
140
4.0
141
1.0
290
     0
  0
SCALE
  5
12F
102
{ACAD_REACTORS
330
120
102
}
330
120
100
AcDbScale
 70
     0
300
8:1
140
8.0
141
1.0
290
     0
  0
SCALE
  5
130
102
{ACAD_REACTORS
330
120
102
}
330
120
100
AcDbScale
 70
     0
300
10:1
140
10.0
141
1.0
290
     0
  0
SCALE
  5
131
102
{ACAD_REACTORS
330
120
102
}
330
120
100
AcDbScale
 70
     0
300
100:1
140
100.0
141
1.0
290
     0
  0
SCALE
  5
132
102
{ACAD_REACTORS
330
120
102
}
330
120
100
AcDbScale
 70
     0
300
1/128" = 1'-0"
140
0.0078125
141
12.0
290
     0
  0
SCALE
  5
133
102
{ACAD_REACTORS
330
120
102
}
330
120
100
AcDbScale
 70
     0
300
1/64" = 1'-0"
140
0.015625
141
12.0
290
     0
  0
SCALE
  5
134
102
{ACAD_REACTORS
330
120
102
}
330
120
100
AcDbScale
 70
     0
300
1/32" = 1'-0"
140
0.03125
141
12.0
290
     0
  0
SCALE
  5
135
102
{ACAD_REACTORS
330
120
102
}
330
120
100
AcDbScale
 70
     0
300
1/16" = 1'-0"
140
0.0625
141
12.0
290
     0
  0
SCALE
  5
136
102
{ACAD_REACTORS
330
120
102
}
330
120
100
AcDbScale
 70
     0
300
3/32" = 1'-0"
140
0.09375
141
12.0
290
     0
  0
SCALE
  5
137
102
{ACAD_REACTORS
330
120
102
}
330
120
100
AcDbScale
 70
     0
300
1/8" = 1'-0"
140
0.125
141
12.0
290
     0
  0
SCALE
  5
138
102
{ACAD_REACTORS
330
120
102
}
330
120
100
AcDbScale
 70
     0
300
3/16" = 1'-0"
140
0.1875
141
12.0
290
     0
  0
SCALE
  5
139
102
{ACAD_REACTORS
330
120
102
}
330
120
100
AcDbScale
 70
     0
300
1/4" = 1'-0"
140
0.25
141
12.0
290
     0
  0
SCALE
  5
13A
102
{ACAD_REACTORS
330
120
102
}
330
120
100
AcDbScale
 70
     0
300
3/8" = 1'-0"
140
0.375
141
12.0
290
     0
  0
SCALE
  5
13B
102
{ACAD_REACTORS
330
120
102
}
330
120
100
AcDbScale
 70
     0
300
1/2" = 1'-0"
140
0.5
141
12.0
290
     0
  0
SCALE
  5
13C
102
{ACAD_REACTORS
330
120
102
}
330
120
100
AcDbScale
 70
     0
300
3/4" = 1'-0"
140
0.75
141
12.0
290
     0
  0
SCALE
  5
13D
102
{ACAD_REACTORS
330
120
102
}
330
120
100
AcDbScale
 70
     0
300
1" = 1'-0"
140
1.0
141
12.0
290
     0
  0
SCALE
  5
13E
102
{ACAD_REACTORS
330
120
102
}
330
120
100
AcDbScale
 70
     0
300
1-1/2" = 1'-0"
140
1.5
141
12.0
290
     0
  0
SCALE
  5
13F
102
{ACAD_REACTORS
330
120
102
}
330
120
100
AcDbScale
 70
     0
300
3" = 1'-0"
140
3.0
141
12.0
290
     0
  0
SCALE
  5
140
102
{ACAD_REACTORS
330
120
102
}
330
120
100
AcDbScale
 70
     0
300
6" = 1'-0"
140
6.0
141
12.0
290
     0
  0
SCALE
  5
141
102
{ACAD_REACTORS
330
120
102
}
330
120
100
AcDbScale
 70
     0
300
1'-0" = 1'-0"
140
12.0
141
12.0
290
     0
  0
VISUALSTYLE
  5
2F
102
{ACAD_REACTORS
330
2A
102
}
102
{ACAD_XDICTIONARY
360
58B
102
}
330
2A
100
AcDbVisualStyle
  2
2dWireframe
 70
     4
 71
     0
 72
     2
 73
     0
 90
        0
 40
-0.6
 41
-30.0
 62
     5
 63
     7
 74
     1
 91
        4
 64
     7
 65
   257
 75
     1
175
     1
 42
1.0
 92
        0
 66
   257
 43
1.0
 76
     1
 77
     6
 78
     2
 67
     7
 79
     5
170
     0
171
     0
290
     0
174
     0
 93
        1
 44
0.0
173
     0
291
     0
 45
0.0
1001
ACAD
1000
AcDbSavedByObjectVersion
1070
     0
  0
VISUALSTYLE
  5
31
102
{ACAD_REACTORS
330
2A
102
}
102
{ACAD_XDICTIONARY
360
58F
102
}
330
2A
100
AcDbVisualStyle
  2
3D Hidden
 70
     6
 71
     1
 72
     2
 73
     2
 90
        0
 40
-0.6
 41
-30.0
 62
     5
 63
     7
 74
     2
 91
        2
 64
     7
 65
   257
 75
     2
175
     1
 42
40.0
 92
        0
 66
   257
 43
1.0
 76
     1
 77
     6
 78
     2
 67
     7
 79
     3
170
     0
171
     0
290
     0
174
     0
 93
        1
 44
0.0
173
     0
291
     0
 45
0.0
1001
ACAD
1000
AcDbSavedByObjectVersion
1070
     0
  0
VISUALSTYLE
  5
30
102
{ACAD_REACTORS
330
2A
102
}
102
{ACAD_XDICTIONARY
360
58D
102
}
330
2A
100
AcDbVisualStyle
  2
3dWireframe
 70
     5
 71
     0
 72
     2
 73
     0
 90
        0
 40
-0.6
 41
-30.0
 62
     5
 63
     7
 74
     1
 91
        4
 64
     7
 65
   257
 75
     1
175
     1
 42
1.0
 92
        0
 66
   257
 43
1.0
 76
     1
 77
     6
 78
     2
 67
     7
 79
     5
170
     0
171
     0
290
     0
174
     0
 93
        1
 44
0.0
173
     0
291
     0
 45
0.0
1001
ACAD
1000
AcDbSavedByObjectVersion
1070
     0
  0
VISUALSTYLE
  5
32
102
{ACAD_REACTORS
330
2A
102
}
102
{ACAD_XDICTIONARY
360
591
102
}
330
2A
100
AcDbVisualStyle
  2
Basic
 70
     7
 71
     1
 72
     0
 73
     1
 90
        0
 40
-0.6
 41
-30.0
 62
     5
 63
     7
 74
     0
 91
        4
 64
     7
 65
   257
 75
     1
175
     1
 42
1.0
 92
        8
 66
     7
 43
1.0
 76
     1
 77
     6
 78
     2
 67
     7
 79
     5
170
     0
171
     0
290
     0
174
     0
 93
        1
 44
0.0
173
     0
291
     1
 45
0.0
1001
ACAD
1000
AcDbSavedByObjectVersion
1070
     0
  0
VISUALSTYLE
  5
36
102
{ACAD_REACTORS
330
2A
102
}
102
{ACAD_XDICTIONARY
360
599
102
}
330
2A
100
AcDbVisualStyle
  2
Brighten
 70
    12
 71
     2
 72
     2
 73
     0
 90
        0
 40
-0.6
 41
-30.0
 62
     5
 63
     7
 74
     1
 91
        4
 64
     7
 65
   257
 75
     1
175
     1
 42
1.0
 92
        8
 66
     7
 43
1.0
 76
     1
 77
     6
 78
     2
 67
     7
 79
     5
170
     0
171
     0
290
     0
174
     0
 93
        1
 44
50.0
173
     0
291
     1
 45
0.0
1001
ACAD
1000
AcDbSavedByObjectVersion
1070
     0
  0
VISUALSTYLE
  5
3A
102
{ACAD_REACTORS
330
2A
102
}
102
{ACAD_XDICTIONARY
360
5A1
102
}
330
2A
100
AcDbVisualStyle
  2
ColorChange
 70
    16
 71
     2
 72
     2
 73
     3
 90
        0
 40
-0.6
 41
-30.0
 62
     5
 63
     8
 74
     1
 91
        4
 64
     7
 65
   257
 75
     1
175
     1
 42
1.0
 92
        8
 66
     8
 43
1.0
 76
     1
 77
     6
 78
     2
 67
     7
 79
     5
170
     0
171
     0
290
     0
174
     0
 93
        1
 44
0.0
173
     0
291
     1
 45
0.0
1001
ACAD
1000
AcDbSavedByObjectVersion
1070
     0
  0
VISUALSTYLE
  5
34
102
{ACAD_REACTORS
330
2A
102
}
102
{ACAD_XDICTIONARY
360
595
102
}
330
2A
100
AcDbVisualStyle
  2
Conceptual
 70
     9
 71
     3
 72
     2
 73
     0
 90
        0
 40
-0.6
 41
-30.0
 62
     5
 63
     7
 74
     2
 91
        2
 64
     7
 65
   257
 75
     1
175
     1
 42
40.0
 92
        8
 66
     7
 43
1.0
 76
     1
 77
     6
 78
     2
 67
     7
 79
     3
170
     0
171
     0
290
     0
174
     0
 93
        1
 44
0.0
173
     0
291
     0
 45
0.0
1001
ACAD
1000
AcDbSavedByObjectVersion
1070
     0
  0
VISUALSTYLE
  5
35
102
{ACAD_REACTORS
330
2A
102
}
102
{ACAD_XDICTIONARY
360
597
102
}
330
2A
100
AcDbVisualStyle
  2
Dim
 70
    11
 71
     2
 72
     2
 73
     0
 90
        0
 40
-0.6
 41
-30.0
 62
     5
 63
     7
 74
     1
 91
        4
 64
     7
 65
   257
 75
     1
175
     1
 42
1.0
 92
        8
 66
     7
 43
1.0
 76
     1
 77
     6
 78
     2
 67
     7
 79
     5
170
     0
171
     0
290
     0
174
     0
 93
        1
 44
-50.0
173
     0
291
     1
 45
0.0
1001
ACAD
1000
AcDbSavedByObjectVersion
1070
     0
  0
VISUALSTYLE
  5
39
102
{ACAD_REACTORS
330
2A
102
}
102
{ACAD_XDICTIONARY
360
59F
102
}
330
2A
100
AcDbVisualStyle
  2
Facepattern
 70
    15
 71
     2
 72
     2
 73
     0
 90
        0
 40
-0.6
 41
-30.0
 62
     5
 63
     7
 74
     1
 91
        4
 64
     7
 65
   257
 75
     1
175
     1
 42
1.0
 92
        8
 66
     7
 43
1.0
 76
     1
 77
     6
 78
     2
 67
     7
 79
     5
170
     0
171
     0
290
     0
174
     0
 93
        1
 44
0.0
173
     0
291
     1
 45
0.0
1001
ACAD
1000
AcDbSavedByObjectVersion
1070
     0
  0
VISUALSTYLE
  5
2B
102
{ACAD_REACTORS
330
2A
102
}
102
{ACAD_XDICTIONARY
360
583
102
}
330
2A
100
AcDbVisualStyle
  2
Flat
 70
     0
 71
     2
 72
     1
 73
     1
 90
        2
 40
-0.6
 41
30.0
 62
     5
 63
     7
 74
     0
 91
        4
 64
     7
 65
   257
 75
     1
175
     1
 42
1.0
 92
        8
 66
     7
 43
1.0
 76
     1
 77
     6
 78
     2
 67
     7
 79
     5
170
     0
171
     0
290
     0
174
     0
 93
       13
 44
0.0
173
     0
291
     1
 45
0.0
1001
ACAD
1000
AcDbSavedByObjectVersion
1070
     0
  0
VISUALSTYLE
  5
2C
102
{ACAD_REACTORS
330
2A
102
}
102
{ACAD_XDICTIONARY
360
585
102
}
330
2A
100
AcDbVisualStyle
  2
FlatWithEdges
 70
     1
 71
     2
 72
     1
 73
     1
 90
        2
 40
-0.6
 41
30.0
 62
     5
 63
     7
 74
     1
 91
        4
 64
     7
 65
   257
 75
     1
175
     1
 42
1.0
 92
        0
 66
   257
 43
1.0
 76
     1
 77
     6
 78
     2
 67
     7
 79
     5
170
     0
171
     0
290
     0
174
     0
 93
       13
 44
0.0
173
     0
291
     1
 45
0.0
1001
ACAD
1000
AcDbSavedByObjectVersion
1070
     0
  0
VISUALSTYLE
  5
2D
102
{ACAD_REACTORS
330
2A
102
}
102
{ACAD_XDICTIONARY
360
587
102
}
330
2A
100
AcDbVisualStyle
  2
Gouraud
 70
     2
 71
     2
 72
     2
 73
     1
 90
        2
 40
-0.6
 41
30.0
 62
     5
 63
     7
 74
     0
 91
        4
 64
     7
 65
   257
 75
     1
175
     1
 42
1.0
 92
        0
 66
     7
 43
1.0
 76
     1
 77
     6
 78
     2
 67
     7
 79
     5
170
     0
171
     0
290
     0
174
     0
 93
       13
 44
0.0
173
     0
291
     1
 45
0.0
1001
ACAD
1000
AcDbSavedByObjectVersion
1070
     0
  0
VISUALSTYLE
  5
2E
102
{ACAD_REACTORS
330
2A
102
}
102
{ACAD_XDICTIONARY
360
589
102
}
330
2A
100
AcDbVisualStyle
  2
GouraudWithEdges
 70
     3
 71
     2
 72
     2
 73
     1
 90
        2
 40
-0.6
 41
30.0
 62
     5
 63
     7
 74
     1
 91
        4
 64
     7
 65
   257
 75
     1
175
     1
 42
1.0
 92
        0
 66
   257
 43
1.0
 76
     1
 77
     6
 78
     2
 67
     7
 79
     5
170
     0
171
     0
290
     0
174
     0
 93
       13
 44
0.0
173
     0
291
     1
 45
0.0
1001
ACAD
1000
AcDbSavedByObjectVersion
1070
     0
  0
VISUALSTYLE
  5
38
102
{ACAD_REACTORS
330
2A
102
}
102
{ACAD_XDICTIONARY
360
59D
102
}
330
2A
100
AcDbVisualStyle
  2
Linepattern
 70
    14
 71
     2
 72
     2
 73
     0
 90
        0
 40
-0.6
 41
-30.0
 62
     5
 63
     7
 74
     1
 91
        4
 64
     7
 65
   257
 75
     7
175
     7
 42
1.0
 92
        8
 66
     7
 43
1.0
 76
     1
 77
     6
 78
     2
 67
     7
 79
     5
170
     0
171
     0
290
     0
174
     0
 93
        1
 44
0.0
173
     0
291
     1
 45
0.0
1001
ACAD
1000
AcDbSavedByObjectVersion
1070
     0
  0
VISUALSTYLE
  5
33
102
{ACAD_REACTORS
330
2A
102
}
102
{ACAD_XDICTIONARY
360
593
102
}
330
2A
100
AcDbVisualStyle
  2
Realistic
 70
     8
 71
     2
 72
     2
 73
     0
 90
        0
 40
-0.6
 41
-30.0
 62
     5
 63
     7
 74
     1
 91
        0
 64
     7
 65
   257
 75
     1
175
     1
 42
1.0
 92
        8
 66
     8
 43
1.0
 76
     1
 77
     6
 78
     2
 67
     7
 79
     5
170
     0
171
     0
290
     0
174
     0
 93
       13
 44
0.0
173
     0
291
     0
 45
0.0
1001
ACAD
1000
AcDbSavedByObjectVersion
1070
     0
  0
VISUALSTYLE
  5
37
102
{ACAD_REACTORS
330
2A
102
}
102
{ACAD_XDICTIONARY
360
59B
102
}
330
2A
100
AcDbVisualStyle
  2
Thicken
 70
    13
 71
     2
 72
     2
 73
     0
 90
        0
 40
-0.6
 41
-30.0
 62
     5
 63
     7
 74
     1
 91
        4
 64
     7
 65
   257
 75
     1
175
     1
 42
1.0
 92
       12
 66
     7
 43
1.0
 76
     1
 77
     6
 78
     2
 67
     7
 79
     5
170
     0
171
     0
290
     0
174
     0
 93
        1
 44
0.0
173
     0
291
     1
 45
0.0
1001
ACAD
1000
AcDbSavedByObjectVersion
1070
     0
  0
DICTIONARYVAR
  5
580
102
{ACAD_REACTORS
330
57B
102
}
330
57B
100
DictionaryVariables
280
     0
  1
1:1
  0
DICTIONARYVAR
  5
581
102
{ACAD_REACTORS
330
57B
102
}
330
57B
100
DictionaryVariables
280
     0
  1
2
  0
DICTIONARYVAR
  5
582
102
{ACAD_REACTORS
330
57B
102
}
330
57B
100
DictionaryVariables
280
     0
  1
1
  0
DICTIONARYVAR
  5
57F
102
{ACAD_REACTORS
330
57B
102
}
330
57B
100
DictionaryVariables
280
     0
  1
80.000000
  0
DICTIONARYVAR
  5
57E
102
{ACAD_REACTORS
330
57B
102
}
330
57B
100
DictionaryVariables
280
     0
  1
5.000000
  0
DICTIONARY
  5
5A5
330
3D
100
AcDbDictionary
280
     1
281
     1
  3
ACAD_XREC_ROUNDTRIP
360
5A6
  0
DICTIONARY
  5
5A3
330
3C
100
AcDbDictionary
280
     1
281
     1
  3
ACAD_XREC_ROUNDTRIP
360
5A4
  0
DICTIONARY
  5
5A7
330
3E
100
AcDbDictionary
280
     1
281
     1
  3
ACAD_XREC_ROUNDTRIP
360
5A8
  0
DICTIONARY
  5
58B
330
2F
100
AcDbDictionary
280
     1
281
     1
  3
ACAD_XREC_ROUNDTRIP
360
58C
  0
DICTIONARY
  5
58F
330
31
100
AcDbDictionary
280
     1
281
     1
  3
ACAD_XREC_ROUNDTRIP
360
590
  0
DICTIONARY
  5
58D
330
30
100
AcDbDictionary
280
     1
281
     1
  3
ACAD_XREC_ROUNDTRIP
360
58E
  0
DICTIONARY
  5
591
330
32
100
AcDbDictionary
280
     1
281
     1
  3
ACAD_XREC_ROUNDTRIP
360
592
  0
DICTIONARY
  5
599
330
36
100
AcDbDictionary
280
     1
281
     1
  3
ACAD_XREC_ROUNDTRIP
360
59A
  0
DICTIONARY
  5
5A1
330
3A
100
AcDbDictionary
280
     1
281
     1
  3
ACAD_XREC_ROUNDTRIP
360
5A2
  0
DICTIONARY
  5
595
330
34
100
AcDbDictionary
280
     1
281
     1
  3
ACAD_XREC_ROUNDTRIP
360
596
  0
DICTIONARY
  5
597
330
35
100
AcDbDictionary
280
     1
281
     1
  3
ACAD_XREC_ROUNDTRIP
360
598
  0
DICTIONARY
  5
59F
330
39
100
AcDbDictionary
280
     1
281
     1
  3
ACAD_XREC_ROUNDTRIP
360
5A0
  0
DICTIONARY
  5
583
330
2B
100
AcDbDictionary
280
     1
281
     1
  3
ACAD_XREC_ROUNDTRIP
360
584
  0
DICTIONARY
  5
585
330
2C
100
AcDbDictionary
280
     1
281
     1
  3
ACAD_XREC_ROUNDTRIP
360
586
  0
DICTIONARY
  5
587
330
2D
100
AcDbDictionary
280
     1
281
     1
  3
ACAD_XREC_ROUNDTRIP
360
588
  0
DICTIONARY
  5
589
330
2E
100
AcDbDictionary
280
     1
281
     1
  3
ACAD_XREC_ROUNDTRIP
360
58A
  0
DICTIONARY
  5
59D
330
38
100
AcDbDictionary
280
     1
281
     1
  3
ACAD_XREC_ROUNDTRIP
360
59E
  0
DICTIONARY
  5
593
330
33
100
AcDbDictionary
280
     1
281
     1
  3
ACAD_XREC_ROUNDTRIP
360
594
  0
DICTIONARY
  5
59B
330
37
100
AcDbDictionary
280
     1
281
     1
  3
ACAD_XREC_ROUNDTRIP
360
59C
  0
XRECORD
  5
5A6
102
{ACAD_REACTORS
330
5A5
102
}
330
5A5
100
AcDbXrecord
280
     1
102
MATERIAL
148
0.0
149
0.0
149
0.0
 93
        0
 94
      127
282
     0
 72
     1
 77
     1
171
     1
175
     1
179
     1
273
     0
  0
XRECORD
  5
5A4
102
{ACAD_REACTORS
330
5A3
102
}
330
5A3
100
AcDbXrecord
280
     1
102
MATERIAL
148
0.0
149
0.0
149
0.0
 93
        0
 94
      127
282
     0
 72
     1
 77
     1
171
     1
175
     1
179
     1
273
     0
  0
XRECORD
  5
5A8
102
{ACAD_REACTORS
330
5A7
102
}
330
5A7
100
AcDbXrecord
280
     1
102
MATERIAL
148
0.0
149
0.0
149
0.0
 93
        0
 94
      127
282
     0
 72
     1
 77
     1
171
     1
175
     1
179
     1
273
     0
  0
XRECORD
  5
58C
102
{ACAD_REACTORS
330
58B
102
}
330
58B
100
AcDbXrecord
280
     1
102
RTVSPropertyOp0
 70
     1
102
RTVSPropertyOp1
 70
     1
102
RTVSPropertyOp2
 70
     1
102
RTVSPropertyOp3
 70
     1
102
RTVSPropertyOp4
 70
     1
102
RTVSPropertyOp5
 70
     1
102
RTVSPropertyOp6
 70
     1
102
RTVSPropertyOp7
 70
     1
102
RTVSPropertyOp8
 70
     1
102
RTVSPropertyOp9
 70
     1
102
RTVSPropertyOp10
 70
     1
102
RTVSPropertyOp11
 70
     1
102
RTVSPropertyOp12
 70
     1
102
RTVSPropertyOp13
 70
     1
102
RTVSPropertyOp14
 70
     1
102
RTVSPropertyOp15
 70
     1
102
RTVSPropertyOp16
 70
     1
102
RTVSPropertyOp17
 70
     1
102
RTVSPropertyOp18
 70
     1
102
RTVSPropertyOp19
 70
     1
102
RTVSPropertyOp20
 70
     1
102
RTVSPropertyOp21
 70
     1
102
RTVSPropertyOp22
 70
     1
102
RTVSPropertyOp23
 70
     1
102
RTVSPropertyOp24
 70
     1
102
RTVSPropertyOp25
 70
     1
102
RTVSPropertyOp26
 70
     1
102
RTVSPropertyOp27
 70
     1
  0
XRECORD
  5
590
102
{ACAD_REACTORS
330
58F
102
}
330
58F
100
AcDbXrecord
280
     1
102
RTVSPropertyOp0
 70
     1
102
RTVSPropertyOp1
 70
     1
102
RTVSPropertyOp2
 70
     1
102
RTVSPropertyOp3
 70
     1
102
RTVSPropertyOp4
 70
     1
102
RTVSPropertyOp5
 70
     1
102
RTVSPropertyOp6
 70
     1
102
RTVSPropertyOp7
 70
     1
102
RTVSPropertyOp8
 70
     1
102
RTVSPropertyOp9
 70
     1
102
RTVSPropertyOp10
 70
     1
102
RTVSPropertyOp11
 70
     1
102
RTVSPropertyOp12
 70
     1
102
RTVSPropertyOp13
 70
     1
102
RTVSPropertyOp14
 70
     1
102
RTVSPropertyOp15
 70
     1
102
RTVSPropertyOp16
 70
     1
102
RTVSPropertyOp17
 70
     1
102
RTVSPropertyOp18
 70
     1
102
RTVSPropertyOp19
 70
     1
102
RTVSPropertyOp20
 70
     1
102
RTVSPropertyOp21
 70
     1
102
RTVSPropertyOp22
 70
     1
102
RTVSPropertyOp23
 70
     1
102
RTVSPropertyOp24
 70
     1
102
RTVSPropertyOp25
 70
     1
102
RTVSPropertyOp26
 70
     1
102
RTVSPropertyOp27
 70
     1
  0
XRECORD
  5
58E
102
{ACAD_REACTORS
330
58D
102
}
330
58D
100
AcDbXrecord
280
     1
102
RTVSPropertyOp0
 70
     1
102
RTVSPropertyOp1
 70
     1
102
RTVSPropertyOp2
 70
     1
102
RTVSPropertyOp3
 70
     1
102
RTVSPropertyOp4
 70
     1
102
RTVSPropertyOp5
 70
     1
102
RTVSPropertyOp6
 70
     1
102
RTVSPropertyOp7
 70
     1
102
RTVSPropertyOp8
 70
     1
102
RTVSPropertyOp9
 70
     1
102
RTVSPropertyOp10
 70
     1
102
RTVSPropertyOp11
 70
     1
102
RTVSPropertyOp12
 70
     1
102
RTVSPropertyOp13
 70
     1
102
RTVSPropertyOp14
 70
     1
102
RTVSPropertyOp15
 70
     1
102
RTVSPropertyOp16
 70
     1
102
RTVSPropertyOp17
 70
     1
102
RTVSPropertyOp18
 70
     1
102
RTVSPropertyOp19
 70
     1
102
RTVSPropertyOp20
 70
     1
102
RTVSPropertyOp21
 70
     1
102
RTVSPropertyOp22
 70
     1
102
RTVSPropertyOp23
 70
     1
102
RTVSPropertyOp24
 70
     1
102
RTVSPropertyOp25
 70
     1
102
RTVSPropertyOp26
 70
     1
102
RTVSPropertyOp27
 70
     1
  0
XRECORD
  5
592
102
{ACAD_REACTORS
330
591
102
}
330
591
100
AcDbXrecord
280
     1
102
RTVSPropertyOp0
 70
     1
102
RTVSPropertyOp1
 70
     1
102
RTVSPropertyOp2
 70
     1
102
RTVSPropertyOp3
 70
     1
102
RTVSPropertyOp4
 70
     1
102
RTVSPropertyOp5
 70
     1
102
RTVSPropertyOp6
 70
     1
102
RTVSPropertyOp7
 70
     1
102
RTVSPropertyOp8
 70
     1
102
RTVSPropertyOp9
 70
     1
102
RTVSPropertyOp10
 70
     1
102
RTVSPropertyOp11
 70
     1
102
RTVSPropertyOp12
 70
     1
102
RTVSPropertyOp13
 70
     1
102
RTVSPropertyOp14
 70
     1
102
RTVSPropertyOp15
 70
     1
102
RTVSPropertyOp16
 70
     1
102
RTVSPropertyOp17
 70
     1
102
RTVSPropertyOp18
 70
     1
102
RTVSPropertyOp19
 70
     1
102
RTVSPropertyOp20
 70
     1
102
RTVSPropertyOp21
 70
     1
102
RTVSPropertyOp22
 70
     1
102
RTVSPropertyOp23
 70
     1
102
RTVSPropertyOp24
 70
     1
102
RTVSPropertyOp25
 70
     1
102
RTVSPropertyOp26
 70
     1
102
RTVSPropertyOp27
 70
     1
  0
XRECORD
  5
59A
102
{ACAD_REACTORS
330
599
102
}
330
599
100
AcDbXrecord
280
     1
102
RTVSPropertyOp0
 70
     1
102
RTVSPropertyOp1
 70
     1
102
RTVSPropertyOp2
 70
     1
102
RTVSPropertyOp3
 70
     1
102
RTVSPropertyOp4
 70
     1
102
RTVSPropertyOp5
 70
     1
102
RTVSPropertyOp6
 70
     1
102
RTVSPropertyOp7
 70
     1
102
RTVSPropertyOp8
 70
     1
102
RTVSPropertyOp9
 70
     1
102
RTVSPropertyOp10
 70
     1
102
RTVSPropertyOp11
 70
     1
102
RTVSPropertyOp12
 70
     1
102
RTVSPropertyOp13
 70
     1
102
RTVSPropertyOp14
 70
     1
102
RTVSPropertyOp15
 70
     1
102
RTVSPropertyOp16
 70
     1
102
RTVSPropertyOp17
 70
     1
102
RTVSPropertyOp18
 70
     1
102
RTVSPropertyOp19
 70
     1
102
RTVSPropertyOp20
 70
     1
102
RTVSPropertyOp21
 70
     1
102
RTVSPropertyOp22
 70
     1
102
RTVSPropertyOp23
 70
     1
102
RTVSPropertyOp24
 70
     1
102
RTVSPropertyOp25
 70
     1
102
RTVSPropertyOp26
 70
     1
102
RTVSPropertyOp27
 70
     1
  0
XRECORD
  5
5A2
102
{ACAD_REACTORS
330
5A1
102
}
330
5A1
100
AcDbXrecord
280
     1
102
RTVSPropertyOp0
 70
     1
102
RTVSPropertyOp1
 70
     1
102
RTVSPropertyOp2
 70
     1
102
RTVSPropertyOp3
 70
     1
102
RTVSPropertyOp4
 70
     1
102
RTVSPropertyOp5
 70
     1
102
RTVSPropertyOp6
 70
     1
102
RTVSPropertyOp7
 70
     1
102
RTVSPropertyOp8
 70
     1
102
RTVSPropertyOp9
 70
     1
102
RTVSPropertyOp10
 70
     1
102
RTVSPropertyOp11
 70
     1
102
RTVSPropertyOp12
 70
     1
102
RTVSPropertyOp13
 70
     1
102
RTVSPropertyOp14
 70
     1
102
RTVSPropertyOp15
 70
     1
102
RTVSPropertyOp16
 70
     1
102
RTVSPropertyOp17
 70
     1
102
RTVSPropertyOp18
 70
     1
102
RTVSPropertyOp19
 70
     1
102
RTVSPropertyOp20
 70
     1
102
RTVSPropertyOp21
 70
     1
102
RTVSPropertyOp22
 70
     1
102
RTVSPropertyOp23
 70
     1
102
RTVSPropertyOp24
 70
     1
102
RTVSPropertyOp25
 70
     1
102
RTVSPropertyOp26
 70
     1
102
RTVSPropertyOp27
 70
     1
  0
XRECORD
  5
596
102
{ACAD_REACTORS
330
595
102
}
330
595
100
AcDbXrecord
280
     1
102
RTVSPropertyOp0
 70
     1
102
RTVSPropertyOp1
 70
     1
102
RTVSPropertyOp2
 70
     1
102
RTVSPropertyOp3
 70
     1
102
RTVSPropertyOp4
 70
     1
102
RTVSPropertyOp5
 70
     1
102
RTVSPropertyOp6
 70
     1
102
RTVSPropertyOp7
 70
     1
102
RTVSPropertyOp8
 70
     1
102
RTVSPropertyOp9
 70
     1
102
RTVSPropertyOp10
 70
     1
102
RTVSPropertyOp11
 70
     1
102
RTVSPropertyOp12
 70
     1
102
RTVSPropertyOp13
 70
     1
102
RTVSPropertyOp14
 70
     1
102
RTVSPropertyOp15
 70
     1
102
RTVSPropertyOp16
 70
     1
102
RTVSPropertyOp17
 70
     1
102
RTVSPropertyOp18
 70
     1
102
RTVSPropertyOp19
 70
     1
102
RTVSPropertyOp20
 70
     1
102
RTVSPropertyOp21
 70
     1
102
RTVSPropertyOp22
 70
     1
102
RTVSPropertyOp23
 70
     1
102
RTVSPropertyOp24
 70
     1
102
RTVSPropertyOp25
 70
     1
102
RTVSPropertyOp26
 70
     1
102
RTVSPropertyOp27
 70
     1
  0
XRECORD
  5
598
102
{ACAD_REACTORS
330
597
102
}
330
597
100
AcDbXrecord
280
     1
102
RTVSPropertyOp0
 70
     1
102
RTVSPropertyOp1
 70
     1
102
RTVSPropertyOp2
 70
     1
102
RTVSPropertyOp3
 70
     1
102
RTVSPropertyOp4
 70
     1
102
RTVSPropertyOp5
 70
     1
102
RTVSPropertyOp6
 70
     1
102
RTVSPropertyOp7
 70
     1
102
RTVSPropertyOp8
 70
     1
102
RTVSPropertyOp9
 70
     1
102
RTVSPropertyOp10
 70
     1
102
RTVSPropertyOp11
 70
     1
102
RTVSPropertyOp12
 70
     1
102
RTVSPropertyOp13
 70
     1
102
RTVSPropertyOp14
 70
     1
102
RTVSPropertyOp15
 70
     1
102
RTVSPropertyOp16
 70
     1
102
RTVSPropertyOp17
 70
     1
102
RTVSPropertyOp18
 70
     1
102
RTVSPropertyOp19
 70
     1
102
RTVSPropertyOp20
 70
     1
102
RTVSPropertyOp21
 70
     1
102
RTVSPropertyOp22
 70
     1
102
RTVSPropertyOp23
 70
     1
102
RTVSPropertyOp24
 70
     1
102
RTVSPropertyOp25
 70
     1
102
RTVSPropertyOp26
 70
     1
102
RTVSPropertyOp27
 70
     1
  0
XRECORD
  5
5A0
102
{ACAD_REACTORS
330
59F
102
}
330
59F
100
AcDbXrecord
280
     1
102
RTVSPropertyOp0
 70
     1
102
RTVSPropertyOp1
 70
     1
102
RTVSPropertyOp2
 70
     1
102
RTVSPropertyOp3
 70
     1
102
RTVSPropertyOp4
 70
     1
102
RTVSPropertyOp5
 70
     1
102
RTVSPropertyOp6
 70
     1
102
RTVSPropertyOp7
 70
     1
102
RTVSPropertyOp8
 70
     1
102
RTVSPropertyOp9
 70
     1
102
RTVSPropertyOp10
 70
     1
102
RTVSPropertyOp11
 70
     1
102
RTVSPropertyOp12
 70
     1
102
RTVSPropertyOp13
 70
     1
102
RTVSPropertyOp14
 70
     1
102
RTVSPropertyOp15
 70
     1
102
RTVSPropertyOp16
 70
     1
102
RTVSPropertyOp17
 70
     1
102
RTVSPropertyOp18
 70
     1
102
RTVSPropertyOp19
 70
     1
102
RTVSPropertyOp20
 70
     1
102
RTVSPropertyOp21
 70
     1
102
RTVSPropertyOp22
 70
     1
102
RTVSPropertyOp23
 70
     1
102
RTVSPropertyOp24
 70
     1
102
RTVSPropertyOp25
 70
     1
102
RTVSPropertyOp26
 70
     1
102
RTVSPropertyOp27
 70
     1
  0
XRECORD
  5
584
102
{ACAD_REACTORS
330
583
102
}
330
583
100
AcDbXrecord
280
     1
102
RTVSPropertyOp0
 70
     1
102
RTVSPropertyOp1
 70
     1
102
RTVSPropertyOp2
 70
     1
102
RTVSPropertyOp3
 70
     1
102
RTVSPropertyOp4
 70
     1
102
RTVSPropertyOp5
 70
     1
102
RTVSPropertyOp6
 70
     1
102
RTVSPropertyOp7
 70
     1
102
RTVSPropertyOp8
 70
     1
102
RTVSPropertyOp9
 70
     1
102
RTVSPropertyOp10
 70
     1
102
RTVSPropertyOp11
 70
     1
102
RTVSPropertyOp12
 70
     1
102
RTVSPropertyOp13
 70
     1
102
RTVSPropertyOp14
 70
     1
102
RTVSPropertyOp15
 70
     1
102
RTVSPropertyOp16
 70
     1
102
RTVSPropertyOp17
 70
     1
102
RTVSPropertyOp18
 70
     1
102
RTVSPropertyOp19
 70
     1
102
RTVSPropertyOp20
 70
     1
102
RTVSPropertyOp21
 70
     1
102
RTVSPropertyOp22
 70
     1
102
RTVSPropertyOp23
 70
     1
102
RTVSPropertyOp24
 70
     1
102
RTVSPropertyOp25
 70
     1
102
RTVSPropertyOp26
 70
     1
102
RTVSPropertyOp27
 70
     1
  0
XRECORD
  5
586
102
{ACAD_REACTORS
330
585
102
}
330
585
100
AcDbXrecord
280
     1
102
RTVSPropertyOp0
 70
     1
102
RTVSPropertyOp1
 70
     1
102
RTVSPropertyOp2
 70
     1
102
RTVSPropertyOp3
 70
     1
102
RTVSPropertyOp4
 70
     1
102
RTVSPropertyOp5
 70
     1
102
RTVSPropertyOp6
 70
     1
102
RTVSPropertyOp7
 70
     1
102
RTVSPropertyOp8
 70
     1
102
RTVSPropertyOp9
 70
     1
102
RTVSPropertyOp10
 70
     1
102
RTVSPropertyOp11
 70
     1
102
RTVSPropertyOp12
 70
     1
102
RTVSPropertyOp13
 70
     1
102
RTVSPropertyOp14
 70
     1
102
RTVSPropertyOp15
 70
     1
102
RTVSPropertyOp16
 70
     1
102
RTVSPropertyOp17
 70
     1
102
RTVSPropertyOp18
 70
     1
102
RTVSPropertyOp19
 70
     1
102
RTVSPropertyOp20
 70
     1
102
RTVSPropertyOp21
 70
     1
102
RTVSPropertyOp22
 70
     1
102
RTVSPropertyOp23
 70
     1
102
RTVSPropertyOp24
 70
     1
102
RTVSPropertyOp25
 70
     1
102
RTVSPropertyOp26
 70
     1
102
RTVSPropertyOp27
 70
     1
  0
XRECORD
  5
588
102
{ACAD_REACTORS
330
587
102
}
330
587
100
AcDbXrecord
280
     1
102
RTVSPropertyOp0
 70
     1
102
RTVSPropertyOp1
 70
     1
102
RTVSPropertyOp2
 70
     1
102
RTVSPropertyOp3
 70
     1
102
RTVSPropertyOp4
 70
     1
102
RTVSPropertyOp5
 70
     1
102
RTVSPropertyOp6
 70
     1
102
RTVSPropertyOp7
 70
     1
102
RTVSPropertyOp8
 70
     1
102
RTVSPropertyOp9
 70
     1
102
RTVSPropertyOp10
 70
     1
102
RTVSPropertyOp11
 70
     1
102
RTVSPropertyOp12
 70
     1
102
RTVSPropertyOp13
 70
     1
102
RTVSPropertyOp14
 70
     1
102
RTVSPropertyOp15
 70
     1
102
RTVSPropertyOp16
 70
     1
102
RTVSPropertyOp17
 70
     1
102
RTVSPropertyOp18
 70
     1
102
RTVSPropertyOp19
 70
     1
102
RTVSPropertyOp20
 70
     1
102
RTVSPropertyOp21
 70
     1
102
RTVSPropertyOp22
 70
     1
102
RTVSPropertyOp23
 70
     1
102
RTVSPropertyOp24
 70
     1
102
RTVSPropertyOp25
 70
     1
102
RTVSPropertyOp26
 70
     1
102
RTVSPropertyOp27
 70
     1
  0
XRECORD
  5
58A
102
{ACAD_REACTORS
330
589
102
}
330
589
100
AcDbXrecord
280
     1
102
RTVSPropertyOp0
 70
     1
102
RTVSPropertyOp1
 70
     1
102
RTVSPropertyOp2
 70
     1
102
RTVSPropertyOp3
 70
     1
102
RTVSPropertyOp4
 70
     1
102
RTVSPropertyOp5
 70
     1
102
RTVSPropertyOp6
 70
     1
102
RTVSPropertyOp7
 70
     1
102
RTVSPropertyOp8
 70
     1
102
RTVSPropertyOp9
 70
     1
102
RTVSPropertyOp10
 70
     1
102
RTVSPropertyOp11
 70
     1
102
RTVSPropertyOp12
 70
     1
102
RTVSPropertyOp13
 70
     1
102
RTVSPropertyOp14
 70
     1
102
RTVSPropertyOp15
 70
     1
102
RTVSPropertyOp16
 70
     1
102
RTVSPropertyOp17
 70
     1
102
RTVSPropertyOp18
 70
     1
102
RTVSPropertyOp19
 70
     1
102
RTVSPropertyOp20
 70
     1
102
RTVSPropertyOp21
 70
     1
102
RTVSPropertyOp22
 70
     1
102
RTVSPropertyOp23
 70
     1
102
RTVSPropertyOp24
 70
     1
102
RTVSPropertyOp25
 70
     1
102
RTVSPropertyOp26
 70
     1
102
RTVSPropertyOp27
 70
     1
  0
XRECORD
  5
59E
102
{ACAD_REACTORS
330
59D
102
}
330
59D
100
AcDbXrecord
280
     1
102
RTVSPropertyOp0
 70
     1
102
RTVSPropertyOp1
 70
     1
102
RTVSPropertyOp2
 70
     1
102
RTVSPropertyOp3
 70
     1
102
RTVSPropertyOp4
 70
     1
102
RTVSPropertyOp5
 70
     1
102
RTVSPropertyOp6
 70
     1
102
RTVSPropertyOp7
 70
     1
102
RTVSPropertyOp8
 70
     1
102
RTVSPropertyOp9
 70
     1
102
RTVSPropertyOp10
 70
     1
102
RTVSPropertyOp11
 70
     1
102
RTVSPropertyOp12
 70
     1
102
RTVSPropertyOp13
 70
     1
102
RTVSPropertyOp14
 70
     1
102
RTVSPropertyOp15
 70
     1
102
RTVSPropertyOp16
 70
     1
102
RTVSPropertyOp17
 70
     1
102
RTVSPropertyOp18
 70
     1
102
RTVSPropertyOp19
 70
     1
102
RTVSPropertyOp20
 70
     1
102
RTVSPropertyOp21
 70
     1
102
RTVSPropertyOp22
 70
     1
102
RTVSPropertyOp23
 70
     1
102
RTVSPropertyOp24
 70
     1
102
RTVSPropertyOp25
 70
     1
102
RTVSPropertyOp26
 70
     1
102
RTVSPropertyOp27
 70
     1
  0
XRECORD
  5
594
102
{ACAD_REACTORS
330
593
102
}
330
593
100
AcDbXrecord
280
     1
102
RTVSPropertyOp0
 70
     1
102
RTVSPropertyOp1
 70
     1
102
RTVSPropertyOp2
 70
     1
102
RTVSPropertyOp3
 70
     1
102
RTVSPropertyOp4
 70
     1
102
RTVSPropertyOp5
 70
     1
102
RTVSPropertyOp6
 70
     1
102
RTVSPropertyOp7
 70
     1
102
RTVSPropertyOp8
 70
     1
102
RTVSPropertyOp9
 70
     1
102
RTVSPropertyOp10
 70
     1
102
RTVSPropertyOp11
 70
     1
102
RTVSPropertyOp12
 70
     1
102
RTVSPropertyOp13
 70
     1
102
RTVSPropertyOp14
 70
     1
102
RTVSPropertyOp15
 70
     1
102
RTVSPropertyOp16
 70
     1
102
RTVSPropertyOp17
 70
     1
102
RTVSPropertyOp18
 70
     1
102
RTVSPropertyOp19
 70
     1
102
RTVSPropertyOp20
 70
     1
102
RTVSPropertyOp21
 70
     1
102
RTVSPropertyOp22
 70
     1
102
RTVSPropertyOp23
 70
     1
102
RTVSPropertyOp24
 70
     1
102
RTVSPropertyOp25
 70
     1
102
RTVSPropertyOp26
 70
     1
102
RTVSPropertyOp27
 70
     1
  0
XRECORD
  5
59C
102
{ACAD_REACTORS
330
59B
102
}
330
59B
100
AcDbXrecord
280
     1
102
RTVSPropertyOp0
 70
     1
102
RTVSPropertyOp1
 70
     1
102
RTVSPropertyOp2
 70
     1
102
RTVSPropertyOp3
 70
     1
102
RTVSPropertyOp4
 70
     1
102
RTVSPropertyOp5
 70
     1
102
RTVSPropertyOp6
 70
     1
102
RTVSPropertyOp7
 70
     1
102
RTVSPropertyOp8
 70
     1
102
RTVSPropertyOp9
 70
     1
102
RTVSPropertyOp10
 70
     1
102
RTVSPropertyOp11
 70
     1
102
RTVSPropertyOp12
 70
     1
102
RTVSPropertyOp13
 70
     1
102
RTVSPropertyOp14
 70
     1
102
RTVSPropertyOp15
 70
     1
102
RTVSPropertyOp16
 70
     1
102
RTVSPropertyOp17
 70
     1
102
RTVSPropertyOp18
 70
     1
102
RTVSPropertyOp19
 70
     1
102
RTVSPropertyOp20
 70
     1
102
RTVSPropertyOp21
 70
     1
102
RTVSPropertyOp22
 70
     1
102
RTVSPropertyOp23
 70
     1
102
RTVSPropertyOp24
 70
     1
102
RTVSPropertyOp25
 70
     1
102
RTVSPropertyOp26
 70
     1
102
RTVSPropertyOp27
 70
     1
  0
ENDSEC
  0
EOF
