  0
SECTION
  2
HEADER
  9
$ACADVER
  1
AC1015
  9
$ACADMAINTVER
 70
     6
  9
$DWGCODEPAGE
  3
ANSI_1252
  9
$INSBASE
 10
0.0
 20
0.0
 30
0.0
  9
$EXTMIN
 10
0.0
 20
0.0
 30
0.0
  9
$EXTMAX
 10
25.0
 20
35.0
 30
0.0
  9
$LIMMIN
 10
0.0
 20
0.0
  9
$LIMMAX
 10
420.0
 20
297.0
  9
$ORTHOMODE
 70
     0
  9
$REGENMODE
 70
     1
  9
$FILLMODE
 70
     1
  9
$QTEXTMODE
 70
     0
  9
$MIRRTEXT
 70
     1
  9
$LTSCALE
 40
3.5
  9
$ATTMODE
 70
     1
  9
$TEXTSIZE
 40
2.5
  9
$TRACEWID
 40
1.0
  9
$TEXTSTYLE
  7
Standard
  9
$CLAYER
  8
0
  9
$CELTYPE
  6
ByLayer
  9
$CECOLOR
 62
   256
  9
$CELTSCALE
 40
1.0
  9
$DISPSILH
 70
     0
  9
$DIMSCALE
 40
1.0
  9
$DIMASZ
 40
2.5
  9
$DIMEXO
 40
0.625
  9
$DIMDLI
 40
3.75
  9
$DIMRND
 40
0.0
  9
$DIMDLE
 40
0.0
  9
$DIMEXE
 40
1.25
  9
$DIMTP
 40
0.0
  9
$DIMTM
 40
0.0
  9
$DIMTXT
 40
2.5
  9
$DIMCEN
 40
2.5
  9
$DIMTSZ
 40
0.0
  9
$DIMTOL
 70
     0
  9
$DIMLIM
 70
     0
  9
$DIMTIH
 70
     0
  9
$DIMTOH
 70
     0
  9
$DIMSE1
 70
     0
  9
$DIMSE2
 70
     0
  9
$DIMTAD
 70
     1
  9
$DIMZIN
 70
     8
  9
$DIMBLK
  1

  9
$DIMASO
 70
     1
  9
$DIMSHO
 70
     1
  9
$DIMPOST
  1

  9
$DIMAPOST
  1

  9
$DIMALT
 70
     0
  9
$DIMALTD
 70
     3
  9
$DIMALTF
 40
0.03937007874016
  9
$DIMLFAC
 40
1.0
  9
$DIMTOFL
 70
     1
  9
$DIMTVP
 40
0.0
  9
$DIMTIX
 70
     0
  9
$DIMSOXD
 70
     0
  9
$DIMSAH
 70
     0
  9
$DIMBLK1
  1

  9
$DIMBLK2
  1

  9
$DIMSTYLE
  2
ISO-25
  9
$DIMCLRD
 70
     0
  9
$DIMCLRE
 70
     0
  9
$DIMCLRT
 70
     0
  9
$DIMTFAC
 40
1.0
  9
$DIMGAP
 40
0.625
  9
$DIMJUST
 70
     0
  9
$DIMSD1
 70
     0
  9
$DIMSD2
 70
     0
  9
$DIMTOLJ
 70
     0
  9
$DIMTZIN
 70
     8
  9
$DIMALTZ
 70
     0
  9
$DIMALTTZ
 70
     0
  9
$DIMUPT
 70
     0
  9
$DIMDEC
 70
     2
  9
$DIMTDEC
 70
     2
  9
$DIMALTU
 70
     2
  9
$DIMALTTD
 70
     3
  9
$DIMTXSTY
  7
Standard
  9
$DIMAUNIT
 70
     0
  9
$DIMADEC
 70
     0
  9
$DIMALTRND
 40
0.0
  9
$DIMAZIN
 70
     0
  9
$DIMDSEP
 70
    44
  9
$DIMATFIT
 70
     3
  9
$DIMFRAC
 70
     0
  9
$DIMLDRBLK
  1

  9
$DIMLUNIT
 70
     2
  9
$DIMLWD
 70
    -2
  9
$DIMLWE
 70
    -2
  9
$DIMTMOVE
 70
     0
  9
$LUNITS
 70
     2
  9
$LUPREC
 70
     4
  9
$SKETCHINC
 40
1.0
  9
$FILLETRAD
 40
10.0
  9
$AUNITS
 70
     0
  9
$AUPREC
 70
     0
  9
$MENU
  1
.
  9
$ELEVATION
 40
0.0
  9
$PELEVATION
 40
0.0
  9
$THICKNESS
 40
0.0
  9
$LIMCHECK
 70
     0
  9
$CHAMFERA
 40
10.0
  9
$CHAMFERB
 40
10.0
  9
$CHAMFERC
 40
20.0
  9
$CHAMFERD
 40
0.0
  9
$SKPOLY
 70
     0
  9
$TDCREATE
 40
2457248.59375
  9
$TDUCREATE
 40
2457248.510416667
  9
$TDUPDATE
 40
2457248.597222222
  9
$TDUUPDATE
 40
2457248.513888889
  9
$TDINDWG
 40
0.0000000116
  9
$TDUSRTIMER
 40
0.0000000116
  9
$USRTIMER
 70
     1
  9
$ANGBASE
 50
0.0
  9
$ANGDIR
 70
     0
  9
$PDMODE
 70
     0
  9
$PDSIZE
 40
0.0
  9
$PLINEWID
 40
0.0
  9
$SPLFRAME
 70
     0
  9
$SPLINETYPE
 70
     6
  9
$SPLINESEGS
 70
     8
  9
$HANDSEED
  5
65F
  9
$SURFTAB1
 70
     6
  9
$SURFTAB2
 70
     6
  9
$SURFTYPE
 70
     6
  9
$SURFU
 70
     6
  9
$SURFV
 70
     6
  9
$UCSBASE
  2

  9
$UCSNAME
  2

  9
$UCSORG
 10
0.0
 20
0.0
 30
0.0
  9
$UCSXDIR
 10
1.0
 20
0.0
 30
0.0
  9
$UCSYDIR
 10
0.0
 20
1.0
 30
0.0
  9
$UCSORTHOREF
  2

  9
$UCSORTHOVIEW
 70
     0
  9
$UCSORGTOP
 10
0.0
 20
0.0
 30
0.0
  9
$UCSORGBOTTOM
 10
0.0
 20
0.0
 30
0.0
  9
$UCSORGLEFT
 10
0.0
 20
0.0
 30
0.0
  9
$UCSORGRIGHT
 10
0.0
 20
0.0
 30
0.0
  9
$UCSORGFRONT
 10
0.0
 20
0.0
 30
0.0
  9
$UCSORGBACK
 10
0.0
 20
0.0
 30
0.0
  9
$PUCSBASE
  2

  9
$PUCSNAME
  2

  9
$PUCSORG
 10
0.0
 20
0.0
 30
0.0
  9
$PUCSXDIR
 10
1.0
 20
0.0
 30
0.0
  9
$PUCSYDIR
 10
0.0
 20
1.0
 30
0.0
  9
$PUCSORTHOREF
  2

  9
$PUCSORTHOVIEW
 70
     0
  9
$PUCSORGTOP
 10
0.0
 20
0.0
 30
0.0
  9
$PUCSORGBOTTOM
 10
0.0
 20
0.0
 30
0.0
  9
$PUCSORGLEFT
 10
0.0
 20
0.0
 30
0.0
  9
$PUCSORGRIGHT
 10
0.0
 20
0.0
 30
0.0
  9
$PUCSORGFRONT
 10
0.0
 20
0.0
 30
0.0
  9
$PUCSORGBACK
 10
0.0
 20
0.0
 30
0.0
  9
$USERI1
 70
     0
  9
$USERI2
 70
     0
  9
$USERI3
 70
     0
  9
$USERI4
 70
     0
  9
$USERI5
 70
     0
  9
$USERR1
 40
0.0
  9
$USERR2
 40
0.0
  9
$USERR3
 40
0.0
  9
$USERR4
 40
0.0
  9
$USERR5
 40
0.0
  9
$WORLDVIEW
 70
     1
  9
$SHADEDGE
 70
     3
  9
$SHADEDIF
 70
    70
  9
$TILEMODE
 70
     1
  9
$MAXACTVP
 70
    64
  9
$PINSBASE
 10
0.0
 20
0.0
 30
0.0
  9
$PLIMCHECK
 70
     0
  9
$PEXTMIN
 10
1.000000000000000E+20
 20
1.000000000000000E+20
 30
1.000000000000000E+20
  9
$PEXTMAX
 10
-1.000000000000000E+20
 20
-1.000000000000000E+20
 30
-1.000000000000000E+20
  9
$PLIMMIN
 10
0.0
 20
0.0
  9
$PLIMMAX
 10
420.0
 20
297.0
  9
$UNITMODE
 70
     0
  9
$VISRETAIN
 70
     1
  9
$PLINEGEN
 70
     0
  9
$PSLTSCALE
 70
     1
  9
$TREEDEPTH
 70
  3020
  9
$CMLSTYLE
  2
Standard
  9
$CMLJUST
 70
     0
  9
$CMLSCALE
 40
20.0
  9
$PROXYGRAPHICS
 70
     1
  9
$MEASUREMENT
 70
     1
  9
$CELWEIGHT
370
    -1
  9
$ENDCAPS
280
     0
  9
$JOINSTYLE
280
     0
  9
$LWDISPLAY
290
     0
  9
$INSUNITS
 70
     4
  9
$HYPERLINKBASE
  1

  9
$STYLESHEET
  1

  9
$XEDIT
290
     1
  9
$CEPSNTYPE
380
     0
  9
$PSTYLEMODE
290
     1
  9
$FINGERPRINTGUID
  2
{5B4E7FAA-EF7F-4C71-B45B-5BC3B2E02714}
  9
$VERSIONGUID
  2
{FAEB1C32-E019-11D5-929B-00C0DF256EC4}
  9
$EXTNAMES
290
     1
  9
$PSVPSCALE
 40
0.0
  9
$OLESTARTUP
290
     0
  0
ENDSEC
  0
SECTION
  2
CLASSES
  0
CLASS
  1
ACDBDICTIONARYWDFLT
  2
AcDbDictionaryWithDefault
  3
ObjectDBX Classes
 90
        0
280
     0
281
     0
  0
CLASS
  1
VISUALSTYLE
  2
AcDbVisualStyle
  3
ObjectDBX Classes
 90
     4095
280
     0
281
     0
  0
CLASS
  1
MATERIAL
  2
AcDbMaterial
  3
ObjectDBX Classes
 90
     1153
280
     0
281
     0
  0
CLASS
  1
SCALE
  2
AcDbScale
  3
ObjectDBX Classes
 90
     1153
280
     0
281
     0
  0
CLASS
  1
DICTIONARYVAR
  2
AcDbDictionaryVar
  3
ObjectDBX Classes
 90
        0
280
     0
281
     0
  0
CLASS
  1
ACDBPLACEHOLDER
  2
AcDbPlaceHolder
  3
ObjectDBX Classes
 90
        0
280
     0
281
     0
  0
CLASS
  1
LAYOUT
  2
AcDbLayout
  3
ObjectDBX Classes
 90
        0
280
     0
281
     0
  0
ENDSEC
  0
SECTION
  2
TABLES
  0
TABLE
  2
VPORT
  5
8
330
0
100
AcDbSymbolTable
 70
     1
  0
VPORT
  5
29
330
8
100
AcDbSymbolTableRecord
100
AcDbViewportTableRecord
  2
*Active
 70
     0
 10
0.0
 20
0.0
 11
1.0
 21
1.0
 12
11.26
 22
4.5
 13
0.0
 23
0.0
 14
10.0
 24
10.0
 15
10.0
 25
10.0
 16
0.0
 26
0.0
 36
1.0
 17
0.0
 27
0.0
 37
0.0
 40
9.0
 41
2.503333333333333
 42
50.0
 43
0.0
 44
0.0
 50
0.0
 51
0.0
 71
     0
 72
   100
 73
     1
 74
     3
 75
     0
 76
     0
 77
     0
 78
     0
281
     0
 65
     1
110
0.0
120
0.0
130
0.0
111
1.0
121
0.0
131
0.0
112
0.0
122
1.0
132
0.0
 79
     0
146
0.0
  0
ENDTAB
  0
TABLE
  2
LTYPE
  5
5
330
0
100
AcDbSymbolTable
 70
     7
  0
LTYPE
  5
14
330
5
100
AcDbSymbolTableRecord
100
AcDbLinetypeTableRecord
  2
ByBlock
 70
     0
  3

 72
    65
 73
     0
 40
0.0
  0
LTYPE
  5
15
330
5
100
AcDbSymbolTableRecord
100
AcDbLinetypeTableRecord
  2
ByLayer
 70
     0
  3

 72
    65
 73
     0
 40
0.0
  0
LTYPE
  5
16
330
5
100
AcDbSymbolTableRecord
100
AcDbLinetypeTableRecord
  2
Continuous
 70
     0
  3
Solid line
 72
    65
 73
     0
 40
0.0
  0
LTYPE
  5
129
330
5
100
AcDbSymbolTableRecord
100
AcDbLinetypeTableRecord
  2
SK1
 70
     0
  3
THICK
 72
    65
 73
     0
 40
0.0
  0
LTYPE
  5
130
330
5
100
AcDbSymbolTableRecord
100
AcDbLinetypeTableRecord
  2
NOCUT
 70
     0
  3
THICK
 72
    65
 73
     0
 40
0.0
  0
LTYPE
  5
135
330
5
100
AcDbSymbolTableRecord
100
AcDbLinetypeTableRecord
  2
SK2
 70
     0
  3
THIN
 72
    65
 73
     0
 40
0.0
  0
LTYPE
  5
1E1
330
5
100
AcDbSymbolTableRecord
100
AcDbLinetypeTableRecord
  2
L2
 70
     0
  3
THIN
 72
    65
 73
     0
 40
0.0
  0
LTYPE
  5
33E
330
5
100
AcDbSymbolTableRecord
100
AcDbLinetypeTableRecord
  2
LONGDASH_DASH
 70
     0
  3
THIN_DASHDOT
 72
    65
 73
     4
 40
0.85
 49
0.4
 74
     0
 49
-0.2
 74
     0
 49
0.05
 74
     0
 49
-0.2
 74
     0
  0
LTYPE
  5
344
330
5
100
AcDbSymbolTableRecord
100
AcDbLinetypeTableRecord
  2
INFTOTAL
 70
     0
  3
THIN
 72
    65
 73
     0
 40
0.0
  0
ENDTAB
  0
TABLE
  2
LAYER
  5
2
330
0
100
AcDbSymbolTable
 70
    11
  0
LAYER
  5
10
330
2
100
AcDbSymbolTableRecord
100
AcDbLayerTableRecord
  2
0
 70
     0
 62
     7
  6
Continuous
370
    -3
390
F
  0
LAYER
  5
44
330
2
100
AcDbSymbolTableRecord
100
AcDbLayerTableRecord
  2
1
 70
     0
 62
4
  6
CONTINUOUS
370
50
370
    -3
390
F
  0
LAYER
  5
128
330
2
100
AcDbSymbolTableRecord
100
AcDbLayerTableRecord
  2
SK1
 70
     0
 62
4
  6
CONTINUOUS
370
50
370
    -3
390
F
  0
LAYER
  5
12F
330
2
100
AcDbSymbolTableRecord
100
AcDbLayerTableRecord
  2
NOCUT
 70
     0
 62
7
  6
CONTINUOUS
370
25
370
    -3
390
F
  0
LAYER
  5
134
330
2
100
AcDbSymbolTableRecord
100
AcDbLayerTableRecord
  2
SK2
 70
     0
 62
7
  6
CONTINUOUS
370
25
370
    -3
390
F
  0
LAYER
  5
1E0
330
2
100
AcDbSymbolTableRecord
100
AcDbLayerTableRecord
  2
2
 70
     0
 62
7
  6
CONTINUOUS
370
25
370
    -3
390
F
  0
LAYER
  5
22B
330
2
100
AcDbSymbolTableRecord
100
AcDbLayerTableRecord
  2
CUT
 70
     0
 62
1
  6
CONTINUOUS
370
25
370
    -3
390
F
  0
LAYER
  5
33F
330
2
100
AcDbSymbolTableRecord
100
AcDbLayerTableRecord
  2
4
 70
     0
 62
2
  6
LONGDASH_DASH
370
25
370
    -3
390
F
  0
LAYER
  5
341
330
2
100
AcDbSymbolTableRecord
100
AcDbLayerTableRecord
  2
SK4
 70
     0
 62
2
  6
LONGDASH_DASH
370
25
370
    -3
390
F
  0
LAYER
  5
343
330
2
100
AcDbSymbolTableRecord
100
AcDbLayerTableRecord
  2
INFTOTAL
 70
     0
 62
9
  6
CONTINUOUS
370
18
370
    -3
390
F
  0
LAYER
  5
349
330
2
100
AcDbSymbolTableRecord
100
AcDbLayerTableRecord
  2
SK6
 70
     0
 62
5
  6
CONTINUOUS
370
25
370
    -3
390
F
  0
ENDTAB
  0
TABLE
  2
STYLE
  5
3
330
0
100
AcDbSymbolTable
 70
     1
  0
STYLE
  5
11
330
3
100
AcDbSymbolTableRecord
100
AcDbTextStyleTableRecord
  2
Standard
 70
     0
 40
0.0
 41
1.0
 50
0.0
 71
     0
 42
2.5
  3
Monospac821 BT
  4

  0
ENDTAB
  0
TABLE
  2
VIEW
  5
6
330
0
100
AcDbSymbolTable
 70
     0
  0
ENDTAB
  0
TABLE
  2
UCS
  5
7
330
0
100
AcDbSymbolTable
 70
     0
  0
ENDTAB
  0
TABLE
  2
APPID
  5
9
330
0
100
AcDbSymbolTable
 70
     2
  0
APPID
  5
12
330
9
100
AcDbSymbolTableRecord
100
AcDbRegAppTableRecord
  2
ACAD
 70
     0
  0
APPID
  5
3F
330
9
100
AcDbSymbolTableRecord
100
AcDbRegAppTableRecord
  2
ccLab
 70
     0
  0
ENDTAB
  0
TABLE
  2
DIMSTYLE
  5
A
330
0
100
AcDbSymbolTable
 70
     1
100
AcDbDimStyleTable
  0
DIMSTYLE
105
27
330
A
100
AcDbSymbolTableRecord
100
AcDbDimStyleTableRecord
  2
ISO-25
 70
     0
 41
2.5
 42
0.625
 43
3.75
 44
1.25
 73
     0
 74
     0
 77
     1
 78
     8
140
2.5
141
2.5
143
0.03937007874016
147
0.625
171
     3
172
     1
271
     2
272
     2
274
     3
278
    44
283
     0
284
     8
340
11
  0
ENDTAB
  0
TABLE
  2
BLOCK_RECORD
  5
1
330
0
100
AcDbSymbolTable
 70
     2
  0
BLOCK_RECORD
  5
1F
330
1
100
AcDbSymbolTableRecord
100
AcDbBlockTableRecord
  2
*Model_Space
340
22
  0
BLOCK_RECORD
  5
1B
330
1
100
AcDbSymbolTableRecord
100
AcDbBlockTableRecord
  2
*Paper_Space
340
1E
  0
BLOCK_RECORD
  5
23
330
1
100
AcDbSymbolTableRecord
100
AcDbBlockTableRecord
  2
*Paper_Space0
340
26
  0
ENDTAB
  0
ENDSEC
  0
SECTION
  2
BLOCKS
  0
BLOCK
  5
20
330
1F
100
AcDbEntity
  8
0
100
AcDbBlockBegin
  2
*Model_Space
 70
     0
 10
0.0
 20
0.0
 30
0.0
  3
*Model_Space
  1

  0
ENDBLK
  5
21
330
1F
100
AcDbEntity
  8
0
100
AcDbBlockEnd
  0
BLOCK
  5
1C
330
1B
100
AcDbEntity
 67
     1
  8
0
100
AcDbBlockBegin
  2
*Paper_Space
 70
     0
 10
0.0
 20
0.0
 30
0.0
  3
*Paper_Space
  1

  0
ENDBLK
  5
1D
330
1B
100
AcDbEntity
 67
     1
  8
0
100
AcDbBlockEnd
  0
BLOCK
  5
24
330
23
100
AcDbEntity
  8
0
100
AcDbBlockBegin
  2
*Paper_Space0
 70
     0
 10
0.0
 20
0.0
 30
0.0
  3
*Paper_Space0
  1

  0
ENDBLK
  5
25
330
23
100
AcDbEntity
  8
0
100
AcDbBlockEnd
  0
ENDSEC
  0
SECTION
  2
ENTITIES
  0
LINE
  5
353
330
1F
100
AcDbEntity
  8
1
  6
CONTINUOUS
370
50
 62
4
100
AcDbLine
 10
34.98
 20
0.0
 30
0.0
 11
34.979626
 21
0.034835
 31
0.0
  0
LINE
  5
354
330
1F
100
AcDbEntity
  8
1
  6
CONTINUOUS
370
50
 62
4
100
AcDbLine
 10
34.98
 20
-1.398631
 30
0.0
 11
34.979626
 21
-1.381213
 31
0.0
  0
LINE
  5
355
330
1F
100
AcDbEntity
  8
1
  6
CONTINUOUS
370
50
 62
4
100
AcDbLine
 10
34.98
 20
1.398631
 30
0.0
 11
34.979626
 21
1.416049
 31
0.0
  0
LINE
  5
356
330
1F
100
AcDbEntity
  8
1
  6
CONTINUOUS
370
50
 62
4
100
AcDbLine
 10
34.979626
 20
0.034835
 30
0.0
 11
34.978504
 21
0.069518
 31
0.0
  0
LINE
  5
357
330
1F
100
AcDbEntity
  8
1
  6
CONTINUOUS
370
50
 62
4
100
AcDbLine
 10
34.978504
 20
0.069518
 30
0.0
 11
34.97665
 21
0.104074
 31
0.0
  0
LINE
  5
358
330
1F
100
AcDbEntity
  8
1
  6
CONTINUOUS
370
50
 62
4
100
AcDbLine
 10
34.979626
 20
-1.381213
 30
0.0
 11
34.978504
 21
-1.363872
 31
0.0
  0
LINE
  5
359
330
1F
100
AcDbEntity
  8
1
  6
CONTINUOUS
370
50
 62
4
100
AcDbLine
 10
34.979626
 20
1.416049
 30
0.0
 11
34.978504
 21
1.43339
 31
0.0
  0
LINE
  5
35A
330
1F
100
AcDbEntity
  8
1
  6
CONTINUOUS
370
50
 62
4
100
AcDbLine
 10
34.97665
 20
0.104074
 30
0.0
 11
34.974072
 21
0.138527
 31
0.0
  0
LINE
  5
35B
330
1F
100
AcDbEntity
  8
1
  6
CONTINUOUS
370
50
 62
4
100
AcDbLine
 10
34.974072
 20
0.138527
 30
0.0
 11
34.970772
 21
0.1729
 31
0.0
  0
LINE
  5
35C
330
1F
100
AcDbEntity
  8
1
  6
CONTINUOUS
370
50
 62
4
100
AcDbLine
 10
34.978504
 20
-1.363872
 30
0.0
 11
34.97665
 21
-1.346594
 31
0.0
  0
LINE
  5
35D
330
1F
100
AcDbEntity
  8
1
  6
CONTINUOUS
370
50
 62
4
100
AcDbLine
 10
34.978504
 20
1.43339
 30
0.0
 11
34.97665
 21
1.450668
 31
0.0
  0
LINE
  5
35E
330
1F
100
AcDbEntity
  8
1
  6
CONTINUOUS
370
50
 62
4
100
AcDbLine
 10
34.970772
 20
0.1729
 30
0.0
 11
34.966759
 21
0.207217
 31
0.0
  0
LINE
  5
35F
330
1F
100
AcDbEntity
  8
1
  6
CONTINUOUS
370
50
 62
4
100
AcDbLine
 10
34.966759
 20
0.207217
 30
0.0
 11
34.962044
 21
0.2415
 31
0.0
  0
LINE
  5
360
330
1F
100
AcDbEntity
  8
1
  6
CONTINUOUS
370
50
 62
4
100
AcDbLine
 10
34.97665
 20
-1.346594
 30
0.0
 11
34.974072
 21
-1.329368
 31
0.0
  0
LINE
  5
361
330
1F
100
AcDbEntity
  8
1
  6
CONTINUOUS
370
50
 62
4
100
AcDbLine
 10
34.97665
 20
1.450668
 30
0.0
 11
34.974072
 21
1.467894
 31
0.0
  0
LINE
  5
362
330
1F
100
AcDbEntity
  8
1
  6
CONTINUOUS
370
50
 62
4
100
AcDbLine
 10
34.974072
 20
-1.329368
 30
0.0
 11
34.970772
 21
-1.312181
 31
0.0
  0
LINE
  5
363
330
1F
100
AcDbEntity
  8
1
  6
CONTINUOUS
370
50
 62
4
100
AcDbLine
 10
34.974072
 20
1.467894
 30
0.0
 11
34.970772
 21
1.485081
 31
0.0
  0
LINE
  5
364
330
1F
100
AcDbEntity
  8
1
  6
CONTINUOUS
370
50
 62
4
100
AcDbLine
 10
34.970772
 20
-1.312181
 30
0.0
 11
34.966759
 21
-1.295023
 31
0.0
  0
LINE
  5
365
330
1F
100
AcDbEntity
  8
1
  6
CONTINUOUS
370
50
 62
4
100
AcDbLine
 10
34.970772
 20
1.485081
 30
0.0
 11
34.966759
 21
1.502239
 31
0.0
  0
LINE
  5
366
330
1F
100
AcDbEntity
  8
1
  6
CONTINUOUS
370
50
 62
4
100
AcDbLine
 10
34.966759
 20
-1.295023
 30
0.0
 11
34.962044
 21
-1.277881
 31
0.0
  0
LINE
  5
367
330
1F
100
AcDbEntity
  8
1
  6
CONTINUOUS
370
50
 62
4
100
AcDbLine
 10
34.966759
 20
1.502239
 30
0.0
 11
34.962044
 21
1.519381
 31
0.0
  0
LINE
  5
368
330
1F
100
AcDbEntity
  8
1
  6
CONTINUOUS
370
50
 62
4
100
AcDbLine
 10
34.98
 20
1.615
 30
0.0
 11
34.288857
 21
2.306144
 31
0.0
  0
LINE
  5
369
330
1F
100
AcDbEntity
  8
1
  6
CONTINUOUS
370
50
 62
4
100
AcDbLine
 10
34.287022
 20
2.3081
 30
0.0
 11
34.269356
 21
2.325727
 31
0.0
  0
LINE
  5
36A
330
1F
100
AcDbEntity
  8
1
  6
CONTINUOUS
370
50
 62
4
100
AcDbLine
 10
34.269356
 20
2.325727
 30
0.0
 11
34.251617
 21
2.343408
 31
0.0
  0
LINE
  5
36B
330
1F
100
AcDbEntity
  8
1
  6
CONTINUOUS
370
50
 62
4
100
AcDbLine
 10
34.251617
 20
2.343408
 30
0.0
 11
34.233807
 21
2.36114
 31
0.0
  0
LINE
  5
36C
330
1F
100
AcDbEntity
  8
1
  6
CONTINUOUS
370
50
 62
4
100
AcDbLine
 10
34.233807
 20
2.36114
 30
0.0
 11
34.215931
 21
2.378922
 31
0.0
  0
LINE
  5
36D
330
1F
100
AcDbEntity
  8
1
  6
CONTINUOUS
370
50
 62
4
100
AcDbLine
 10
34.215931
 20
2.378922
 30
0.0
 11
34.197994
 21
2.396748
 31
0.0
  0
LINE
  5
36E
330
1F
100
AcDbEntity
  8
1
  6
CONTINUOUS
370
50
 62
4
100
AcDbLine
 10
34.197994
 20
2.396748
 30
0.0
 11
34.180004
 21
2.414618
 31
0.0
  0
LINE
  5
36F
330
1F
100
AcDbEntity
  8
1
  6
CONTINUOUS
370
50
 62
4
100
AcDbLine
 10
34.962044
 20
1.519381
 30
0.0
 11
34.868095
 21
1.601598
 31
0.0
  0
LINE
  5
370
330
1F
100
AcDbEntity
  8
1
  6
CONTINUOUS
370
50
 62
4
100
AcDbLine
 10
34.868095
 20
1.601598
 30
0.0
 11
34.769016
 21
1.688208
 31
0.0
  0
LINE
  5
371
330
1F
100
AcDbEntity
  8
1
  6
CONTINUOUS
370
50
 62
4
100
AcDbLine
 10
34.769016
 20
1.688208
 30
0.0
 11
34.664383
 21
1.779582
 31
0.0
  0
LINE
  5
372
330
1F
100
AcDbEntity
  8
1
  6
CONTINUOUS
370
50
 62
4
100
AcDbLine
 10
34.664383
 20
1.779582
 30
0.0
 11
34.553722
 21
1.876132
 31
0.0
  0
LINE
  5
373
330
1F
100
AcDbEntity
  8
1
  6
CONTINUOUS
370
50
 62
4
100
AcDbLine
 10
34.553722
 20
1.876132
 30
0.0
 11
34.436516
 21
1.978317
 31
0.0
  0
LINE
  5
374
330
1F
100
AcDbEntity
  8
1
  6
CONTINUOUS
370
50
 62
4
100
AcDbLine
 10
34.436516
 20
1.978317
 30
0.0
 11
34.31216
 21
2.086652
 31
0.0
  0
LINE
  5
375
330
1F
100
AcDbEntity
  8
1
  6
CONTINUOUS
370
50
 62
4
100
AcDbLine
 10
34.31216
 20
2.086652
 30
0.0
 11
34.18
 21
2.201718
 31
0.0
  0
LINE
  5
376
330
1F
100
AcDbEntity
  8
1
  6
CONTINUOUS
370
50
 62
4
100
AcDbLine
 10
2.599396
 20
-2.19465
 30
0.0
 11
2.56171
 21
-2.172572
 31
0.0
  0
LINE
  5
377
330
1F
100
AcDbEntity
  8
1
  6
CONTINUOUS
370
50
 62
4
100
AcDbLine
 10
2.599396
 20
-2.19465
 30
0.0
 11
2.56171
 21
-2.172572
 31
0.0
  0
LINE
  5
378
330
1F
100
AcDbEntity
  8
1
  6
CONTINUOUS
370
50
 62
4
100
AcDbLine
 10
2.637309
 20
-2.216784
 30
0.0
 11
2.599396
 21
-2.19465
 31
0.0
  0
LINE
  5
379
330
1F
100
AcDbEntity
  8
1
  6
CONTINUOUS
370
50
 62
4
100
AcDbLine
 10
2.637309
 20
-2.216784
 30
0.0
 11
2.599396
 21
-2.19465
 31
0.0
  0
LINE
  5
37A
330
1F
100
AcDbEntity
  8
1
  6
CONTINUOUS
370
50
 62
4
100
AcDbLine
 10
2.675431
 20
-2.238974
 30
0.0
 11
2.637309
 21
-2.216784
 31
0.0
  0
LINE
  5
37B
330
1F
100
AcDbEntity
  8
1
  6
CONTINUOUS
370
50
 62
4
100
AcDbLine
 10
2.675431
 20
-2.238974
 30
0.0
 11
2.637309
 21
-2.216784
 31
0.0
  0
LINE
  5
37C
330
1F
100
AcDbEntity
  8
1
  6
CONTINUOUS
370
50
 62
4
100
AcDbLine
 10
2.713747
 20
-2.261216
 30
0.0
 11
2.675431
 21
-2.238974
 31
0.0
  0
LINE
  5
37D
330
1F
100
AcDbEntity
  8
1
  6
CONTINUOUS
370
50
 62
4
100
AcDbLine
 10
2.713747
 20
-2.261216
 30
0.0
 11
2.675431
 21
-2.238974
 31
0.0
  0
LINE
  5
37E
330
1F
100
AcDbEntity
  8
1
  6
CONTINUOUS
370
50
 62
4
100
AcDbLine
 10
2.752241
 20
-2.283507
 30
0.0
 11
2.713747
 21
-2.261216
 31
0.0
  0
LINE
  5
37F
330
1F
100
AcDbEntity
  8
1
  6
CONTINUOUS
370
50
 62
4
100
AcDbLine
 10
2.752241
 20
-2.283507
 30
0.0
 11
2.713747
 21
-2.261216
 31
0.0
  0
LINE
  5
380
330
1F
100
AcDbEntity
  8
1
  6
CONTINUOUS
370
50
 62
4
100
AcDbLine
 10
2.790896
 20
-2.305843
 30
0.0
 11
2.752241
 21
-2.283507
 31
0.0
  0
LINE
  5
381
330
1F
100
AcDbEntity
  8
1
  6
CONTINUOUS
370
50
 62
4
100
AcDbLine
 10
2.790896
 20
-2.305843
 30
0.0
 11
2.752241
 21
-2.283507
 31
0.0
  0
LINE
  5
382
330
1F
100
AcDbEntity
  8
1
  6
CONTINUOUS
370
50
 62
4
100
AcDbLine
 10
2.790743
 20
-2.305732
 30
0.0
 11
2.56171
 21
-2.1735
 31
0.0
  0
LINE
  5
383
330
1F
100
AcDbEntity
  8
1
  6
CONTINUOUS
370
50
 62
4
100
AcDbLine
 10
1.565515
 20
2.1735
 30
0.0
 11
1.0
 21
2.5
 31
0.0
  0
LINE
  5
384
330
1F
100
AcDbEntity
  8
1
  6
CONTINUOUS
370
50
 62
4
100
AcDbLine
 10
2.822223
 20
-2.323913
 30
0.0
 11
2.790896
 21
-2.305843
 31
0.0
  0
LINE
  5
385
330
1F
100
AcDbEntity
  8
1
  6
CONTINUOUS
370
50
 62
4
100
AcDbLine
 10
2.822223
 20
-2.323913
 30
0.0
 11
2.790896
 21
-2.305843
 31
0.0
  0
LINE
  5
386
330
1F
100
AcDbEntity
  8
1
  6
CONTINUOUS
370
50
 62
4
100
AcDbLine
 10
2.853636
 20
-2.342008
 30
0.0
 11
2.822223
 21
-2.323913
 31
0.0
  0
LINE
  5
387
330
1F
100
AcDbEntity
  8
1
  6
CONTINUOUS
370
50
 62
4
100
AcDbLine
 10
2.853636
 20
-2.342008
 30
0.0
 11
2.822223
 21
-2.323913
 31
0.0
  0
LINE
  5
388
330
1F
100
AcDbEntity
  8
1
  6
CONTINUOUS
370
50
 62
4
100
AcDbLine
 10
2.885129
 20
-2.360128
 30
0.0
 11
2.853636
 21
-2.342008
 31
0.0
  0
LINE
  5
389
330
1F
100
AcDbEntity
  8
1
  6
CONTINUOUS
370
50
 62
4
100
AcDbLine
 10
2.885129
 20
-2.360128
 30
0.0
 11
2.853636
 21
-2.342008
 31
0.0
  0
LINE
  5
38A
330
1F
100
AcDbEntity
  8
1
  6
CONTINUOUS
370
50
 62
4
100
AcDbLine
 10
2.916693
 20
-2.378269
 30
0.0
 11
2.885129
 21
-2.360128
 31
0.0
  0
LINE
  5
38B
330
1F
100
AcDbEntity
  8
1
  6
CONTINUOUS
370
50
 62
4
100
AcDbLine
 10
2.916693
 20
-2.378269
 30
0.0
 11
2.885129
 21
-2.360128
 31
0.0
  0
LINE
  5
38C
330
1F
100
AcDbEntity
  8
1
  6
CONTINUOUS
370
50
 62
4
100
AcDbLine
 10
2.948319
 20
-2.396431
 30
0.0
 11
2.916693
 21
-2.378269
 31
0.0
  0
LINE
  5
38D
330
1F
100
AcDbEntity
  8
1
  6
CONTINUOUS
370
50
 62
4
100
AcDbLine
 10
2.948319
 20
-2.396431
 30
0.0
 11
2.916693
 21
-2.378269
 31
0.0
  0
LINE
  5
38E
330
1F
100
AcDbEntity
  8
1
  6
CONTINUOUS
370
50
 62
4
100
AcDbLine
 10
2.98
 20
-2.414612
 30
0.0
 11
2.948319
 21
-2.396431
 31
0.0
  0
LINE
  5
38F
330
1F
100
AcDbEntity
  8
1
  6
CONTINUOUS
370
50
 62
4
100
AcDbLine
 10
2.98
 20
-2.414612
 30
0.0
 11
2.948319
 21
-2.396431
 31
0.0
  0
LINE
  5
390
330
1F
100
AcDbEntity
  8
1
  6
CONTINUOUS
370
50
 62
4
100
AcDbLine
 10
2.620198
 20
-1.063617
 30
0.0
 11
2.56171
 21
-1.031285
 31
0.0
  0
LINE
  5
391
330
1F
100
AcDbEntity
  8
1
  6
CONTINUOUS
370
50
 62
4
100
AcDbLine
 10
2.620198
 20
-1.063617
 30
0.0
 11
2.56171
 21
-1.031285
 31
0.0
  0
LINE
  5
392
330
1F
100
AcDbEntity
  8
1
  6
CONTINUOUS
370
50
 62
4
100
AcDbLine
 10
2.679207
 20
-1.095335
 30
0.0
 11
2.620198
 21
-1.063617
 31
0.0
  0
LINE
  5
393
330
1F
100
AcDbEntity
  8
1
  6
CONTINUOUS
370
50
 62
4
100
AcDbLine
 10
2.679207
 20
-1.095335
 30
0.0
 11
2.620198
 21
-1.063617
 31
0.0
  0
LINE
  5
394
330
1F
100
AcDbEntity
  8
1
  6
CONTINUOUS
370
50
 62
4
100
AcDbLine
 10
2.738676
 20
-1.126445
 30
0.0
 11
2.679207
 21
-1.095335
 31
0.0
  0
LINE
  5
395
330
1F
100
AcDbEntity
  8
1
  6
CONTINUOUS
370
50
 62
4
100
AcDbLine
 10
2.738676
 20
-1.126445
 30
0.0
 11
2.679207
 21
-1.095335
 31
0.0
  0
LINE
  5
396
330
1F
100
AcDbEntity
  8
1
  6
CONTINUOUS
370
50
 62
4
100
AcDbLine
 10
2.798548
 20
-1.156947
 30
0.0
 11
2.738676
 21
-1.126445
 31
0.0
  0
LINE
  5
397
330
1F
100
AcDbEntity
  8
1
  6
CONTINUOUS
370
50
 62
4
100
AcDbLine
 10
2.798548
 20
-1.156947
 30
0.0
 11
2.738676
 21
-1.126445
 31
0.0
  0
LINE
  5
398
330
1F
100
AcDbEntity
  8
1
  6
CONTINUOUS
370
50
 62
4
100
AcDbLine
 10
2.618788
 20
-1.778615
 30
0.0
 11
2.56171
 21
-1.749901
 31
0.0
  0
LINE
  5
399
330
1F
100
AcDbEntity
  8
1
  6
CONTINUOUS
370
50
 62
4
100
AcDbLine
 10
2.618788
 20
-1.778615
 30
0.0
 11
2.56171
 21
-1.749901
 31
0.0
  0
LINE
  5
39A
330
1F
100
AcDbEntity
  8
1
  6
CONTINUOUS
370
50
 62
4
100
AcDbLine
 10
2.676725
 20
-1.807756
 30
0.0
 11
2.618788
 21
-1.778615
 31
0.0
  0
LINE
  5
39B
330
1F
100
AcDbEntity
  8
1
  6
CONTINUOUS
370
50
 62
4
100
AcDbLine
 10
2.676725
 20
-1.807756
 30
0.0
 11
2.618788
 21
-1.778615
 31
0.0
  0
LINE
  5
39C
330
1F
100
AcDbEntity
  8
1
  6
CONTINUOUS
370
50
 62
4
100
AcDbLine
 10
2.735542
 20
-1.837334
 30
0.0
 11
2.676725
 21
-1.807756
 31
0.0
  0
LINE
  5
39D
330
1F
100
AcDbEntity
  8
1
  6
CONTINUOUS
370
50
 62
4
100
AcDbLine
 10
2.735542
 20
-1.837334
 30
0.0
 11
2.676725
 21
-1.807756
 31
0.0
  0
LINE
  5
39E
330
1F
100
AcDbEntity
  8
1
  6
CONTINUOUS
370
50
 62
4
100
AcDbLine
 10
2.795256
 20
-1.867359
 30
0.0
 11
2.735542
 21
-1.837334
 31
0.0
  0
LINE
  5
39F
330
1F
100
AcDbEntity
  8
1
  6
CONTINUOUS
370
50
 62
4
100
AcDbLine
 10
2.795256
 20
-1.867359
 30
0.0
 11
2.735542
 21
-1.837334
 31
0.0
  0
LINE
  5
3A0
330
1F
100
AcDbEntity
  8
1
  6
CONTINUOUS
370
50
 62
4
100
AcDbLine
 10
2.85589
 20
-1.897841
 30
0.0
 11
2.795256
 21
-1.867359
 31
0.0
  0
LINE
  5
3A1
330
1F
100
AcDbEntity
  8
1
  6
CONTINUOUS
370
50
 62
4
100
AcDbLine
 10
2.85589
 20
-1.897841
 30
0.0
 11
2.795256
 21
-1.867359
 31
0.0
  0
LINE
  5
3A2
330
1F
100
AcDbEntity
  8
1
  6
CONTINUOUS
370
50
 62
4
100
AcDbLine
 10
2.917464
 20
-1.92879
 30
0.0
 11
2.85589
 21
-1.897841
 31
0.0
  0
LINE
  5
3A3
330
1F
100
AcDbEntity
  8
1
  6
CONTINUOUS
370
50
 62
4
100
AcDbLine
 10
2.917464
 20
-1.92879
 30
0.0
 11
2.85589
 21
-1.897841
 31
0.0
  0
LINE
  5
3A4
330
1F
100
AcDbEntity
  8
1
  6
CONTINUOUS
370
50
 62
4
100
AcDbLine
 10
2.98
 20
-1.960218
 30
0.0
 11
2.917464
 21
-1.92879
 31
0.0
  0
LINE
  5
3A5
330
1F
100
AcDbEntity
  8
1
  6
CONTINUOUS
370
50
 62
4
100
AcDbLine
 10
2.98
 20
-1.960218
 30
0.0
 11
2.917464
 21
-1.92879
 31
0.0
  0
LINE
  5
3A6
330
1F
100
AcDbEntity
  8
1
  6
CONTINUOUS
370
50
 62
4
100
AcDbLine
 10
2.858765
 20
-1.186841
 30
0.0
 11
2.798548
 21
-1.156947
 31
0.0
  0
LINE
  5
3A7
330
1F
100
AcDbEntity
  8
1
  6
CONTINUOUS
370
50
 62
4
100
AcDbLine
 10
2.858765
 20
-1.186841
 30
0.0
 11
2.798548
 21
-1.156947
 31
0.0
  0
LINE
  5
3A8
330
1F
100
AcDbEntity
  8
1
  6
CONTINUOUS
370
50
 62
4
100
AcDbLine
 10
2.919269
 20
-1.216129
 30
0.0
 11
2.858765
 21
-1.186841
 31
0.0
  0
LINE
  5
3A9
330
1F
100
AcDbEntity
  8
1
  6
CONTINUOUS
370
50
 62
4
100
AcDbLine
 10
2.919269
 20
-1.216129
 30
0.0
 11
2.858765
 21
-1.186841
 31
0.0
  0
LINE
  5
3AA
330
1F
100
AcDbEntity
  8
1
  6
CONTINUOUS
370
50
 62
4
100
AcDbLine
 10
2.98
 20
-1.244811
 30
0.0
 11
2.919269
 21
-1.216129
 31
0.0
  0
LINE
  5
3AB
330
1F
100
AcDbEntity
  8
1
  6
CONTINUOUS
370
50
 62
4
100
AcDbLine
 10
2.98
 20
-1.244811
 30
0.0
 11
2.919269
 21
-1.216129
 31
0.0
  0
LINE
  5
3AC
330
1F
100
AcDbEntity
  8
1
  6
CONTINUOUS
370
50
 62
4
100
AcDbLine
 10
34.232639
 20
1.160812
 30
0.0
 11
34.180004
 21
1.169808
 31
0.0
  0
LINE
  5
3AD
330
1F
100
AcDbEntity
  8
1
  6
CONTINUOUS
370
50
 62
4
100
AcDbLine
 10
34.284721
 20
1.153402
 30
0.0
 11
34.232639
 21
1.160812
 31
0.0
  0
LINE
  5
3AE
330
1F
100
AcDbEntity
  8
1
  6
CONTINUOUS
370
50
 62
4
100
AcDbLine
 10
34.33609
 20
1.147592
 30
0.0
 11
34.284721
 21
1.153402
 31
0.0
  0
LINE
  5
3AF
330
1F
100
AcDbEntity
  8
1
  6
CONTINUOUS
370
50
 62
4
100
AcDbLine
 10
34.386604
 20
1.143394
 30
0.0
 11
34.33609
 21
1.147592
 31
0.0
  0
LINE
  5
3B0
330
1F
100
AcDbEntity
  8
1
  6
CONTINUOUS
370
50
 62
4
100
AcDbLine
 10
34.436111
 20
1.140821
 30
0.0
 11
34.386604
 21
1.143394
 31
0.0
  0
LINE
  5
3B1
330
1F
100
AcDbEntity
  8
1
  6
CONTINUOUS
370
50
 62
4
100
AcDbLine
 10
34.484459
 20
1.139884
 30
0.0
 11
34.436111
 21
1.140821
 31
0.0
  0
LINE
  5
3B2
330
1F
100
AcDbEntity
  8
1
  6
CONTINUOUS
370
50
 62
4
100
AcDbLine
 10
0.0
 20
-2.5
 30
0.0
 11
1.0
 21
-2.5
 31
0.0
  0
LINE
  5
3B3
330
1F
100
AcDbEntity
  8
1
  6
CONTINUOUS
370
50
 62
4
100
AcDbLine
 10
2.98
 20
-2.414612
 30
0.0
 11
34.18
 21
-2.414612
 31
0.0
  0
LINE
  5
3B4
330
1F
100
AcDbEntity
  8
1
  6
CONTINUOUS
370
50
 62
4
100
AcDbLine
 10
1.565515
 20
-2.1735
 30
0.0
 11
2.56171
 21
-2.1735
 31
0.0
  0
LINE
  5
3B5
330
1F
100
AcDbEntity
  8
1
  6
CONTINUOUS
370
50
 62
4
100
AcDbLine
 10
2.98
 20
-1.960218
 30
0.0
 11
34.18
 21
-1.960218
 31
0.0
  0
LINE
  5
3B6
330
1F
100
AcDbEntity
  8
1
  6
CONTINUOUS
370
50
 62
4
100
AcDbLine
 10
2.98
 20
-1.244811
 30
0.0
 11
34.18
 21
-1.244811
 31
0.0
  0
LINE
  5
3B7
330
1F
100
AcDbEntity
  8
1
  6
CONTINUOUS
370
50
 62
4
100
AcDbLine
 10
2.56171
 20
0.0
 30
0.0
 11
34.98
 21
0.0
 31
0.0
  0
LINE
  5
3B8
330
1F
100
AcDbEntity
  8
1
  6
CONTINUOUS
370
50
 62
4
100
AcDbLine
 10
2.56171
 20
0.2415
 30
0.0
 11
34.962044
 21
0.2415
 31
0.0
  0
LINE
  5
3B9
330
1F
100
AcDbEntity
  8
1
  6
CONTINUOUS
370
50
 62
4
100
AcDbLine
 10
2.98
 20
1.169801
 30
0.0
 11
34.18
 21
1.169801
 31
0.0
  0
LINE
  5
3BA
330
1F
100
AcDbEntity
  8
1
  6
CONTINUOUS
370
50
 62
4
100
AcDbLine
 10
2.56171
 20
1.398631
 30
0.0
 11
34.98
 21
1.398631
 31
0.0
  0
LINE
  5
3BB
330
1F
100
AcDbEntity
  8
1
  6
CONTINUOUS
370
50
 62
4
100
AcDbLine
 10
2.56171
 20
1.519381
 30
0.0
 11
34.962044
 21
1.519381
 31
0.0
  0
LINE
  5
3BC
330
1F
100
AcDbEntity
  8
1
  6
CONTINUOUS
370
50
 62
4
100
AcDbLine
 10
1.565515
 20
2.1735
 30
0.0
 11
2.56171
 21
2.1735
 31
0.0
  0
LINE
  5
3BD
330
1F
100
AcDbEntity
  8
1
  6
CONTINUOUS
370
50
 62
4
100
AcDbLine
 10
2.98
 20
2.201718
 30
0.0
 11
34.18
 21
2.201718
 31
0.0
  0
LINE
  5
3BE
330
1F
100
AcDbEntity
  8
1
  6
CONTINUOUS
370
50
 62
4
100
AcDbLine
 10
2.98
 20
2.414612
 30
0.0
 11
34.18
 21
2.414612
 31
0.0
  0
LINE
  5
3BF
330
1F
100
AcDbEntity
  8
1
  6
CONTINUOUS
370
50
 62
4
100
AcDbLine
 10
0.0
 20
2.5
 30
0.0
 11
1.0
 21
2.5
 31
0.0
  0
LINE
  5
3C0
330
1F
100
AcDbEntity
  8
1
  6
CONTINUOUS
370
50
 62
4
100
AcDbLine
 10
34.484459
 20
1.139884
 30
0.0
 11
34.54108
 21
1.140952
 31
0.0
  0
LINE
  5
3C1
330
1F
100
AcDbEntity
  8
1
  6
CONTINUOUS
370
50
 62
4
100
AcDbLine
 10
2.56171
 20
1.141287
 30
0.0
 11
2.620198
 21
1.143186
 31
0.0
  0
LINE
  5
3C2
330
1F
100
AcDbEntity
  8
1
  6
CONTINUOUS
370
50
 62
4
100
AcDbLine
 10
2.56171
 20
1.141287
 30
0.0
 11
2.620198
 21
1.143186
 31
0.0
  0
LINE
  5
3C3
330
1F
100
AcDbEntity
  8
1
  6
CONTINUOUS
370
50
 62
4
100
AcDbLine
 10
2.620198
 20
1.143186
 30
0.0
 11
2.679207
 21
1.145832
 31
0.0
  0
LINE
  5
3C4
330
1F
100
AcDbEntity
  8
1
  6
CONTINUOUS
370
50
 62
4
100
AcDbLine
 10
2.620198
 20
1.143186
 30
0.0
 11
2.679207
 21
1.145832
 31
0.0
  0
LINE
  5
3C5
330
1F
100
AcDbEntity
  8
1
  6
CONTINUOUS
370
50
 62
4
100
AcDbLine
 10
2.679207
 20
1.145832
 30
0.0
 11
2.738676
 21
1.149212
 31
0.0
  0
LINE
  5
3C6
330
1F
100
AcDbEntity
  8
1
  6
CONTINUOUS
370
50
 62
4
100
AcDbLine
 10
2.679207
 20
1.145832
 30
0.0
 11
2.738676
 21
1.149212
 31
0.0
  0
LINE
  5
3C7
330
1F
100
AcDbEntity
  8
1
  6
CONTINUOUS
370
50
 62
4
100
AcDbLine
 10
34.54108
 20
1.140952
 30
0.0
 11
34.595531
 21
1.144447
 31
0.0
  0
LINE
  5
3C8
330
1F
100
AcDbEntity
  8
1
  6
CONTINUOUS
370
50
 62
4
100
AcDbLine
 10
2.738676
 20
1.149212
 30
0.0
 11
2.798548
 21
1.153313
 31
0.0
  0
LINE
  5
3C9
330
1F
100
AcDbEntity
  8
1
  6
CONTINUOUS
370
50
 62
4
100
AcDbLine
 10
2.738676
 20
1.149212
 30
0.0
 11
2.798548
 21
1.153313
 31
0.0
  0
LINE
  5
3CA
330
1F
100
AcDbEntity
  8
1
  6
CONTINUOUS
370
50
 62
4
100
AcDbLine
 10
2.798548
 20
1.153313
 30
0.0
 11
2.858765
 21
1.15812
 31
0.0
  0
LINE
  5
3CB
330
1F
100
AcDbEntity
  8
1
  6
CONTINUOUS
370
50
 62
4
100
AcDbLine
 10
2.798548
 20
1.153313
 30
0.0
 11
2.858765
 21
1.15812
 31
0.0
  0
LINE
  5
3CC
330
1F
100
AcDbEntity
  8
1
  6
CONTINUOUS
370
50
 62
4
100
AcDbLine
 10
2.858765
 20
1.15812
 30
0.0
 11
2.919269
 21
1.16362
 31
0.0
  0
LINE
  5
3CD
330
1F
100
AcDbEntity
  8
1
  6
CONTINUOUS
370
50
 62
4
100
AcDbLine
 10
2.858765
 20
1.15812
 30
0.0
 11
2.919269
 21
1.16362
 31
0.0
  0
LINE
  5
3CE
330
1F
100
AcDbEntity
  8
1
  6
CONTINUOUS
370
50
 62
4
100
AcDbLine
 10
2.919269
 20
1.16362
 30
0.0
 11
2.98
 21
1.169801
 31
0.0
  0
LINE
  5
3CF
330
1F
100
AcDbEntity
  8
1
  6
CONTINUOUS
370
50
 62
4
100
AcDbLine
 10
2.919269
 20
1.16362
 30
0.0
 11
2.98
 21
1.169801
 31
0.0
  0
LINE
  5
3D0
330
1F
100
AcDbEntity
  8
1
  6
CONTINUOUS
370
50
 62
4
100
AcDbLine
 10
34.595531
 20
1.144447
 30
0.0
 11
34.647591
 21
1.150395
 31
0.0
  0
LINE
  5
3D1
330
1F
100
AcDbEntity
  8
1
  6
CONTINUOUS
370
50
 62
4
100
AcDbLine
 10
34.647591
 20
1.150395
 30
0.0
 11
34.698589
 21
1.159152
 31
0.0
  0
LINE
  5
3D2
330
1F
100
AcDbEntity
  8
1
  6
CONTINUOUS
370
50
 62
4
100
AcDbLine
 10
34.698589
 20
1.159152
 30
0.0
 11
34.748482
 21
1.171067
 31
0.0
  0
LINE
  5
3D3
330
1F
100
AcDbEntity
  8
1
  6
CONTINUOUS
370
50
 62
4
100
AcDbLine
 10
34.748482
 20
1.171067
 30
0.0
 11
34.796162
 21
1.186355
 31
0.0
  0
LINE
  5
3D4
330
1F
100
AcDbEntity
  8
1
  6
CONTINUOUS
370
50
 62
4
100
AcDbLine
 10
34.796162
 20
1.186355
 30
0.0
 11
34.840515
 21
1.205234
 31
0.0
  0
LINE
  5
3D5
330
1F
100
AcDbEntity
  8
1
  6
CONTINUOUS
370
50
 62
4
100
AcDbLine
 10
2.917464
 20
2.17029
 30
0.0
 11
2.98
 21
2.201718
 31
0.0
  0
LINE
  5
3D6
330
1F
100
AcDbEntity
  8
1
  6
CONTINUOUS
370
50
 62
4
100
AcDbLine
 10
2.917464
 20
2.17029
 30
0.0
 11
2.98
 21
2.201718
 31
0.0
  0
LINE
  5
3D7
330
1F
100
AcDbEntity
  8
1
  6
CONTINUOUS
370
50
 62
4
100
AcDbLine
 10
2.85589
 20
2.139341
 30
0.0
 11
2.917464
 21
2.17029
 31
0.0
  0
LINE
  5
3D8
330
1F
100
AcDbEntity
  8
1
  6
CONTINUOUS
370
50
 62
4
100
AcDbLine
 10
2.85589
 20
2.139341
 30
0.0
 11
2.917464
 21
2.17029
 31
0.0
  0
LINE
  5
3D9
330
1F
100
AcDbEntity
  8
1
  6
CONTINUOUS
370
50
 62
4
100
AcDbLine
 10
2.795256
 20
2.108859
 30
0.0
 11
2.85589
 21
2.139341
 31
0.0
  0
LINE
  5
3DA
330
1F
100
AcDbEntity
  8
1
  6
CONTINUOUS
370
50
 62
4
100
AcDbLine
 10
2.795256
 20
2.108859
 30
0.0
 11
2.85589
 21
2.139341
 31
0.0
  0
LINE
  5
3DB
330
1F
100
AcDbEntity
  8
1
  6
CONTINUOUS
370
50
 62
4
100
AcDbLine
 10
2.735542
 20
2.078834
 30
0.0
 11
2.795256
 21
2.108859
 31
0.0
  0
LINE
  5
3DC
330
1F
100
AcDbEntity
  8
1
  6
CONTINUOUS
370
50
 62
4
100
AcDbLine
 10
2.735542
 20
2.078834
 30
0.0
 11
2.795256
 21
2.108859
 31
0.0
  0
LINE
  5
3DD
330
1F
100
AcDbEntity
  8
1
  6
CONTINUOUS
370
50
 62
4
100
AcDbLine
 10
2.676725
 20
2.049256
 30
0.0
 11
2.735542
 21
2.078834
 31
0.0
  0
LINE
  5
3DE
330
1F
100
AcDbEntity
  8
1
  6
CONTINUOUS
370
50
 62
4
100
AcDbLine
 10
2.676725
 20
2.049256
 30
0.0
 11
2.735542
 21
2.078834
 31
0.0
  0
LINE
  5
3DF
330
1F
100
AcDbEntity
  8
1
  6
CONTINUOUS
370
50
 62
4
100
AcDbLine
 10
2.618788
 20
2.020115
 30
0.0
 11
2.676725
 21
2.049256
 31
0.0
  0
LINE
  5
3E0
330
1F
100
AcDbEntity
  8
1
  6
CONTINUOUS
370
50
 62
4
100
AcDbLine
 10
2.618788
 20
2.020115
 30
0.0
 11
2.676725
 21
2.049256
 31
0.0
  0
LINE
  5
3E1
330
1F
100
AcDbEntity
  8
1
  6
CONTINUOUS
370
50
 62
4
100
AcDbLine
 10
2.56171
 20
1.991401
 30
0.0
 11
2.618788
 21
2.020115
 31
0.0
  0
LINE
  5
3E2
330
1F
100
AcDbEntity
  8
1
  6
CONTINUOUS
370
50
 62
4
100
AcDbLine
 10
2.56171
 20
1.991401
 30
0.0
 11
2.618788
 21
2.020115
 31
0.0
  0
LINE
  5
3E3
330
1F
100
AcDbEntity
  8
1
  6
CONTINUOUS
370
50
 62
4
100
AcDbLine
 10
34.840515
 20
1.205234
 30
0.0
 11
34.880436
 21
1.227917
 31
0.0
  0
LINE
  5
3E4
330
1F
100
AcDbEntity
  8
1
  6
CONTINUOUS
370
50
 62
4
100
AcDbLine
 10
2.948319
 20
2.396431
 30
0.0
 11
2.98
 21
2.414612
 31
0.0
  0
LINE
  5
3E5
330
1F
100
AcDbEntity
  8
1
  6
CONTINUOUS
370
50
 62
4
100
AcDbLine
 10
2.948319
 20
2.396431
 30
0.0
 11
2.98
 21
2.414612
 31
0.0
  0
LINE
  5
3E6
330
1F
100
AcDbEntity
  8
1
  6
CONTINUOUS
370
50
 62
4
100
AcDbLine
 10
2.916693
 20
2.378269
 30
0.0
 11
2.948319
 21
2.396431
 31
0.0
  0
LINE
  5
3E7
330
1F
100
AcDbEntity
  8
1
  6
CONTINUOUS
370
50
 62
4
100
AcDbLine
 10
2.916693
 20
2.378269
 30
0.0
 11
2.948319
 21
2.396431
 31
0.0
  0
LINE
  5
3E8
330
1F
100
AcDbEntity
  8
1
  6
CONTINUOUS
370
50
 62
4
100
AcDbLine
 10
2.885129
 20
2.360128
 30
0.0
 11
2.916693
 21
2.378269
 31
0.0
  0
LINE
  5
3E9
330
1F
100
AcDbEntity
  8
1
  6
CONTINUOUS
370
50
 62
4
100
AcDbLine
 10
2.885129
 20
2.360128
 30
0.0
 11
2.916693
 21
2.378269
 31
0.0
  0
LINE
  5
3EA
330
1F
100
AcDbEntity
  8
1
  6
CONTINUOUS
370
50
 62
4
100
AcDbLine
 10
2.853636
 20
2.342008
 30
0.0
 11
2.885129
 21
2.360128
 31
0.0
  0
LINE
  5
3EB
330
1F
100
AcDbEntity
  8
1
  6
CONTINUOUS
370
50
 62
4
100
AcDbLine
 10
2.853636
 20
2.342008
 30
0.0
 11
2.885129
 21
2.360128
 31
0.0
  0
LINE
  5
3EC
330
1F
100
AcDbEntity
  8
1
  6
CONTINUOUS
370
50
 62
4
100
AcDbLine
 10
2.822223
 20
2.323913
 30
0.0
 11
2.853636
 21
2.342008
 31
0.0
  0
LINE
  5
3ED
330
1F
100
AcDbEntity
  8
1
  6
CONTINUOUS
370
50
 62
4
100
AcDbLine
 10
2.822223
 20
2.323913
 30
0.0
 11
2.853636
 21
2.342008
 31
0.0
  0
LINE
  5
3EE
330
1F
100
AcDbEntity
  8
1
  6
CONTINUOUS
370
50
 62
4
100
AcDbLine
 10
2.790896
 20
2.305843
 30
0.0
 11
2.822223
 21
2.323913
 31
0.0
  0
LINE
  5
3EF
330
1F
100
AcDbEntity
  8
1
  6
CONTINUOUS
370
50
 62
4
100
AcDbLine
 10
2.790896
 20
2.305843
 30
0.0
 11
2.822223
 21
2.323913
 31
0.0
  0
LINE
  5
3F0
330
1F
100
AcDbEntity
  8
1
  6
CONTINUOUS
370
50
 62
4
100
AcDbLine
 10
1.0
 20
-2.5
 30
0.0
 11
1.565515
 21
-2.1735
 31
0.0
  0
LINE
  5
3F1
330
1F
100
AcDbEntity
  8
1
  6
CONTINUOUS
370
50
 62
4
100
AcDbLine
 10
2.56171
 20
2.1735
 30
0.0
 11
2.790743
 21
2.305732
 31
0.0
  0
LINE
  5
3F2
330
1F
100
AcDbEntity
  8
1
  6
CONTINUOUS
370
50
 62
4
100
AcDbLine
 10
34.880436
 20
1.227917
 30
0.0
 11
34.914837
 21
1.25454
 31
0.0
  0
LINE
  5
3F3
330
1F
100
AcDbEntity
  8
1
  6
CONTINUOUS
370
50
 62
4
100
AcDbLine
 10
34.180004
 20
-1.24481
 30
0.0
 11
34.240067
 21
-1.195245
 31
0.0
  0
LINE
  5
3F4
330
1F
100
AcDbEntity
  8
1
  6
CONTINUOUS
370
50
 62
4
100
AcDbLine
 10
34.240067
 20
-1.195245
 30
0.0
 11
34.299374
 21
-1.144165
 31
0.0
  0
LINE
  5
3F5
330
1F
100
AcDbEntity
  8
1
  6
CONTINUOUS
370
50
 62
4
100
AcDbLine
 10
34.18
 20
-1.960218
 30
0.0
 11
34.31216
 21
-1.845152
 31
0.0
  0
LINE
  5
3F6
330
1F
100
AcDbEntity
  8
1
  6
CONTINUOUS
370
50
 62
4
100
AcDbLine
 10
34.31216
 20
-1.845152
 30
0.0
 11
34.436516
 21
-1.736817
 31
0.0
  0
LINE
  5
3F7
330
1F
100
AcDbEntity
  8
1
  6
CONTINUOUS
370
50
 62
4
100
AcDbLine
 10
34.436516
 20
-1.736817
 30
0.0
 11
34.553722
 21
-1.634632
 31
0.0
  0
LINE
  5
3F8
330
1F
100
AcDbEntity
  8
1
  6
CONTINUOUS
370
50
 62
4
100
AcDbLine
 10
34.553722
 20
-1.634632
 30
0.0
 11
34.664383
 21
-1.538082
 31
0.0
  0
LINE
  5
3F9
330
1F
100
AcDbEntity
  8
1
  6
CONTINUOUS
370
50
 62
4
100
AcDbLine
 10
34.664383
 20
-1.538082
 30
0.0
 11
34.769016
 21
-1.446708
 31
0.0
  0
LINE
  5
3FA
330
1F
100
AcDbEntity
  8
1
  6
CONTINUOUS
370
50
 62
4
100
AcDbLine
 10
34.769016
 20
-1.446708
 30
0.0
 11
34.868095
 21
-1.360098
 31
0.0
  0
LINE
  5
3FB
330
1F
100
AcDbEntity
  8
1
  6
CONTINUOUS
370
50
 62
4
100
AcDbLine
 10
34.868095
 20
-1.360098
 30
0.0
 11
34.962044
 21
-1.277881
 31
0.0
  0
LINE
  5
3FC
330
1F
100
AcDbEntity
  8
1
  6
CONTINUOUS
370
50
 62
4
100
AcDbLine
 10
34.299374
 20
-1.144165
 30
0.0
 11
34.357704
 21
-1.091657
 31
0.0
  0
LINE
  5
3FD
330
1F
100
AcDbEntity
  8
1
  6
CONTINUOUS
370
50
 62
4
100
AcDbLine
 10
34.357704
 20
-1.091657
 30
0.0
 11
34.414833
 21
-1.037809
 31
0.0
  0
LINE
  5
3FE
330
1F
100
AcDbEntity
  8
1
  6
CONTINUOUS
370
50
 62
4
100
AcDbLine
 10
34.414833
 20
-1.037809
 30
0.0
 11
34.470539
 21
-0.982711
 31
0.0
  0
LINE
  5
3FF
330
1F
100
AcDbEntity
  8
1
  6
CONTINUOUS
370
50
 62
4
100
AcDbLine
 10
34.180004
 20
-2.414618
 30
0.0
 11
34.197994
 21
-2.396748
 31
0.0
  0
LINE
  5
400
330
1F
100
AcDbEntity
  8
1
  6
CONTINUOUS
370
50
 62
4
100
AcDbLine
 10
34.197994
 20
-2.396748
 30
0.0
 11
34.215931
 21
-2.378922
 31
0.0
  0
LINE
  5
401
330
1F
100
AcDbEntity
  8
1
  6
CONTINUOUS
370
50
 62
4
100
AcDbLine
 10
34.215931
 20
-2.378922
 30
0.0
 11
34.233807
 21
-2.36114
 31
0.0
  0
LINE
  5
402
330
1F
100
AcDbEntity
  8
1
  6
CONTINUOUS
370
50
 62
4
100
AcDbLine
 10
34.233807
 20
-2.36114
 30
0.0
 11
34.251617
 21
-2.343408
 31
0.0
  0
LINE
  5
403
330
1F
100
AcDbEntity
  8
1
  6
CONTINUOUS
370
50
 62
4
100
AcDbLine
 10
34.251617
 20
-2.343408
 30
0.0
 11
34.269356
 21
-2.325727
 31
0.0
  0
LINE
  5
404
330
1F
100
AcDbEntity
  8
1
  6
CONTINUOUS
370
50
 62
4
100
AcDbLine
 10
34.269356
 20
-2.325727
 30
0.0
 11
34.287022
 21
-2.3081
 31
0.0
  0
LINE
  5
405
330
1F
100
AcDbEntity
  8
1
  6
CONTINUOUS
370
50
 62
4
100
AcDbLine
 10
34.288857
 20
-2.306144
 30
0.0
 11
34.98
 21
-1.615
 31
0.0
  0
LINE
  5
406
330
1F
100
AcDbEntity
  8
1
  6
CONTINUOUS
370
50
 62
4
100
AcDbLine
 10
34.287022
 20
-2.3081
 30
0.0
 11
34.346287
 21
-2.248743
 31
0.0
  0
LINE
  5
407
330
1F
100
AcDbEntity
  8
1
  6
CONTINUOUS
370
50
 62
4
100
AcDbLine
 10
34.346287
 20
-2.248743
 30
0.0
 11
34.404369
 21
-2.190153
 31
0.0
  0
LINE
  5
408
330
1F
100
AcDbEntity
  8
1
  6
CONTINUOUS
370
50
 62
4
100
AcDbLine
 10
34.404369
 20
-2.190153
 30
0.0
 11
34.461037
 21
-2.132441
 31
0.0
  0
LINE
  5
409
330
1F
100
AcDbEntity
  8
1
  6
CONTINUOUS
370
50
 62
4
100
AcDbLine
 10
34.461037
 20
-2.132441
 30
0.0
 11
34.516052
 21
-2.075718
 31
0.0
  0
LINE
  5
40A
330
1F
100
AcDbEntity
  8
1
  6
CONTINUOUS
370
50
 62
4
100
AcDbLine
 10
34.470539
 20
-0.982711
 30
0.0
 11
34.524593
 21
-0.92645
 31
0.0
  0
LINE
  5
40B
330
1F
100
AcDbEntity
  8
1
  6
CONTINUOUS
370
50
 62
4
100
AcDbLine
 10
34.516052
 20
-2.075718
 30
0.0
 11
34.569191
 21
-2.020094
 31
0.0
  0
LINE
  5
40C
330
1F
100
AcDbEntity
  8
1
  6
CONTINUOUS
370
50
 62
4
100
AcDbLine
 10
34.569191
 20
-2.020094
 30
0.0
 11
34.620216
 21
-1.96568
 31
0.0
  0
LINE
  5
40D
330
1F
100
AcDbEntity
  8
1
  6
CONTINUOUS
370
50
 62
4
100
AcDbLine
 10
34.620216
 20
-1.96568
 30
0.0
 11
34.669369
 21
-1.912064
 31
0.0
  0
LINE
  5
40E
330
1F
100
AcDbEntity
  8
1
  6
CONTINUOUS
370
50
 62
4
100
AcDbLine
 10
34.914837
 20
1.25454
 30
0.0
 11
34.94276
 21
1.285061
 31
0.0
  0
LINE
  5
40F
330
1F
100
AcDbEntity
  8
1
  6
CONTINUOUS
370
50
 62
4
100
AcDbLine
 10
34.524593
 20
-0.92645
 30
0.0
 11
34.576782
 21
-0.869115
 31
0.0
  0
LINE
  5
410
330
1F
100
AcDbEntity
  8
1
  6
CONTINUOUS
370
50
 62
4
100
AcDbLine
 10
34.669369
 20
-1.912064
 30
0.0
 11
34.717899
 21
-1.857514
 31
0.0
  0
LINE
  5
411
330
1F
100
AcDbEntity
  8
1
  6
CONTINUOUS
370
50
 62
4
100
AcDbLine
 10
34.576782
 20
-0.869115
 30
0.0
 11
34.626877
 21
-0.810794
 31
0.0
  0
LINE
  5
412
330
1F
100
AcDbEntity
  8
1
  6
CONTINUOUS
370
50
 62
4
100
AcDbLine
 10
34.717899
 20
-1.857514
 30
0.0
 11
34.765026
 21
-1.802347
 31
0.0
  0
LINE
  5
413
330
1F
100
AcDbEntity
  8
1
  6
CONTINUOUS
370
50
 62
4
100
AcDbLine
 10
34.765026
 20
-1.802347
 30
0.0
 11
34.80978
 21
-1.747091
 31
0.0
  0
LINE
  5
414
330
1F
100
AcDbEntity
  8
1
  6
CONTINUOUS
370
50
 62
4
100
AcDbLine
 10
34.626877
 20
-0.810794
 30
0.0
 11
34.67532
 21
-0.750706
 31
0.0
  0
LINE
  5
415
330
1F
100
AcDbEntity
  8
1
  6
CONTINUOUS
370
50
 62
4
100
AcDbLine
 10
34.80978
 20
-1.747091
 30
0.0
 11
34.851181
 21
-1.692272
 31
0.0
  0
LINE
  5
416
330
1F
100
AcDbEntity
  8
1
  6
CONTINUOUS
370
50
 62
4
100
AcDbLine
 10
34.67532
 20
-0.750706
 30
0.0
 11
34.723148
 21
-0.686929
 31
0.0
  0
LINE
  5
417
330
1F
100
AcDbEntity
  8
1
  6
CONTINUOUS
370
50
 62
4
100
AcDbLine
 10
34.723148
 20
-0.686929
 30
0.0
 11
34.769508
 21
-0.619687
 31
0.0
  0
LINE
  5
418
330
1F
100
AcDbEntity
  8
1
  6
CONTINUOUS
370
50
 62
4
100
AcDbLine
 10
34.851181
 20
-1.692272
 30
0.0
 11
34.888256
 21
-1.638411
 31
0.0
  0
LINE
  5
419
330
1F
100
AcDbEntity
  8
1
  6
CONTINUOUS
370
50
 62
4
100
AcDbLine
 10
34.769508
 20
-0.619687
 30
0.0
 11
34.813454
 21
-0.549306
 31
0.0
  0
LINE
  5
41A
330
1F
100
AcDbEntity
  8
1
  6
CONTINUOUS
370
50
 62
4
100
AcDbLine
 10
34.888256
 20
-1.638411
 30
0.0
 11
34.920074
 21
-1.585928
 31
0.0
  0
LINE
  5
41B
330
1F
100
AcDbEntity
  8
1
  6
CONTINUOUS
370
50
 62
4
100
AcDbLine
 10
34.94276
 20
1.285061
 30
0.0
 11
34.963284
 21
1.31941
 31
0.0
  0
LINE
  5
41C
330
1F
100
AcDbEntity
  8
1
  6
CONTINUOUS
370
50
 62
4
100
AcDbLine
 10
34.813454
 20
-0.549306
 30
0.0
 11
34.854046
 21
-0.476111
 31
0.0
  0
LINE
  5
41D
330
1F
100
AcDbEntity
  8
1
  6
CONTINUOUS
370
50
 62
4
100
AcDbLine
 10
34.920074
 20
-1.585928
 30
0.0
 11
34.945812
 21
-1.535269
 31
0.0
  0
LINE
  5
41E
330
1F
100
AcDbEntity
  8
1
  6
CONTINUOUS
370
50
 62
4
100
AcDbLine
 10
34.854046
 20
-0.476111
 30
0.0
 11
34.89035
 21
-0.400424
 31
0.0
  0
LINE
  5
41F
330
1F
100
AcDbEntity
  8
1
  6
CONTINUOUS
370
50
 62
4
100
AcDbLine
 10
34.89035
 20
-0.400424
 30
0.0
 11
34.921474
 21
-0.322582
 31
0.0
  0
LINE
  5
420
330
1F
100
AcDbEntity
  8
1
  6
CONTINUOUS
370
50
 62
4
100
AcDbLine
 10
34.945812
 20
-1.535269
 30
0.0
 11
34.964664
 21
-1.4869
 31
0.0
  0
LINE
  5
421
330
1F
100
AcDbEntity
  8
1
  6
CONTINUOUS
370
50
 62
4
100
AcDbLine
 10
34.963284
 20
1.31941
 30
0.0
 11
34.97578
 21
1.357381
 31
0.0
  0
LINE
  5
422
330
1F
100
AcDbEntity
  8
1
  6
CONTINUOUS
370
50
 62
4
100
AcDbLine
 10
34.921474
 20
-0.322582
 30
0.0
 11
34.946629
 21
-0.243068
 31
0.0
  0
LINE
  5
423
330
1F
100
AcDbEntity
  8
1
  6
CONTINUOUS
370
50
 62
4
100
AcDbLine
 10
34.964664
 20
-1.4869
 30
0.0
 11
34.976131
 21
-1.441235
 31
0.0
  0
LINE
  5
424
330
1F
100
AcDbEntity
  8
1
  6
CONTINUOUS
370
50
 62
4
100
AcDbLine
 10
34.946629
 20
-0.243068
 30
0.0
 11
34.965031
 21
-0.162394
 31
0.0
  0
LINE
  5
425
330
1F
100
AcDbEntity
  8
1
  6
CONTINUOUS
370
50
 62
4
100
AcDbLine
 10
34.965031
 20
-0.162394
 30
0.0
 11
34.976223
 21
-0.08116
 31
0.0
  0
LINE
  5
426
330
1F
100
AcDbEntity
  8
1
  6
CONTINUOUS
370
50
 62
4
100
AcDbLine
 10
34.97578
 20
1.357381
 30
0.0
 11
34.98
 21
1.398611
 31
0.0
  0
LINE
  5
427
330
1F
100
AcDbEntity
  8
1
  6
CONTINUOUS
370
50
 62
4
100
AcDbLine
 10
34.976131
 20
-1.441235
 30
0.0
 11
34.98
 21
-1.398651
 31
0.0
  0
LINE
  5
428
330
1F
100
AcDbEntity
  8
1
  6
CONTINUOUS
370
50
 62
4
100
AcDbLine
 10
34.976223
 20
-0.08116
 30
0.0
 11
34.98
 21
-0.000039
 31
0.0
  0
LINE
  5
429
330
1F
100
AcDbEntity
  8
1
  6
CONTINUOUS
370
50
 62
4
100
AcDbLine
 10
0.0
 20
-2.5
 30
0.0
 11
0.0
 21
2.5
 31
0.0
  0
LINE
  5
42A
330
1F
100
AcDbEntity
  8
1
  6
CONTINUOUS
370
50
 62
4
100
AcDbLine
 10
1.0
 20
-2.5
 30
0.0
 11
1.0
 21
2.5
 31
0.0
  0
LINE
  5
42B
330
1F
100
AcDbEntity
  8
1
  6
CONTINUOUS
370
50
 62
4
100
AcDbLine
 10
1.565515
 20
-2.1735
 30
0.0
 11
1.565515
 21
2.1735
 31
0.0
  0
LINE
  5
42C
330
1F
100
AcDbEntity
  8
1
  6
CONTINUOUS
370
50
 62
4
100
AcDbLine
 10
2.56171
 20
-2.1735
 30
0.0
 11
2.56171
 21
2.1735
 31
0.0
  0
LINE
  5
42D
330
1F
100
AcDbEntity
  8
1
  6
CONTINUOUS
370
50
 62
4
100
AcDbLine
 10
2.98
 20
-2.414612
 30
0.0
 11
2.98
 21
1.398627
 31
0.0
  0
LINE
  5
42E
330
1F
100
AcDbEntity
  8
1
  6
CONTINUOUS
370
50
 62
4
100
AcDbLine
 10
2.98
 20
1.398631
 30
0.0
 11
2.98
 21
1.519381
 31
0.0
  0
LINE
  5
42F
330
1F
100
AcDbEntity
  8
1
  6
CONTINUOUS
370
50
 62
4
100
AcDbLine
 10
2.98
 20
1.519381
 30
0.0
 11
2.98
 21
2.201718
 31
0.0
  0
LINE
  5
430
330
1F
100
AcDbEntity
  8
1
  6
CONTINUOUS
370
50
 62
4
100
AcDbLine
 10
2.98
 20
2.201718
 30
0.0
 11
2.98
 21
2.414612
 31
0.0
  0
LINE
  5
431
330
1F
100
AcDbEntity
  8
1
  6
CONTINUOUS
370
50
 62
4
100
AcDbLine
 10
2.98
 20
2.201718
 30
0.0
 11
2.98
 21
2.414612
 31
0.0
  0
LINE
  5
432
330
1F
100
AcDbEntity
  8
1
  6
CONTINUOUS
370
50
 62
4
100
AcDbLine
 10
34.18
 20
2.201718
 30
0.0
 11
34.18
 21
2.414612
 31
0.0
  0
LINE
  5
433
330
1F
100
AcDbEntity
  8
1
  6
CONTINUOUS
370
50
 62
4
100
AcDbLine
 10
34.18
 20
0.2415
 30
0.0
 11
34.18
 21
1.169801
 31
0.0
  0
LINE
  5
434
330
1F
100
AcDbEntity
  8
1
  6
CONTINUOUS
370
50
 62
4
100
AcDbLine
 10
34.18
 20
-1.960218
 30
0.0
 11
34.18
 21
-1.244811
 31
0.0
  0
LINE
  5
435
330
1F
100
AcDbEntity
  8
1
  6
CONTINUOUS
370
50
 62
4
100
AcDbLine
 10
34.98
 20
-1.615
 30
0.0
 11
34.98
 21
1.615
 31
0.0
  0
LINE
  5
436
330
1F
100
AcDbEntity
  8
SK1
  6
CONTINUOUS
370
50
 62
4
100
AcDbLine
 10
0.0
 20
2.5
 30
0.0
 11
-44.62
 21
2.5
 31
0.0
  0
LINE
  5
437
330
1F
100
AcDbEntity
  8
SK1
  6
CONTINUOUS
370
50
 62
4
100
AcDbLine
 10
-44.62
 20
2.5
 30
0.0
 11
-45.02
 21
2.1
 31
0.0
  0
LINE
  5
438
330
1F
100
AcDbEntity
  8
SK1
  6
CONTINUOUS
370
50
 62
4
100
AcDbLine
 10
-45.02
 20
2.1
 30
0.0
 11
-45.02
 21
-2.1
 31
0.0
  0
LINE
  5
439
330
1F
100
AcDbEntity
  8
SK1
  6
CONTINUOUS
370
50
 62
4
100
AcDbLine
 10
-45.02
 20
-2.1
 30
0.0
 11
-44.62
 21
-2.5
 31
0.0
  0
LINE
  5
43A
330
1F
100
AcDbEntity
  8
SK1
  6
CONTINUOUS
370
50
 62
4
100
AcDbLine
 10
-44.62
 20
-2.5
 30
0.0
 11
0.0
 21
-2.5
 31
0.0
  0
LINE
  5
43B
330
1F
100
AcDbEntity
  8
NOCUT
  6
CONTINUOUS
370
25
 62
7
100
AcDbLine
 10
0.0
 20
0.0
 30
0.0
 11
0.0
 21
2.5
 31
0.0
  0
LINE
  5
43C
330
1F
100
AcDbEntity
  8
NOCUT
  6
CONTINUOUS
370
25
 62
7
100
AcDbLine
 10
0.0
 20
2.5
 30
0.0
 11
1.0
 21
2.5
 31
0.0
  0
LINE
  5
43D
330
1F
100
AcDbEntity
  8
NOCUT
  6
CONTINUOUS
370
25
 62
7
100
AcDbLine
 10
1.0
 20
0.0
 30
0.0
 11
0.0
 21
0.0
 31
0.0
  0
LINE
  5
43E
330
1F
100
AcDbEntity
  8
SK2
  6
CONTINUOUS
370
25
 62
7
100
AcDbLine
 10
-55.02000020000001
 20
-2.500001
 30
0.0
 11
-56.0200000000001
 21
-2.500001
 31
0.0
  0
LINE
  5
43F
330
1F
100
AcDbEntity
  8
SK2
  6
CONTINUOUS
370
25
 62
7
100
AcDbLine
 10
-45.02
 20
-2.500001
 30
0.0
 11
-55.01999980000001
 21
-2.500001
 31
0.0
  0
LINE
  5
440
330
1F
100
AcDbEntity
  8
SK2
  6
CONTINUOUS
370
25
 62
7
100
AcDbLine
 10
-56.02
 20
2.5
 30
0.0
 11
-45.02
 21
2.5
 31
0.0
  0
LINE
  5
441
330
1F
100
AcDbEntity
  8
SK2
  6
CONTINUOUS
370
25
 62
7
100
AcDbLine
 10
-55.02
 20
-17.60625
 30
0.0
 11
-55.02
 21
12.5
 31
0.0
  0
LINE
  5
442
330
1F
100
AcDbEntity
  8
SK2
  6
CONTINUOUS
370
25
 62
7
100
AcDbLine
 10
-55.02
 20
-2.5
 30
0.0
 11
-54.02
 21
-7.5
 31
0.0
  0
LINE
  5
443
330
1F
100
AcDbEntity
  8
SK2
  6
CONTINUOUS
370
25
 62
7
100
AcDbLine
 10
-54.02
 20
-7.5
 30
0.0
 11
-56.02
 21
-7.5
 31
0.0
  0
LINE
  5
444
330
1F
100
AcDbEntity
  8
SK2
  6
CONTINUOUS
370
25
 62
7
100
AcDbLine
 10
-56.02
 20
-7.5
 30
0.0
 11
-55.02
 21
-2.5
 31
0.0
  0
LINE
  5
445
330
1F
100
AcDbEntity
  8
SK2
  6
CONTINUOUS
370
25
 62
7
100
AcDbLine
 10
-54.1690475583121
 20
-7.5
 30
0.0
 11
-54.04484125971869
 21
-7.375793701406586
 31
0.0
  0
LINE
  5
446
330
1F
100
AcDbEntity
  8
SK2
  6
CONTINUOUS
370
25
 62
7
100
AcDbLine
 10
-54.59331162702404
 20
-7.5
 30
0.0
 11
-54.11555193783735
 21
-7.022240310813309
 31
0.0
  0
LINE
  5
447
330
1F
100
AcDbEntity
  8
SK2
  6
CONTINUOUS
370
25
 62
7
100
AcDbLine
 10
-55.01757569573597
 20
-7.5
 30
0.0
 11
-54.186262615956
 21
-6.668686920220033
 31
0.0
  0
LINE
  5
448
330
1F
100
AcDbEntity
  8
SK2
  6
CONTINUOUS
370
25
 62
7
100
AcDbLine
 10
-55.4418397644479
 20
-7.5
 30
0.0
 11
-54.25697329407466
 21
-6.315133529626763
 31
0.0
  0
LINE
  5
449
330
1F
100
AcDbEntity
  8
SK2
  6
CONTINUOUS
370
25
 62
7
100
AcDbLine
 10
-55.86610383315983
 20
-7.5
 30
0.0
 11
-54.32768397219331
 21
-5.961580139033479
 31
0.0
  0
LINE
  5
44A
330
1F
100
AcDbEntity
  8
SK2
  6
CONTINUOUS
370
25
 62
7
100
AcDbLine
 10
-55.95240802453207
 20
-7.162040122660308
 30
0.0
 11
-54.39839465031196
 21
-5.608026748440203
 31
0.0
  0
LINE
  5
44B
330
1F
100
AcDbEntity
  8
SK2
  6
CONTINUOUS
370
25
 62
7
100
AcDbLine
 10
-55.84634200735409
 20
-6.631710036770393
 30
0.0
 11
-54.46910532843062
 21
-5.254473357846926
 31
0.0
  0
LINE
  5
44C
330
1F
100
AcDbEntity
  8
SK2
  6
CONTINUOUS
370
25
 62
7
100
AcDbLine
 10
-55.7402759901761
 20
-6.101379950880478
 30
0.0
 11
-54.53981600654927
 21
-4.90091996725365
 31
0.0
  0
LINE
  5
44D
330
1F
100
AcDbEntity
  8
SK2
  6
CONTINUOUS
370
25
 62
7
100
AcDbLine
 10
-55.63420997299812
 20
-5.571049864990563
 30
0.0
 11
-54.61052668466793
 21
-4.547366576660373
 31
0.0
  0
LINE
  5
44E
330
1F
100
AcDbEntity
  8
SK2
  6
CONTINUOUS
370
25
 62
7
100
AcDbLine
 10
-55.52814395582014
 20
-5.040719779100655
 30
0.0
 11
-54.68123736278658
 21
-4.193813186067096
 31
0.0
  0
LINE
  5
44F
330
1F
100
AcDbEntity
  8
SK2
  6
CONTINUOUS
370
25
 62
7
100
AcDbLine
 10
-55.42207793864215
 20
-4.510389693210733
 30
0.0
 11
-54.75194804090523
 21
-3.840259795473813
 31
0.0
  0
LINE
  5
450
330
1F
100
AcDbEntity
  8
SK2
  6
CONTINUOUS
370
25
 62
7
100
AcDbLine
 10
-55.31601192146417
 20
-3.980059607320825
 30
0.0
 11
-54.82265871902389
 21
-3.486706404880543
 31
0.0
  0
LINE
  5
451
330
1F
100
AcDbEntity
  8
SK2
  6
CONTINUOUS
370
25
 62
7
100
AcDbLine
 10
-55.20994590428619
 20
-3.449729521430903
 30
0.0
 11
-54.89336939714255
 21
-3.133153014287267
 31
0.0
  0
LINE
  5
452
330
1F
100
AcDbEntity
  8
SK2
  6
CONTINUOUS
370
25
 62
7
100
AcDbLine
 10
-55.10387988710821
 20
-2.919399435540996
 30
0.0
 11
-54.96408007526121
 21
-2.779599623693997
 31
0.0
  0
LINE
  5
453
330
1F
100
AcDbEntity
  8
SK2
  6
CONTINUOUS
370
25
 62
7
100
AcDbLine
 10
-56.01749199129394
 20
-7.487459956469685
 30
0.0
 11
-56.00495194776362
 21
-7.5
 31
0.0
  0
LINE
  5
454
330
1F
100
AcDbEntity
  8
SK2
  6
CONTINUOUS
370
25
 62
7
100
AcDbLine
 10
-55.94678131317529
 20
-7.133906565876401
 30
0.0
 11
-55.58068787905169
 21
-7.5
 31
0.0
  0
LINE
  5
455
330
1F
100
AcDbEntity
  8
SK2
  6
CONTINUOUS
370
25
 62
7
100
AcDbLine
 10
-55.87607063505664
 20
-6.780353175283125
 30
0.0
 11
-55.15642381033976
 21
-7.5
 31
0.0
  0
LINE
  5
456
330
1F
100
AcDbEntity
  8
SK2
  6
CONTINUOUS
370
25
 62
7
100
AcDbLine
 10
-55.80535995693798
 20
-6.426799784689848
 30
0.0
 11
-54.73215974162783
 21
-7.5
 31
0.0
  0
LINE
  5
457
330
1F
100
AcDbEntity
  8
SK2
  6
CONTINUOUS
370
25
 62
7
100
AcDbLine
 10
-55.73464927881933
 20
-6.073246394096564
 30
0.0
 11
-54.30789567291589
 21
-7.5
 31
0.0
  0
LINE
  5
458
330
1F
100
AcDbEntity
  8
SK2
  6
CONTINUOUS
370
25
 62
7
100
AcDbLine
 10
-55.66393860070066
 20
-5.719693003503302
 30
0.0
 11
-54.05409209894901
 21
-7.329539505254949
 31
0.0
  0
LINE
  5
459
330
1F
100
AcDbEntity
  8
SK2
  6
CONTINUOUS
370
25
 62
7
100
AcDbLine
 10
-55.59322792258201
 20
-5.366139612910018
 30
0.0
 11
-54.16015811612699
 21
-6.799209419365035
 31
0.0
  0
LINE
  5
45A
330
1F
100
AcDbEntity
  8
SK2
  6
CONTINUOUS
370
25
 62
7
100
AcDbLine
 10
-55.52251724446336
 20
-5.012586222316742
 30
0.0
 11
-54.26622413330498
 21
-6.26887933347512
 31
0.0
  0
LINE
  5
45B
330
1F
100
AcDbEntity
  8
SK2
  6
CONTINUOUS
370
25
 62
7
100
AcDbLine
 10
-55.4518065663447
 20
-4.659032831723465
 30
0.0
 11
-54.37229015048296
 21
-5.738549247585205
 31
0.0
  0
LINE
  5
45C
330
1F
100
AcDbEntity
  8
SK2
  6
CONTINUOUS
370
25
 62
7
100
AcDbLine
 10
-55.38109588822604
 20
-4.305479441130203
 30
0.0
 11
-54.47835616766095
 21
-5.208219161695297
 31
0.0
  0
LINE
  5
45D
330
1F
100
AcDbEntity
  8
SK2
  6
CONTINUOUS
370
25
 62
7
100
AcDbLine
 10
-55.31038521010738
 20
-3.951926050536926
 30
0.0
 11
-54.58442218483893
 21
-4.677889075805382
 31
0.0
  0
LINE
  5
45E
330
1F
100
AcDbEntity
  8
SK2
  6
CONTINUOUS
370
25
 62
7
100
AcDbLine
 10
-55.23967453198873
 20
-3.598372659943642
 30
0.0
 11
-54.69048820201692
 21
-4.14755898991546
 31
0.0
  0
LINE
  5
45F
330
1F
100
AcDbEntity
  8
SK2
  6
CONTINUOUS
370
25
 62
7
100
AcDbLine
 10
-55.16896385387008
 20
-3.244819269350366
 30
0.0
 11
-54.7965542191949
 21
-3.617228904025552
 31
0.0
  0
LINE
  5
460
330
1F
100
AcDbEntity
  8
SK2
  6
CONTINUOUS
370
25
 62
7
100
AcDbLine
 10
-55.09825317575142
 20
-2.891265878757096
 30
0.0
 11
-54.90262023637288
 21
-3.086898818135637
 31
0.0
  0
LINE
  5
461
330
1F
100
AcDbEntity
  8
SK2
  6
CONTINUOUS
370
25
 62
7
100
AcDbLine
 10
-55.02754249763277
 20
-2.53771248816382
 30
0.0
 11
-55.00868625355086
 21
-2.556568732245722
 31
0.0
  0
LINE
  5
462
330
1F
100
AcDbEntity
  8
SK2
  6
CONTINUOUS
370
25
 62
7
100
AcDbLine
 10
-55.02
 20
2.5
 30
0.0
 11
-56.02
 21
7.5
 31
0.0
  0
LINE
  5
463
330
1F
100
AcDbEntity
  8
SK2
  6
CONTINUOUS
370
25
 62
7
100
AcDbLine
 10
-56.02
 20
7.5
 30
0.0
 11
-54.02
 21
7.5
 31
0.0
  0
LINE
  5
464
330
1F
100
AcDbEntity
  8
SK2
  6
CONTINUOUS
370
25
 62
7
100
AcDbLine
 10
-54.02
 20
7.5
 30
0.0
 11
-55.02
 21
2.5
 31
0.0
  0
LINE
  5
465
330
1F
100
AcDbEntity
  8
SK2
  6
CONTINUOUS
370
25
 62
7
100
AcDbLine
 10
-55.04998555747037
 20
2.649927787351878
 30
0.0
 11
-54.97502166379445
 21
2.724891681027799
 31
0.0
  0
LINE
  5
466
330
1F
100
AcDbEntity
  8
SK2
  6
CONTINUOUS
370
25
 62
7
100
AcDbLine
 10
-55.12069623558904
 20
3.003481177945147
 30
0.0
 11
-54.86895564661646
 21
3.255221766917721
 31
0.0
  0
LINE
  5
467
330
1F
100
AcDbEntity
  8
SK2
  6
CONTINUOUS
370
25
 62
7
100
AcDbLine
 10
-55.19140691370769
 20
3.357034568538431
 30
0.0
 11
-54.76288962943848
 21
3.785551852807636
 31
0.0
  0
LINE
  5
468
330
1F
100
AcDbEntity
  8
SK2
  6
CONTINUOUS
370
25
 62
7
100
AcDbLine
 10
-55.26211759182635
 20
3.710587959131701
 30
0.0
 11
-54.6568236122605
 21
4.315881938697551
 31
0.0
  0
LINE
  5
469
330
1F
100
AcDbEntity
  8
SK2
  6
CONTINUOUS
370
25
 62
7
100
AcDbLine
 10
-55.332828269945
 20
4.064141349724984
 30
0.0
 11
-54.55075759508252
 21
4.846212024587466
 31
0.0
  0
LINE
  5
46A
330
1F
100
AcDbEntity
  8
SK2
  6
CONTINUOUS
370
25
 62
7
100
AcDbLine
 10
-55.40353894806365
 20
4.417694740318261
 30
0.0
 11
-54.44469157790454
 21
5.376542110477374
 31
0.0
  0
LINE
  5
46B
330
1F
100
AcDbEntity
  8
SK2
  6
CONTINUOUS
370
25
 62
7
100
AcDbLine
 10
-55.47424962618231
 20
4.771248130911538
 30
0.0
 11
-54.33862556072655
 21
5.906872196367296
 31
0.0
  0
LINE
  5
46C
330
1F
100
AcDbEntity
  8
SK2
  6
CONTINUOUS
370
25
 62
7
100
AcDbLine
 10
-55.54496030430096
 20
5.1248015215048
 30
0.0
 11
-54.23255954354856
 21
6.437202282257203
 31
0.0
  0
LINE
  5
46D
330
1F
100
AcDbEntity
  8
SK2
  6
CONTINUOUS
370
25
 62
7
100
AcDbLine
 10
-55.61567098241963
 20
5.478354912098069
 30
0.0
 11
-54.12649352637057
 21
6.967532368147126
 31
0.0
  0
LINE
  5
46E
330
1F
100
AcDbEntity
  8
SK2
  6
CONTINUOUS
370
25
 62
7
100
AcDbLine
 10
-55.68638166053828
 20
5.831908302691353
 30
0.0
 11
-54.02042750919259
 21
7.497862454037048
 31
0.0
  0
LINE
  5
46F
330
1F
100
AcDbEntity
  8
SK2
  6
CONTINUOUS
370
25
 62
7
100
AcDbLine
 10
-55.75709233865693
 20
6.18546169328463
 30
0.0
 11
-54.44255403194156
 21
7.5
 31
0.0
  0
LINE
  5
470
330
1F
100
AcDbEntity
  8
SK2
  6
CONTINUOUS
370
25
 62
7
100
AcDbLine
 10
-55.82780301677559
 20
6.539015083877906
 30
0.0
 11
-54.8668181006535
 21
7.5
 31
0.0
  0
LINE
  5
471
330
1F
100
AcDbEntity
  8
SK2
  6
CONTINUOUS
370
25
 62
7
100
AcDbLine
 10
-55.89851369489424
 20
6.892568474471183
 30
0.0
 11
-55.29108216936542
 21
7.5
 31
0.0
  0
LINE
  5
472
330
1F
100
AcDbEntity
  8
SK2
  6
CONTINUOUS
370
25
 62
7
100
AcDbLine
 10
-55.96922437301289
 20
7.246121865064467
 30
0.0
 11
-55.71534623807736
 21
7.5
 31
0.0
  0
LINE
  5
473
330
1F
100
AcDbEntity
  8
SK2
  6
CONTINUOUS
370
25
 62
7
100
AcDbLine
 10
-55.04637565232149
 20
2.631878261607419
 30
0.0
 11
-55.00241623178568
 21
2.587918841071613
 31
0.0
  0
LINE
  5
474
330
1F
100
AcDbEntity
  8
SK2
  6
CONTINUOUS
370
25
 62
7
100
AcDbLine
 10
-55.15244166949947
 20
3.162208347497327
 30
0.0
 11
-54.93170555366703
 21
2.941472231664889
 31
0.0
  0
LINE
  5
475
330
1F
100
AcDbEntity
  8
SK2
  6
CONTINUOUS
370
25
 62
7
100
AcDbLine
 10
-55.25850768667745
 20
3.692538433387242
 30
0.0
 11
-54.86099487554837
 21
3.295025622258159
 31
0.0
  0
LINE
  5
476
330
1F
100
AcDbEntity
  8
SK2
  6
CONTINUOUS
370
25
 62
7
100
AcDbLine
 10
-55.36457370385544
 20
4.222868519277164
 30
0.0
 11
-54.79028419742971
 21
3.648579012851435
 31
0.0
  0
LINE
  5
477
330
1F
100
AcDbEntity
  8
SK2
  6
CONTINUOUS
370
25
 62
7
100
AcDbLine
 10
-55.47063972103342
 20
4.753198605167071
 30
0.0
 11
-54.71957351931106
 21
4.002132403444705
 31
0.0
  0
LINE
  5
478
330
1F
100
AcDbEntity
  8
SK2
  6
CONTINUOUS
370
25
 62
7
100
AcDbLine
 10
-55.57670573821139
 20
5.283528691056979
 30
0.0
 11
-54.64886284119241
 21
4.355685794037996
 31
0.0
  0
LINE
  5
479
330
1F
100
AcDbEntity
  8
SK2
  6
CONTINUOUS
370
25
 62
7
100
AcDbLine
 10
-55.68277175538938
 20
5.813858776946901
 30
0.0
 11
-54.57815216307375
 21
4.709239184631272
 31
0.0
  0
LINE
  5
47A
330
1F
100
AcDbEntity
  8
SK2
  6
CONTINUOUS
370
25
 62
7
100
AcDbLine
 10
-55.78883777256737
 20
6.344188862836823
 30
0.0
 11
-54.50744148495509
 21
5.062792575224549
 31
0.0
  0
LINE
  5
47B
330
1F
100
AcDbEntity
  8
SK2
  6
CONTINUOUS
370
25
 62
7
100
AcDbLine
 10
-55.89490378974535
 20
6.874518948726731
 30
0.0
 11
-54.43673080683644
 21
5.416345965817825
 31
0.0
  0
LINE
  5
47C
330
1F
100
AcDbEntity
  8
SK2
  6
CONTINUOUS
370
25
 62
7
100
AcDbLine
 10
-56.00096980692332
 20
7.404849034616632
 30
0.0
 11
-54.36602012871779
 21
5.769899356411102
 31
0.0
  0
LINE
  5
47D
330
1F
100
AcDbEntity
  8
SK2
  6
CONTINUOUS
370
25
 62
7
100
AcDbLine
 10
-55.67185670359476
 20
7.5
 30
0.0
 11
-54.29530945059913
 21
6.123452747004379
 31
0.0
  0
LINE
  5
47E
330
1F
100
AcDbEntity
  8
SK2
  6
CONTINUOUS
370
25
 62
7
100
AcDbLine
 10
-55.24759263488282
 20
7.5
 30
0.0
 11
-54.22459877248048
 21
6.477006137597655
 31
0.0
  0
LINE
  5
47F
330
1F
100
AcDbEntity
  8
SK2
  6
CONTINUOUS
370
25
 62
7
100
AcDbLine
 10
-54.82332856617089
 20
7.5
 30
0.0
 11
-54.15388809436182
 21
6.830559528190925
 31
0.0
  0
LINE
  5
480
330
1F
100
AcDbEntity
  8
SK2
  6
CONTINUOUS
370
25
 62
7
100
AcDbLine
 10
-54.39906449745897
 20
7.5
 30
0.0
 11
-54.08317741624317
 21
7.184112918784201
 31
0.0
  0
TEXT
  5
481
330
1F
100
AcDbEntity
  8
SK2
  6
CONTINUOUS
370
25
 62
7
100
AcDbText
 10
-56.02
 20
-11.71979166666667
 30
0.0
 40
3.5
  1
5
 50
90.00000000000001
 72
     1
 11
-56.02
 21
-10.553125
 31
0.0
100
AcDbText
  0
CIRCLE
  5
482
330
1F
100
AcDbEntity
  8
SK2
  6
CONTINUOUS
370
25
 62
7
100
AcDbCircle
 10
-57.55125
 20
-14.963125
 30
0.0
 40
1.53125
  0
LINE
  5
483
330
1F
100
AcDbEntity
  8
SK2
  6
CONTINUOUS
370
25
 62
7
100
AcDbLine
 10
-56.02
 20
-16.494375
 30
0.0
 11
-59.0825
 21
-13.431875
 31
0.0
  0
LINE
  5
484
330
1F
100
AcDbEntity
  8
SK2
  6
CONTINUOUS
370
25
 62
7
100
AcDbLine
 10
-45.02
 20
2.5
 30
0.0
 11
-45.02
 21
13.50001
 31
0.0
  0
LINE
  5
485
330
1F
100
AcDbEntity
  8
SK2
  6
CONTINUOUS
370
25
 62
7
100
AcDbLine
 10
0.0000000000000001
 20
13.50001
 30
0.0
 11
-0.0000000000000006
 21
2.5
 31
0.0
  0
LINE
  5
486
330
1F
100
AcDbEntity
  8
SK2
  6
CONTINUOUS
370
25
 62
7
100
AcDbLine
 10
-45.02
 20
12.50001
 30
0.0
 11
0.0
 21
12.50001
 31
0.0
  0
LINE
  5
487
330
1F
100
AcDbEntity
  8
SK2
  6
CONTINUOUS
370
25
 62
7
100
AcDbLine
 10
-45.02
 20
12.50001
 30
0.0
 11
-40.02
 21
13.50001
 31
0.0
  0
LINE
  5
488
330
1F
100
AcDbEntity
  8
SK2
  6
CONTINUOUS
370
25
 62
7
100
AcDbLine
 10
-40.02
 20
13.50001
 30
0.0
 11
-40.02
 21
11.50001
 31
0.0
  0
LINE
  5
489
330
1F
100
AcDbEntity
  8
SK2
  6
CONTINUOUS
370
25
 62
7
100
AcDbLine
 10
-40.02
 20
11.50001
 30
0.0
 11
-45.02
 21
12.50001
 31
0.0
  0
LINE
  5
48A
330
1F
100
AcDbEntity
  8
SK2
  6
CONTINUOUS
370
25
 62
7
100
AcDbLine
 10
-40.2201719857127
 20
11.54004439714254
 30
0.0
 11
-40.02
 21
11.74021638285524
 31
0.0
  0
LINE
  5
48B
330
1F
100
AcDbEntity
  8
SK2
  6
CONTINUOUS
370
25
 62
7
100
AcDbLine
 10
-40.57372537630599
 20
11.6107550752612
 30
0.0
 11
-40.02
 21
12.16448045156718
 31
0.0
  0
LINE
  5
48C
330
1F
100
AcDbEntity
  8
SK2
  6
CONTINUOUS
370
25
 62
7
100
AcDbLine
 10
-40.92727876689926
 20
11.68146575337985
 30
0.0
 11
-40.02
 21
12.58874452027911
 31
0.0
  0
LINE
  5
48D
330
1F
100
AcDbEntity
  8
SK2
  6
CONTINUOUS
370
25
 62
7
100
AcDbLine
 10
-41.28083215749253
 20
11.75217643149851
 30
0.0
 11
-40.02
 21
13.01300858899104
 31
0.0
  0
LINE
  5
48E
330
1F
100
AcDbEntity
  8
SK2
  6
CONTINUOUS
370
25
 62
7
100
AcDbLine
 10
-41.63438554808581
 20
11.82288710961716
 30
0.0
 11
-40.02
 21
13.43727265770297
 31
0.0
  0
LINE
  5
48F
330
1F
100
AcDbEntity
  8
SK2
  6
CONTINUOUS
370
25
 62
7
100
AcDbLine
 10
-41.98793893867909
 20
11.89359778773582
 30
0.0
 11
-40.47190840801863
 21
13.40962831839627
 31
0.0
  0
LINE
  5
490
330
1F
100
AcDbEntity
  8
SK2
  6
CONTINUOUS
370
25
 62
7
100
AcDbLine
 10
-42.34149232927237
 20
11.96430846585447
 30
0.0
 11
-41.00223849390856
 21
13.30356230121829
 31
0.0
  0
LINE
  5
491
330
1F
100
AcDbEntity
  8
SK2
  6
CONTINUOUS
370
25
 62
7
100
AcDbLine
 10
-42.69504571986564
 20
12.03501914397313
 30
0.0
 11
-41.53256857979846
 21
13.19749628404031
 31
0.0
  0
LINE
  5
492
330
1F
100
AcDbEntity
  8
SK2
  6
CONTINUOUS
370
25
 62
7
100
AcDbLine
 10
-43.04859911045892
 20
12.10572982209178
 30
0.0
 11
-42.06289866568837
 21
13.09143026686233
 31
0.0
  0
LINE
  5
493
330
1F
100
AcDbEntity
  8
SK2
  6
CONTINUOUS
370
25
 62
7
100
AcDbLine
 10
-43.40215250105219
 20
12.17644050021044
 30
0.0
 11
-42.59322875157829
 21
12.98536424968434
 31
0.0
  0
LINE
  5
494
330
1F
100
AcDbEntity
  8
SK2
  6
CONTINUOUS
370
25
 62
7
100
AcDbLine
 10
-43.75570589164547
 20
12.2471511783291
 30
0.0
 11
-43.12355883746821
 21
12.87929823250636
 31
0.0
  0
LINE
  5
495
330
1F
100
AcDbEntity
  8
SK2
  6
CONTINUOUS
370
25
 62
7
100
AcDbLine
 10
-44.10925928223875
 20
12.31786185644775
 30
0.0
 11
-43.65388892335812
 21
12.77323221532837
 31
0.0
  0
LINE
  5
496
330
1F
100
AcDbEntity
  8
SK2
  6
CONTINUOUS
370
25
 62
7
100
AcDbLine
 10
-44.46281267283202
 20
12.38857253456641
 30
0.0
 11
-44.18421900924803
 21
12.66716619815039
 31
0.0
  0
LINE
  5
497
330
1F
100
AcDbEntity
  8
SK2
  6
CONTINUOUS
370
25
 62
7
100
AcDbLine
 10
-44.8163660634253
 20
12.45928321268506
 30
0.0
 11
-44.71454909513795
 21
12.56110018097241
 31
0.0
  0
LINE
  5
498
330
1F
100
AcDbEntity
  8
SK2
  6
CONTINUOUS
370
25
 62
7
100
AcDbLine
 10
-44.88241551681223
 20
12.52752689663755
 30
0.0
 11
-44.81362327521834
 21
12.45873465504366
 31
0.0
  0
LINE
  5
499
330
1F
100
AcDbEntity
  8
SK2
  6
CONTINUOUS
370
25
 62
7
100
AcDbLine
 10
-44.52886212621896
 20
12.59823757475622
 30
0.0
 11
-44.28329318932842
 21
12.35266863786567
 31
0.0
  0
LINE
  5
49A
330
1F
100
AcDbEntity
  8
SK2
  6
CONTINUOUS
370
25
 62
7
100
AcDbLine
 10
-44.17530873562568
 20
12.66894825287486
 30
0.0
 11
-43.75296310343852
 21
12.2466026206877
 31
0.0
  0
LINE
  5
49B
330
1F
100
AcDbEntity
  8
SK2
  6
CONTINUOUS
370
25
 62
7
100
AcDbLine
 10
-43.82175534503241
 20
12.73965893099352
 30
0.0
 11
-43.2226330175486
 21
12.14053660350971
 31
0.0
  0
LINE
  5
49C
330
1F
100
AcDbEntity
  8
SK2
  6
CONTINUOUS
370
25
 62
7
100
AcDbLine
 10
-43.46820195443912
 20
12.81036960911217
 30
0.0
 11
-42.69230293165869
 21
12.03447058633174
 31
0.0
  0
LINE
  5
49D
330
1F
100
AcDbEntity
  8
SK2
  6
CONTINUOUS
370
25
 62
7
100
AcDbLine
 10
-43.11464856384585
 20
12.88108028723083
 30
0.0
 11
-42.16197284576877
 21
11.92840456915375
 31
0.0
  0
LINE
  5
49E
330
1F
100
AcDbEntity
  8
SK2
  6
CONTINUOUS
370
25
 62
7
100
AcDbLine
 10
-42.76109517325258
 20
12.95179096534949
 30
0.0
 11
-41.63164275987886
 21
11.82233855197578
 31
0.0
  0
LINE
  5
49F
330
1F
100
AcDbEntity
  8
SK2
  6
CONTINUOUS
370
25
 62
7
100
AcDbLine
 10
-42.40754178265929
 20
13.02250164346814
 30
0.0
 11
-41.10131267398894
 21
11.71627253479778
 31
0.0
  0
LINE
  5
4A0
330
1F
100
AcDbEntity
  8
SK2
  6
CONTINUOUS
370
25
 62
7
100
AcDbLine
 10
-42.05398839206602
 20
13.0932123215868
 30
0.0
 11
-40.57098258809903
 21
11.61020651761981
 31
0.0
  0
LINE
  5
4A1
330
1F
100
AcDbEntity
  8
SK2
  6
CONTINUOUS
370
25
 62
7
100
AcDbLine
 10
-41.70043500147274
 20
13.16392299970545
 30
0.0
 11
-40.04065250220911
 21
11.50414050044182
 31
0.0
  0
LINE
  5
4A2
330
1F
100
AcDbEntity
  8
SK2
  6
CONTINUOUS
370
25
 62
7
100
AcDbLine
 10
-41.34688161087946
 20
13.23463367782411
 30
0.0
 11
-40.02
 21
11.90775206694465
 31
0.0
  0
LINE
  5
4A3
330
1F
100
AcDbEntity
  8
SK2
  6
CONTINUOUS
370
25
 62
7
100
AcDbLine
 10
-40.99332822028619
 20
13.30534435594276
 30
0.0
 11
-40.02
 21
12.33201613565658
 31
0.0
  0
LINE
  5
4A4
330
1F
100
AcDbEntity
  8
SK2
  6
CONTINUOUS
370
25
 62
7
100
AcDbLine
 10
-40.63977482969291
 20
13.37605503406142
 30
0.0
 11
-40.02
 21
12.75628020436851
 31
0.0
  0
LINE
  5
4A5
330
1F
100
AcDbEntity
  8
SK2
  6
CONTINUOUS
370
25
 62
7
100
AcDbLine
 10
-40.28622143909963
 20
13.44676571218007
 30
0.0
 11
-40.02
 21
13.18054427308044
 31
0.0
  0
LINE
  5
4A6
330
1F
100
AcDbEntity
  8
SK2
  6
CONTINUOUS
370
25
 62
7
100
AcDbLine
 10
0.0
 20
12.50001
 30
0.0
 11
-5.0
 21
11.50001
 31
0.0
  0
LINE
  5
4A7
330
1F
100
AcDbEntity
  8
SK2
  6
CONTINUOUS
370
25
 62
7
100
AcDbLine
 10
-5.0
 20
11.50001
 30
0.0
 11
-5.0
 21
13.50001
 31
0.0
  0
LINE
  5
4A8
330
1F
100
AcDbEntity
  8
SK2
  6
CONTINUOUS
370
25
 62
7
100
AcDbLine
 10
-5.0
 20
13.50001
 30
0.0
 11
0.0
 21
12.50001
 31
0.0
  0
LINE
  5
4A9
330
1F
100
AcDbEntity
  8
SK2
  6
CONTINUOUS
370
25
 62
7
100
AcDbLine
 10
-0.2848900766973173
 20
12.44303198466054
 30
0.0
 11
-0.1899267177982115
 21
12.53799534355964
 31
0.0
  0
LINE
  5
4AA
330
1F
100
AcDbEntity
  8
SK2
  6
CONTINUOUS
370
25
 62
7
100
AcDbLine
 10
-0.8152201625872268
 20
12.33696596748255
 30
0.0
 11
-0.5434801083914846
 21
12.6087060216783
 31
0.0
  0
LINE
  5
4AB
330
1F
100
AcDbEntity
  8
SK2
  6
CONTINUOUS
370
25
 62
7
100
AcDbLine
 10
-1.345550248477136
 20
12.23089995030457
 30
0.0
 11
-0.8970334989847577
 21
12.67941669979695
 31
0.0
  0
LINE
  5
4AC
330
1F
100
AcDbEntity
  8
SK2
  6
CONTINUOUS
370
25
 62
7
100
AcDbLine
 10
-1.875880334367048
 20
12.12483393312659
 30
0.0
 11
-1.250586889578032
 21
12.75012737791561
 31
0.0
  0
LINE
  5
4AD
330
1F
100
AcDbEntity
  8
SK2
  6
CONTINUOUS
370
25
 62
7
100
AcDbLine
 10
-2.406210420256957
 20
12.01876791594861
 30
0.0
 11
-1.604140280171305
 21
12.82083805603426
 31
0.0
  0
LINE
  5
4AE
330
1F
100
AcDbEntity
  8
SK2
  6
CONTINUOUS
370
25
 62
7
100
AcDbLine
 10
-2.936540506146867
 20
11.91270189877063
 30
0.0
 11
-1.957693670764578
 21
12.89154873415291
 31
0.0
  0
LINE
  5
4AF
330
1F
100
AcDbEntity
  8
SK2
  6
CONTINUOUS
370
25
 62
7
100
AcDbLine
 10
-3.466870592036777
 20
11.80663588159264
 30
0.0
 11
-2.311247061357852
 21
12.96225941227157
 31
0.0
  0
LINE
  5
4B0
330
1F
100
AcDbEntity
  8
SK2
  6
CONTINUOUS
370
25
 62
7
100
AcDbLine
 10
-3.997200677926687
 20
11.70056986441466
 30
0.0
 11
-2.664800451951125
 21
13.03297009039022
 31
0.0
  0
LINE
  5
4B1
330
1F
100
AcDbEntity
  8
SK2
  6
CONTINUOUS
370
25
 62
7
100
AcDbLine
 10
-4.527530763816598
 20
11.59450384723668
 30
0.0
 11
-3.018353842544399
 21
13.10368076850888
 31
0.0
  0
LINE
  5
4B2
330
1F
100
AcDbEntity
  8
SK2
  6
CONTINUOUS
370
25
 62
7
100
AcDbLine
 10
-5.0
 20
11.54629867976521
 30
0.0
 11
-3.371907233137672
 21
13.17439144662753
 31
0.0
  0
LINE
  5
4B3
330
1F
100
AcDbEntity
  8
SK2
  6
CONTINUOUS
370
25
 62
7
100
AcDbLine
 10
-5.0
 20
11.97056274847713
 30
0.0
 11
-3.725460623730946
 21
13.24510212474619
 31
0.0
  0
LINE
  5
4B4
330
1F
100
AcDbEntity
  8
SK2
  6
CONTINUOUS
370
25
 62
7
100
AcDbLine
 10
-5.0
 20
12.39482681718906
 30
0.0
 11
-4.079014014324217
 21
13.31581280286484
 31
0.0
  0
LINE
  5
4B5
330
1F
100
AcDbEntity
  8
SK2
  6
CONTINUOUS
370
25
 62
7
100
AcDbLine
 10
-5.0
 20
12.81909088590099
 30
0.0
 11
-4.43256740491749
 21
13.3865234809835
 31
0.0
  0
LINE
  5
4B6
330
1F
100
AcDbEntity
  8
SK2
  6
CONTINUOUS
370
25
 62
7
100
AcDbLine
 10
-5.0
 20
13.24335495461292
 30
0.0
 11
-4.786120795510763
 21
13.45723415910215
 31
0.0
  0
LINE
  5
4B7
330
1F
100
AcDbEntity
  8
SK2
  6
CONTINUOUS
370
25
 62
7
100
AcDbLine
 10
-5.0
 20
11.78822509939085
 30
0.0
 11
-4.759820750507621
 21
11.54804584989848
 31
0.0
  0
LINE
  5
4B8
330
1F
100
AcDbEntity
  8
SK2
  6
CONTINUOUS
370
25
 62
7
100
AcDbLine
 10
-5.0
 20
12.21248916810278
 30
0.0
 11
-4.406267359914347
 21
11.61875652801713
 31
0.0
  0
LINE
  5
4B9
330
1F
100
AcDbEntity
  8
SK2
  6
CONTINUOUS
370
25
 62
7
100
AcDbLine
 10
-5.0
 20
12.63675323681471
 30
0.0
 11
-4.052713969321073
 21
11.68946720613578
 31
0.0
  0
LINE
  5
4BA
330
1F
100
AcDbEntity
  8
SK2
  6
CONTINUOUS
370
25
 62
7
100
AcDbLine
 10
-5.0
 20
13.06101730552664
 30
0.0
 11
-3.699160578727799
 21
11.76017788425444
 31
0.0
  0
LINE
  5
4BB
330
1F
100
AcDbEntity
  8
SK2
  6
CONTINUOUS
370
25
 62
7
100
AcDbLine
 10
-5.0
 20
13.48528137423857
 30
0.0
 11
-3.345607188134523
 21
11.83088856237309
 31
0.0
  0
LINE
  5
4BC
330
1F
100
AcDbEntity
  8
SK2
  6
CONTINUOUS
370
25
 62
7
100
AcDbLine
 10
-4.488080696311881
 20
13.39762613926237
 30
0.0
 11
-2.992053797541251
 21
11.90159924049175
 31
0.0
  0
LINE
  5
4BD
330
1F
100
AcDbEntity
  8
SK2
  6
CONTINUOUS
370
25
 62
7
100
AcDbLine
 10
-3.95775061042197
 20
13.29156012208439
 30
0.0
 11
-2.638500406947978
 21
11.9723099186104
 31
0.0
  0
LINE
  5
4BE
330
1F
100
AcDbEntity
  8
SK2
  6
CONTINUOUS
370
25
 62
7
100
AcDbLine
 10
-3.427420524532058
 20
13.18549410490641
 30
0.0
 11
-2.284947016354703
 21
12.04302059672906
 31
0.0
  0
LINE
  5
4BF
330
1F
100
AcDbEntity
  8
SK2
  6
CONTINUOUS
370
25
 62
7
100
AcDbLine
 10
-2.897090438642147
 20
13.07942808772843
 30
0.0
 11
-1.931393625761429
 21
12.11373127484771
 31
0.0
  0
LINE
  5
4C0
330
1F
100
AcDbEntity
  8
SK2
  6
CONTINUOUS
370
25
 62
7
100
AcDbLine
 10
-2.366760352752236
 20
12.97336207055045
 30
0.0
 11
-1.577840235168156
 21
12.18444195296637
 31
0.0
  0
LINE
  5
4C1
330
1F
100
AcDbEntity
  8
SK2
  6
CONTINUOUS
370
25
 62
7
100
AcDbLine
 10
-1.836430266862325
 20
12.86729605337247
 30
0.0
 11
-1.224286844574882
 21
12.25515263108502
 31
0.0
  0
LINE
  5
4C2
330
1F
100
AcDbEntity
  8
SK2
  6
CONTINUOUS
370
25
 62
7
100
AcDbLine
 10
-1.306100180972414
 20
12.76123003619448
 30
0.0
 11
-0.8707334539816082
 21
12.32586330920368
 31
0.0
  0
LINE
  5
4C3
330
1F
100
AcDbEntity
  8
SK2
  6
CONTINUOUS
370
25
 62
7
100
AcDbLine
 10
-0.7757700950825023
 20
12.6551640190165
 30
0.0
 11
-0.5171800633883343
 21
12.39657398732233
 31
0.0
  0
LINE
  5
4C4
330
1F
100
AcDbEntity
  8
SK2
  6
CONTINUOUS
370
25
 62
7
100
AcDbLine
 10
-0.2454400091925932
 20
12.54909800183852
 30
0.0
 11
-0.1636266727950619
 21
12.46728466544099
 31
0.0
  0
TEXT
  5
4C5
330
1F
100
AcDbEntity
  8
SK2
  6
CONTINUOUS
370
25
 62
7
100
AcDbText
 10
-29.21833333333333
 20
13.50001
 30
0.0
 40
3.5
  1
45.02
 72
     1
 11
-22.51
 21
13.50001
 31
0.0
100
AcDbText
  0
LINE
  5
4C6
330
1F
100
AcDbEntity
  8
2
  6
CONTINUOUS
370
25
 62
7
100
AcDbLine
 10
0.0
 20
-2.50001
 30
0.0
 11
-0.0000000000000007
 21
-13.50001
 31
0.0
  0
LINE
  5
4C7
330
1F
100
AcDbEntity
  8
2
  6
CONTINUOUS
370
25
 62
7
100
AcDbLine
 10
1.009999999999999
 20
-13.50001
 30
0.0
 11
1.01
 21
-2.50001
 31
0.0
  0
LINE
  5
4C8
330
1F
100
AcDbEntity
  8
2
  6
CONTINUOUS
370
25
 62
7
100
AcDbLine
 10
-18.475
 20
-12.50001
 30
0.0
 11
11.01
 21
-12.50001
 31
0.0
  0
LINE
  5
4C9
330
1F
100
AcDbEntity
  8
2
  6
CONTINUOUS
370
25
 62
7
100
AcDbLine
 10
0.0
 20
-12.50001
 30
0.0
 11
-5.0
 21
-13.50001
 31
0.0
  0
LINE
  5
4CA
330
1F
100
AcDbEntity
  8
2
  6
CONTINUOUS
370
25
 62
7
100
AcDbLine
 10
-5.0
 20
-13.50001
 30
0.0
 11
-5.0
 21
-11.50001
 31
0.0
  0
LINE
  5
4CB
330
1F
100
AcDbEntity
  8
2
  6
CONTINUOUS
370
25
 62
7
100
AcDbLine
 10
-5.0
 20
-11.50001
 30
0.0
 11
0.0
 21
-12.50001
 31
0.0
  0
LINE
  5
4CC
330
1F
100
AcDbEntity
  8
2
  6
CONTINUOUS
370
25
 62
7
100
AcDbLine
 10
-0.3058376879558388
 20
-12.56117753759117
 30
0.0
 11
-0.2038917919705592
 21
-12.45923164160589
 31
0.0
  0
LINE
  5
4CD
330
1F
100
AcDbEntity
  8
2
  6
CONTINUOUS
370
25
 62
7
100
AcDbLine
 10
-0.8361677738457504
 20
-12.66724355476915
 30
0.0
 11
-0.5574451825638337
 21
-12.38852096348723
 31
0.0
  0
LINE
  5
4CE
330
1F
100
AcDbEntity
  8
2
  6
CONTINUOUS
370
25
 62
7
100
AcDbLine
 10
-1.36649785973566
 20
-12.77330957194713
 30
0.0
 11
-0.9109985731571068
 21
-12.31781028536858
 31
0.0
  0
LINE
  5
4CF
330
1F
100
AcDbEntity
  8
2
  6
CONTINUOUS
370
25
 62
7
100
AcDbLine
 10
-1.896827945625569
 20
-12.87937558912511
 30
0.0
 11
-1.264551963750379
 21
-12.24709960724992
 31
0.0
  0
LINE
  5
4D0
330
1F
100
AcDbEntity
  8
2
  6
CONTINUOUS
370
25
 62
7
100
AcDbLine
 10
-2.427158031515478
 20
-12.98544160630309
 30
0.0
 11
-1.618105354343653
 21
-12.17638892913127
 31
0.0
  0
LINE
  5
4D1
330
1F
100
AcDbEntity
  8
2
  6
CONTINUOUS
370
25
 62
7
100
AcDbLine
 10
-2.957488117405387
 20
-13.09150762348108
 30
0.0
 11
-1.971658744936925
 21
-12.10567825101261
 31
0.0
  0
LINE
  5
4D2
330
1F
100
AcDbEntity
  8
2
  6
CONTINUOUS
370
25
 62
7
100
AcDbLine
 10
-3.487818203295298
 20
-13.19757364065906
 30
0.0
 11
-2.3252121355302
 21
-12.03496757289396
 31
0.0
  0
LINE
  5
4D3
330
1F
100
AcDbEntity
  8
2
  6
CONTINUOUS
370
25
 62
7
100
AcDbLine
 10
-4.018148289185209
 20
-13.30363965783704
 30
0.0
 11
-2.678765526123474
 21
-11.96425689477531
 31
0.0
  0
LINE
  5
4D4
330
1F
100
AcDbEntity
  8
2
  6
CONTINUOUS
370
25
 62
7
100
AcDbLine
 10
-4.548478375075118
 20
-13.40970567501502
 30
0.0
 11
-3.032318916716747
 21
-11.89354621665665
 31
0.0
  0
LINE
  5
4D5
330
1F
100
AcDbEntity
  8
2
  6
CONTINUOUS
370
25
 62
7
100
AcDbLine
 10
-5.0
 20
-13.43696323122798
 30
0.0
 11
-3.38587230731002
 21
-11.822835538538
 31
0.0
  0
LINE
  5
4D6
330
1F
100
AcDbEntity
  8
2
  6
CONTINUOUS
370
25
 62
7
100
AcDbLine
 10
-5.0
 20
-13.01269916251605
 30
0.0
 11
-3.739425697903292
 21
-11.75212486041934
 31
0.0
  0
LINE
  5
4D7
330
1F
100
AcDbEntity
  8
2
  6
CONTINUOUS
370
25
 62
7
100
AcDbLine
 10
-5.0
 20
-12.58843509380412
 30
0.0
 11
-4.092979088496565
 21
-11.68141418230069
 31
0.0
  0
LINE
  5
4D8
330
1F
100
AcDbEntity
  8
2
  6
CONTINUOUS
370
25
 62
7
100
AcDbLine
 10
-5.0
 20
-12.16417102509219
 30
0.0
 11
-4.446532479089838
 21
-11.61070350418203
 31
0.0
  0
LINE
  5
4D9
330
1F
100
AcDbEntity
  8
2
  6
CONTINUOUS
370
25
 62
7
100
AcDbLine
 10
-5.0
 20
-11.73990695638027
 30
0.0
 11
-4.800085869683111
 21
-11.53999282606338
 31
0.0
  0
LINE
  5
4DA
330
1F
100
AcDbEntity
  8
2
  6
CONTINUOUS
370
25
 62
7
100
AcDbLine
 10
-5.0
 20
-13.43696323122797
 30
0.0
 11
-4.947461026023312
 21
-13.48950220520466
 31
0.0
  0
LINE
  5
4DB
330
1F
100
AcDbEntity
  8
2
  6
CONTINUOUS
370
25
 62
7
100
AcDbLine
 10
-5.0
 20
-13.01269916251605
 30
0.0
 11
-4.593907635430042
 21
-13.41879152708601
 31
0.0
  0
LINE
  5
4DC
330
1F
100
AcDbEntity
  8
2
  6
CONTINUOUS
370
25
 62
7
100
AcDbLine
 10
-5.0
 20
-12.58843509380412
 30
0.0
 11
-4.240354244836768
 21
-13.34808084896735
 31
0.0
  0
LINE
  5
4DD
330
1F
100
AcDbEntity
  8
2
  6
CONTINUOUS
370
25
 62
7
100
AcDbLine
 10
-5.0
 20
-12.16417102509219
 30
0.0
 11
-3.886800854243494
 21
-13.2773701708487
 31
0.0
  0
LINE
  5
4DE
330
1F
100
AcDbEntity
  8
2
  6
CONTINUOUS
370
25
 62
7
100
AcDbLine
 10
-5.0
 20
-11.73990695638027
 30
0.0
 11
-3.533247463650221
 21
-13.20665949273004
 31
0.0
  0
LINE
  5
4DF
330
1F
100
AcDbEntity
  8
2
  6
CONTINUOUS
370
25
 62
7
100
AcDbLine
 10
-4.76954110958542
 20
-11.54610177808292
 30
0.0
 11
-3.179694073056945
 21
-13.13594881461139
 31
0.0
  0
LINE
  5
4E0
330
1F
100
AcDbEntity
  8
2
  6
CONTINUOUS
370
25
 62
7
100
AcDbLine
 10
-4.23921102369551
 20
-11.6521677952609
 30
0.0
 11
-2.826140682463671
 21
-13.06523813649273
 31
0.0
  0
LINE
  5
4E1
330
1F
100
AcDbEntity
  8
2
  6
CONTINUOUS
370
25
 62
7
100
AcDbLine
 10
-3.708880937805599
 20
-11.75823381243888
 30
0.0
 11
-2.472587291870398
 21
-12.99452745837408
 31
0.0
  0
LINE
  5
4E2
330
1F
100
AcDbEntity
  8
2
  6
CONTINUOUS
370
25
 62
7
100
AcDbLine
 10
-3.17855085191569
 20
-11.86429982961686
 30
0.0
 11
-2.119033901277125
 21
-12.92381678025543
 31
0.0
  0
LINE
  5
4E3
330
1F
100
AcDbEntity
  8
2
  6
CONTINUOUS
370
25
 62
7
100
AcDbLine
 10
-2.648220766025779
 20
-11.97036584679484
 30
0.0
 11
-1.765480510683852
 21
-12.85310610213677
 31
0.0
  0
LINE
  5
4E4
330
1F
100
AcDbEntity
  8
2
  6
CONTINUOUS
370
25
 62
7
100
AcDbLine
 10
-2.117890680135867
 20
-12.07643186397283
 30
0.0
 11
-1.411927120090577
 21
-12.78239542401812
 31
0.0
  0
LINE
  5
4E5
330
1F
100
AcDbEntity
  8
2
  6
CONTINUOUS
370
25
 62
7
100
AcDbLine
 10
-1.587560594245956
 20
-12.18249788115081
 30
0.0
 11
-1.058373729497304
 21
-12.71168474589946
 31
0.0
  0
LINE
  5
4E6
330
1F
100
AcDbEntity
  8
2
  6
CONTINUOUS
370
25
 62
7
100
AcDbLine
 10
-1.057230508356045
 20
-12.28856389832879
 30
0.0
 11
-0.7048203389040301
 21
-12.6409740677808
 31
0.0
  0
LINE
  5
4E7
330
1F
100
AcDbEntity
  8
2
  6
CONTINUOUS
370
25
 62
7
100
AcDbLine
 10
-0.5269004224661351
 20
-12.39462991550677
 30
0.0
 11
-0.3512669483107566
 21
-12.57026338966215
 31
0.0
  0
LINE
  5
4E8
330
1F
100
AcDbEntity
  8
2
  6
CONTINUOUS
370
25
 62
7
100
AcDbLine
 10
1.009999999999999
 20
-12.50001
 30
0.0
 11
6.01
 21
-11.50001
 31
0.0
  0
LINE
  5
4E9
330
1F
100
AcDbEntity
  8
2
  6
CONTINUOUS
370
25
 62
7
100
AcDbLine
 10
6.01
 20
-11.50001
 30
0.0
 11
6.01
 21
-13.50001
 31
0.0
  0
LINE
  5
4EA
330
1F
100
AcDbEntity
  8
2
  6
CONTINUOUS
370
25
 62
7
100
AcDbLine
 10
6.01
 20
-13.50001
 30
0.0
 11
1.009999999999999
 21
-12.50001
 31
0.0
  0
LINE
  5
4EB
330
1F
100
AcDbEntity
  8
2
  6
CONTINUOUS
370
25
 62
7
100
AcDbLine
 10
5.738467520910154
 20
-13.44570350418203
 30
0.0
 11
6.01
 21
-13.17417102509219
 31
0.0
  0
LINE
  5
4EC
330
1F
100
AcDbEntity
  8
2
  6
CONTINUOUS
370
25
 62
7
100
AcDbLine
 10
5.384914130316881
 20
-13.37499282606338
 30
0.0
 11
6.01
 21
-12.74990695638026
 31
0.0
  0
LINE
  5
4ED
330
1F
100
AcDbEntity
  8
2
  6
CONTINUOUS
370
25
 62
7
100
AcDbLine
 10
5.031360739723608
 20
-13.30428214794472
 30
0.0
 11
6.01
 21
-12.32564288766833
 31
0.0
  0
LINE
  5
4EE
330
1F
100
AcDbEntity
  8
2
  6
CONTINUOUS
370
25
 62
7
100
AcDbLine
 10
4.677807349130335
 20
-13.23357146982607
 30
0.0
 11
6.01
 21
-11.9013788189564
 31
0.0
  0
LINE
  5
4EF
330
1F
100
AcDbEntity
  8
2
  6
CONTINUOUS
370
25
 62
7
100
AcDbLine
 10
4.324253958537062
 20
-13.16286079170741
 30
0.0
 11
5.981380937805595
 21
-11.50573381243888
 31
0.0
  0
LINE
  5
4F0
330
1F
100
AcDbEntity
  8
2
  6
CONTINUOUS
370
25
 62
7
100
AcDbLine
 10
3.970700567943789
 20
-13.09215011358876
 30
0.0
 11
5.451050851915685
 21
-11.61179982961686
 31
0.0
  0
LINE
  5
4F1
330
1F
100
AcDbEntity
  8
2
  6
CONTINUOUS
370
25
 62
7
100
AcDbLine
 10
3.617147177350516
 20
-13.0214394354701
 30
0.0
 11
4.920720766025775
 21
-11.71786584679484
 31
0.0
  0
LINE
  5
4F2
330
1F
100
AcDbEntity
  8
2
  6
CONTINUOUS
370
25
 62
7
100
AcDbLine
 10
3.263593786757243
 20
-12.95072875735145
 30
0.0
 11
4.390390680135866
 21
-11.82393186397283
 31
0.0
  0
LINE
  5
4F3
330
1F
100
AcDbEntity
  8
2
  6
CONTINUOUS
370
25
 62
7
100
AcDbLine
 10
2.91004039616397
 20
-12.88001807923279
 30
0.0
 11
3.860060594245956
 21
-11.92999788115081
 31
0.0
  0
LINE
  5
4F4
330
1F
100
AcDbEntity
  8
2
  6
CONTINUOUS
370
25
 62
7
100
AcDbLine
 10
2.556487005570697
 20
-12.80930740111414
 30
0.0
 11
3.329730508356046
 21
-12.03606389832879
 31
0.0
  0
LINE
  5
4F5
330
1F
100
AcDbEntity
  8
2
  6
CONTINUOUS
370
25
 62
7
100
AcDbLine
 10
2.202933614977422
 20
-12.73859672299549
 30
0.0
 11
2.799400422466134
 21
-12.14212991550677
 31
0.0
  0
LINE
  5
4F6
330
1F
100
AcDbEntity
  8
2
  6
CONTINUOUS
370
25
 62
7
100
AcDbLine
 10
1.849380224384149
 20
-12.66788604487683
 30
0.0
 11
2.269070336576224
 21
-12.24819593268476
 31
0.0
  0
LINE
  5
4F7
330
1F
100
AcDbEntity
  8
2
  6
CONTINUOUS
370
25
 62
7
100
AcDbLine
 10
1.495826833790876
 20
-12.59717536675818
 30
0.0
 11
1.738740250686314
 21
-12.35426194986274
 31
0.0
  0
LINE
  5
4F8
330
1F
100
AcDbEntity
  8
2
  6
CONTINUOUS
370
25
 62
7
100
AcDbLine
 10
1.142273443197602
 20
-12.52646468863952
 30
0.0
 11
1.208410164796404
 21
-12.46032796704072
 31
0.0
  0
LINE
  5
4F9
330
1F
100
AcDbEntity
  8
2
  6
CONTINUOUS
370
25
 62
7
100
AcDbLine
 10
1.348451677450676
 20
-12.43231966450986
 30
0.0
 11
1.517677516176015
 21
-12.6015455032352
 31
0.0
  0
LINE
  5
4FA
330
1F
100
AcDbEntity
  8
2
  6
CONTINUOUS
370
25
 62
7
100
AcDbLine
 10
1.702005068043949
 20
-12.36160898639121
 30
0.0
 11
2.048007602065925
 21
-12.70761152041318
 31
0.0
  0
LINE
  5
4FB
330
1F
100
AcDbEntity
  8
2
  6
CONTINUOUS
370
25
 62
7
100
AcDbLine
 10
2.055558458637223
 20
-12.29089830827255
 30
0.0
 11
2.578337687955835
 21
-12.81367753759117
 31
0.0
  0
LINE
  5
4FC
330
1F
100
AcDbEntity
  8
2
  6
CONTINUOUS
370
25
 62
7
100
AcDbLine
 10
2.409111849230495
 20
-12.2201876301539
 30
0.0
 11
3.108667773845744
 21
-12.91974355476915
 31
0.0
  0
LINE
  5
4FD
330
1F
100
AcDbEntity
  8
2
  6
CONTINUOUS
370
25
 62
7
100
AcDbLine
 10
2.762665239823769
 20
-12.14947695203525
 30
0.0
 11
3.638997859735655
 21
-13.02580957194713
 31
0.0
  0
LINE
  5
4FE
330
1F
100
AcDbEntity
  8
2
  6
CONTINUOUS
370
25
 62
7
100
AcDbLine
 10
3.116218630417043
 20
-12.07876627391659
 30
0.0
 11
4.169327945625566
 21
-13.13187558912511
 31
0.0
  0
LINE
  5
4FF
330
1F
100
AcDbEntity
  8
2
  6
CONTINUOUS
370
25
 62
7
100
AcDbLine
 10
3.469772021010316
 20
-12.00805559579794
 30
0.0
 11
4.699658031515476
 21
-13.2379416063031
 31
0.0
  0
LINE
  5
500
330
1F
100
AcDbEntity
  8
2
  6
CONTINUOUS
370
25
 62
7
100
AcDbLine
 10
3.823325411603591
 20
-11.93734491767928
 30
0.0
 11
5.229988117405388
 21
-13.34400762348108
 31
0.0
  0
LINE
  5
501
330
1F
100
AcDbEntity
  8
2
  6
CONTINUOUS
370
25
 62
7
100
AcDbLine
 10
4.176878802196864
 20
-11.86663423956063
 30
0.0
 11
5.760318203295298
 21
-13.45007364065906
 31
0.0
  0
LINE
  5
502
330
1F
100
AcDbEntity
  8
2
  6
CONTINUOUS
370
25
 62
7
100
AcDbLine
 10
4.530432192790138
 20
-11.79592356144197
 30
0.0
 11
6.01
 21
-13.27549136865183
 31
0.0
  0
LINE
  5
503
330
1F
100
AcDbEntity
  8
2
  6
CONTINUOUS
370
25
 62
7
100
AcDbLine
 10
4.883985583383411
 20
-11.72521288332332
 30
0.0
 11
6.01
 21
-12.85122729993991
 31
0.0
  0
LINE
  5
504
330
1F
100
AcDbEntity
  8
2
  6
CONTINUOUS
370
25
 62
7
100
AcDbLine
 10
5.237538973976685
 20
-11.65450220520466
 30
0.0
 11
6.01
 21
-12.42696323122798
 31
0.0
  0
LINE
  5
505
330
1F
100
AcDbEntity
  8
2
  6
CONTINUOUS
370
25
 62
7
100
AcDbLine
 10
5.591092364569958
 20
-11.58379152708601
 30
0.0
 11
6.01
 21
-12.00269916251605
 31
0.0
  0
LINE
  5
506
330
1F
100
AcDbEntity
  8
2
  6
CONTINUOUS
370
25
 62
7
100
AcDbLine
 10
5.944645755163231
 20
-11.51308084896735
 30
0.0
 11
6.01
 21
-11.57843509380412
 31
0.0
  0
TEXT
  5
507
330
1F
100
AcDbEntity
  8
2
  6
CONTINUOUS
370
25
 62
7
100
AcDbText
 10
-15.52916666666667
 20
-11.50001
 30
0.0
 40
3.5
  1
1.01
 72
     1
 11
-11.7375
 21
-11.50001
 31
0.0
100
AcDbText
  0
LINE
  5
508
330
1F
100
AcDbEntity
  8
NOCUT
  6
CONTINUOUS
370
25
 62
7
100
AcDbLine
 10
1.0
 20
0.0
 30
0.0
 11
34.98
 21
0.0
 31
0.0
  0
LINE
  5
509
330
1F
100
AcDbEntity
  8
NOCUT
  6
CONTINUOUS
370
25
 62
7
100
AcDbLine
 10
34.98
 20
0.0
 30
0.0
 11
34.98
 21
1.615
 31
0.0
  0
LINE
  5
50A
330
1F
100
AcDbEntity
  8
NOCUT
  6
CONTINUOUS
370
25
 62
7
100
AcDbLine
 10
34.98
 20
1.615
 30
0.0
 11
2.979999999999997
 21
1.615
 31
0.0
  0
LINE
  5
50B
330
1F
100
AcDbEntity
  8
NOCUT
  6
CONTINUOUS
370
25
 62
7
100
AcDbLine
 10
2.979999999999997
 20
1.615
 30
0.0
 11
2.979999999999997
 21
2.415
 31
0.0
  0
LINE
  5
50C
330
1F
100
AcDbEntity
  8
NOCUT
  6
CONTINUOUS
370
25
 62
7
100
AcDbLine
 10
2.979999999999997
 20
2.415
 30
0.0
 11
2.561709729972113
 21
2.1735
 31
0.0
  0
LINE
  5
50D
330
1F
100
AcDbEntity
  8
NOCUT
  6
CONTINUOUS
370
25
 62
7
100
AcDbLine
 10
2.561709729972113
 20
2.1735
 30
0.0
 11
1.565514588671238
 21
2.1735
 31
0.0
  0
LINE
  5
50E
330
1F
100
AcDbEntity
  8
NOCUT
  6
CONTINUOUS
370
25
 62
7
100
AcDbLine
 10
1.565514588671238
 20
2.1735
 30
0.0
 11
1.0
 21
2.5
 31
0.0
  0
LINE
  5
50F
330
1F
100
AcDbEntity
  8
CUT
  6
CONTINUOUS
370
25
 62
1
100
AcDbLine
 10
1.594359353944895
 20
1.615
 30
0.0
 11
2.979999999999997
 21
2.415
 31
0.0
  0
LINE
  5
510
330
1F
100
AcDbEntity
  8
CUT
  6
CONTINUOUS
370
25
 62
1
100
AcDbLine
 10
2.979999999999997
 20
2.415
 30
0.0
 11
34.17999999999999
 21
2.415
 31
0.0
  0
LINE
  5
511
330
1F
100
AcDbEntity
  8
CUT
  6
CONTINUOUS
370
25
 62
1
100
AcDbLine
 10
34.17999999999999
 20
2.415
 30
0.0
 11
34.97999999999999
 21
1.615
 31
0.0
  0
LINE
  5
512
330
1F
100
AcDbEntity
  8
CUT
  6
CONTINUOUS
370
25
 62
1
100
AcDbLine
 10
34.97999999999999
 20
1.615
 30
0.0
 11
1.594359353944888
 21
1.615
 31
0.0
  0
LINE
  5
513
330
1F
100
AcDbEntity
  8
2
  6
CONTINUOUS
370
25
 62
7
100
AcDbLine
 10
34.98
 20
-2.415
 30
0.0
 11
45.98
 21
-2.415
 31
0.0
  0
LINE
  5
514
330
1F
100
AcDbEntity
  8
2
  6
CONTINUOUS
370
25
 62
7
100
AcDbLine
 10
45.98
 20
2.415
 30
0.0
 11
34.98
 21
2.415
 31
0.0
  0
LINE
  5
515
330
1F
100
AcDbEntity
  8
2
  6
CONTINUOUS
370
25
 62
7
100
AcDbLine
 10
44.98
 20
27.6275
 30
0.0
 11
44.98
 21
-12.415
 31
0.0
  0
LINE
  5
516
330
1F
100
AcDbEntity
  8
2
  6
CONTINUOUS
370
25
 62
7
100
AcDbLine
 10
44.98
 20
-2.415
 30
0.0
 11
45.98
 21
-7.415
 31
0.0
  0
LINE
  5
517
330
1F
100
AcDbEntity
  8
2
  6
CONTINUOUS
370
25
 62
7
100
AcDbLine
 10
45.98
 20
-7.415
 30
0.0
 11
43.98
 21
-7.415
 31
0.0
  0
LINE
  5
518
330
1F
100
AcDbEntity
  8
2
  6
CONTINUOUS
370
25
 62
7
100
AcDbLine
 10
43.98
 20
-7.415
 30
0.0
 11
44.98
 21
-2.415
 31
0.0
  0
LINE
  5
519
330
1F
100
AcDbEntity
  8
2
  6
CONTINUOUS
370
25
 62
7
100
AcDbLine
 10
45.59802552813793
 20
-7.414999999999999
 30
0.0
 11
45.91633758802299
 21
-7.09668794011494
 31
0.0
  0
LINE
  5
51A
330
1F
100
AcDbEntity
  8
2
  6
CONTINUOUS
370
25
 62
7
100
AcDbLine
 10
45.173761459426
 20
-7.414999999999999
 30
0.0
 11
45.84562690990433
 21
-6.74313454952167
 31
0.0
  0
LINE
  5
51B
330
1F
100
AcDbEntity
  8
2
  6
CONTINUOUS
370
25
 62
7
100
AcDbLine
 10
44.74949739071407
 20
-7.414999999999999
 30
0.0
 11
45.77491623178568
 21
-6.389581158928387
 31
0.0
  0
LINE
  5
51C
330
1F
100
AcDbEntity
  8
2
  6
CONTINUOUS
370
25
 62
7
100
AcDbLine
 10
44.32523332200214
 20
-7.414999999999999
 30
0.0
 11
45.70420555366703
 21
-6.03602776833511
 31
0.0
  0
LINE
  5
51D
330
1F
100
AcDbEntity
  8
2
  6
CONTINUOUS
370
25
 62
7
100
AcDbLine
 10
43.99975768667744
 20
-7.316211566612765
 30
0.0
 11
45.63349487554837
 21
-5.68247437774184
 31
0.0
  0
LINE
  5
51E
330
1F
100
AcDbEntity
  8
2
  6
CONTINUOUS
370
25
 62
7
100
AcDbLine
 10
44.10582370385542
 20
-6.785881480722857
 30
0.0
 11
45.56278419742971
 21
-5.328920987148571
 31
0.0
  0
LINE
  5
51F
330
1F
100
AcDbEntity
  8
2
  6
CONTINUOUS
370
25
 62
7
100
AcDbLine
 10
44.21188972103341
 20
-6.255551394832935
 30
0.0
 11
45.49207351931105
 21
-4.975367596555294
 31
0.0
  0
LINE
  5
520
330
1F
100
AcDbEntity
  8
2
  6
CONTINUOUS
370
25
 62
7
100
AcDbLine
 10
44.31795573821139
 20
-5.725221308943027
 30
0.0
 11
45.4213628411924
 21
-4.621814205962018
 31
0.0
  0
LINE
  5
521
330
1F
100
AcDbEntity
  8
2
  6
CONTINUOUS
370
25
 62
7
100
AcDbLine
 10
44.42402175538937
 20
-5.194891223053112
 30
0.0
 11
45.35065216307375
 21
-4.268260815368734
 31
0.0
  0
LINE
  5
522
330
1F
100
AcDbEntity
  8
2
  6
CONTINUOUS
370
25
 62
7
100
AcDbLine
 10
44.53008777256736
 20
-4.664561137163197
 30
0.0
 11
45.27994148495509
 21
-3.914707424775465
 31
0.0
  0
LINE
  5
523
330
1F
100
AcDbEntity
  8
2
  6
CONTINUOUS
370
25
 62
7
100
AcDbLine
 10
44.63615378974534
 20
-4.134231051273282
 30
0.0
 11
45.20923080683643
 21
-3.561154034182188
 31
0.0
  0
LINE
  5
524
330
1F
100
AcDbEntity
  8
2
  6
CONTINUOUS
370
25
 62
7
100
AcDbLine
 10
44.74221980692332
 20
-3.603900965383367
 30
0.0
 11
45.13852012871777
 21
-3.207600643588918
 31
0.0
  0
LINE
  5
525
330
1F
100
AcDbEntity
  8
2
  6
CONTINUOUS
370
25
 62
7
100
AcDbLine
 10
44.8482858241013
 20
-3.073570879493452
 30
0.0
 11
45.06780945059912
 21
-2.854047252995635
 31
0.0
  0
LINE
  5
526
330
1F
100
AcDbEntity
  8
2
  6
CONTINUOUS
370
25
 62
7
100
AcDbLine
 10
44.95435184127928
 20
-2.543240793603537
 30
0.0
 11
44.99709877248047
 21
-2.500493862402351
 31
0.0
  0
LINE
  5
527
330
1F
100
AcDbEntity
  8
2
  6
CONTINUOUS
370
25
 62
7
100
AcDbLine
 10
44.03766232965629
 20
-7.126688351718528
 30
0.0
 11
44.32597397793776
 21
-7.414999999999999
 31
0.0
  0
LINE
  5
528
330
1F
100
AcDbEntity
  8
2
  6
CONTINUOUS
370
25
 62
7
100
AcDbLine
 10
44.10837300777494
 20
-6.773134961125258
 30
0.0
 11
44.75023804664968
 21
-7.414999999999999
 31
0.0
  0
LINE
  5
529
330
1F
100
AcDbEntity
  8
2
  6
CONTINUOUS
370
25
 62
7
100
AcDbLine
 10
44.17908368589359
 20
-6.419581570531975
 30
0.0
 11
45.17450211536162
 21
-7.414999999999999
 31
0.0
  0
LINE
  5
52A
330
1F
100
AcDbEntity
  8
2
  6
CONTINUOUS
370
25
 62
7
100
AcDbLine
 10
44.24979436401225
 20
-6.066028179938705
 30
0.0
 11
45.59876618407355
 21
-7.414999999999999
 31
0.0
  0
LINE
  5
52B
330
1F
100
AcDbEntity
  8
2
  6
CONTINUOUS
370
25
 62
7
100
AcDbLine
 10
44.32050504213091
 20
-5.712474789345428
 30
0.0
 11
45.96924243680362
 21
-7.361212184018136
 31
0.0
  0
LINE
  5
52C
330
1F
100
AcDbEntity
  8
2
  6
CONTINUOUS
370
25
 62
7
100
AcDbLine
 10
44.39121572024957
 20
-5.358921398752159
 30
0.0
 11
45.86317641962564
 21
-6.830882098128228
 31
0.0
  0
LINE
  5
52D
330
1F
100
AcDbEntity
  8
2
  6
CONTINUOUS
370
25
 62
7
100
AcDbLine
 10
44.46192639836822
 20
-5.005368008158875
 30
0.0
 11
45.75711040244766
 21
-6.300552012238313
 31
0.0
  0
LINE
  5
52E
330
1F
100
AcDbEntity
  8
2
  6
CONTINUOUS
370
25
 62
7
100
AcDbLine
 10
44.53263707648687
 20
-4.651814617565591
 30
0.0
 11
45.65104438526967
 21
-5.770221926348391
 31
0.0
  0
LINE
  5
52F
330
1F
100
AcDbEntity
  8
2
  6
CONTINUOUS
370
25
 62
7
100
AcDbLine
 10
44.60334775460554
 20
-4.298261226972336
 30
0.0
 11
45.54497836809169
 21
-5.239891840458483
 31
0.0
  0
LINE
  5
530
330
1F
100
AcDbEntity
  8
2
  6
CONTINUOUS
370
25
 62
7
100
AcDbLine
 10
44.67405843272419
 20
-3.944707836379052
 30
0.0
 11
45.4389123509137
 21
-4.709561754568561
 31
0.0
  0
LINE
  5
531
330
1F
100
AcDbEntity
  8
2
  6
CONTINUOUS
370
25
 62
7
100
AcDbLine
 10
44.74476911084285
 20
-3.591154445785783
 30
0.0
 11
45.33284633373572
 21
-4.179231668678661
 31
0.0
  0
LINE
  5
532
330
1F
100
AcDbEntity
  8
2
  6
CONTINUOUS
370
25
 62
7
100
AcDbLine
 10
44.8154797889615
 20
-3.237601055192492
 30
0.0
 11
45.22678031655775
 21
-3.648901582788746
 31
0.0
  0
LINE
  5
533
330
1F
100
AcDbEntity
  8
2
  6
CONTINUOUS
370
25
 62
7
100
AcDbLine
 10
44.88619046708016
 20
-2.884047664599223
 30
0.0
 11
45.12071429937977
 21
-3.118571496898838
 31
0.0
  0
LINE
  5
534
330
1F
100
AcDbEntity
  8
2
  6
CONTINUOUS
370
25
 62
7
100
AcDbLine
 10
44.95690114519881
 20
-2.530494274005939
 30
0.0
 11
45.01464828220178
 21
-2.588241411008916
 31
0.0
  0
LINE
  5
535
330
1F
100
AcDbEntity
  8
2
  6
CONTINUOUS
370
25
 62
7
100
AcDbLine
 10
44.98
 20
2.415
 30
0.0
 11
43.98
 21
7.415
 31
0.0
  0
LINE
  5
536
330
1F
100
AcDbEntity
  8
2
  6
CONTINUOUS
370
25
 62
7
100
AcDbLine
 10
43.98
 20
7.415
 30
0.0
 11
45.98
 21
7.415
 31
0.0
  0
LINE
  5
537
330
1F
100
AcDbEntity
  8
2
  6
CONTINUOUS
370
25
 62
7
100
AcDbLine
 10
45.98
 20
7.415
 30
0.0
 11
44.98
 21
2.415
 31
0.0
  0
LINE
  5
538
330
1F
100
AcDbEntity
  8
2
  6
CONTINUOUS
370
25
 62
7
100
AcDbLine
 10
44.92959516184806
 20
2.667024190759641
 30
0.0
 11
45.05560725722789
 21
2.793036286139468
 31
0.0
  0
LINE
  5
539
330
1F
100
AcDbEntity
  8
2
  6
CONTINUOUS
370
25
 62
7
100
AcDbLine
 10
44.85888448372941
 20
3.020577581352917
 30
0.0
 11
45.16167327440587
 21
3.323366372029376
 31
0.0
  0
LINE
  5
53A
330
1F
100
AcDbEntity
  8
2
  6
CONTINUOUS
370
25
 62
7
100
AcDbLine
 10
44.78817380561075
 20
3.374130971946187
 30
0.0
 11
45.26773929158386
 21
3.853696457919298
 31
0.0
  0
LINE
  5
53B
330
1F
100
AcDbEntity
  8
2
  6
CONTINUOUS
370
25
 62
7
100
AcDbLine
 10
44.7174631274921
 20
3.727684362539463
 30
0.0
 11
45.37380530876185
 21
4.384026543809213
 31
0.0
  0
LINE
  5
53C
330
1F
100
AcDbEntity
  8
2
  6
CONTINUOUS
370
25
 62
7
100
AcDbLine
 10
44.64675244937344
 20
4.081237753132747
 30
0.0
 11
45.47987132593983
 21
4.914356629699128
 31
0.0
  0
LINE
  5
53D
330
1F
100
AcDbEntity
  8
2
  6
CONTINUOUS
370
25
 62
7
100
AcDbLine
 10
44.57604177125479
 20
4.434791143726024
 30
0.0
 11
45.58593734311781
 21
5.444686715589043
 31
0.0
  0
LINE
  5
53E
330
1F
100
AcDbEntity
  8
2
  6
CONTINUOUS
370
25
 62
7
100
AcDbLine
 10
44.50533109313614
 20
4.7883445343193
 30
0.0
 11
45.69200336029579
 21
5.975016801478958
 31
0.0
  0
LINE
  5
53F
330
1F
100
AcDbEntity
  8
2
  6
CONTINUOUS
370
25
 62
7
100
AcDbLine
 10
44.43462041501748
 20
5.141897924912577
 30
0.0
 11
45.79806937747377
 21
6.505346887368866
 31
0.0
  0
LINE
  5
540
330
1F
100
AcDbEntity
  8
2
  6
CONTINUOUS
370
25
 62
7
100
AcDbLine
 10
44.36390973689883
 20
5.495451315505854
 30
0.0
 11
45.90413539465175
 21
7.035676973258774
 31
0.0
  0
LINE
  5
541
330
1F
100
AcDbEntity
  8
2
  6
CONTINUOUS
370
25
 62
7
100
AcDbLine
 10
44.29319905878017
 20
5.849004706099137
 30
0.0
 11
45.85919435268104
 21
7.414999999999999
 31
0.0
  0
LINE
  5
542
330
1F
100
AcDbEntity
  8
2
  6
CONTINUOUS
370
25
 62
7
100
AcDbLine
 10
44.22248838066152
 20
6.202558096692407
 30
0.0
 11
45.43493028396912
 21
7.414999999999999
 31
0.0
  0
LINE
  5
543
330
1F
100
AcDbEntity
  8
2
  6
CONTINUOUS
370
25
 62
7
100
AcDbLine
 10
44.15177770254286
 20
6.556111487285676
 30
0.0
 11
45.01066621525718
 21
7.414999999999999
 31
0.0
  0
LINE
  5
544
330
1F
100
AcDbEntity
  8
2
  6
CONTINUOUS
370
25
 62
7
100
AcDbLine
 10
44.0810670244242
 20
6.909664877878946
 30
0.0
 11
44.58640214654525
 21
7.414999999999999
 31
0.0
  0
LINE
  5
545
330
1F
100
AcDbEntity
  8
2
  6
CONTINUOUS
370
25
 62
7
100
AcDbLine
 10
44.01035634630555
 20
7.26321826847223
 30
0.0
 11
44.16213807783332
 21
7.414999999999999
 31
0.0
  0
LINE
  5
546
330
1F
100
AcDbEntity
  8
2
  6
CONTINUOUS
370
25
 62
7
100
AcDbLine
 10
44.949356076066
 20
2.568219619669982
 30
0.0
 11
45.00042928262267
 21
2.517146413113309
 31
0.0
  0
LINE
  5
547
330
1F
100
AcDbEntity
  8
2
  6
CONTINUOUS
370
25
 62
7
100
AcDbLine
 10
44.84329005888801
 20
3.098549705559911
 30
0.0
 11
45.07113996074132
 21
2.8706998037066
 31
0.0
  0
LINE
  5
548
330
1F
100
AcDbEntity
  8
2
  6
CONTINUOUS
370
25
 62
7
100
AcDbLine
 10
44.73722404171003
 20
3.628879791449812
 30
0.0
 11
45.14185063885997
 21
3.22425319429987
 31
0.0
  0
LINE
  5
549
330
1F
100
AcDbEntity
  8
2
  6
CONTINUOUS
370
25
 62
7
100
AcDbLine
 10
44.63115802453205
 20
4.159209877339727
 30
0.0
 11
45.21256131697863
 21
3.577806584893146
 31
0.0
  0
LINE
  5
54A
330
1F
100
AcDbEntity
  8
2
  6
CONTINUOUS
370
25
 62
7
100
AcDbLine
 10
44.52509200735407
 20
4.689539963229635
 30
0.0
 11
45.28327199509728
 21
3.931359975486423
 31
0.0
  0
LINE
  5
54B
330
1F
100
AcDbEntity
  8
2
  6
CONTINUOUS
370
25
 62
7
100
AcDbLine
 10
44.41902599017609
 20
5.21987004911955
 30
0.0
 11
45.35398267321593
 21
4.284913366079707
 31
0.0
  0
LINE
  5
54C
330
1F
100
AcDbEntity
  8
2
  6
CONTINUOUS
370
25
 62
7
100
AcDbLine
 10
44.3129599729981
 20
5.750200135009472
 30
0.0
 11
45.42469335133459
 21
4.638466756672983
 31
0.0
  0
LINE
  5
54D
330
1F
100
AcDbEntity
  8
2
  6
CONTINUOUS
370
25
 62
7
100
AcDbLine
 10
44.20689395582012
 20
6.280530220899379
 30
0.0
 11
45.49540402945325
 21
4.99202014726626
 31
0.0
  0
LINE
  5
54E
330
1F
100
AcDbEntity
  8
2
  6
CONTINUOUS
370
25
 62
7
100
AcDbLine
 10
44.10082793864213
 20
6.810860306789309
 30
0.0
 11
45.56611470757191
 21
5.345573537859529
 31
0.0
  0
LINE
  5
54F
330
1F
100
AcDbEntity
  8
2
  6
CONTINUOUS
370
25
 62
7
100
AcDbLine
 10
43.99476192146415
 20
7.341190392679216
 30
0.0
 11
45.63682538569056
 21
5.699126928452806
 31
0.0
  0
LINE
  5
550
330
1F
100
AcDbEntity
  8
2
  6
CONTINUOUS
370
25
 62
7
100
AcDbLine
 10
44.3452163828553
 20
7.414999999999999
 30
0.0
 11
45.70753606380921
 21
6.052680319046083
 31
0.0
  0
LINE
  5
551
330
1F
100
AcDbEntity
  8
2
  6
CONTINUOUS
370
25
 62
7
100
AcDbLine
 10
44.76948045156723
 20
7.414999999999999
 30
0.0
 11
45.77824674192787
 21
6.406233709639352
 31
0.0
  0
LINE
  5
552
330
1F
100
AcDbEntity
  8
2
  6
CONTINUOUS
370
25
 62
7
100
AcDbLine
 10
45.19374452027916
 20
7.414999999999999
 30
0.0
 11
45.84895742004652
 21
6.759787100232636
 31
0.0
  0
LINE
  5
553
330
1F
100
AcDbEntity
  8
2
  6
CONTINUOUS
370
25
 62
7
100
AcDbLine
 10
45.61800858899109
 20
7.414999999999999
 30
0.0
 11
45.91966809816518
 21
7.113340490825919
 31
0.0
  0
TEXT
  5
554
330
1F
100
AcDbEntity
  8
2
  6
CONTINUOUS
370
25
 62
7
100
AcDbText
 10
43.98
 20
13.77125
 30
0.0
 40
3.5
  1
4.83
 50
90.00000000000001
 72
     1
 11
43.98
 21
19.02125
 31
0.0
100
AcDbText
  0
CIRCLE
  5
555
330
1F
100
AcDbEntity
  8
2
  6
CONTINUOUS
370
25
 62
7
100
AcDbCircle
 10
42.44875
 20
9.650000000000002
 30
0.0
 40
1.53125
  0
LINE
  5
556
330
1F
100
AcDbEntity
  8
2
  6
CONTINUOUS
370
25
 62
7
100
AcDbLine
 10
43.98
 20
8.118750000000002
 30
0.0
 11
40.9175
 21
11.18125
 31
0.0
  0
LINE
  5
557
330
1F
100
AcDbEntity
  8
SK2
  6
CONTINUOUS
370
25
 62
7
100
AcDbLine
 10
-45.02
 20
0.0
 30
0.0
 11
-45.02
 21
20.50001
 31
0.0
  0
LINE
  5
558
330
1F
100
AcDbEntity
  8
SK2
  6
CONTINUOUS
370
25
 62
7
100
AcDbLine
 10
34.98
 20
20.50001
 30
0.0
 11
34.98
 21
2.414999999999999
 31
0.0
  0
LINE
  5
559
330
1F
100
AcDbEntity
  8
SK2
  6
CONTINUOUS
370
25
 62
7
100
AcDbLine
 10
-45.02
 20
19.50001
 30
0.0
 11
34.98
 21
19.50001
 31
0.0
  0
LINE
  5
55A
330
1F
100
AcDbEntity
  8
SK2
  6
CONTINUOUS
370
25
 62
7
100
AcDbLine
 10
-45.02
 20
19.50001
 30
0.0
 11
-40.02
 21
20.50001
 31
0.0
  0
LINE
  5
55B
330
1F
100
AcDbEntity
  8
SK2
  6
CONTINUOUS
370
25
 62
7
100
AcDbLine
 10
-40.02
 20
20.50001
 30
0.0
 11
-40.02
 21
18.50001
 31
0.0
  0
LINE
  5
55C
330
1F
100
AcDbEntity
  8
SK2
  6
CONTINUOUS
370
25
 62
7
100
AcDbLine
 10
-40.02
 20
18.50001
 30
0.0
 11
-45.02
 21
19.50001
 31
0.0
  0
LINE
  5
55D
330
1F
100
AcDbEntity
  8
SK2
  6
CONTINUOUS
370
25
 62
7
100
AcDbLine
 10
-40.04369290187179
 20
18.50474858037435
 30
0.0
 11
-40.02
 21
18.52844148224614
 31
0.0
  0
LINE
  5
55E
330
1F
100
AcDbEntity
  8
SK2
  6
CONTINUOUS
370
25
 62
7
100
AcDbLine
 10
-40.39724629246507
 20
18.57545925849301
 30
0.0
 11
-40.02
 21
18.95270555095807
 31
0.0
  0
LINE
  5
55F
330
1F
100
AcDbEntity
  8
SK2
  6
CONTINUOUS
370
25
 62
7
100
AcDbLine
 10
-40.75079968305834
 20
18.64616993661166
 30
0.0
 11
-40.02
 21
19.37696961967
 31
0.0
  0
LINE
  5
560
330
1F
100
AcDbEntity
  8
SK2
  6
CONTINUOUS
370
25
 62
7
100
AcDbLine
 10
-41.10435307365162
 20
18.71688061473032
 30
0.0
 11
-40.02
 21
19.80123368838193
 31
0.0
  0
LINE
  5
561
330
1F
100
AcDbEntity
  8
SK2
  6
CONTINUOUS
370
25
 62
7
100
AcDbLine
 10
-41.45790646424489
 20
18.78759129284897
 30
0.0
 11
-40.02
 21
20.22549775709386
 31
0.0
  0
LINE
  5
562
330
1F
100
AcDbEntity
  8
SK2
  6
CONTINUOUS
370
25
 62
7
100
AcDbLine
 10
-41.81145985483817
 20
18.85830197096763
 30
0.0
 11
-40.20718978225725
 21
20.46257204354855
 31
0.0
  0
LINE
  5
563
330
1F
100
AcDbEntity
  8
SK2
  6
CONTINUOUS
370
25
 62
7
100
AcDbLine
 10
-42.16501324543145
 20
18.92901264908628
 30
0.0
 11
-40.73751986814716
 21
20.35650602637057
 31
0.0
  0
LINE
  5
564
330
1F
100
AcDbEntity
  8
SK2
  6
CONTINUOUS
370
25
 62
7
100
AcDbLine
 10
-42.51856663602472
 20
18.99972332720494
 30
0.0
 11
-41.26784995403708
 21
20.25044000919259
 31
0.0
  0
LINE
  5
565
330
1F
100
AcDbEntity
  8
SK2
  6
CONTINUOUS
370
25
 62
7
100
AcDbLine
 10
-42.872120026618
 20
19.07043400532359
 30
0.0
 11
-41.79818003992699
 21
20.1443739920146
 31
0.0
  0
LINE
  5
566
330
1F
100
AcDbEntity
  8
SK2
  6
CONTINUOUS
370
25
 62
7
100
AcDbLine
 10
-43.22567341721128
 20
19.14114468344225
 30
0.0
 11
-42.3285101258169
 21
20.03830797483662
 31
0.0
  0
LINE
  5
567
330
1F
100
AcDbEntity
  8
SK2
  6
CONTINUOUS
370
25
 62
7
100
AcDbLine
 10
-43.57922680780455
 20
19.2118553615609
 30
0.0
 11
-42.85884021170681
 21
19.93224195765864
 31
0.0
  0
LINE
  5
568
330
1F
100
AcDbEntity
  8
SK2
  6
CONTINUOUS
370
25
 62
7
100
AcDbLine
 10
-43.93278019839783
 20
19.28256603967956
 30
0.0
 11
-43.38917029759673
 21
19.82617594048065
 31
0.0
  0
LINE
  5
569
330
1F
100
AcDbEntity
  8
SK2
  6
CONTINUOUS
370
25
 62
7
100
AcDbLine
 10
-44.2863335889911
 20
19.35327671779822
 30
0.0
 11
-43.91950038348664
 21
19.72010992330267
 31
0.0
  0
LINE
  5
56A
330
1F
100
AcDbEntity
  8
SK2
  6
CONTINUOUS
370
25
 62
7
100
AcDbLine
 10
-44.63988697958437
 20
19.42398739591687
 30
0.0
 11
-44.44983046937654
 21
19.61404390612469
 31
0.0
  0
LINE
  5
56B
330
1F
100
AcDbEntity
  8
SK2
  6
CONTINUOUS
370
25
 62
7
100
AcDbLine
 10
-44.99344037017764
 20
19.49469807403553
 30
0.0
 11
-44.98016055526647
 21
19.50797788894671
 31
0.0
  0
LINE
  5
56C
330
1F
100
AcDbEntity
  8
SK2
  6
CONTINUOUS
370
25
 62
7
100
AcDbLine
 10
-44.70593643297128
 20
19.56282271340575
 30
0.0
 11
-44.54890464945691
 21
19.40579092989138
 31
0.0
  0
LINE
  5
56D
330
1F
100
AcDbEntity
  8
SK2
  6
CONTINUOUS
370
25
 62
7
100
AcDbLine
 10
-44.35238304237799
 20
19.6335333915244
 30
0.0
 11
-44.018574563567
 21
19.2997249127134
 31
0.0
  0
LINE
  5
56E
330
1F
100
AcDbEntity
  8
SK2
  6
CONTINUOUS
370
25
 62
7
100
AcDbLine
 10
-43.99882965178472
 20
19.70424406964305
 30
0.0
 11
-43.48824447767709
 21
19.19365889553542
 31
0.0
  0
LINE
  5
56F
330
1F
100
AcDbEntity
  8
SK2
  6
CONTINUOUS
370
25
 62
7
100
AcDbLine
 10
-43.64527626119144
 20
19.7749547477617
 30
0.0
 11
-42.95791439178717
 21
19.08759287835743
 31
0.0
  0
LINE
  5
570
330
1F
100
AcDbEntity
  8
SK2
  6
CONTINUOUS
370
25
 62
7
100
AcDbLine
 10
-43.29172287059817
 20
19.84566542588037
 30
0.0
 11
-42.42758430589725
 21
18.98152686117944
 31
0.0
  0
LINE
  5
571
330
1F
100
AcDbEntity
  8
SK2
  6
CONTINUOUS
370
25
 62
7
100
AcDbLine
 10
-42.93816948000489
 20
19.91637610399902
 30
0.0
 11
-41.89725422000734
 21
18.87546084400147
 31
0.0
  0
LINE
  5
572
330
1F
100
AcDbEntity
  8
SK2
  6
CONTINUOUS
370
25
 62
7
100
AcDbLine
 10
-42.58461608941161
 20
19.98708678211767
 30
0.0
 11
-41.36692413411743
 21
18.76939482682349
 31
0.0
  0
LINE
  5
573
330
1F
100
AcDbEntity
  8
SK2
  6
CONTINUOUS
370
25
 62
7
100
AcDbLine
 10
-42.23106269881834
 20
20.05779746023633
 30
0.0
 11
-40.83659404822751
 21
18.66332880964551
 31
0.0
  0
LINE
  5
574
330
1F
100
AcDbEntity
  8
SK2
  6
CONTINUOUS
370
25
 62
7
100
AcDbLine
 10
-41.87750930822506
 20
20.12850813835498
 30
0.0
 11
-40.30626396233759
 21
18.55726279246752
 31
0.0
  0
LINE
  5
575
330
1F
100
AcDbEntity
  8
SK2
  6
CONTINUOUS
370
25
 62
7
100
AcDbLine
 10
-41.52395591763179
 20
20.19921881647364
 30
0.0
 11
-40.02
 21
18.69526289884186
 31
0.0
  0
LINE
  5
576
330
1F
100
AcDbEntity
  8
SK2
  6
CONTINUOUS
370
25
 62
7
100
AcDbLine
 10
-41.1704025270385
 20
20.26992949459229
 30
0.0
 11
-40.02
 21
19.11952696755379
 31
0.0
  0
LINE
  5
577
330
1F
100
AcDbEntity
  8
SK2
  6
CONTINUOUS
370
25
 62
7
100
AcDbLine
 10
-40.81684913644524
 20
20.34064017271096
 30
0.0
 11
-40.02
 21
19.54379103626572
 31
0.0
  0
LINE
  5
578
330
1F
100
AcDbEntity
  8
SK2
  6
CONTINUOUS
370
25
 62
7
100
AcDbLine
 10
-40.46329574585196
 20
20.41135085082961
 30
0.0
 11
-40.02
 21
19.96805510497765
 31
0.0
  0
LINE
  5
579
330
1F
100
AcDbEntity
  8
SK2
  6
CONTINUOUS
370
25
 62
7
100
AcDbLine
 10
-40.10974235525868
 20
20.48206152894826
 30
0.0
 11
-40.02
 21
20.39231917368959
 31
0.0
  0
LINE
  5
57A
330
1F
100
AcDbEntity
  8
SK2
  6
CONTINUOUS
370
25
 62
7
100
AcDbLine
 10
34.98
 20
19.50001
 30
0.0
 11
29.98
 21
18.50001
 31
0.0
  0
LINE
  5
57B
330
1F
100
AcDbEntity
  8
SK2
  6
CONTINUOUS
370
25
 62
7
100
AcDbLine
 10
29.98
 20
18.50001
 30
0.0
 11
29.98
 21
20.50001
 31
0.0
  0
LINE
  5
57C
330
1F
100
AcDbEntity
  8
SK2
  6
CONTINUOUS
370
25
 62
7
100
AcDbLine
 10
29.98
 20
20.50001
 30
0.0
 11
34.98
 21
19.50001
 31
0.0
  0
LINE
  5
57D
330
1F
100
AcDbEntity
  8
SK2
  6
CONTINUOUS
370
25
 62
7
100
AcDbLine
 10
34.68682671081477
 20
19.44137534216296
 30
0.0
 11
34.78455114054318
 21
19.53909977189137
 31
0.0
  0
LINE
  5
57E
330
1F
100
AcDbEntity
  8
SK2
  6
CONTINUOUS
370
25
 62
7
100
AcDbLine
 10
34.15649662492486
 20
19.33530932498498
 30
0.0
 11
34.4309977499499
 21
19.60981045001002
 31
0.0
  0
LINE
  5
57F
330
1F
100
AcDbEntity
  8
SK2
  6
CONTINUOUS
370
25
 62
7
100
AcDbLine
 10
33.62616653903494
 20
19.22924330780699
 30
0.0
 11
34.07744435935663
 21
19.68052112812867
 31
0.0
  0
LINE
  5
580
330
1F
100
AcDbEntity
  8
SK2
  6
CONTINUOUS
370
25
 62
7
100
AcDbLine
 10
33.09583645314503
 20
19.12317729062901
 30
0.0
 11
33.72389096876336
 21
19.75123180624733
 31
0.0
  0
LINE
  5
581
330
1F
100
AcDbEntity
  8
SK2
  6
CONTINUOUS
370
25
 62
7
100
AcDbLine
 10
32.56550636725513
 20
19.01711127345102
 30
0.0
 11
33.37033757817008
 21
19.82194248436598
 31
0.0
  0
LINE
  5
582
330
1F
100
AcDbEntity
  8
SK2
  6
CONTINUOUS
370
25
 62
7
100
AcDbLine
 10
32.03517628136521
 20
18.91104525627304
 30
0.0
 11
33.0167841875768
 21
19.89265316248464
 31
0.0
  0
LINE
  5
583
330
1F
100
AcDbEntity
  8
SK2
  6
CONTINUOUS
370
25
 62
7
100
AcDbLine
 10
31.5048461954753
 20
18.80497923909505
 30
0.0
 11
32.66323079698353
 21
19.96336384060329
 31
0.0
  0
LINE
  5
584
330
1F
100
AcDbEntity
  8
SK2
  6
CONTINUOUS
370
25
 62
7
100
AcDbLine
 10
30.9745161095854
 20
18.69891322191708
 30
0.0
 11
32.30967740639026
 21
20.03407451872194
 31
0.0
  0
LINE
  5
585
330
1F
100
AcDbEntity
  8
SK2
  6
CONTINUOUS
370
25
 62
7
100
AcDbLine
 10
30.44418602369548
 20
18.59284720473909
 30
0.0
 11
31.95612401579698
 21
20.1047851968406
 31
0.0
  0
LINE
  5
586
330
1F
100
AcDbEntity
  8
SK2
  6
CONTINUOUS
370
25
 62
7
100
AcDbLine
 10
29.98
 20
18.55292524975554
 30
0.0
 11
31.60257062520371
 21
20.17549587495926
 31
0.0
  0
LINE
  5
587
330
1F
100
AcDbEntity
  8
SK2
  6
CONTINUOUS
370
25
 62
7
100
AcDbLine
 10
29.98
 20
18.97718931846747
 30
0.0
 11
31.24901723461043
 21
20.24620655307791
 31
0.0
  0
LINE
  5
588
330
1F
100
AcDbEntity
  8
SK2
  6
CONTINUOUS
370
25
 62
7
100
AcDbLine
 10
29.98
 20
19.40145338717939
 30
0.0
 11
30.89546384401716
 21
20.31691723119657
 31
0.0
  0
LINE
  5
589
330
1F
100
AcDbEntity
  8
SK2
  6
CONTINUOUS
370
25
 62
7
100
AcDbLine
 10
29.98
 20
19.82571745589133
 30
0.0
 11
30.54191045342389
 21
20.38762790931522
 31
0.0
  0
LINE
  5
58A
330
1F
100
AcDbEntity
  8
SK2
  6
CONTINUOUS
370
25
 62
7
100
AcDbLine
 10
29.98
 20
20.24998152460326
 30
0.0
 11
30.18835706283062
 21
20.45833858743388
 31
0.0
  0
LINE
  5
58B
330
1F
100
AcDbEntity
  8
SK2
  6
CONTINUOUS
370
25
 62
7
100
AcDbLine
 10
29.98
 20
18.81036790187181
 30
0.0
 11
30.23863158489318
 21
18.55173631697864
 31
0.0
  0
LINE
  5
58C
330
1F
100
AcDbEntity
  8
SK2
  6
CONTINUOUS
370
25
 62
7
100
AcDbLine
 10
29.98
 20
19.23463197058374
 30
0.0
 11
30.59218497548645
 21
18.62244699509729
 31
0.0
  0
LINE
  5
58D
330
1F
100
AcDbEntity
  8
SK2
  6
CONTINUOUS
370
25
 62
7
100
AcDbLine
 10
29.98
 20
19.65889603929567
 30
0.0
 11
30.94573836607972
 21
18.69315767321595
 31
0.0
  0
LINE
  5
58E
330
1F
100
AcDbEntity
  8
SK2
  6
CONTINUOUS
370
25
 62
7
100
AcDbLine
 10
29.98
 20
20.0831601080076
 30
0.0
 11
31.299291756673
 21
18.7638683513346
 31
0.0
  0
LINE
  5
58F
330
1F
100
AcDbEntity
  8
SK2
  6
CONTINUOUS
370
25
 62
7
100
AcDbLine
 10
29.98926772089941
 20
20.49815645582012
 30
0.0
 11
31.65284514726628
 21
18.83457902945326
 31
0.0
  0
LINE
  5
590
330
1F
100
AcDbEntity
  8
SK2
  6
CONTINUOUS
370
25
 62
7
100
AcDbLine
 10
30.51959780678931
 20
20.39209043864214
 30
0.0
 11
32.00639853785955
 21
18.90528970757191
 31
0.0
  0
LINE
  5
591
330
1F
100
AcDbEntity
  8
SK2
  6
CONTINUOUS
370
25
 62
7
100
AcDbLine
 10
31.04992789267923
 20
20.28602442146415
 30
0.0
 11
32.35995192845282
 21
18.97600038569057
 31
0.0
  0
LINE
  5
592
330
1F
100
AcDbEntity
  8
SK2
  6
CONTINUOUS
370
25
 62
7
100
AcDbLine
 10
31.58025797856915
 20
20.17995840428616
 30
0.0
 11
32.7135053190461
 21
19.04671106380922
 31
0.0
  0
LINE
  5
593
330
1F
100
AcDbEntity
  8
SK2
  6
CONTINUOUS
370
25
 62
7
100
AcDbLine
 10
32.11058806445906
 20
20.07389238710819
 30
0.0
 11
33.06705870963938
 21
19.11742174192788
 31
0.0
  0
LINE
  5
594
330
1F
100
AcDbEntity
  8
SK2
  6
CONTINUOUS
370
25
 62
7
100
AcDbLine
 10
32.64091815034897
 20
19.9678263699302
 30
0.0
 11
33.42061210023265
 21
19.18813242004654
 31
0.0
  0
LINE
  5
595
330
1F
100
AcDbEntity
  8
SK2
  6
CONTINUOUS
370
25
 62
7
100
AcDbLine
 10
33.1712482362389
 20
19.86176035275222
 30
0.0
 11
33.77416549082593
 21
19.25884309816519
 31
0.0
  0
LINE
  5
596
330
1F
100
AcDbEntity
  8
SK2
  6
CONTINUOUS
370
25
 62
7
100
AcDbLine
 10
33.7015783221288
 20
19.75569433557424
 30
0.0
 11
34.12771888141921
 21
19.32955377628384
 31
0.0
  0
LINE
  5
597
330
1F
100
AcDbEntity
  8
SK2
  6
CONTINUOUS
370
25
 62
7
100
AcDbLine
 10
34.23190840801872
 20
19.64962831839625
 30
0.0
 11
34.48127227201248
 21
19.4002644544025
 31
0.0
  0
LINE
  5
598
330
1F
100
AcDbEntity
  8
SK2
  6
CONTINUOUS
370
25
 62
7
100
AcDbLine
 10
34.76223849390863
 20
19.54356230121827
 30
0.0
 11
34.83482566260575
 21
19.47097513252115
 31
0.0
  0
TEXT
  5
599
330
1F
100
AcDbEntity
  8
SK2
  6
CONTINUOUS
370
25
 62
7
100
AcDbText
 10
-7.645000000000003
 20
20.50001
 30
0.0
 40
3.5
  1
80
 72
     1
 11
-5.020000000000003
 21
20.50001
 31
0.0
100
AcDbText
  0
LINE
  5
59A
330
1F
100
AcDbEntity
  8
2
  6
CONTINUOUS
370
25
 62
7
100
AcDbLine
 10
-0.0000000000000002
 20
0.0
 30
0.0
 11
0.0000000000000007
 21
13.50001
 31
0.0
  0
LINE
  5
59B
330
1F
100
AcDbEntity
  8
2
  6
CONTINUOUS
370
25
 62
7
100
AcDbLine
 10
34.98
 20
13.50001
 30
0.0
 11
34.98
 21
2.414999999999999
 31
0.0
  0
LINE
  5
59C
330
1F
100
AcDbEntity
  8
2
  6
CONTINUOUS
370
25
 62
7
100
AcDbLine
 10
0.0
 20
12.50001
 30
0.0
 11
34.98
 21
12.50001
 31
0.0
  0
LINE
  5
59D
330
1F
100
AcDbEntity
  8
2
  6
CONTINUOUS
370
25
 62
7
100
AcDbLine
 10
0.0
 20
12.50001
 30
0.0
 11
5.0
 21
13.50001
 31
0.0
  0
LINE
  5
59E
330
1F
100
AcDbEntity
  8
2
  6
CONTINUOUS
370
25
 62
7
100
AcDbLine
 10
5.0
 20
13.50001
 30
0.0
 11
5.0
 21
11.50001
 31
0.0
  0
LINE
  5
59F
330
1F
100
AcDbEntity
  8
2
  6
CONTINUOUS
370
25
 62
7
100
AcDbLine
 10
5.0
 20
11.50001
 30
0.0
 11
0.0
 21
12.50001
 31
0.0
  0
LINE
  5
5A0
330
1F
100
AcDbEntity
  8
2
  6
CONTINUOUS
370
25
 62
7
100
AcDbLine
 10
4.759820750507622
 20
11.54804584989848
 30
0.0
 11
5.0
 21
11.78822509939085
 31
0.0
  0
LINE
  5
5A1
330
1F
100
AcDbEntity
  8
2
  6
CONTINUOUS
370
25
 62
7
100
AcDbLine
 10
4.406267359914348
 20
11.61875652801713
 30
0.0
 11
5.0
 21
12.21248916810278
 31
0.0
  0
LINE
  5
5A2
330
1F
100
AcDbEntity
  8
2
  6
CONTINUOUS
370
25
 62
7
100
AcDbLine
 10
4.052713969321075
 20
11.68946720613578
 30
0.0
 11
5.0
 21
12.63675323681471
 31
0.0
  0
LINE
  5
5A3
330
1F
100
AcDbEntity
  8
2
  6
CONTINUOUS
370
25
 62
7
100
AcDbLine
 10
3.699160578727803
 20
11.76017788425444
 30
0.0
 11
5.0
 21
13.06101730552664
 31
0.0
  0
LINE
  5
5A4
330
1F
100
AcDbEntity
  8
2
  6
CONTINUOUS
370
25
 62
7
100
AcDbLine
 10
3.345607188134528
 20
11.83088856237309
 30
0.0
 11
5.0
 21
13.48528137423856
 31
0.0
  0
LINE
  5
5A5
330
1F
100
AcDbEntity
  8
2
  6
CONTINUOUS
370
25
 62
7
100
AcDbLine
 10
2.992053797541255
 20
11.90159924049175
 30
0.0
 11
4.488080696311884
 21
13.39762613926238
 31
0.0
  0
LINE
  5
5A6
330
1F
100
AcDbEntity
  8
2
  6
CONTINUOUS
370
25
 62
7
100
AcDbLine
 10
2.638500406947982
 20
11.9723099186104
 30
0.0
 11
3.957750610421974
 21
13.29156012208439
 31
0.0
  0
LINE
  5
5A7
330
1F
100
AcDbEntity
  8
2
  6
CONTINUOUS
370
25
 62
7
100
AcDbLine
 10
2.284947016354709
 20
12.04302059672906
 30
0.0
 11
3.427420524532065
 21
13.18549410490641
 31
0.0
  0
LINE
  5
5A8
330
1F
100
AcDbEntity
  8
2
  6
CONTINUOUS
370
25
 62
7
100
AcDbLine
 10
1.931393625761435
 20
12.11373127484771
 30
0.0
 11
2.897090438642155
 21
13.07942808772843
 31
0.0
  0
LINE
  5
5A9
330
1F
100
AcDbEntity
  8
2
  6
CONTINUOUS
370
25
 62
7
100
AcDbLine
 10
1.577840235168162
 20
12.18444195296637
 30
0.0
 11
2.366760352752245
 21
12.97336207055045
 31
0.0
  0
LINE
  5
5AA
330
1F
100
AcDbEntity
  8
2
  6
CONTINUOUS
370
25
 62
7
100
AcDbLine
 10
1.224286844574889
 20
12.25515263108502
 30
0.0
 11
1.836430266862334
 21
12.86729605337247
 31
0.0
  0
LINE
  5
5AB
330
1F
100
AcDbEntity
  8
2
  6
CONTINUOUS
370
25
 62
7
100
AcDbLine
 10
0.8707334539816156
 20
12.32586330920368
 30
0.0
 11
1.306100180972424
 21
12.76123003619449
 31
0.0
  0
LINE
  5
5AC
330
1F
100
AcDbEntity
  8
2
  6
CONTINUOUS
370
25
 62
7
100
AcDbLine
 10
0.5171800633883424
 20
12.39657398732233
 30
0.0
 11
0.775770095082514
 21
12.6551640190165
 31
0.0
  0
LINE
  5
5AD
330
1F
100
AcDbEntity
  8
2
  6
CONTINUOUS
370
25
 62
7
100
AcDbLine
 10
0.1636266727950691
 20
12.46728466544099
 30
0.0
 11
0.2454400091926038
 21
12.54909800183852
 31
0.0
  0
LINE
  5
5AE
330
1F
100
AcDbEntity
  8
2
  6
CONTINUOUS
370
25
 62
7
100
AcDbLine
 10
0.1899267177982103
 20
12.53799534355964
 30
0.0
 11
0.2848900766973156
 21
12.44303198466054
 31
0.0
  0
LINE
  5
5AF
330
1F
100
AcDbEntity
  8
2
  6
CONTINUOUS
370
25
 62
7
100
AcDbLine
 10
0.5434801083914839
 20
12.6087060216783
 30
0.0
 11
0.8152201625872262
 21
12.33696596748255
 31
0.0
  0
LINE
  5
5B0
330
1F
100
AcDbEntity
  8
2
  6
CONTINUOUS
370
25
 62
7
100
AcDbLine
 10
0.8970334989847574
 20
12.67941669979695
 30
0.0
 11
1.345550248477137
 21
12.23089995030457
 31
0.0
  0
LINE
  5
5B1
330
1F
100
AcDbEntity
  8
2
  6
CONTINUOUS
370
25
 62
7
100
AcDbLine
 10
1.250586889578031
 20
12.75012737791561
 30
0.0
 11
1.875880334367048
 21
12.12483393312659
 31
0.0
  0
LINE
  5
5B2
330
1F
100
AcDbEntity
  8
2
  6
CONTINUOUS
370
25
 62
7
100
AcDbLine
 10
1.604140280171305
 20
12.82083805603426
 30
0.0
 11
2.406210420256959
 21
12.01876791594861
 31
0.0
  0
LINE
  5
5B3
330
1F
100
AcDbEntity
  8
2
  6
CONTINUOUS
370
25
 62
7
100
AcDbLine
 10
1.957693670764578
 20
12.89154873415291
 30
0.0
 11
2.936540506146869
 21
11.91270189877063
 31
0.0
  0
LINE
  5
5B4
330
1F
100
AcDbEntity
  8
2
  6
CONTINUOUS
370
25
 62
7
100
AcDbLine
 10
2.311247061357852
 20
12.96225941227157
 30
0.0
 11
3.46687059203678
 21
11.80663588159264
 31
0.0
  0
LINE
  5
5B5
330
1F
100
AcDbEntity
  8
2
  6
CONTINUOUS
370
25
 62
7
100
AcDbLine
 10
2.664800451951125
 20
13.03297009039023
 30
0.0
 11
3.997200677926691
 21
11.70056986441466
 31
0.0
  0
LINE
  5
5B6
330
1F
100
AcDbEntity
  8
2
  6
CONTINUOUS
370
25
 62
7
100
AcDbLine
 10
3.018353842544399
 20
13.10368076850888
 30
0.0
 11
4.527530763816602
 21
11.59450384723668
 31
0.0
  0
LINE
  5
5B7
330
1F
100
AcDbEntity
  8
2
  6
CONTINUOUS
370
25
 62
7
100
AcDbLine
 10
3.371907233137673
 20
13.17439144662753
 30
0.0
 11
5.0
 21
11.54629867976521
 31
0.0
  0
LINE
  5
5B8
330
1F
100
AcDbEntity
  8
2
  6
CONTINUOUS
370
25
 62
7
100
AcDbLine
 10
3.725460623730946
 20
13.24510212474619
 30
0.0
 11
5.0
 21
11.97056274847714
 31
0.0
  0
LINE
  5
5B9
330
1F
100
AcDbEntity
  8
2
  6
CONTINUOUS
370
25
 62
7
100
AcDbLine
 10
4.07901401432422
 20
13.31581280286484
 30
0.0
 11
5.0
 21
12.39482681718906
 31
0.0
  0
LINE
  5
5BA
330
1F
100
AcDbEntity
  8
2
  6
CONTINUOUS
370
25
 62
7
100
AcDbLine
 10
4.432567404917494
 20
13.3865234809835
 30
0.0
 11
5.0
 21
12.81909088590099
 31
0.0
  0
LINE
  5
5BB
330
1F
100
AcDbEntity
  8
2
  6
CONTINUOUS
370
25
 62
7
100
AcDbLine
 10
4.786120795510767
 20
13.45723415910215
 30
0.0
 11
5.0
 21
13.24335495461292
 31
0.0
  0
LINE
  5
5BC
330
1F
100
AcDbEntity
  8
2
  6
CONTINUOUS
370
25
 62
7
100
AcDbLine
 10
34.98
 20
12.50001
 30
0.0
 11
29.98
 21
11.50001
 31
0.0
  0
LINE
  5
5BD
330
1F
100
AcDbEntity
  8
2
  6
CONTINUOUS
370
25
 62
7
100
AcDbLine
 10
29.98
 20
11.50001
 30
0.0
 11
29.98
 21
13.50001
 31
0.0
  0
LINE
  5
5BE
330
1F
100
AcDbEntity
  8
2
  6
CONTINUOUS
370
25
 62
7
100
AcDbLine
 10
29.98
 20
13.50001
 30
0.0
 11
34.98
 21
12.50001
 31
0.0
  0
LINE
  5
5BF
330
1F
100
AcDbEntity
  8
2
  6
CONTINUOUS
370
25
 62
7
100
AcDbLine
 10
34.95154533657626
 20
12.49431906731525
 30
0.0
 11
34.96103022438417
 21
12.50380395512317
 31
0.0
  0
LINE
  5
5C0
330
1F
100
AcDbEntity
  8
2
  6
CONTINUOUS
370
25
 62
7
100
AcDbLine
 10
34.42121525068635
 20
12.38825305013727
 30
0.0
 11
34.6074768337909
 21
12.57451463324182
 31
0.0
  0
LINE
  5
5C1
330
1F
100
AcDbEntity
  8
2
  6
CONTINUOUS
370
25
 62
7
100
AcDbLine
 10
33.89088516479644
 20
12.28218703295929
 30
0.0
 11
34.25392344319763
 21
12.64522531136048
 31
0.0
  0
LINE
  5
5C2
330
1F
100
AcDbEntity
  8
2
  6
CONTINUOUS
370
25
 62
7
100
AcDbLine
 10
33.36055507890652
 20
12.17612101578131
 30
0.0
 11
33.90037005260434
 21
12.71593598947913
 31
0.0
  0
LINE
  5
5C3
330
1F
100
AcDbEntity
  8
2
  6
CONTINUOUS
370
25
 62
7
100
AcDbLine
 10
32.83022499301661
 20
12.07005499860332
 30
0.0
 11
33.54681666201108
 21
12.78664666759779
 31
0.0
  0
LINE
  5
5C4
330
1F
100
AcDbEntity
  8
2
  6
CONTINUOUS
370
25
 62
7
100
AcDbLine
 10
32.29989490712671
 20
11.96398898142534
 30
0.0
 11
33.1932632714178
 21
12.85735734571644
 31
0.0
  0
LINE
  5
5C5
330
1F
100
AcDbEntity
  8
2
  6
CONTINUOUS
370
25
 62
7
100
AcDbLine
 10
31.7695648212368
 20
11.85792296424736
 30
0.0
 11
32.83970988082453
 21
12.9280680238351
 31
0.0
  0
LINE
  5
5C6
330
1F
100
AcDbEntity
  8
2
  6
CONTINUOUS
370
25
 62
7
100
AcDbLine
 10
31.23923473534689
 20
11.75185694706938
 30
0.0
 11
32.48615649023125
 21
12.99877870195375
 31
0.0
  0
LINE
  5
5C7
330
1F
100
AcDbEntity
  8
2
  6
CONTINUOUS
370
25
 62
7
100
AcDbLine
 10
30.70890464945698
 20
11.64579092989139
 30
0.0
 11
32.13260309963798
 21
13.06948938007241
 31
0.0
  0
LINE
  5
5C8
330
1F
100
AcDbEntity
  8
2
  6
CONTINUOUS
370
25
 62
7
100
AcDbLine
 10
30.17857456356707
 20
11.53972491271341
 30
0.0
 11
31.7790497090447
 21
13.14020005819106
 31
0.0
  0
LINE
  5
5C9
330
1F
100
AcDbEntity
  8
2
  6
CONTINUOUS
370
25
 62
7
100
AcDbLine
 10
29.98
 20
11.76541441785827
 30
0.0
 11
31.42549631845143
 21
13.21091073630971
 31
0.0
  0
LINE
  5
5CA
330
1F
100
AcDbEntity
  8
2
  6
CONTINUOUS
370
25
 62
7
100
AcDbLine
 10
29.98
 20
12.1896784865702
 30
0.0
 11
31.07194292785816
 21
13.28162141442836
 31
0.0
  0
LINE
  5
5CB
330
1F
100
AcDbEntity
  8
2
  6
CONTINUOUS
370
25
 62
7
100
AcDbLine
 10
29.98
 20
12.61394255528213
 30
0.0
 11
30.71838953726488
 21
13.35233209254702
 31
0.0
  0
LINE
  5
5CC
330
1F
100
AcDbEntity
  8
2
  6
CONTINUOUS
370
25
 62
7
100
AcDbLine
 10
29.98
 20
13.03820662399406
 30
0.0
 11
30.36483614667161
 21
13.42304277066568
 31
0.0
  0
LINE
  5
5CD
330
1F
100
AcDbEntity
  8
2
  6
CONTINUOUS
370
25
 62
7
100
AcDbLine
 10
29.98
 20
13.462470692706
 30
0.0
 11
30.01128275607834
 21
13.49375344878434
 31
0.0
  0
LINE
  5
5CE
330
1F
100
AcDbEntity
  8
2
  6
CONTINUOUS
370
25
 62
7
100
AcDbLine
 10
29.98
 20
11.59787873376903
 30
0.0
 11
30.06155727814085
 21
11.51632145562817
 31
0.0
  0
LINE
  5
5CF
330
1F
100
AcDbEntity
  8
2
  6
CONTINUOUS
370
25
 62
7
100
AcDbLine
 10
29.98
 20
12.02214280248096
 30
0.0
 11
30.41511066873413
 21
11.58703213374683
 31
0.0
  0
LINE
  5
5D0
330
1F
100
AcDbEntity
  8
2
  6
CONTINUOUS
370
25
 62
7
100
AcDbLine
 10
29.98
 20
12.44640687119288
 30
0.0
 11
30.7686640593274
 21
11.65774281186548
 31
0.0
  0
LINE
  5
5D1
330
1F
100
AcDbEntity
  8
2
  6
CONTINUOUS
370
25
 62
7
100
AcDbLine
 10
29.98
 20
12.87067093990482
 30
0.0
 11
31.12221744992068
 21
11.72845348998414
 31
0.0
  0
LINE
  5
5D2
330
1F
100
AcDbEntity
  8
2
  6
CONTINUOUS
370
25
 62
7
100
AcDbLine
 10
29.98
 20
13.29493500861674
 30
0.0
 11
31.47577084051395
 21
11.79916416810279
 31
0.0
  0
LINE
  5
5D3
330
1F
100
AcDbEntity
  8
2
  6
CONTINUOUS
370
25
 62
7
100
AcDbLine
 10
30.25398634666084
 20
13.44521273066783
 30
0.0
 11
31.82932423110723
 21
11.86987484622145
 31
0.0
  0
LINE
  5
5D4
330
1F
100
AcDbEntity
  8
2
  6
CONTINUOUS
370
25
 62
7
100
AcDbLine
 10
30.78431643255075
 20
13.33914671348985
 30
0.0
 11
32.1828776217005
 21
11.94058552434011
 31
0.0
  0
LINE
  5
5D5
330
1F
100
AcDbEntity
  8
2
  6
CONTINUOUS
370
25
 62
7
100
AcDbLine
 10
31.31464651844066
 20
13.23308069631187
 30
0.0
 11
32.53643101229378
 21
12.01129620245875
 31
0.0
  0
LINE
  5
5D6
330
1F
100
AcDbEntity
  8
2
  6
CONTINUOUS
370
25
 62
7
100
AcDbLine
 10
31.84497660433058
 20
13.12701467913388
 30
0.0
 11
32.88998440288705
 21
12.08200688057741
 31
0.0
  0
LINE
  5
5D7
330
1F
100
AcDbEntity
  8
2
  6
CONTINUOUS
370
25
 62
7
100
AcDbLine
 10
32.3753066902205
 20
13.0209486619559
 30
0.0
 11
33.24353779348033
 21
12.15271755869608
 31
0.0
  0
LINE
  5
5D8
330
1F
100
AcDbEntity
  8
2
  6
CONTINUOUS
370
25
 62
7
100
AcDbLine
 10
32.90563677611041
 20
12.91488264477792
 30
0.0
 11
33.59709118407361
 21
12.22342823681473
 31
0.0
  0
LINE
  5
5D9
330
1F
100
AcDbEntity
  8
2
  6
CONTINUOUS
370
25
 62
7
100
AcDbLine
 10
33.43596686200032
 20
12.80881662759993
 30
0.0
 11
33.95064457466688
 21
12.29413891493338
 31
0.0
  0
LINE
  5
5DA
330
1F
100
AcDbEntity
  8
2
  6
CONTINUOUS
370
25
 62
7
100
AcDbLine
 10
33.96629694789024
 20
12.70275061042195
 30
0.0
 11
34.30419796526016
 21
12.36484959305204
 31
0.0
  0
LINE
  5
5DB
330
1F
100
AcDbEntity
  8
2
  6
CONTINUOUS
370
25
 62
7
100
AcDbLine
 10
34.49662703378015
 20
12.59668459324396
 30
0.0
 11
34.65775135585343
 21
12.43556027117069
 31
0.0
  0
TEXT
  5
5DC
330
1F
100
AcDbEntity
  8
2
  6
CONTINUOUS
370
25
 62
7
100
AcDbText
 10
10.49
 20
13.50001
 30
0.0
 40
3.5
  1
34.98
 72
     1
 11
17.49
 21
13.50001
 31
0.0
100
AcDbText
  0
LINE
  5
5DD
330
1F
100
AcDbEntity
  8
2
  6
CONTINUOUS
370
25
 62
7
100
AcDbLine
 10
2.98
 20
-2.415
 30
0.0
 11
2.979999999999999
 21
-13.50001
 31
0.0
  0
LINE
  5
5DE
330
1F
100
AcDbEntity
  8
2
  6
CONTINUOUS
370
25
 62
7
100
AcDbLine
 10
34.98
 20
-13.50001
 30
0.0
 11
34.98
 21
-2.414999999999999
 31
0.0
  0
LINE
  5
5DF
330
1F
100
AcDbEntity
  8
2
  6
CONTINUOUS
370
25
 62
7
100
AcDbLine
 10
2.979999999999999
 20
-12.50001
 30
0.0
 11
34.98
 21
-12.50001
 31
0.0
  0
LINE
  5
5E0
330
1F
100
AcDbEntity
  8
2
  6
CONTINUOUS
370
25
 62
7
100
AcDbLine
 10
2.979999999999999
 20
-12.50001
 30
0.0
 11
7.979999999999999
 21
-11.50001
 31
0.0
  0
LINE
  5
5E1
330
1F
100
AcDbEntity
  8
2
  6
CONTINUOUS
370
25
 62
7
100
AcDbLine
 10
7.979999999999999
 20
-11.50001
 30
0.0
 11
7.979999999999999
 21
-13.50001
 31
0.0
  0
LINE
  5
5E2
330
1F
100
AcDbEntity
  8
2
  6
CONTINUOUS
370
25
 62
7
100
AcDbLine
 10
7.979999999999999
 20
-13.50001
 30
0.0
 11
2.979999999999999
 21
-12.50001
 31
0.0
  0
LINE
  5
5E3
330
1F
100
AcDbEntity
  8
2
  6
CONTINUOUS
370
25
 62
7
100
AcDbLine
 10
7.935920625203725
 20
-13.49119412504074
 30
0.0
 11
7.979999999999999
 21
-13.44711475024447
 31
0.0
  0
LINE
  5
5E4
330
1F
100
AcDbEntity
  8
2
  6
CONTINUOUS
370
25
 62
7
100
AcDbLine
 10
7.582367234610452
 20
-13.42048344692209
 30
0.0
 11
7.979999999999999
 21
-13.02285068153254
 31
0.0
  0
LINE
  5
5E5
330
1F
100
AcDbEntity
  8
2
  6
CONTINUOUS
370
25
 62
7
100
AcDbLine
 10
7.228813844017179
 20
-13.34977276880344
 30
0.0
 11
7.979999999999999
 21
-12.59858661282061
 31
0.0
  0
LINE
  5
5E6
330
1F
100
AcDbEntity
  8
2
  6
CONTINUOUS
370
25
 62
7
100
AcDbLine
 10
6.875260453423905
 20
-13.27906209068478
 30
0.0
 11
7.979999999999999
 21
-12.17432254410869
 31
0.0
  0
LINE
  5
5E7
330
1F
100
AcDbEntity
  8
2
  6
CONTINUOUS
370
25
 62
7
100
AcDbLine
 10
6.521707062830632
 20
-13.20835141256613
 30
0.0
 11
7.979999999999999
 21
-11.75005847539676
 31
0.0
  0
LINE
  5
5E8
330
1F
100
AcDbEntity
  8
2
  6
CONTINUOUS
370
25
 62
7
100
AcDbLine
 10
6.168153672237359
 20
-13.13764073444747
 30
0.0
 11
7.76223050835604
 21
-11.54356389832879
 31
0.0
  0
LINE
  5
5E9
330
1F
100
AcDbEntity
  8
2
  6
CONTINUOUS
370
25
 62
7
100
AcDbLine
 10
5.814600281644084
 20
-13.06693005632882
 30
0.0
 11
7.231900422466127
 21
-11.64962991550678
 31
0.0
  0
LINE
  5
5EA
330
1F
100
AcDbEntity
  8
2
  6
CONTINUOUS
370
25
 62
7
100
AcDbLine
 10
5.461046891050811
 20
-12.99621937821016
 30
0.0
 11
6.701570336576218
 21
-11.75569593268476
 31
0.0
  0
LINE
  5
5EB
330
1F
100
AcDbEntity
  8
2
  6
CONTINUOUS
370
25
 62
7
100
AcDbLine
 10
5.107493500457537
 20
-12.92550870009151
 30
0.0
 11
6.171240250686307
 21
-11.86176194986274
 31
0.0
  0
LINE
  5
5EC
330
1F
100
AcDbEntity
  8
2
  6
CONTINUOUS
370
25
 62
7
100
AcDbLine
 10
4.753940109864265
 20
-12.85479802197285
 30
0.0
 11
5.6409101647964
 21
-11.96782796704072
 31
0.0
  0
LINE
  5
5ED
330
1F
100
AcDbEntity
  8
2
  6
CONTINUOUS
370
25
 62
7
100
AcDbLine
 10
4.400386719270992
 20
-12.7840873438542
 30
0.0
 11
5.110580078906489
 21
-12.0738939842187
 31
0.0
  0
LINE
  5
5EE
330
1F
100
AcDbEntity
  8
2
  6
CONTINUOUS
370
25
 62
7
100
AcDbLine
 10
4.046833328677718
 20
-12.71337666573555
 30
0.0
 11
4.580249993016579
 21
-12.17996000139668
 31
0.0
  0
LINE
  5
5EF
330
1F
100
AcDbEntity
  8
2
  6
CONTINUOUS
370
25
 62
7
100
AcDbLine
 10
3.693279938084445
 20
-12.64266598761689
 30
0.0
 11
4.049919907126669
 21
-12.28602601857467
 31
0.0
  0
LINE
  5
5F0
330
1F
100
AcDbEntity
  8
2
  6
CONTINUOUS
370
25
 62
7
100
AcDbLine
 10
3.339726547491172
 20
-12.57195530949823
 30
0.0
 11
3.519589821236758
 21
-12.39209203575265
 31
0.0
  0
LINE
  5
5F1
330
1F
100
AcDbEntity
  8
2
  6
CONTINUOUS
370
25
 62
7
100
AcDbLine
 10
2.9861731568979
 20
-12.50124463137958
 30
0.0
 11
2.989259735346849
 21
-12.49815805293063
 31
0.0
  0
LINE
  5
5F2
330
1F
100
AcDbEntity
  8
2
  6
CONTINUOUS
370
25
 62
7
100
AcDbLine
 10
3.192351391150975
 20
-12.45753972176981
 30
0.0
 11
3.298527086726462
 21
-12.56371541734529
 31
0.0
  0
LINE
  5
5F3
330
1F
100
AcDbEntity
  8
2
  6
CONTINUOUS
370
25
 62
7
100
AcDbLine
 10
3.545904781744248
 20
-12.38682904365115
 30
0.0
 11
3.828857172616372
 21
-12.66978143452327
 31
0.0
  0
LINE
  5
5F4
330
1F
100
AcDbEntity
  8
2
  6
CONTINUOUS
370
25
 62
7
100
AcDbLine
 10
3.899458172337521
 20
-12.3161183655325
 30
0.0
 11
4.359187258506283
 21
-12.77584745170126
 31
0.0
  0
LINE
  5
5F5
330
1F
100
AcDbEntity
  8
2
  6
CONTINUOUS
370
25
 62
7
100
AcDbLine
 10
4.253011562930795
 20
-12.24540768741384
 30
0.0
 11
4.889517344396192
 21
-12.88191346887924
 31
0.0
  0
LINE
  5
5F6
330
1F
100
AcDbEntity
  8
2
  6
CONTINUOUS
370
25
 62
7
100
AcDbLine
 10
4.606564953524068
 20
-12.17469700929519
 30
0.0
 11
5.419847430286103
 21
-12.98797948605722
 31
0.0
  0
LINE
  5
5F7
330
1F
100
AcDbEntity
  8
2
  6
CONTINUOUS
370
25
 62
7
100
AcDbLine
 10
4.960118344117341
 20
-12.10398633117653
 30
0.0
 11
5.950177516176014
 21
-13.0940455032352
 31
0.0
  0
LINE
  5
5F8
330
1F
100
AcDbEntity
  8
2
  6
CONTINUOUS
370
25
 62
7
100
AcDbLine
 10
5.313671734710614
 20
-12.03327565305788
 30
0.0
 11
6.480507602065924
 21
-13.20011152041318
 31
0.0
  0
LINE
  5
5F9
330
1F
100
AcDbEntity
  8
2
  6
CONTINUOUS
370
25
 62
7
100
AcDbLine
 10
5.667225125303889
 20
-11.96256497493922
 30
0.0
 11
7.010837687955836
 21
-13.30617753759117
 31
0.0
  0
LINE
  5
5FA
330
1F
100
AcDbEntity
  8
2
  6
CONTINUOUS
370
25
 62
7
100
AcDbLine
 10
6.020778515897162
 20
-11.89185429682057
 30
0.0
 11
7.541167773845745
 21
-13.41224355476915
 31
0.0
  0
LINE
  5
5FB
330
1F
100
AcDbEntity
  8
2
  6
CONTINUOUS
370
25
 62
7
100
AcDbLine
 10
6.374331906490435
 20
-11.82114361870191
 30
0.0
 11
7.979999999999999
 21
-13.42681171221147
 31
0.0
  0
LINE
  5
5FC
330
1F
100
AcDbEntity
  8
2
  6
CONTINUOUS
370
25
 62
7
100
AcDbLine
 10
6.727885297083709
 20
-11.75043294058326
 30
0.0
 11
7.979999999999999
 21
-13.00254764349955
 31
0.0
  0
LINE
  5
5FD
330
1F
100
AcDbEntity
  8
2
  6
CONTINUOUS
370
25
 62
7
100
AcDbLine
 10
7.081438687676982
 20
-11.6797222624646
 30
0.0
 11
7.979999999999999
 21
-12.57828357478762
 31
0.0
  0
LINE
  5
5FE
330
1F
100
AcDbEntity
  8
2
  6
CONTINUOUS
370
25
 62
7
100
AcDbLine
 10
7.434992078270257
 20
-11.60901158434595
 30
0.0
 11
7.979999999999999
 21
-12.15401950607569
 31
0.0
  0
LINE
  5
5FF
330
1F
100
AcDbEntity
  8
2
  6
CONTINUOUS
370
25
 62
7
100
AcDbLine
 10
7.78854546886353
 20
-11.53830090622729
 30
0.0
 11
7.979999999999999
 21
-11.72975543736376
 31
0.0
  0
LINE
  5
600
330
1F
100
AcDbEntity
  8
2
  6
CONTINUOUS
370
25
 62
7
100
AcDbLine
 10
34.98
 20
-12.50001
 30
0.0
 11
29.98
 21
-13.50001
 31
0.0
  0
LINE
  5
601
330
1F
100
AcDbEntity
  8
2
  6
CONTINUOUS
370
25
 62
7
100
AcDbLine
 10
29.98
 20
-13.50001
 30
0.0
 11
29.98
 21
-11.50001
 31
0.0
  0
LINE
  5
602
330
1F
100
AcDbEntity
  8
2
  6
CONTINUOUS
370
25
 62
7
100
AcDbLine
 10
29.98
 20
-11.50001
 30
0.0
 11
34.98
 21
-12.50001
 31
0.0
  0
LINE
  5
603
330
1F
100
AcDbEntity
  8
2
  6
CONTINUOUS
370
25
 62
7
100
AcDbLine
 10
34.91209526907149
 20
-12.5135909461857
 30
0.0
 11
34.93473017938099
 21
-12.4909560358762
 31
0.0
  0
LINE
  5
604
330
1F
100
AcDbEntity
  8
2
  6
CONTINUOUS
370
25
 62
7
100
AcDbLine
 10
34.38176518318158
 20
-12.61965696336368
 30
0.0
 11
34.58117678878772
 21
-12.42024535775754
 31
0.0
  0
LINE
  5
605
330
1F
100
AcDbEntity
  8
2
  6
CONTINUOUS
370
25
 62
7
100
AcDbLine
 10
33.85143509729167
 20
-12.72572298054166
 30
0.0
 11
34.22762339819445
 21
-12.34953467963889
 31
0.0
  0
LINE
  5
606
330
1F
100
AcDbEntity
  8
2
  6
CONTINUOUS
370
25
 62
7
100
AcDbLine
 10
33.32110501140175
 20
-12.83178899771965
 30
0.0
 11
33.87407000760116
 21
-12.27882400152023
 31
0.0
  0
LINE
  5
607
330
1F
100
AcDbEntity
  8
2
  6
CONTINUOUS
370
25
 62
7
100
AcDbLine
 10
32.79077492551184
 20
-12.93785501489764
 30
0.0
 11
33.52051661700789
 21
-12.20811332340158
 31
0.0
  0
LINE
  5
608
330
1F
100
AcDbEntity
  8
2
  6
CONTINUOUS
370
25
 62
7
100
AcDbLine
 10
32.26044483962193
 20
-13.04392103207562
 30
0.0
 11
33.16696322641462
 21
-12.13740264528292
 31
0.0
  0
LINE
  5
609
330
1F
100
AcDbEntity
  8
2
  6
CONTINUOUS
370
25
 62
7
100
AcDbLine
 10
31.73011475373203
 20
-13.14998704925359
 30
0.0
 11
32.81340983582135
 21
-12.06669196716427
 31
0.0
  0
LINE
  5
60A
330
1F
100
AcDbEntity
  8
2
  6
CONTINUOUS
370
25
 62
7
100
AcDbLine
 10
31.19978466784211
 20
-13.25605306643158
 30
0.0
 11
32.45985644522807
 21
-11.99598128904562
 31
0.0
  0
LINE
  5
60B
330
1F
100
AcDbEntity
  8
2
  6
CONTINUOUS
370
25
 62
7
100
AcDbLine
 10
30.66945458195221
 20
-13.36211908360956
 30
0.0
 11
32.1063030546348
 21
-11.92527061092696
 31
0.0
  0
LINE
  5
60C
330
1F
100
AcDbEntity
  8
2
  6
CONTINUOUS
370
25
 62
7
100
AcDbLine
 10
30.13912449606229
 20
-13.46818510078754
 30
0.0
 11
31.75274966404152
 21
-11.8545599328083
 31
0.0
  0
LINE
  5
60D
330
1F
100
AcDbEntity
  8
2
  6
CONTINUOUS
370
25
 62
7
100
AcDbLine
 10
29.98
 20
-13.20304552813791
 30
0.0
 11
31.39919627344825
 21
-11.78384925468965
 31
0.0
  0
LINE
  5
60E
330
1F
100
AcDbEntity
  8
2
  6
CONTINUOUS
370
25
 62
7
100
AcDbLine
 10
29.98
 20
-12.77878145942598
 30
0.0
 11
31.04564288285497
 21
-11.71313857657099
 31
0.0
  0
LINE
  5
60F
330
1F
100
AcDbEntity
  8
2
  6
CONTINUOUS
370
25
 62
7
100
AcDbLine
 10
29.98
 20
-12.35451739071405
 30
0.0
 11
30.6920894922617
 21
-11.64242789845234
 31
0.0
  0
LINE
  5
610
330
1F
100
AcDbEntity
  8
2
  6
CONTINUOUS
370
25
 62
7
100
AcDbLine
 10
29.98
 20
-11.93025332200212
 30
0.0
 11
30.33853610166843
 21
-11.57171722033369
 31
0.0
  0
LINE
  5
611
330
1F
100
AcDbEntity
  8
2
  6
CONTINUOUS
370
25
 62
7
100
AcDbLine
 10
29.98
 20
-11.50598925329019
 30
0.0
 11
29.98498271107515
 21
-11.50100654221503
 31
0.0
  0
LINE
  5
612
330
1F
100
AcDbEntity
  8
2
  6
CONTINUOUS
370
25
 62
7
100
AcDbLine
 10
29.98
 20
-13.43370132023473
 30
0.0
 11
30.03525723313772
 21
-13.48895855337245
 31
0.0
  0
LINE
  5
613
330
1F
100
AcDbEntity
  8
2
  6
CONTINUOUS
370
25
 62
7
100
AcDbLine
 10
29.98
 20
-13.0094372515228
 30
0.0
 11
30.388810623731
 21
-13.4182478752538
 31
0.0
  0
LINE
  5
614
330
1F
100
AcDbEntity
  8
2
  6
CONTINUOUS
370
25
 62
7
100
AcDbLine
 10
29.98
 20
-12.58517318281087
 30
0.0
 11
30.74236401432427
 21
-13.34753719713514
 31
0.0
  0
LINE
  5
615
330
1F
100
AcDbEntity
  8
2
  6
CONTINUOUS
370
25
 62
7
100
AcDbLine
 10
29.98
 20
-12.16090911409894
 30
0.0
 11
31.09591740491754
 21
-13.27682651901648
 31
0.0
  0
LINE
  5
616
330
1F
100
AcDbEntity
  8
2
  6
CONTINUOUS
370
25
 62
7
100
AcDbLine
 10
29.98
 20
-11.73664504538701
 30
0.0
 11
31.44947079551082
 21
-13.20611584089784
 31
0.0
  0
LINE
  5
617
330
1F
100
AcDbEntity
  8
2
  6
CONTINUOUS
370
25
 62
7
100
AcDbLine
 10
30.21453627915614
 20
-11.54691725583123
 30
0.0
 11
31.8030241861041
 21
-13.13540516277918
 31
0.0
  0
LINE
  5
618
330
1F
100
AcDbEntity
  8
2
  6
CONTINUOUS
370
25
 62
7
100
AcDbLine
 10
30.74486636504605
 20
-11.65298327300921
 30
0.0
 11
32.15657757669737
 21
-13.06469448466052
 31
0.0
  0
LINE
  5
619
330
1F
100
AcDbEntity
  8
2
  6
CONTINUOUS
370
25
 62
7
100
AcDbLine
 10
31.27519645093597
 20
-11.7590492901872
 30
0.0
 11
32.51013096729064
 21
-12.99398380654186
 31
0.0
  0
LINE
  5
61A
330
1F
100
AcDbEntity
  8
2
  6
CONTINUOUS
370
25
 62
7
100
AcDbLine
 10
31.80552653682588
 20
-11.86511530736518
 30
0.0
 11
32.86368435788392
 21
-12.92327312842321
 31
0.0
  0
LINE
  5
61B
330
1F
100
AcDbEntity
  8
2
  6
CONTINUOUS
370
25
 62
7
100
AcDbLine
 10
32.3358566227158
 20
-11.97118132454316
 30
0.0
 11
33.2172377484772
 21
-12.85256245030456
 31
0.0
  0
LINE
  5
61C
330
1F
100
AcDbEntity
  8
2
  6
CONTINUOUS
370
25
 62
7
100
AcDbLine
 10
32.86618670860571
 20
-12.07724734172114
 30
0.0
 11
33.57079113907048
 21
-12.78185177218591
 31
0.0
  0
LINE
  5
61D
330
1F
100
AcDbEntity
  8
2
  6
CONTINUOUS
370
25
 62
7
100
AcDbLine
 10
33.39651679449562
 20
-12.18331335889912
 30
0.0
 11
33.92434452966375
 21
-12.71114109406725
 31
0.0
  0
LINE
  5
61E
330
1F
100
AcDbEntity
  8
2
  6
CONTINUOUS
370
25
 62
7
100
AcDbLine
 10
33.92684688038554
 20
-12.28937937607711
 30
0.0
 11
34.27789792025702
 21
-12.64043041594858
 31
0.0
  0
LINE
  5
61F
330
1F
100
AcDbEntity
  8
2
  6
CONTINUOUS
370
25
 62
7
100
AcDbLine
 10
34.45717696627546
 20
-12.39544539325509
 30
0.0
 11
34.6314513108503
 21
-12.56971973782994
 31
0.0
  0
TEXT
  5
620
330
1F
100
AcDbEntity
  8
2
  6
CONTINUOUS
370
25
 62
7
100
AcDbText
 10
16.06333333333333
 20
-11.50001
 30
0.0
 40
3.5
  1
32
 72
     1
 11
18.98
 21
-11.50001
 31
0.0
100
AcDbText
  0
LINE
  5
621
330
1F
100
AcDbEntity
  8
4
  6
LONGDASH_DASH
370
25
 62
2
100
AcDbLine
 10
0.0
 20
0.0
 30
0.0
 11
34.98
 21
0.0
 31
0.0
  0
LINE
  5
622
330
1F
100
AcDbEntity
  8
SK4
  6
LONGDASH_DASH
370
25
 62
2
100
AcDbLine
 10
-50.02
 20
0.0
 30
0.0
 11
39.98
 21
0.0
 31
0.0
  0
LINE
  5
623
330
1F
100
AcDbEntity
  8
INFTOTAL
  6
CONTINUOUS
370
18
 62
9
100
AcDbLine
 10
-75.92201100000001
 20
-29.150011
 30
0.0
 11
57.17801100000001
 21
-29.150011
 31
0.0
  0
LINE
  5
624
330
1F
100
AcDbEntity
  8
INFTOTAL
  6
CONTINUOUS
370
18
 62
9
100
AcDbLine
 10
57.17801100000001
 20
-29.150011
 30
0.0
 11
57.17801100000001
 21
29.150011
 31
0.0
  0
LINE
  5
625
330
1F
100
AcDbEntity
  8
INFTOTAL
  6
CONTINUOUS
370
18
 62
9
100
AcDbLine
 10
57.17801100000001
 20
29.150011
 30
0.0
 11
-75.92201100000003
 21
29.150011
 31
0.0
  0
LINE
  5
626
330
1F
100
AcDbEntity
  8
INFTOTAL
  6
CONTINUOUS
370
18
 62
9
100
AcDbLine
 10
-75.92201100000003
 20
29.150011
 30
0.0
 11
-75.92201100000003
 21
-29.150011
 31
0.0
  0
ARC
  5
627
330
1F
100
AcDbEntity
  8
SK6
  6
CONTINUOUS
370
25
 62
5
100
AcDbCircle
 10
70.72139100837651
 20
-27.34525475338786
 30
0.0
 40
2.760489128492197
100
AcDbArc
 50
338.9379403434232
 51
90.44457437511392
  0
LINE
  5
628
330
1F
100
AcDbEntity
  8
SK6
  6
CONTINUOUS
370
25
 62
5
100
AcDbLine
 10
70.69997179695983
 20
-24.58484872421281
 30
0.0
 11
70.69997179695983
 21
-25.68790735613463
 31
0.0
  0
ARC
  5
629
330
1F
100
AcDbEntity
  8
SK6
  6
CONTINUOUS
370
25
 62
5
100
AcDbCircle
 10
70.71051802936915
 20
-27.36524824566821
 30
0.0
 40
1.677374043771779
100
AcDbArc
 50
243.4214706017868
 51
90.36024081226083
  0
ARC
  5
62A
330
1F
100
AcDbEntity
  8
SK6
  6
CONTINUOUS
370
25
 62
5
100
AcDbCircle
 10
73.23276889684958
 20
-26.93384099215561
 30
0.0
 40
3.800217030022748
100
AcDbArc
 50
210.5483731288541
 51
236.9780169366799
  0
LINE
  5
62B
330
1F
100
AcDbEntity
  8
SK6
  6
CONTINUOUS
370
25
 62
5
100
AcDbLine
 10
71.16179968512486
 20
-30.12017681867535
 30
0.0
 11
75.30373996742671
 21
-30.12017681867535
 31
0.0
  0
ARC
  5
62C
330
1F
100
AcDbEntity
  8
SK6
  6
CONTINUOUS
370
25
 62
5
100
AcDbCircle
 10
73.23277083877257
 20
-26.9338410937346
 30
0.0
 40
3.800216899582472
100
AcDbArc
 50
303.0219828477959
 51
326.3732153033476
  0
LINE
  5
62D
330
1F
100
AcDbEntity
  8
SK6
  6
CONTINUOUS
370
25
 62
5
100
AcDbLine
 10
76.39706875135721
 20
-29.0383284907709
 30
0.0
 11
73.03977070575462
 21
-29.0383284907709
 31
0.0
  0
LINE
  5
62E
330
1F
100
AcDbEntity
  8
SK6
  6
CONTINUOUS
370
25
 62
5
100
AcDbLine
 10
73.03977070575462
 20
-29.0383284907709
 30
0.0
 11
76.95963009771987
 21
-27.67692729641694
 31
0.0
  0
ARC
  5
62F
330
1F
100
AcDbEntity
  8
SK6
  6
CONTINUOUS
370
25
 62
5
100
AcDbCircle
 10
73.2327715615721
 20
-26.9338416048594
 30
0.0
 40
3.800217216614737
100
AcDbArc
 50
348.7238644184696
 51
53.46910512608813
  0
LINE
  5
630
330
1F
100
AcDbEntity
  8
SK6
  6
CONTINUOUS
370
25
 62
5
100
AcDbLine
 10
75.49487424538546
 20
-23.88023024429967
 30
0.0
 11
73.29745947882736
 21
-28.33731873507057
 31
0.0
  0
ENDSEC
  0
SECTION
  2
OBJECTS
  0
DICTIONARY
  5
C
330
0
100
AcDbDictionary
281
     1
  3
ACAD_GROUP
350
D
  3
ACAD_LAYOUT
350
1A
  3
ACAD_MATERIAL
350
3B
  3
ACAD_MLEADERSTYLE
350
633
  3
ACAD_MLINESTYLE
350
17
  3
ACAD_PLOTSETTINGS
350
19
  3
ACAD_PLOTSTYLENAME
350
E
  3
ACAD_SCALELIST
350
179
  3
ACAD_VISUALSTYLE
350
2A
  3
AcDbVariableDictionary
350
631
  0
DICTIONARY
  5
D
102
{ACAD_REACTORS
330
C
102
}
330
C
100
AcDbDictionary
281
     1
  0
DICTIONARY
  5
1A
102
{ACAD_REACTORS
330
C
102
}
330
C
100
AcDbDictionary
281
     1
  3
Layout1
350
1E
  3
Layout2
350
26
  3
Model
350
22
  0
DICTIONARY
  5
3B
102
{ACAD_REACTORS
330
C
102
}
330
C
100
AcDbDictionary
281
     1
  3
ByBlock
350
3D
  3
ByLayer
350
3C
  3
Global
350
3E
  0
DICTIONARY
  5
633
102
{ACAD_REACTORS
330
C
102
}
330
C
100
AcDbDictionary
281
     1
  0
DICTIONARY
  5
17
102
{ACAD_REACTORS
330
C
102
}
330
C
100
AcDbDictionary
281
     1
  3
Standard
350
18
  0
DICTIONARY
  5
19
102
{ACAD_REACTORS
330
C
102
}
330
C
100
AcDbDictionary
281
     1
  0
ACDBDICTIONARYWDFLT
  5
E
102
{ACAD_REACTORS
330
C
102
}
330
C
100
AcDbDictionary
281
     1
  3
Normal
350
F
100
AcDbDictionaryWithDefault
340
F
  0
DICTIONARY
  5
179
102
{ACAD_REACTORS
330
C
102
}
330
C
100
AcDbDictionary
281
     1
  3
A0
350
17A
  3
A1
350
17B
  3
A2
350
17C
  3
A3
350
17D
  3
A4
350
17E
  3
A5
350
17F
  3
A6
350
180
  3
A7
350
181
  3
A8
350
182
  3
A9
350
183
  3
B0
350
184
  3
B1
350
185
  3
B2
350
186
  3
B3
350
187
  3
B4
350
188
  3
B5
350
189
  3
B6
350
18A
  3
B7
350
18B
  3
B8
350
18C
  3
B9
350
18D
  3
C0
350
18E
  3
C1
350
18F
  3
C2
350
190
  3
C3
350
191
  3
C4
350
192
  3
C5
350
193
  3
C6
350
194
  3
C7
350
195
  3
C8
350
196
  3
C9
350
197
  3
D0
350
198
  3
D1
350
199
  3
D2
350
19A
  0
DICTIONARY
  5
2A
102
{ACAD_REACTORS
330
C
102
}
330
C
100
AcDbDictionary
281
     1
  3
2dWireframe
350
2F
  3
3D Hidden
350
31
  3
3dWireframe
350
30
  3
Basic
350
32
  3
Brighten
350
36
  3
ColorChange
350
3A
  3
Conceptual
350
34
  3
Dim
350
35
  3
Facepattern
350
39
  3
Flat
350
2B
  3
FlatWithEdges
350
2C
  3
Gouraud
350
2D
  3
GouraudWithEdges
350
2E
  3
Linepattern
350
38
  3
Realistic
350
33
  3
Thicken
350
37
  0
DICTIONARY
  5
631
102
{ACAD_REACTORS
330
C
102
}
330
C
100
AcDbDictionary
281
     1
  3
CANNOSCALE
350
636
  3
DIMASSOC
350
637
  3
HIDETEXT
350
638
  3
PSOLHEIGHT
350
635
  3
PSOLWIDTH
350
634
  0
LAYOUT
  5
1E
102
{ACAD_REACTORS
330
1A
102
}
330
1A
100
AcDbPlotSettings
  1

  2
none_device
  4

  6

 40
0.0
 41
0.0
 42
0.0
 43
0.0
 44
0.0
 45
0.0
 46
0.0
 47
0.0
 48
0.0
 49
0.0
140
0.0
141
0.0
142
1.0
143
1.0
 70
   688
 72
     0
 73
     0
 74
     5
  7

 75
    16
147
1.0
148
0.0
149
0.0
100
AcDbLayout
  1
Layout1
 70
     1
 71
     1
 10
0.0
 20
0.0
 11
420.0
 21
297.0
 12
0.0
 22
0.0
 32
0.0
 14
1.000000000000000E+20
 24
1.000000000000000E+20
 34
1.000000000000000E+20
 15
-1.000000000000000E+20
 25
-1.000000000000000E+20
 35
-1.000000000000000E+20
146
0.0
 13
0.0
 23
0.0
 33
0.0
 16
1.0
 26
0.0
 36
0.0
 17
0.0
 27
1.0
 37
0.0
 76
     0
330
1B
  0
LAYOUT
  5
26
102
{ACAD_REACTORS
330
1A
102
}
330
1A
100
AcDbPlotSettings
  1

  2
none_device
  4

  6

 40
0.0
 41
0.0
 42
0.0
 43
0.0
 44
0.0
 45
0.0
 46
0.0
 47
0.0
 48
0.0
 49
0.0
140
0.0
141
0.0
142
1.0
143
1.0
 70
   688
 72
     0
 73
     0
 74
     5
  7

 75
    16
147
1.0
148
0.0
149
0.0
100
AcDbLayout
  1
Layout2
 70
     1
 71
     2
 10
0.0
 20
0.0
 11
0.0
 21
0.0
 12
0.0
 22
0.0
 32
0.0
 14
0.0
 24
0.0
 34
0.0
 15
0.0
 25
0.0
 35
0.0
146
0.0
 13
0.0
 23
0.0
 33
0.0
 16
1.0
 26
0.0
 36
0.0
 17
0.0
 27
1.0
 37
0.0
 76
     0
330
23
  0
LAYOUT
  5
22
102
{ACAD_REACTORS
330
1A
102
}
330
1A
100
AcDbPlotSettings
  1

  2
none_device
  4

  6

 40
0.0
 41
0.0
 42
0.0
 43
0.0
 44
0.0
 45
0.0
 46
0.0
 47
0.0
 48
0.0
 49
0.0
140
0.0
141
0.0
142
1.0
143
1.0
 70
  1712
 72
     0
 73
     0
 74
     0
  7

 75
     0
147
1.0
148
0.0
149
0.0
100
AcDbLayout
  1
Model
 70
     1
 71
     0
 10
0.0
 20
0.0
 11
420.0
 21
297.0
 12
0.0
 22
0.0
 32
0.0
 14
0.0
 24
0.0
 34
0.0
 15
25.0
 25
35.0
 35
0.0
146
0.0
 13
0.0
 23
0.0
 33
0.0
 16
1.0
 26
0.0
 36
0.0
 17
0.0
 27
1.0
 37
0.0
 76
     0
330
1F
331
29
  0
MATERIAL
  5
3D
102
{ACAD_REACTORS
330
3B
102
}
102
{ACAD_XDICTIONARY
360
65B
102
}
330
3B
100
AcDbMaterial
  1
ByBlock
  0
MATERIAL
  5
3C
102
{ACAD_REACTORS
330
3B
102
}
102
{ACAD_XDICTIONARY
360
659
102
}
330
3B
100
AcDbMaterial
  1
ByLayer
  0
MATERIAL
  5
3E
102
{ACAD_REACTORS
330
3B
102
}
102
{ACAD_XDICTIONARY
360
65D
102
}
330
3B
100
AcDbMaterial
  1
Global
  0
MLINESTYLE
  5
18
102
{ACAD_REACTORS
330
17
102
}
330
17
100
AcDbMlineStyle
  2
Standard
 70
     0
  3

 62
   256
 51
90.0
 52
90.0
 71
     2
 49
0.5
 62
   256
  6
BYLAYER
 49
-0.5
 62
   256
  6
BYLAYER
  0
ACDBPLACEHOLDER
  5
F
102
{ACAD_REACTORS
330
E
102
}
330
E
  0
SCALE
  5
17A
102
{ACAD_REACTORS
330
179
102
}
330
179
100
AcDbScale
 70
     0
300
1:1
140
1.0
141
1.0
290
     1
  0
SCALE
  5
17B
102
{ACAD_REACTORS
330
179
102
}
330
179
100
AcDbScale
 70
     0
300
1:2
140
1.0
141
2.0
290
     0
  0
SCALE
  5
17C
102
{ACAD_REACTORS
330
179
102
}
330
179
100
AcDbScale
 70
     0
300
1:4
140
1.0
141
4.0
290
     0
  0
SCALE
  5
17D
102
{ACAD_REACTORS
330
179
102
}
330
179
100
AcDbScale
 70
     0
300
1:5
140
1.0
141
5.0
290
     0
  0
SCALE
  5
17E
102
{ACAD_REACTORS
330
179
102
}
330
179
100
AcDbScale
 70
     0
300
1:8
140
1.0
141
8.0
290
     0
  0
SCALE
  5
17F
102
{ACAD_REACTORS
330
179
102
}
330
179
100
AcDbScale
 70
     0
300
1:10
140
1.0
141
10.0
290
     0
  0
SCALE
  5
180
102
{ACAD_REACTORS
330
179
102
}
330
179
100
AcDbScale
 70
     0
300
1:16
140
1.0
141
16.0
290
     0
  0
SCALE
  5
181
102
{ACAD_REACTORS
330
179
102
}
330
179
100
AcDbScale
 70
     0
300
1:20
140
1.0
141
20.0
290
     0
  0
SCALE
  5
182
102
{ACAD_REACTORS
330
179
102
}
330
179
100
AcDbScale
 70
     0
300
1:30
140
1.0
141
30.0
290
     0
  0
SCALE
  5
183
102
{ACAD_REACTORS
330
179
102
}
330
179
100
AcDbScale
 70
     0
300
1:40
140
1.0
141
40.0
290
     0
  0
SCALE
  5
184
102
{ACAD_REACTORS
330
179
102
}
330
179
100
AcDbScale
 70
     0
300
1:50
140
1.0
141
50.0
290
     0
  0
SCALE
  5
185
102
{ACAD_REACTORS
330
179
102
}
330
179
100
AcDbScale
 70
     0
300
1:100
140
1.0
141
100.0
290
     0
  0
SCALE
  5
186
102
{ACAD_REACTORS
330
179
102
}
330
179
100
AcDbScale
 70
     0
300
2:1
140
2.0
141
1.0
290
     0
  0
SCALE
  5
187
102
{ACAD_REACTORS
330
179
102
}
330
179
100
AcDbScale
 70
     0
300
4:1
140
4.0
141
1.0
290
     0
  0
SCALE
  5
188
102
{ACAD_REACTORS
330
179
102
}
330
179
100
AcDbScale
 70
     0
300
8:1
140
8.0
141
1.0
290
     0
  0
SCALE
  5
189
102
{ACAD_REACTORS
330
179
102
}
330
179
100
AcDbScale
 70
     0
300
10:1
140
10.0
141
1.0
290
     0
  0
SCALE
  5
18A
102
{ACAD_REACTORS
330
179
102
}
330
179
100
AcDbScale
 70
     0
300
100:1
140
100.0
141
1.0
290
     0
  0
SCALE
  5
18B
102
{ACAD_REACTORS
330
179
102
}
330
179
100
AcDbScale
 70
     0
300
1/128" = 1'-0"
140
0.0078125
141
12.0
290
     0
  0
SCALE
  5
18C
102
{ACAD_REACTORS
330
179
102
}
330
179
100
AcDbScale
 70
     0
300
1/64" = 1'-0"
140
0.015625
141
12.0
290
     0
  0
SCALE
  5
18D
102
{ACAD_REACTORS
330
179
102
}
330
179
100
AcDbScale
 70
     0
300
1/32" = 1'-0"
140
0.03125
141
12.0
290
     0
  0
SCALE
  5
18E
102
{ACAD_REACTORS
330
179
102
}
330
179
100
AcDbScale
 70
     0
300
1/16" = 1'-0"
140
0.0625
141
12.0
290
     0
  0
SCALE
  5
18F
102
{ACAD_REACTORS
330
179
102
}
330
179
100
AcDbScale
 70
     0
300
3/32" = 1'-0"
140
0.09375
141
12.0
290
     0
  0
SCALE
  5
190
102
{ACAD_REACTORS
330
179
102
}
330
179
100
AcDbScale
 70
     0
300
1/8" = 1'-0"
140
0.125
141
12.0
290
     0
  0
SCALE
  5
191
102
{ACAD_REACTORS
330
179
102
}
330
179
100
AcDbScale
 70
     0
300
3/16" = 1'-0"
140
0.1875
141
12.0
290
     0
  0
SCALE
  5
192
102
{ACAD_REACTORS
330
179
102
}
330
179
100
AcDbScale
 70
     0
300
1/4" = 1'-0"
140
0.25
141
12.0
290
     0
  0
SCALE
  5
193
102
{ACAD_REACTORS
330
179
102
}
330
179
100
AcDbScale
 70
     0
300
3/8" = 1'-0"
140
0.375
141
12.0
290
     0
  0
SCALE
  5
194
102
{ACAD_REACTORS
330
179
102
}
330
179
100
AcDbScale
 70
     0
300
1/2" = 1'-0"
140
0.5
141
12.0
290
     0
  0
SCALE
  5
195
102
{ACAD_REACTORS
330
179
102
}
330
179
100
AcDbScale
 70
     0
300
3/4" = 1'-0"
140
0.75
141
12.0
290
     0
  0
SCALE
  5
196
102
{ACAD_REACTORS
330
179
102
}
330
179
100
AcDbScale
 70
     0
300
1" = 1'-0"
140
1.0
141
12.0
290
     0
  0
SCALE
  5
197
102
{ACAD_REACTORS
330
179
102
}
330
179
100
AcDbScale
 70
     0
300
1-1/2" = 1'-0"
140
1.5
141
12.0
290
     0
  0
SCALE
  5
198
102
{ACAD_REACTORS
330
179
102
}
330
179
100
AcDbScale
 70
     0
300
3" = 1'-0"
140
3.0
141
12.0
290
     0
  0
SCALE
  5
199
102
{ACAD_REACTORS
330
179
102
}
330
179
100
AcDbScale
 70
     0
300
6" = 1'-0"
140
6.0
141
12.0
290
     0
  0
SCALE
  5
19A
102
{ACAD_REACTORS
330
179
102
}
330
179
100
AcDbScale
 70
     0
300
1'-0" = 1'-0"
140
12.0
141
12.0
290
     0
  0
VISUALSTYLE
  5
2F
102
{ACAD_REACTORS
330
2A
102
}
102
{ACAD_XDICTIONARY
360
641
102
}
330
2A
100
AcDbVisualStyle
  2
2dWireframe
 70
     4
 71
     0
 72
     2
 73
     0
 90
        0
 40
-0.6
 41
-30.0
 62
     5
 63
     7
 74
     1
 91
        4
 64
     7
 65
   257
 75
     1
175
     1
 42
1.0
 92
        0
 66
   257
 43
1.0
 76
     1
 77
     6
 78
     2
 67
     7
 79
     5
170
     0
171
     0
290
     0
174
     0
 93
        1
 44
0.0
173
     0
291
     0
 45
0.0
1001
ACAD
1000
AcDbSavedByObjectVersion
1070
     0
  0
VISUALSTYLE
  5
31
102
{ACAD_REACTORS
330
2A
102
}
102
{ACAD_XDICTIONARY
360
645
102
}
330
2A
100
AcDbVisualStyle
  2
3D Hidden
 70
     6
 71
     1
 72
     2
 73
     2
 90
        0
 40
-0.6
 41
-30.0
 62
     5
 63
     7
 74
     2
 91
        2
 64
     7
 65
   257
 75
     2
175
     1
 42
40.0
 92
        0
 66
   257
 43
1.0
 76
     1
 77
     6
 78
     2
 67
     7
 79
     3
170
     0
171
     0
290
     0
174
     0
 93
        1
 44
0.0
173
     0
291
     0
 45
0.0
1001
ACAD
1000
AcDbSavedByObjectVersion
1070
     0
  0
VISUALSTYLE
  5
30
102
{ACAD_REACTORS
330
2A
102
}
102
{ACAD_XDICTIONARY
360
643
102
}
330
2A
100
AcDbVisualStyle
  2
3dWireframe
 70
     5
 71
     0
 72
     2
 73
     0
 90
        0
 40
-0.6
 41
-30.0
 62
     5
 63
     7
 74
     1
 91
        4
 64
     7
 65
   257
 75
     1
175
     1
 42
1.0
 92
        0
 66
   257
 43
1.0
 76
     1
 77
     6
 78
     2
 67
     7
 79
     5
170
     0
171
     0
290
     0
174
     0
 93
        1
 44
0.0
173
     0
291
     0
 45
0.0
1001
ACAD
1000
AcDbSavedByObjectVersion
1070
     0
  0
VISUALSTYLE
  5
32
102
{ACAD_REACTORS
330
2A
102
}
102
{ACAD_XDICTIONARY
360
647
102
}
330
2A
100
AcDbVisualStyle
  2
Basic
 70
     7
 71
     1
 72
     0
 73
     1
 90
        0
 40
-0.6
 41
-30.0
 62
     5
 63
     7
 74
     0
 91
        4
 64
     7
 65
   257
 75
     1
175
     1
 42
1.0
 92
        8
 66
     7
 43
1.0
 76
     1
 77
     6
 78
     2
 67
     7
 79
     5
170
     0
171
     0
290
     0
174
     0
 93
        1
 44
0.0
173
     0
291
     1
 45
0.0
1001
ACAD
1000
AcDbSavedByObjectVersion
1070
     0
  0
VISUALSTYLE
  5
36
102
{ACAD_REACTORS
330
2A
102
}
102
{ACAD_XDICTIONARY
360
64F
102
}
330
2A
100
AcDbVisualStyle
  2
Brighten
 70
    12
 71
     2
 72
     2
 73
     0
 90
        0
 40
-0.6
 41
-30.0
 62
     5
 63
     7
 74
     1
 91
        4
 64
     7
 65
   257
 75
     1
175
     1
 42
1.0
 92
        8
 66
     7
 43
1.0
 76
     1
 77
     6
 78
     2
 67
     7
 79
     5
170
     0
171
     0
290
     0
174
     0
 93
        1
 44
50.0
173
     0
291
     1
 45
0.0
1001
ACAD
1000
AcDbSavedByObjectVersion
1070
     0
  0
VISUALSTYLE
  5
3A
102
{ACAD_REACTORS
330
2A
102
}
102
{ACAD_XDICTIONARY
360
657
102
}
330
2A
100
AcDbVisualStyle
  2
ColorChange
 70
    16
 71
     2
 72
     2
 73
     3
 90
        0
 40
-0.6
 41
-30.0
 62
     5
 63
     8
 74
     1
 91
        4
 64
     7
 65
   257
 75
     1
175
     1
 42
1.0
 92
        8
 66
     8
 43
1.0
 76
     1
 77
     6
 78
     2
 67
     7
 79
     5
170
     0
171
     0
290
     0
174
     0
 93
        1
 44
0.0
173
     0
291
     1
 45
0.0
1001
ACAD
1000
AcDbSavedByObjectVersion
1070
     0
  0
VISUALSTYLE
  5
34
102
{ACAD_REACTORS
330
2A
102
}
102
{ACAD_XDICTIONARY
360
64B
102
}
330
2A
100
AcDbVisualStyle
  2
Conceptual
 70
     9
 71
     3
 72
     2
 73
     0
 90
        0
 40
-0.6
 41
-30.0
 62
     5
 63
     7
 74
     2
 91
        2
 64
     7
 65
   257
 75
     1
175
     1
 42
40.0
 92
        8
 66
     7
 43
1.0
 76
     1
 77
     6
 78
     2
 67
     7
 79
     3
170
     0
171
     0
290
     0
174
     0
 93
        1
 44
0.0
173
     0
291
     0
 45
0.0
1001
ACAD
1000
AcDbSavedByObjectVersion
1070
     0
  0
VISUALSTYLE
  5
35
102
{ACAD_REACTORS
330
2A
102
}
102
{ACAD_XDICTIONARY
360
64D
102
}
330
2A
100
AcDbVisualStyle
  2
Dim
 70
    11
 71
     2
 72
     2
 73
     0
 90
        0
 40
-0.6
 41
-30.0
 62
     5
 63
     7
 74
     1
 91
        4
 64
     7
 65
   257
 75
     1
175
     1
 42
1.0
 92
        8
 66
     7
 43
1.0
 76
     1
 77
     6
 78
     2
 67
     7
 79
     5
170
     0
171
     0
290
     0
174
     0
 93
        1
 44
-50.0
173
     0
291
     1
 45
0.0
1001
ACAD
1000
AcDbSavedByObjectVersion
1070
     0
  0
VISUALSTYLE
  5
39
102
{ACAD_REACTORS
330
2A
102
}
102
{ACAD_XDICTIONARY
360
655
102
}
330
2A
100
AcDbVisualStyle
  2
Facepattern
 70
    15
 71
     2
 72
     2
 73
     0
 90
        0
 40
-0.6
 41
-30.0
 62
     5
 63
     7
 74
     1
 91
        4
 64
     7
 65
   257
 75
     1
175
     1
 42
1.0
 92
        8
 66
     7
 43
1.0
 76
     1
 77
     6
 78
     2
 67
     7
 79
     5
170
     0
171
     0
290
     0
174
     0
 93
        1
 44
0.0
173
     0
291
     1
 45
0.0
1001
ACAD
1000
AcDbSavedByObjectVersion
1070
     0
  0
VISUALSTYLE
  5
2B
102
{ACAD_REACTORS
330
2A
102
}
102
{ACAD_XDICTIONARY
360
639
102
}
330
2A
100
AcDbVisualStyle
  2
Flat
 70
     0
 71
     2
 72
     1
 73
     1
 90
        2
 40
-0.6
 41
30.0
 62
     5
 63
     7
 74
     0
 91
        4
 64
     7
 65
   257
 75
     1
175
     1
 42
1.0
 92
        8
 66
     7
 43
1.0
 76
     1
 77
     6
 78
     2
 67
     7
 79
     5
170
     0
171
     0
290
     0
174
     0
 93
       13
 44
0.0
173
     0
291
     1
 45
0.0
1001
ACAD
1000
AcDbSavedByObjectVersion
1070
     0
  0
VISUALSTYLE
  5
2C
102
{ACAD_REACTORS
330
2A
102
}
102
{ACAD_XDICTIONARY
360
63B
102
}
330
2A
100
AcDbVisualStyle
  2
FlatWithEdges
 70
     1
 71
     2
 72
     1
 73
     1
 90
        2
 40
-0.6
 41
30.0
 62
     5
 63
     7
 74
     1
 91
        4
 64
     7
 65
   257
 75
     1
175
     1
 42
1.0
 92
        0
 66
   257
 43
1.0
 76
     1
 77
     6
 78
     2
 67
     7
 79
     5
170
     0
171
     0
290
     0
174
     0
 93
       13
 44
0.0
173
     0
291
     1
 45
0.0
1001
ACAD
1000
AcDbSavedByObjectVersion
1070
     0
  0
VISUALSTYLE
  5
2D
102
{ACAD_REACTORS
330
2A
102
}
102
{ACAD_XDICTIONARY
360
63D
102
}
330
2A
100
AcDbVisualStyle
  2
Gouraud
 70
     2
 71
     2
 72
     2
 73
     1
 90
        2
 40
-0.6
 41
30.0
 62
     5
 63
     7
 74
     0
 91
        4
 64
     7
 65
   257
 75
     1
175
     1
 42
1.0
 92
        0
 66
     7
 43
1.0
 76
     1
 77
     6
 78
     2
 67
     7
 79
     5
170
     0
171
     0
290
     0
174
     0
 93
       13
 44
0.0
173
     0
291
     1
 45
0.0
1001
ACAD
1000
AcDbSavedByObjectVersion
1070
     0
  0
VISUALSTYLE
  5
2E
102
{ACAD_REACTORS
330
2A
102
}
102
{ACAD_XDICTIONARY
360
63F
102
}
330
2A
100
AcDbVisualStyle
  2
GouraudWithEdges
 70
     3
 71
     2
 72
     2
 73
     1
 90
        2
 40
-0.6
 41
30.0
 62
     5
 63
     7
 74
     1
 91
        4
 64
     7
 65
   257
 75
     1
175
     1
 42
1.0
 92
        0
 66
   257
 43
1.0
 76
     1
 77
     6
 78
     2
 67
     7
 79
     5
170
     0
171
     0
290
     0
174
     0
 93
       13
 44
0.0
173
     0
291
     1
 45
0.0
1001
ACAD
1000
AcDbSavedByObjectVersion
1070
     0
  0
VISUALSTYLE
  5
38
102
{ACAD_REACTORS
330
2A
102
}
102
{ACAD_XDICTIONARY
360
653
102
}
330
2A
100
AcDbVisualStyle
  2
Linepattern
 70
    14
 71
     2
 72
     2
 73
     0
 90
        0
 40
-0.6
 41
-30.0
 62
     5
 63
     7
 74
     1
 91
        4
 64
     7
 65
   257
 75
     7
175
     7
 42
1.0
 92
        8
 66
     7
 43
1.0
 76
     1
 77
     6
 78
     2
 67
     7
 79
     5
170
     0
171
     0
290
     0
174
     0
 93
        1
 44
0.0
173
     0
291
     1
 45
0.0
1001
ACAD
1000
AcDbSavedByObjectVersion
1070
     0
  0
VISUALSTYLE
  5
33
102
{ACAD_REACTORS
330
2A
102
}
102
{ACAD_XDICTIONARY
360
649
102
}
330
2A
100
AcDbVisualStyle
  2
Realistic
 70
     8
 71
     2
 72
     2
 73
     0
 90
        0
 40
-0.6
 41
-30.0
 62
     5
 63
     7
 74
     1
 91
        0
 64
     7
 65
   257
 75
     1
175
     1
 42
1.0
 92
        8
 66
     8
 43
1.0
 76
     1
 77
     6
 78
     2
 67
     7
 79
     5
170
     0
171
     0
290
     0
174
     0
 93
       13
 44
0.0
173
     0
291
     0
 45
0.0
1001
ACAD
1000
AcDbSavedByObjectVersion
1070
     0
  0
VISUALSTYLE
  5
37
102
{ACAD_REACTORS
330
2A
102
}
102
{ACAD_XDICTIONARY
360
651
102
}
330
2A
100
AcDbVisualStyle
  2
Thicken
 70
    13
 71
     2
 72
     2
 73
     0
 90
        0
 40
-0.6
 41
-30.0
 62
     5
 63
     7
 74
     1
 91
        4
 64
     7
 65
   257
 75
     1
175
     1
 42
1.0
 92
       12
 66
     7
 43
1.0
 76
     1
 77
     6
 78
     2
 67
     7
 79
     5
170
     0
171
     0
290
     0
174
     0
 93
        1
 44
0.0
173
     0
291
     1
 45
0.0
1001
ACAD
1000
AcDbSavedByObjectVersion
1070
     0
  0
DICTIONARYVAR
  5
636
102
{ACAD_REACTORS
330
631
102
}
330
631
100
DictionaryVariables
280
     0
  1
1:1
  0
DICTIONARYVAR
  5
637
102
{ACAD_REACTORS
330
631
102
}
330
631
100
DictionaryVariables
280
     0
  1
2
  0
DICTIONARYVAR
  5
638
102
{ACAD_REACTORS
330
631
102
}
330
631
100
DictionaryVariables
280
     0
  1
1
  0
DICTIONARYVAR
  5
635
102
{ACAD_REACTORS
330
631
102
}
330
631
100
DictionaryVariables
280
     0
  1
80.000000
  0
DICTIONARYVAR
  5
634
102
{ACAD_REACTORS
330
631
102
}
330
631
100
DictionaryVariables
280
     0
  1
5.000000
  0
DICTIONARY
  5
65B
330
3D
100
AcDbDictionary
280
     1
281
     1
  3
ACAD_XREC_ROUNDTRIP
360
65C
  0
DICTIONARY
  5
659
330
3C
100
AcDbDictionary
280
     1
281
     1
  3
ACAD_XREC_ROUNDTRIP
360
65A
  0
DICTIONARY
  5
65D
330
3E
100
AcDbDictionary
280
     1
281
     1
  3
ACAD_XREC_ROUNDTRIP
360
65E
  0
DICTIONARY
  5
641
330
2F
100
AcDbDictionary
280
     1
281
     1
  3
ACAD_XREC_ROUNDTRIP
360
642
  0
DICTIONARY
  5
645
330
31
100
AcDbDictionary
280
     1
281
     1
  3
ACAD_XREC_ROUNDTRIP
360
646
  0
DICTIONARY
  5
643
330
30
100
AcDbDictionary
280
     1
281
     1
  3
ACAD_XREC_ROUNDTRIP
360
644
  0
DICTIONARY
  5
647
330
32
100
AcDbDictionary
280
     1
281
     1
  3
ACAD_XREC_ROUNDTRIP
360
648
  0
DICTIONARY
  5
64F
330
36
100
AcDbDictionary
280
     1
281
     1
  3
ACAD_XREC_ROUNDTRIP
360
650
  0
DICTIONARY
  5
657
330
3A
100
AcDbDictionary
280
     1
281
     1
  3
ACAD_XREC_ROUNDTRIP
360
658
  0
DICTIONARY
  5
64B
330
34
100
AcDbDictionary
280
     1
281
     1
  3
ACAD_XREC_ROUNDTRIP
360
64C
  0
DICTIONARY
  5
64D
330
35
100
AcDbDictionary
280
     1
281
     1
  3
ACAD_XREC_ROUNDTRIP
360
64E
  0
DICTIONARY
  5
655
330
39
100
AcDbDictionary
280
     1
281
     1
  3
ACAD_XREC_ROUNDTRIP
360
656
  0
DICTIONARY
  5
639
330
2B
100
AcDbDictionary
280
     1
281
     1
  3
ACAD_XREC_ROUNDTRIP
360
63A
  0
DICTIONARY
  5
63B
330
2C
100
AcDbDictionary
280
     1
281
     1
  3
ACAD_XREC_ROUNDTRIP
360
63C
  0
DICTIONARY
  5
63D
330
2D
100
AcDbDictionary
280
     1
281
     1
  3
ACAD_XREC_ROUNDTRIP
360
63E
  0
DICTIONARY
  5
63F
330
2E
100
AcDbDictionary
280
     1
281
     1
  3
ACAD_XREC_ROUNDTRIP
360
640
  0
DICTIONARY
  5
653
330
38
100
AcDbDictionary
280
     1
281
     1
  3
ACAD_XREC_ROUNDTRIP
360
654
  0
DICTIONARY
  5
649
330
33
100
AcDbDictionary
280
     1
281
     1
  3
ACAD_XREC_ROUNDTRIP
360
64A
  0
DICTIONARY
  5
651
330
37
100
AcDbDictionary
280
     1
281
     1
  3
ACAD_XREC_ROUNDTRIP
360
652
  0
XRECORD
  5
65C
102
{ACAD_REACTORS
330
65B
102
}
330
65B
100
AcDbXrecord
280
     1
102
MATERIAL
148
0.0
149
0.0
149
0.0
 93
        0
 94
      127
282
     0
 72
     1
 77
     1
171
     1
175
     1
179
     1
273
     0
  0
XRECORD
  5
65A
102
{ACAD_REACTORS
330
659
102
}
330
659
100
AcDbXrecord
280
     1
102
MATERIAL
148
0.0
149
0.0
149
0.0
 93
        0
 94
      127
282
     0
 72
     1
 77
     1
171
     1
175
     1
179
     1
273
     0
  0
XRECORD
  5
65E
102
{ACAD_REACTORS
330
65D
102
}
330
65D
100
AcDbXrecord
280
     1
102
MATERIAL
148
0.0
149
0.0
149
0.0
 93
        0
 94
      127
282
     0
 72
     1
 77
     1
171
     1
175
     1
179
     1
273
     0
  0
XRECORD
  5
642
102
{ACAD_REACTORS
330
641
102
}
330
641
100
AcDbXrecord
280
     1
102
RTVSPropertyOp0
 70
     1
102
RTVSPropertyOp1
 70
     1
102
RTVSPropertyOp2
 70
     1
102
RTVSPropertyOp3
 70
     1
102
RTVSPropertyOp4
 70
     1
102
RTVSPropertyOp5
 70
     1
102
RTVSPropertyOp6
 70
     1
102
RTVSPropertyOp7
 70
     1
102
RTVSPropertyOp8
 70
     1
102
RTVSPropertyOp9
 70
     1
102
RTVSPropertyOp10
 70
     1
102
RTVSPropertyOp11
 70
     1
102
RTVSPropertyOp12
 70
     1
102
RTVSPropertyOp13
 70
     1
102
RTVSPropertyOp14
 70
     1
102
RTVSPropertyOp15
 70
     1
102
RTVSPropertyOp16
 70
     1
102
RTVSPropertyOp17
 70
     1
102
RTVSPropertyOp18
 70
     1
102
RTVSPropertyOp19
 70
     1
102
RTVSPropertyOp20
 70
     1
102
RTVSPropertyOp21
 70
     1
102
RTVSPropertyOp22
 70
     1
102
RTVSPropertyOp23
 70
     1
102
RTVSPropertyOp24
 70
     1
102
RTVSPropertyOp25
 70
     1
102
RTVSPropertyOp26
 70
     1
102
RTVSPropertyOp27
 70
     1
  0
XRECORD
  5
646
102
{ACAD_REACTORS
330
645
102
}
330
645
100
AcDbXrecord
280
     1
102
RTVSPropertyOp0
 70
     1
102
RTVSPropertyOp1
 70
     1
102
RTVSPropertyOp2
 70
     1
102
RTVSPropertyOp3
 70
     1
102
RTVSPropertyOp4
 70
     1
102
RTVSPropertyOp5
 70
     1
102
RTVSPropertyOp6
 70
     1
102
RTVSPropertyOp7
 70
     1
102
RTVSPropertyOp8
 70
     1
102
RTVSPropertyOp9
 70
     1
102
RTVSPropertyOp10
 70
     1
102
RTVSPropertyOp11
 70
     1
102
RTVSPropertyOp12
 70
     1
102
RTVSPropertyOp13
 70
     1
102
RTVSPropertyOp14
 70
     1
102
RTVSPropertyOp15
 70
     1
102
RTVSPropertyOp16
 70
     1
102
RTVSPropertyOp17
 70
     1
102
RTVSPropertyOp18
 70
     1
102
RTVSPropertyOp19
 70
     1
102
RTVSPropertyOp20
 70
     1
102
RTVSPropertyOp21
 70
     1
102
RTVSPropertyOp22
 70
     1
102
RTVSPropertyOp23
 70
     1
102
RTVSPropertyOp24
 70
     1
102
RTVSPropertyOp25
 70
     1
102
RTVSPropertyOp26
 70
     1
102
RTVSPropertyOp27
 70
     1
  0
XRECORD
  5
644
102
{ACAD_REACTORS
330
643
102
}
330
643
100
AcDbXrecord
280
     1
102
RTVSPropertyOp0
 70
     1
102
RTVSPropertyOp1
 70
     1
102
RTVSPropertyOp2
 70
     1
102
RTVSPropertyOp3
 70
     1
102
RTVSPropertyOp4
 70
     1
102
RTVSPropertyOp5
 70
     1
102
RTVSPropertyOp6
 70
     1
102
RTVSPropertyOp7
 70
     1
102
RTVSPropertyOp8
 70
     1
102
RTVSPropertyOp9
 70
     1
102
RTVSPropertyOp10
 70
     1
102
RTVSPropertyOp11
 70
     1
102
RTVSPropertyOp12
 70
     1
102
RTVSPropertyOp13
 70
     1
102
RTVSPropertyOp14
 70
     1
102
RTVSPropertyOp15
 70
     1
102
RTVSPropertyOp16
 70
     1
102
RTVSPropertyOp17
 70
     1
102
RTVSPropertyOp18
 70
     1
102
RTVSPropertyOp19
 70
     1
102
RTVSPropertyOp20
 70
     1
102
RTVSPropertyOp21
 70
     1
102
RTVSPropertyOp22
 70
     1
102
RTVSPropertyOp23
 70
     1
102
RTVSPropertyOp24
 70
     1
102
RTVSPropertyOp25
 70
     1
102
RTVSPropertyOp26
 70
     1
102
RTVSPropertyOp27
 70
     1
  0
XRECORD
  5
648
102
{ACAD_REACTORS
330
647
102
}
330
647
100
AcDbXrecord
280
     1
102
RTVSPropertyOp0
 70
     1
102
RTVSPropertyOp1
 70
     1
102
RTVSPropertyOp2
 70
     1
102
RTVSPropertyOp3
 70
     1
102
RTVSPropertyOp4
 70
     1
102
RTVSPropertyOp5
 70
     1
102
RTVSPropertyOp6
 70
     1
102
RTVSPropertyOp7
 70
     1
102
RTVSPropertyOp8
 70
     1
102
RTVSPropertyOp9
 70
     1
102
RTVSPropertyOp10
 70
     1
102
RTVSPropertyOp11
 70
     1
102
RTVSPropertyOp12
 70
     1
102
RTVSPropertyOp13
 70
     1
102
RTVSPropertyOp14
 70
     1
102
RTVSPropertyOp15
 70
     1
102
RTVSPropertyOp16
 70
     1
102
RTVSPropertyOp17
 70
     1
102
RTVSPropertyOp18
 70
     1
102
RTVSPropertyOp19
 70
     1
102
RTVSPropertyOp20
 70
     1
102
RTVSPropertyOp21
 70
     1
102
RTVSPropertyOp22
 70
     1
102
RTVSPropertyOp23
 70
     1
102
RTVSPropertyOp24
 70
     1
102
RTVSPropertyOp25
 70
     1
102
RTVSPropertyOp26
 70
     1
102
RTVSPropertyOp27
 70
     1
  0
XRECORD
  5
650
102
{ACAD_REACTORS
330
64F
102
}
330
64F
100
AcDbXrecord
280
     1
102
RTVSPropertyOp0
 70
     1
102
RTVSPropertyOp1
 70
     1
102
RTVSPropertyOp2
 70
     1
102
RTVSPropertyOp3
 70
     1
102
RTVSPropertyOp4
 70
     1
102
RTVSPropertyOp5
 70
     1
102
RTVSPropertyOp6
 70
     1
102
RTVSPropertyOp7
 70
     1
102
RTVSPropertyOp8
 70
     1
102
RTVSPropertyOp9
 70
     1
102
RTVSPropertyOp10
 70
     1
102
RTVSPropertyOp11
 70
     1
102
RTVSPropertyOp12
 70
     1
102
RTVSPropertyOp13
 70
     1
102
RTVSPropertyOp14
 70
     1
102
RTVSPropertyOp15
 70
     1
102
RTVSPropertyOp16
 70
     1
102
RTVSPropertyOp17
 70
     1
102
RTVSPropertyOp18
 70
     1
102
RTVSPropertyOp19
 70
     1
102
RTVSPropertyOp20
 70
     1
102
RTVSPropertyOp21
 70
     1
102
RTVSPropertyOp22
 70
     1
102
RTVSPropertyOp23
 70
     1
102
RTVSPropertyOp24
 70
     1
102
RTVSPropertyOp25
 70
     1
102
RTVSPropertyOp26
 70
     1
102
RTVSPropertyOp27
 70
     1
  0
XRECORD
  5
658
102
{ACAD_REACTORS
330
657
102
}
330
657
100
AcDbXrecord
280
     1
102
RTVSPropertyOp0
 70
     1
102
RTVSPropertyOp1
 70
     1
102
RTVSPropertyOp2
 70
     1
102
RTVSPropertyOp3
 70
     1
102
RTVSPropertyOp4
 70
     1
102
RTVSPropertyOp5
 70
     1
102
RTVSPropertyOp6
 70
     1
102
RTVSPropertyOp7
 70
     1
102
RTVSPropertyOp8
 70
     1
102
RTVSPropertyOp9
 70
     1
102
RTVSPropertyOp10
 70
     1
102
RTVSPropertyOp11
 70
     1
102
RTVSPropertyOp12
 70
     1
102
RTVSPropertyOp13
 70
     1
102
RTVSPropertyOp14
 70
     1
102
RTVSPropertyOp15
 70
     1
102
RTVSPropertyOp16
 70
     1
102
RTVSPropertyOp17
 70
     1
102
RTVSPropertyOp18
 70
     1
102
RTVSPropertyOp19
 70
     1
102
RTVSPropertyOp20
 70
     1
102
RTVSPropertyOp21
 70
     1
102
RTVSPropertyOp22
 70
     1
102
RTVSPropertyOp23
 70
     1
102
RTVSPropertyOp24
 70
     1
102
RTVSPropertyOp25
 70
     1
102
RTVSPropertyOp26
 70
     1
102
RTVSPropertyOp27
 70
     1
  0
XRECORD
  5
64C
102
{ACAD_REACTORS
330
64B
102
}
330
64B
100
AcDbXrecord
280
     1
102
RTVSPropertyOp0
 70
     1
102
RTVSPropertyOp1
 70
     1
102
RTVSPropertyOp2
 70
     1
102
RTVSPropertyOp3
 70
     1
102
RTVSPropertyOp4
 70
     1
102
RTVSPropertyOp5
 70
     1
102
RTVSPropertyOp6
 70
     1
102
RTVSPropertyOp7
 70
     1
102
RTVSPropertyOp8
 70
     1
102
RTVSPropertyOp9
 70
     1
102
RTVSPropertyOp10
 70
     1
102
RTVSPropertyOp11
 70
     1
102
RTVSPropertyOp12
 70
     1
102
RTVSPropertyOp13
 70
     1
102
RTVSPropertyOp14
 70
     1
102
RTVSPropertyOp15
 70
     1
102
RTVSPropertyOp16
 70
     1
102
RTVSPropertyOp17
 70
     1
102
RTVSPropertyOp18
 70
     1
102
RTVSPropertyOp19
 70
     1
102
RTVSPropertyOp20
 70
     1
102
RTVSPropertyOp21
 70
     1
102
RTVSPropertyOp22
 70
     1
102
RTVSPropertyOp23
 70
     1
102
RTVSPropertyOp24
 70
     1
102
RTVSPropertyOp25
 70
     1
102
RTVSPropertyOp26
 70
     1
102
RTVSPropertyOp27
 70
     1
  0
XRECORD
  5
64E
102
{ACAD_REACTORS
330
64D
102
}
330
64D
100
AcDbXrecord
280
     1
102
RTVSPropertyOp0
 70
     1
102
RTVSPropertyOp1
 70
     1
102
RTVSPropertyOp2
 70
     1
102
RTVSPropertyOp3
 70
     1
102
RTVSPropertyOp4
 70
     1
102
RTVSPropertyOp5
 70
     1
102
RTVSPropertyOp6
 70
     1
102
RTVSPropertyOp7
 70
     1
102
RTVSPropertyOp8
 70
     1
102
RTVSPropertyOp9
 70
     1
102
RTVSPropertyOp10
 70
     1
102
RTVSPropertyOp11
 70
     1
102
RTVSPropertyOp12
 70
     1
102
RTVSPropertyOp13
 70
     1
102
RTVSPropertyOp14
 70
     1
102
RTVSPropertyOp15
 70
     1
102
RTVSPropertyOp16
 70
     1
102
RTVSPropertyOp17
 70
     1
102
RTVSPropertyOp18
 70
     1
102
RTVSPropertyOp19
 70
     1
102
RTVSPropertyOp20
 70
     1
102
RTVSPropertyOp21
 70
     1
102
RTVSPropertyOp22
 70
     1
102
RTVSPropertyOp23
 70
     1
102
RTVSPropertyOp24
 70
     1
102
RTVSPropertyOp25
 70
     1
102
RTVSPropertyOp26
 70
     1
102
RTVSPropertyOp27
 70
     1
  0
XRECORD
  5
656
102
{ACAD_REACTORS
330
655
102
}
330
655
100
AcDbXrecord
280
     1
102
RTVSPropertyOp0
 70
     1
102
RTVSPropertyOp1
 70
     1
102
RTVSPropertyOp2
 70
     1
102
RTVSPropertyOp3
 70
     1
102
RTVSPropertyOp4
 70
     1
102
RTVSPropertyOp5
 70
     1
102
RTVSPropertyOp6
 70
     1
102
RTVSPropertyOp7
 70
     1
102
RTVSPropertyOp8
 70
     1
102
RTVSPropertyOp9
 70
     1
102
RTVSPropertyOp10
 70
     1
102
RTVSPropertyOp11
 70
     1
102
RTVSPropertyOp12
 70
     1
102
RTVSPropertyOp13
 70
     1
102
RTVSPropertyOp14
 70
     1
102
RTVSPropertyOp15
 70
     1
102
RTVSPropertyOp16
 70
     1
102
RTVSPropertyOp17
 70
     1
102
RTVSPropertyOp18
 70
     1
102
RTVSPropertyOp19
 70
     1
102
RTVSPropertyOp20
 70
     1
102
RTVSPropertyOp21
 70
     1
102
RTVSPropertyOp22
 70
     1
102
RTVSPropertyOp23
 70
     1
102
RTVSPropertyOp24
 70
     1
102
RTVSPropertyOp25
 70
     1
102
RTVSPropertyOp26
 70
     1
102
RTVSPropertyOp27
 70
     1
  0
XRECORD
  5
63A
102
{ACAD_REACTORS
330
639
102
}
330
639
100
AcDbXrecord
280
     1
102
RTVSPropertyOp0
 70
     1
102
RTVSPropertyOp1
 70
     1
102
RTVSPropertyOp2
 70
     1
102
RTVSPropertyOp3
 70
     1
102
RTVSPropertyOp4
 70
     1
102
RTVSPropertyOp5
 70
     1
102
RTVSPropertyOp6
 70
     1
102
RTVSPropertyOp7
 70
     1
102
RTVSPropertyOp8
 70
     1
102
RTVSPropertyOp9
 70
     1
102
RTVSPropertyOp10
 70
     1
102
RTVSPropertyOp11
 70
     1
102
RTVSPropertyOp12
 70
     1
102
RTVSPropertyOp13
 70
     1
102
RTVSPropertyOp14
 70
     1
102
RTVSPropertyOp15
 70
     1
102
RTVSPropertyOp16
 70
     1
102
RTVSPropertyOp17
 70
     1
102
RTVSPropertyOp18
 70
     1
102
RTVSPropertyOp19
 70
     1
102
RTVSPropertyOp20
 70
     1
102
RTVSPropertyOp21
 70
     1
102
RTVSPropertyOp22
 70
     1
102
RTVSPropertyOp23
 70
     1
102
RTVSPropertyOp24
 70
     1
102
RTVSPropertyOp25
 70
     1
102
RTVSPropertyOp26
 70
     1
102
RTVSPropertyOp27
 70
     1
  0
XRECORD
  5
63C
102
{ACAD_REACTORS
330
63B
102
}
330
63B
100
AcDbXrecord
280
     1
102
RTVSPropertyOp0
 70
     1
102
RTVSPropertyOp1
 70
     1
102
RTVSPropertyOp2
 70
     1
102
RTVSPropertyOp3
 70
     1
102
RTVSPropertyOp4
 70
     1
102
RTVSPropertyOp5
 70
     1
102
RTVSPropertyOp6
 70
     1
102
RTVSPropertyOp7
 70
     1
102
RTVSPropertyOp8
 70
     1
102
RTVSPropertyOp9
 70
     1
102
RTVSPropertyOp10
 70
     1
102
RTVSPropertyOp11
 70
     1
102
RTVSPropertyOp12
 70
     1
102
RTVSPropertyOp13
 70
     1
102
RTVSPropertyOp14
 70
     1
102
RTVSPropertyOp15
 70
     1
102
RTVSPropertyOp16
 70
     1
102
RTVSPropertyOp17
 70
     1
102
RTVSPropertyOp18
 70
     1
102
RTVSPropertyOp19
 70
     1
102
RTVSPropertyOp20
 70
     1
102
RTVSPropertyOp21
 70
     1
102
RTVSPropertyOp22
 70
     1
102
RTVSPropertyOp23
 70
     1
102
RTVSPropertyOp24
 70
     1
102
RTVSPropertyOp25
 70
     1
102
RTVSPropertyOp26
 70
     1
102
RTVSPropertyOp27
 70
     1
  0
XRECORD
  5
63E
102
{ACAD_REACTORS
330
63D
102
}
330
63D
100
AcDbXrecord
280
     1
102
RTVSPropertyOp0
 70
     1
102
RTVSPropertyOp1
 70
     1
102
RTVSPropertyOp2
 70
     1
102
RTVSPropertyOp3
 70
     1
102
RTVSPropertyOp4
 70
     1
102
RTVSPropertyOp5
 70
     1
102
RTVSPropertyOp6
 70
     1
102
RTVSPropertyOp7
 70
     1
102
RTVSPropertyOp8
 70
     1
102
RTVSPropertyOp9
 70
     1
102
RTVSPropertyOp10
 70
     1
102
RTVSPropertyOp11
 70
     1
102
RTVSPropertyOp12
 70
     1
102
RTVSPropertyOp13
 70
     1
102
RTVSPropertyOp14
 70
     1
102
RTVSPropertyOp15
 70
     1
102
RTVSPropertyOp16
 70
     1
102
RTVSPropertyOp17
 70
     1
102
RTVSPropertyOp18
 70
     1
102
RTVSPropertyOp19
 70
     1
102
RTVSPropertyOp20
 70
     1
102
RTVSPropertyOp21
 70
     1
102
RTVSPropertyOp22
 70
     1
102
RTVSPropertyOp23
 70
     1
102
RTVSPropertyOp24
 70
     1
102
RTVSPropertyOp25
 70
     1
102
RTVSPropertyOp26
 70
     1
102
RTVSPropertyOp27
 70
     1
  0
XRECORD
  5
640
102
{ACAD_REACTORS
330
63F
102
}
330
63F
100
AcDbXrecord
280
     1
102
RTVSPropertyOp0
 70
     1
102
RTVSPropertyOp1
 70
     1
102
RTVSPropertyOp2
 70
     1
102
RTVSPropertyOp3
 70
     1
102
RTVSPropertyOp4
 70
     1
102
RTVSPropertyOp5
 70
     1
102
RTVSPropertyOp6
 70
     1
102
RTVSPropertyOp7
 70
     1
102
RTVSPropertyOp8
 70
     1
102
RTVSPropertyOp9
 70
     1
102
RTVSPropertyOp10
 70
     1
102
RTVSPropertyOp11
 70
     1
102
RTVSPropertyOp12
 70
     1
102
RTVSPropertyOp13
 70
     1
102
RTVSPropertyOp14
 70
     1
102
RTVSPropertyOp15
 70
     1
102
RTVSPropertyOp16
 70
     1
102
RTVSPropertyOp17
 70
     1
102
RTVSPropertyOp18
 70
     1
102
RTVSPropertyOp19
 70
     1
102
RTVSPropertyOp20
 70
     1
102
RTVSPropertyOp21
 70
     1
102
RTVSPropertyOp22
 70
     1
102
RTVSPropertyOp23
 70
     1
102
RTVSPropertyOp24
 70
     1
102
RTVSPropertyOp25
 70
     1
102
RTVSPropertyOp26
 70
     1
102
RTVSPropertyOp27
 70
     1
  0
XRECORD
  5
654
102
{ACAD_REACTORS
330
653
102
}
330
653
100
AcDbXrecord
280
     1
102
RTVSPropertyOp0
 70
     1
102
RTVSPropertyOp1
 70
     1
102
RTVSPropertyOp2
 70
     1
102
RTVSPropertyOp3
 70
     1
102
RTVSPropertyOp4
 70
     1
102
RTVSPropertyOp5
 70
     1
102
RTVSPropertyOp6
 70
     1
102
RTVSPropertyOp7
 70
     1
102
RTVSPropertyOp8
 70
     1
102
RTVSPropertyOp9
 70
     1
102
RTVSPropertyOp10
 70
     1
102
RTVSPropertyOp11
 70
     1
102
RTVSPropertyOp12
 70
     1
102
RTVSPropertyOp13
 70
     1
102
RTVSPropertyOp14
 70
     1
102
RTVSPropertyOp15
 70
     1
102
RTVSPropertyOp16
 70
     1
102
RTVSPropertyOp17
 70
     1
102
RTVSPropertyOp18
 70
     1
102
RTVSPropertyOp19
 70
     1
102
RTVSPropertyOp20
 70
     1
102
RTVSPropertyOp21
 70
     1
102
RTVSPropertyOp22
 70
     1
102
RTVSPropertyOp23
 70
     1
102
RTVSPropertyOp24
 70
     1
102
RTVSPropertyOp25
 70
     1
102
RTVSPropertyOp26
 70
     1
102
RTVSPropertyOp27
 70
     1
  0
XRECORD
  5
64A
102
{ACAD_REACTORS
330
649
102
}
330
649
100
AcDbXrecord
280
     1
102
RTVSPropertyOp0
 70
     1
102
RTVSPropertyOp1
 70
     1
102
RTVSPropertyOp2
 70
     1
102
RTVSPropertyOp3
 70
     1
102
RTVSPropertyOp4
 70
     1
102
RTVSPropertyOp5
 70
     1
102
RTVSPropertyOp6
 70
     1
102
RTVSPropertyOp7
 70
     1
102
RTVSPropertyOp8
 70
     1
102
RTVSPropertyOp9
 70
     1
102
RTVSPropertyOp10
 70
     1
102
RTVSPropertyOp11
 70
     1
102
RTVSPropertyOp12
 70
     1
102
RTVSPropertyOp13
 70
     1
102
RTVSPropertyOp14
 70
     1
102
RTVSPropertyOp15
 70
     1
102
RTVSPropertyOp16
 70
     1
102
RTVSPropertyOp17
 70
     1
102
RTVSPropertyOp18
 70
     1
102
RTVSPropertyOp19
 70
     1
102
RTVSPropertyOp20
 70
     1
102
RTVSPropertyOp21
 70
     1
102
RTVSPropertyOp22
 70
     1
102
RTVSPropertyOp23
 70
     1
102
RTVSPropertyOp24
 70
     1
102
RTVSPropertyOp25
 70
     1
102
RTVSPropertyOp26
 70
     1
102
RTVSPropertyOp27
 70
     1
  0
XRECORD
  5
652
102
{ACAD_REACTORS
330
651
102
}
330
651
100
AcDbXrecord
280
     1
102
RTVSPropertyOp0
 70
     1
102
RTVSPropertyOp1
 70
     1
102
RTVSPropertyOp2
 70
     1
102
RTVSPropertyOp3
 70
     1
102
RTVSPropertyOp4
 70
     1
102
RTVSPropertyOp5
 70
     1
102
RTVSPropertyOp6
 70
     1
102
RTVSPropertyOp7
 70
     1
102
RTVSPropertyOp8
 70
     1
102
RTVSPropertyOp9
 70
     1
102
RTVSPropertyOp10
 70
     1
102
RTVSPropertyOp11
 70
     1
102
RTVSPropertyOp12
 70
     1
102
RTVSPropertyOp13
 70
     1
102
RTVSPropertyOp14
 70
     1
102
RTVSPropertyOp15
 70
     1
102
RTVSPropertyOp16
 70
     1
102
RTVSPropertyOp17
 70
     1
102
RTVSPropertyOp18
 70
     1
102
RTVSPropertyOp19
 70
     1
102
RTVSPropertyOp20
 70
     1
102
RTVSPropertyOp21
 70
     1
102
RTVSPropertyOp22
 70
     1
102
RTVSPropertyOp23
 70
     1
102
RTVSPropertyOp24
 70
     1
102
RTVSPropertyOp25
 70
     1
102
RTVSPropertyOp26
 70
     1
102
RTVSPropertyOp27
 70
     1
  0
ENDSEC
  0
EOF
