  0
SECTION
  2
HEADER
  9
$ACADVER
  1
AC1015
  9
$ACADMAINTVER
 70
     6
  9
$DWGCODEPAGE
  3
ANSI_1252
  9
$INSBASE
 10
0.0
 20
0.0
 30
0.0
  9
$EXTMIN
 10
0.0
 20
0.0
 30
0.0
  9
$EXTMAX
 10
25.0
 20
35.0
 30
0.0
  9
$LIMMIN
 10
0.0
 20
0.0
  9
$LIMMAX
 10
420.0
 20
297.0
  9
$ORTHOMODE
 70
     0
  9
$REGENMODE
 70
     1
  9
$FILLMODE
 70
     1
  9
$QTEXTMODE
 70
     0
  9
$MIRRTEXT
 70
     1
  9
$LTSCALE
 40
3.8
  9
$ATTMODE
 70
     1
  9
$TEXTSIZE
 40
2.5
  9
$TRACEWID
 40
1.0
  9
$TEXTSTYLE
  7
Standard
  9
$CLAYER
  8
0
  9
$CELTYPE
  6
ByLayer
  9
$CECOLOR
 62
   256
  9
$CELTSCALE
 40
1.0
  9
$DISPSILH
 70
     0
  9
$DIMSCALE
 40
1.0
  9
$DIMASZ
 40
2.5
  9
$DIMEXO
 40
0.625
  9
$DIMDLI
 40
3.75
  9
$DIMRND
 40
0.0
  9
$DIMDLE
 40
0.0
  9
$DIMEXE
 40
1.25
  9
$DIMTP
 40
0.0
  9
$DIMTM
 40
0.0
  9
$DIMTXT
 40
2.5
  9
$DIMCEN
 40
2.5
  9
$DIMTSZ
 40
0.0
  9
$DIMTOL
 70
     0
  9
$DIMLIM
 70
     0
  9
$DIMTIH
 70
     0
  9
$DIMTOH
 70
     0
  9
$DIMSE1
 70
     0
  9
$DIMSE2
 70
     0
  9
$DIMTAD
 70
     1
  9
$DIMZIN
 70
     8
  9
$DIMBLK
  1

  9
$DIMASO
 70
     1
  9
$DIMSHO
 70
     1
  9
$DIMPOST
  1

  9
$DIMAPOST
  1

  9
$DIMALT
 70
     0
  9
$DIMALTD
 70
     3
  9
$DIMALTF
 40
0.03937007874016
  9
$DIMLFAC
 40
1.0
  9
$DIMTOFL
 70
     1
  9
$DIMTVP
 40
0.0
  9
$DIMTIX
 70
     0
  9
$DIMSOXD
 70
     0
  9
$DIMSAH
 70
     0
  9
$DIMBLK1
  1

  9
$DIMBLK2
  1

  9
$DIMSTYLE
  2
ISO-25
  9
$DIMCLRD
 70
     0
  9
$DIMCLRE
 70
     0
  9
$DIMCLRT
 70
     0
  9
$DIMTFAC
 40
1.0
  9
$DIMGAP
 40
0.625
  9
$DIMJUST
 70
     0
  9
$DIMSD1
 70
     0
  9
$DIMSD2
 70
     0
  9
$DIMTOLJ
 70
     0
  9
$DIMTZIN
 70
     8
  9
$DIMALTZ
 70
     0
  9
$DIMALTTZ
 70
     0
  9
$DIMUPT
 70
     0
  9
$DIMDEC
 70
     2
  9
$DIMTDEC
 70
     2
  9
$DIMALTU
 70
     2
  9
$DIMALTTD
 70
     3
  9
$DIMTXSTY
  7
Standard
  9
$DIMAUNIT
 70
     0
  9
$DIMADEC
 70
     0
  9
$DIMALTRND
 40
0.0
  9
$DIMAZIN
 70
     0
  9
$DIMDSEP
 70
    44
  9
$DIMATFIT
 70
     3
  9
$DIMFRAC
 70
     0
  9
$DIMLDRBLK
  1

  9
$DIMLUNIT
 70
     2
  9
$DIMLWD
 70
    -2
  9
$DIMLWE
 70
    -2
  9
$DIMTMOVE
 70
     0
  9
$LUNITS
 70
     2
  9
$LUPREC
 70
     4
  9
$SKETCHINC
 40
1.0
  9
$FILLETRAD
 40
10.0
  9
$AUNITS
 70
     0
  9
$AUPREC
 70
     0
  9
$MENU
  1
.
  9
$ELEVATION
 40
0.0
  9
$PELEVATION
 40
0.0
  9
$THICKNESS
 40
0.0
  9
$LIMCHECK
 70
     0
  9
$CHAMFERA
 40
10.0
  9
$CHAMFERB
 40
10.0
  9
$CHAMFERC
 40
20.0
  9
$CHAMFERD
 40
0.0
  9
$SKPOLY
 70
     0
  9
$TDCREATE
 40
2457248.625
  9
$TDUCREATE
 40
2457248.541666667
  9
$TDUPDATE
 40
2457248.628472222
  9
$TDUUPDATE
 40
2457248.545138889
  9
$TDINDWG
 40
0.0000000116
  9
$TDUSRTIMER
 40
0.0000000116
  9
$USRTIMER
 70
     1
  9
$ANGBASE
 50
0.0
  9
$ANGDIR
 70
     0
  9
$PDMODE
 70
     0
  9
$PDSIZE
 40
0.0
  9
$PLINEWID
 40
0.0
  9
$SPLFRAME
 70
     0
  9
$SPLINETYPE
 70
     6
  9
$SPLINESEGS
 70
     8
  9
$HANDSEED
  5
641
  9
$SURFTAB1
 70
     6
  9
$SURFTAB2
 70
     6
  9
$SURFTYPE
 70
     6
  9
$SURFU
 70
     6
  9
$SURFV
 70
     6
  9
$UCSBASE
  2

  9
$UCSNAME
  2

  9
$UCSORG
 10
0.0
 20
0.0
 30
0.0
  9
$UCSXDIR
 10
1.0
 20
0.0
 30
0.0
  9
$UCSYDIR
 10
0.0
 20
1.0
 30
0.0
  9
$UCSORTHOREF
  2

  9
$UCSORTHOVIEW
 70
     0
  9
$UCSORGTOP
 10
0.0
 20
0.0
 30
0.0
  9
$UCSORGBOTTOM
 10
0.0
 20
0.0
 30
0.0
  9
$UCSORGLEFT
 10
0.0
 20
0.0
 30
0.0
  9
$UCSORGRIGHT
 10
0.0
 20
0.0
 30
0.0
  9
$UCSORGFRONT
 10
0.0
 20
0.0
 30
0.0
  9
$UCSORGBACK
 10
0.0
 20
0.0
 30
0.0
  9
$PUCSBASE
  2

  9
$PUCSNAME
  2

  9
$PUCSORG
 10
0.0
 20
0.0
 30
0.0
  9
$PUCSXDIR
 10
1.0
 20
0.0
 30
0.0
  9
$PUCSYDIR
 10
0.0
 20
1.0
 30
0.0
  9
$PUCSORTHOREF
  2

  9
$PUCSORTHOVIEW
 70
     0
  9
$PUCSORGTOP
 10
0.0
 20
0.0
 30
0.0
  9
$PUCSORGBOTTOM
 10
0.0
 20
0.0
 30
0.0
  9
$PUCSORGLEFT
 10
0.0
 20
0.0
 30
0.0
  9
$PUCSORGRIGHT
 10
0.0
 20
0.0
 30
0.0
  9
$PUCSORGFRONT
 10
0.0
 20
0.0
 30
0.0
  9
$PUCSORGBACK
 10
0.0
 20
0.0
 30
0.0
  9
$USERI1
 70
     0
  9
$USERI2
 70
     0
  9
$USERI3
 70
     0
  9
$USERI4
 70
     0
  9
$USERI5
 70
     0
  9
$USERR1
 40
0.0
  9
$USERR2
 40
0.0
  9
$USERR3
 40
0.0
  9
$USERR4
 40
0.0
  9
$USERR5
 40
0.0
  9
$WORLDVIEW
 70
     1
  9
$SHADEDGE
 70
     3
  9
$SHADEDIF
 70
    70
  9
$TILEMODE
 70
     1
  9
$MAXACTVP
 70
    64
  9
$PINSBASE
 10
0.0
 20
0.0
 30
0.0
  9
$PLIMCHECK
 70
     0
  9
$PEXTMIN
 10
1.000000000000000E+20
 20
1.000000000000000E+20
 30
1.000000000000000E+20
  9
$PEXTMAX
 10
-1.000000000000000E+20
 20
-1.000000000000000E+20
 30
-1.000000000000000E+20
  9
$PLIMMIN
 10
0.0
 20
0.0
  9
$PLIMMAX
 10
420.0
 20
297.0
  9
$UNITMODE
 70
     0
  9
$VISRETAIN
 70
     1
  9
$PLINEGEN
 70
     0
  9
$PSLTSCALE
 70
     1
  9
$TREEDEPTH
 70
  3020
  9
$CMLSTYLE
  2
Standard
  9
$CMLJUST
 70
     0
  9
$CMLSCALE
 40
20.0
  9
$PROXYGRAPHICS
 70
     1
  9
$MEASUREMENT
 70
     1
  9
$CELWEIGHT
370
    -1
  9
$ENDCAPS
280
     0
  9
$JOINSTYLE
280
     0
  9
$LWDISPLAY
290
     0
  9
$INSUNITS
 70
     4
  9
$HYPERLINKBASE
  1

  9
$STYLESHEET
  1

  9
$XEDIT
290
     1
  9
$CEPSNTYPE
380
     0
  9
$PSTYLEMODE
290
     1
  9
$FINGERPRINTGUID
  2
{32281BC9-BC42-43EC-AB45-209D2A03D861}
  9
$VERSIONGUID
  2
{FAEB1C32-E019-11D5-929B-00C0DF256EC4}
  9
$EXTNAMES
290
     1
  9
$PSVPSCALE
 40
0.0
  9
$OLESTARTUP
290
     0
  0
ENDSEC
  0
SECTION
  2
CLASSES
  0
CLASS
  1
ACDBDICTIONARYWDFLT
  2
AcDbDictionaryWithDefault
  3
ObjectDBX Classes
 90
        0
280
     0
281
     0
  0
CLASS
  1
VISUALSTYLE
  2
AcDbVisualStyle
  3
ObjectDBX Classes
 90
     4095
280
     0
281
     0
  0
CLASS
  1
MATERIAL
  2
AcDbMaterial
  3
ObjectDBX Classes
 90
     1153
280
     0
281
     0
  0
CLASS
  1
SCALE
  2
AcDbScale
  3
ObjectDBX Classes
 90
     1153
280
     0
281
     0
  0
CLASS
  1
DICTIONARYVAR
  2
AcDbDictionaryVar
  3
ObjectDBX Classes
 90
        0
280
     0
281
     0
  0
CLASS
  1
ACDBPLACEHOLDER
  2
AcDbPlaceHolder
  3
ObjectDBX Classes
 90
        0
280
     0
281
     0
  0
CLASS
  1
LAYOUT
  2
AcDbLayout
  3
ObjectDBX Classes
 90
        0
280
     0
281
     0
  0
ENDSEC
  0
SECTION
  2
TABLES
  0
TABLE
  2
VPORT
  5
8
330
0
100
AcDbSymbolTable
 70
     1
  0
VPORT
  5
29
330
8
100
AcDbSymbolTableRecord
100
AcDbViewportTableRecord
  2
*Active
 70
     0
 10
0.0
 20
0.0
 11
1.0
 21
1.0
 12
11.26
 22
4.5
 13
0.0
 23
0.0
 14
10.0
 24
10.0
 15
10.0
 25
10.0
 16
0.0
 26
0.0
 36
1.0
 17
0.0
 27
0.0
 37
0.0
 40
9.0
 41
2.503333333333333
 42
50.0
 43
0.0
 44
0.0
 50
0.0
 51
0.0
 71
     0
 72
   100
 73
     1
 74
     3
 75
     0
 76
     0
 77
     0
 78
     0
281
     0
 65
     1
110
0.0
120
0.0
130
0.0
111
1.0
121
0.0
131
0.0
112
0.0
122
1.0
132
0.0
 79
     0
146
0.0
  0
ENDTAB
  0
TABLE
  2
LTYPE
  5
5
330
0
100
AcDbSymbolTable
 70
     7
  0
LTYPE
  5
14
330
5
100
AcDbSymbolTableRecord
100
AcDbLinetypeTableRecord
  2
ByBlock
 70
     0
  3

 72
    65
 73
     0
 40
0.0
  0
LTYPE
  5
15
330
5
100
AcDbSymbolTableRecord
100
AcDbLinetypeTableRecord
  2
ByLayer
 70
     0
  3

 72
    65
 73
     0
 40
0.0
  0
LTYPE
  5
16
330
5
100
AcDbSymbolTableRecord
100
AcDbLinetypeTableRecord
  2
Continuous
 70
     0
  3
Solid line
 72
    65
 73
     0
 40
0.0
  0
LTYPE
  5
119
330
5
100
AcDbSymbolTableRecord
100
AcDbLinetypeTableRecord
  2
SK1
 70
     0
  3
THICK
 72
    65
 73
     0
 40
0.0
  0
LTYPE
  5
120
330
5
100
AcDbSymbolTableRecord
100
AcDbLinetypeTableRecord
  2
NOCUT
 70
     0
  3
THICK
 72
    65
 73
     0
 40
0.0
  0
LTYPE
  5
125
330
5
100
AcDbSymbolTableRecord
100
AcDbLinetypeTableRecord
  2
SK2
 70
     0
  3
THIN
 72
    65
 73
     0
 40
0.0
  0
LTYPE
  5
1D2
330
5
100
AcDbSymbolTableRecord
100
AcDbLinetypeTableRecord
  2
L2
 70
     0
  3
THIN
 72
    65
 73
     0
 40
0.0
  0
LTYPE
  5
32F
330
5
100
AcDbSymbolTableRecord
100
AcDbLinetypeTableRecord
  2
LONGDASH_DASH
 70
     0
  3
THIN_DASHDOT
 72
    65
 73
     4
 40
0.85
 49
0.4
 74
     0
 49
-0.2
 74
     0
 49
0.05
 74
     0
 49
-0.2
 74
     0
  0
LTYPE
  5
335
330
5
100
AcDbSymbolTableRecord
100
AcDbLinetypeTableRecord
  2
INFTOTAL
 70
     0
  3
THIN
 72
    65
 73
     0
 40
0.0
  0
ENDTAB
  0
TABLE
  2
LAYER
  5
2
330
0
100
AcDbSymbolTable
 70
    11
  0
LAYER
  5
10
330
2
100
AcDbSymbolTableRecord
100
AcDbLayerTableRecord
  2
0
 70
     0
 62
     7
  6
Continuous
370
    -3
390
F
  0
LAYER
  5
44
330
2
100
AcDbSymbolTableRecord
100
AcDbLayerTableRecord
  2
1
 70
     0
 62
4
  6
CONTINUOUS
370
50
370
    -3
390
F
  0
LAYER
  5
118
330
2
100
AcDbSymbolTableRecord
100
AcDbLayerTableRecord
  2
SK1
 70
     0
 62
4
  6
CONTINUOUS
370
50
370
    -3
390
F
  0
LAYER
  5
11F
330
2
100
AcDbSymbolTableRecord
100
AcDbLayerTableRecord
  2
NOCUT
 70
     0
 62
7
  6
CONTINUOUS
370
25
370
    -3
390
F
  0
LAYER
  5
124
330
2
100
AcDbSymbolTableRecord
100
AcDbLayerTableRecord
  2
SK2
 70
     0
 62
7
  6
CONTINUOUS
370
25
370
    -3
390
F
  0
LAYER
  5
1D1
330
2
100
AcDbSymbolTableRecord
100
AcDbLayerTableRecord
  2
2
 70
     0
 62
7
  6
CONTINUOUS
370
25
370
    -3
390
F
  0
LAYER
  5
21D
330
2
100
AcDbSymbolTableRecord
100
AcDbLayerTableRecord
  2
CUT
 70
     0
 62
1
  6
CONTINUOUS
370
25
370
    -3
390
F
  0
LAYER
  5
330
330
2
100
AcDbSymbolTableRecord
100
AcDbLayerTableRecord
  2
4
 70
     0
 62
2
  6
LONGDASH_DASH
370
25
370
    -3
390
F
  0
LAYER
  5
332
330
2
100
AcDbSymbolTableRecord
100
AcDbLayerTableRecord
  2
SK4
 70
     0
 62
2
  6
LONGDASH_DASH
370
25
370
    -3
390
F
  0
LAYER
  5
334
330
2
100
AcDbSymbolTableRecord
100
AcDbLayerTableRecord
  2
INFTOTAL
 70
     0
 62
9
  6
CONTINUOUS
370
18
370
    -3
390
F
  0
LAYER
  5
33A
330
2
100
AcDbSymbolTableRecord
100
AcDbLayerTableRecord
  2
SK6
 70
     0
 62
5
  6
CONTINUOUS
370
25
370
    -3
390
F
  0
ENDTAB
  0
TABLE
  2
STYLE
  5
3
330
0
100
AcDbSymbolTable
 70
     1
  0
STYLE
  5
11
330
3
100
AcDbSymbolTableRecord
100
AcDbTextStyleTableRecord
  2
Standard
 70
     0
 40
0.0
 41
1.0
 50
0.0
 71
     0
 42
2.5
  3
Monospac821 BT
  4

  0
ENDTAB
  0
TABLE
  2
VIEW
  5
6
330
0
100
AcDbSymbolTable
 70
     0
  0
ENDTAB
  0
TABLE
  2
UCS
  5
7
330
0
100
AcDbSymbolTable
 70
     0
  0
ENDTAB
  0
TABLE
  2
APPID
  5
9
330
0
100
AcDbSymbolTable
 70
     2
  0
APPID
  5
12
330
9
100
AcDbSymbolTableRecord
100
AcDbRegAppTableRecord
  2
ACAD
 70
     0
  0
APPID
  5
3F
330
9
100
AcDbSymbolTableRecord
100
AcDbRegAppTableRecord
  2
ccLab
 70
     0
  0
ENDTAB
  0
TABLE
  2
DIMSTYLE
  5
A
330
0
100
AcDbSymbolTable
 70
     1
100
AcDbDimStyleTable
  0
DIMSTYLE
105
27
330
A
100
AcDbSymbolTableRecord
100
AcDbDimStyleTableRecord
  2
ISO-25
 70
     0
 41
2.5
 42
0.625
 43
3.75
 44
1.25
 73
     0
 74
     0
 77
     1
 78
     8
140
2.5
141
2.5
143
0.03937007874016
147
0.625
171
     3
172
     1
271
     2
272
     2
274
     3
278
    44
283
     0
284
     8
340
11
  0
ENDTAB
  0
TABLE
  2
BLOCK_RECORD
  5
1
330
0
100
AcDbSymbolTable
 70
     2
  0
BLOCK_RECORD
  5
1F
330
1
100
AcDbSymbolTableRecord
100
AcDbBlockTableRecord
  2
*Model_Space
340
22
  0
BLOCK_RECORD
  5
1B
330
1
100
AcDbSymbolTableRecord
100
AcDbBlockTableRecord
  2
*Paper_Space
340
1E
  0
BLOCK_RECORD
  5
23
330
1
100
AcDbSymbolTableRecord
100
AcDbBlockTableRecord
  2
*Paper_Space0
340
26
  0
ENDTAB
  0
ENDSEC
  0
SECTION
  2
BLOCKS
  0
BLOCK
  5
20
330
1F
100
AcDbEntity
  8
0
100
AcDbBlockBegin
  2
*Model_Space
 70
     0
 10
0.0
 20
0.0
 30
0.0
  3
*Model_Space
  1

  0
ENDBLK
  5
21
330
1F
100
AcDbEntity
  8
0
100
AcDbBlockEnd
  0
BLOCK
  5
1C
330
1B
100
AcDbEntity
 67
     1
  8
0
100
AcDbBlockBegin
  2
*Paper_Space
 70
     0
 10
0.0
 20
0.0
 30
0.0
  3
*Paper_Space
  1

  0
ENDBLK
  5
1D
330
1B
100
AcDbEntity
 67
     1
  8
0
100
AcDbBlockEnd
  0
BLOCK
  5
24
330
23
100
AcDbEntity
  8
0
100
AcDbBlockBegin
  2
*Paper_Space0
 70
     0
 10
0.0
 20
0.0
 30
0.0
  3
*Paper_Space0
  1

  0
ENDBLK
  5
25
330
23
100
AcDbEntity
  8
0
100
AcDbBlockEnd
  0
ENDSEC
  0
SECTION
  2
ENTITIES
  0
LINE
  5
344
330
1F
100
AcDbEntity
  8
1
  6
CONTINUOUS
370
50
 62
4
100
AcDbLine
 10
43.549999
 20
0.0
 30
0.0
 11
43.549496
 21
0.055739
 31
0.0
  0
LINE
  5
345
330
1F
100
AcDbEntity
  8
1
  6
CONTINUOUS
370
50
 62
4
100
AcDbLine
 10
43.549999
 20
2.667358
 30
0.0
 11
43.549496
 21
2.695228
 31
0.0
  0
LINE
  5
346
330
1F
100
AcDbEntity
  8
1
  6
CONTINUOUS
370
50
 62
4
100
AcDbLine
 10
43.549999
 20
-2.667358
 30
0.0
 11
43.549496
 21
-2.639489
 31
0.0
  0
LINE
  5
347
330
1F
100
AcDbEntity
  8
1
  6
CONTINUOUS
370
50
 62
4
100
AcDbLine
 10
43.549496
 20
0.055739
 30
0.0
 11
43.547989
 21
0.111328
 31
0.0
  0
LINE
  5
348
330
1F
100
AcDbEntity
  8
1
  6
CONTINUOUS
370
50
 62
4
100
AcDbLine
 10
43.547989
 20
0.111328
 30
0.0
 11
43.545486
 21
0.166797
 31
0.0
  0
LINE
  5
349
330
1F
100
AcDbEntity
  8
1
  6
CONTINUOUS
370
50
 62
4
100
AcDbLine
 10
43.549496
 20
-2.639489
 30
0.0
 11
43.547989
 21
-2.611694
 31
0.0
  0
LINE
  5
34A
330
1F
100
AcDbEntity
  8
1
  6
CONTINUOUS
370
50
 62
4
100
AcDbLine
 10
43.549496
 20
2.695228
 30
0.0
 11
43.547989
 21
2.723022
 31
0.0
  0
LINE
  5
34B
330
1F
100
AcDbEntity
  8
1
  6
CONTINUOUS
370
50
 62
4
100
AcDbLine
 10
43.545486
 20
0.166797
 30
0.0
 11
43.541996
 21
0.222172
 31
0.0
  0
LINE
  5
34C
330
1F
100
AcDbEntity
  8
1
  6
CONTINUOUS
370
50
 62
4
100
AcDbLine
 10
43.541996
 20
0.222172
 30
0.0
 11
43.537525
 21
0.27748
 31
0.0
  0
LINE
  5
34D
330
1F
100
AcDbEntity
  8
1
  6
CONTINUOUS
370
50
 62
4
100
AcDbLine
 10
43.547989
 20
2.723022
 30
0.0
 11
43.545486
 21
2.750757
 31
0.0
  0
LINE
  5
34E
330
1F
100
AcDbEntity
  8
1
  6
CONTINUOUS
370
50
 62
4
100
AcDbLine
 10
43.547989
 20
-2.611694
 30
0.0
 11
43.545486
 21
-2.58396
 31
0.0
  0
LINE
  5
34F
330
1F
100
AcDbEntity
  8
1
  6
CONTINUOUS
370
50
 62
4
100
AcDbLine
 10
43.537525
 20
0.27748
 30
0.0
 11
43.532078
 21
0.332747
 31
0.0
  0
LINE
  5
350
330
1F
100
AcDbEntity
  8
1
  6
CONTINUOUS
370
50
 62
4
100
AcDbLine
 10
43.532078
 20
0.332747
 30
0.0
 11
43.525658
 21
0.388
 31
0.0
  0
LINE
  5
351
330
1F
100
AcDbEntity
  8
1
  6
CONTINUOUS
370
50
 62
4
100
AcDbLine
 10
43.545486
 20
-2.58396
 30
0.0
 11
43.541996
 21
-2.556272
 31
0.0
  0
LINE
  5
352
330
1F
100
AcDbEntity
  8
1
  6
CONTINUOUS
370
50
 62
4
100
AcDbLine
 10
43.545486
 20
2.750757
 30
0.0
 11
43.541996
 21
2.778444
 31
0.0
  0
LINE
  5
353
330
1F
100
AcDbEntity
  8
1
  6
CONTINUOUS
370
50
 62
4
100
AcDbLine
 10
43.541996
 20
-2.556272
 30
0.0
 11
43.537525
 21
-2.528618
 31
0.0
  0
LINE
  5
354
330
1F
100
AcDbEntity
  8
1
  6
CONTINUOUS
370
50
 62
4
100
AcDbLine
 10
43.541996
 20
2.778444
 30
0.0
 11
43.537525
 21
2.806098
 31
0.0
  0
LINE
  5
355
330
1F
100
AcDbEntity
  8
1
  6
CONTINUOUS
370
50
 62
4
100
AcDbLine
 10
43.537525
 20
2.806098
 30
0.0
 11
43.532078
 21
2.833732
 31
0.0
  0
LINE
  5
356
330
1F
100
AcDbEntity
  8
1
  6
CONTINUOUS
370
50
 62
4
100
AcDbLine
 10
43.537525
 20
-2.528618
 30
0.0
 11
43.532078
 21
-2.500985
 31
0.0
  0
LINE
  5
357
330
1F
100
AcDbEntity
  8
1
  6
CONTINUOUS
370
50
 62
4
100
AcDbLine
 10
43.532078
 20
-2.500985
 30
0.0
 11
43.525658
 21
-2.473358
 31
0.0
  0
LINE
  5
358
330
1F
100
AcDbEntity
  8
1
  6
CONTINUOUS
370
50
 62
4
100
AcDbLine
 10
43.532078
 20
2.833732
 30
0.0
 11
43.525658
 21
2.861358
 31
0.0
  0
LINE
  5
359
330
1F
100
AcDbEntity
  8
1
  6
CONTINUOUS
370
50
 62
4
100
AcDbLine
 10
43.549999
 20
3.08
 30
0.0
 11
42.75
 21
3.88
 31
0.0
  0
LINE
  5
35A
330
1F
100
AcDbEntity
  8
1
  6
CONTINUOUS
370
50
 62
4
100
AcDbLine
 10
43.525658
 20
2.861358
 30
0.0
 11
43.425175
 21
2.949045
 31
0.0
  0
LINE
  5
35B
330
1F
100
AcDbEntity
  8
1
  6
CONTINUOUS
370
50
 62
4
100
AcDbLine
 10
43.425175
 20
2.949045
 30
0.0
 11
43.321518
 21
3.039459
 31
0.0
  0
LINE
  5
35C
330
1F
100
AcDbEntity
  8
1
  6
CONTINUOUS
370
50
 62
4
100
AcDbLine
 10
43.321518
 20
3.039459
 30
0.0
 11
43.214535
 21
3.132731
 31
0.0
  0
LINE
  5
35D
330
1F
100
AcDbEntity
  8
1
  6
CONTINUOUS
370
50
 62
4
100
AcDbLine
 10
43.214535
 20
3.132731
 30
0.0
 11
43.104069
 21
3.229001
 31
0.0
  0
LINE
  5
35E
330
1F
100
AcDbEntity
  8
1
  6
CONTINUOUS
370
50
 62
4
100
AcDbLine
 10
43.104069
 20
3.229001
 30
0.0
 11
42.989948
 21
3.328418
 31
0.0
  0
LINE
  5
35F
330
1F
100
AcDbEntity
  8
1
  6
CONTINUOUS
370
50
 62
4
100
AcDbLine
 10
42.989948
 20
3.328418
 30
0.0
 11
42.87199
 21
3.431139
 31
0.0
  0
LINE
  5
360
330
1F
100
AcDbEntity
  8
1
  6
CONTINUOUS
370
50
 62
4
100
AcDbLine
 10
42.87199
 20
3.431139
 30
0.0
 11
42.75
 21
3.537335
 31
0.0
  0
LINE
  5
361
330
1F
100
AcDbEntity
  8
1
  6
CONTINUOUS
370
50
 62
4
100
AcDbLine
 10
2.967762
 20
-1.216782
 30
0.0
 11
2.877964
 21
-1.145071
 31
0.0
  0
LINE
  5
362
330
1F
100
AcDbEntity
  8
1
  6
CONTINUOUS
370
50
 62
4
100
AcDbLine
 10
2.967762
 20
-1.216782
 30
0.0
 11
2.877964
 21
-1.145071
 31
0.0
  0
LINE
  5
363
330
1F
100
AcDbEntity
  8
1
  6
CONTINUOUS
370
50
 62
4
100
AcDbLine
 10
3.060146
 20
-1.286638
 30
0.0
 11
2.967762
 21
-1.216782
 31
0.0
  0
LINE
  5
364
330
1F
100
AcDbEntity
  8
1
  6
CONTINUOUS
370
50
 62
4
100
AcDbLine
 10
3.060146
 20
-1.286638
 30
0.0
 11
2.967762
 21
-1.216782
 31
0.0
  0
LINE
  5
365
330
1F
100
AcDbEntity
  8
1
  6
CONTINUOUS
370
50
 62
4
100
AcDbLine
 10
3.154766
 20
-1.354748
 30
0.0
 11
3.060146
 21
-1.286638
 31
0.0
  0
LINE
  5
366
330
1F
100
AcDbEntity
  8
1
  6
CONTINUOUS
370
50
 62
4
100
AcDbLine
 10
3.154766
 20
-1.354748
 30
0.0
 11
3.060146
 21
-1.286638
 31
0.0
  0
LINE
  5
367
330
1F
100
AcDbEntity
  8
1
  6
CONTINUOUS
370
50
 62
4
100
AcDbLine
 10
3.251341
 20
-1.421123
 30
0.0
 11
3.154766
 21
-1.354748
 31
0.0
  0
LINE
  5
368
330
1F
100
AcDbEntity
  8
1
  6
CONTINUOUS
370
50
 62
4
100
AcDbLine
 10
3.251341
 20
-1.421123
 30
0.0
 11
3.154766
 21
-1.354748
 31
0.0
  0
LINE
  5
369
330
1F
100
AcDbEntity
  8
1
  6
CONTINUOUS
370
50
 62
4
100
AcDbLine
 10
2.967762
 20
-3.490884
 30
0.0
 11
2.877964
 21
-3.429485
 31
0.0
  0
LINE
  5
36A
330
1F
100
AcDbEntity
  8
1
  6
CONTINUOUS
370
50
 62
4
100
AcDbLine
 10
2.967762
 20
-3.490884
 30
0.0
 11
2.877964
 21
-3.429485
 31
0.0
  0
LINE
  5
36B
330
1F
100
AcDbEntity
  8
1
  6
CONTINUOUS
370
50
 62
4
100
AcDbLine
 10
3.060146
 20
-3.55248
 30
0.0
 11
2.967762
 21
-3.490884
 31
0.0
  0
LINE
  5
36C
330
1F
100
AcDbEntity
  8
1
  6
CONTINUOUS
370
50
 62
4
100
AcDbLine
 10
3.060146
 20
-3.55248
 30
0.0
 11
2.967762
 21
-3.490884
 31
0.0
  0
LINE
  5
36D
330
1F
100
AcDbEntity
  8
1
  6
CONTINUOUS
370
50
 62
4
100
AcDbLine
 10
3.349592
 20
-1.485783
 30
0.0
 11
3.251341
 21
-1.421123
 31
0.0
  0
LINE
  5
36E
330
1F
100
AcDbEntity
  8
1
  6
CONTINUOUS
370
50
 62
4
100
AcDbLine
 10
3.349592
 20
-1.485783
 30
0.0
 11
3.251341
 21
-1.421123
 31
0.0
  0
LINE
  5
36F
330
1F
100
AcDbEntity
  8
1
  6
CONTINUOUS
370
50
 62
4
100
AcDbLine
 10
3.154766
 20
-3.614267
 30
0.0
 11
3.060146
 21
-3.55248
 31
0.0
  0
LINE
  5
370
330
1F
100
AcDbEntity
  8
1
  6
CONTINUOUS
370
50
 62
4
100
AcDbLine
 10
3.154766
 20
-3.614267
 30
0.0
 11
3.060146
 21
-3.55248
 31
0.0
  0
LINE
  5
371
330
1F
100
AcDbEntity
  8
1
  6
CONTINUOUS
370
50
 62
4
100
AcDbLine
 10
3.251341
 20
-3.676191
 30
0.0
 11
3.154766
 21
-3.614267
 31
0.0
  0
LINE
  5
372
330
1F
100
AcDbEntity
  8
1
  6
CONTINUOUS
370
50
 62
4
100
AcDbLine
 10
3.251341
 20
-3.676191
 30
0.0
 11
3.154766
 21
-3.614267
 31
0.0
  0
LINE
  5
373
330
1F
100
AcDbEntity
  8
1
  6
CONTINUOUS
370
50
 62
4
100
AcDbLine
 10
3.449239
 20
-1.548744
 30
0.0
 11
3.349592
 21
-1.485783
 31
0.0
  0
LINE
  5
374
330
1F
100
AcDbEntity
  8
1
  6
CONTINUOUS
370
50
 62
4
100
AcDbLine
 10
3.449239
 20
-1.548744
 30
0.0
 11
3.349592
 21
-1.485783
 31
0.0
  0
LINE
  5
375
330
1F
100
AcDbEntity
  8
1
  6
CONTINUOUS
370
50
 62
4
100
AcDbLine
 10
3.349592
 20
-3.738198
 30
0.0
 11
3.251341
 21
-3.676191
 31
0.0
  0
LINE
  5
376
330
1F
100
AcDbEntity
  8
1
  6
CONTINUOUS
370
50
 62
4
100
AcDbLine
 10
3.349592
 20
-3.738198
 30
0.0
 11
3.251341
 21
-3.676191
 31
0.0
  0
LINE
  5
377
330
1F
100
AcDbEntity
  8
1
  6
CONTINUOUS
370
50
 62
4
100
AcDbLine
 10
3.449239
 20
-3.800234
 30
0.0
 11
3.349592
 21
-3.738198
 31
0.0
  0
LINE
  5
378
330
1F
100
AcDbEntity
  8
1
  6
CONTINUOUS
370
50
 62
4
100
AcDbLine
 10
3.449239
 20
-3.800234
 30
0.0
 11
3.349592
 21
-3.738198
 31
0.0
  0
LINE
  5
379
330
1F
100
AcDbEntity
  8
1
  6
CONTINUOUS
370
50
 62
4
100
AcDbLine
 10
3.55
 20
-3.862244
 30
0.0
 11
3.449239
 21
-3.800234
 31
0.0
  0
LINE
  5
37A
330
1F
100
AcDbEntity
  8
1
  6
CONTINUOUS
370
50
 62
4
100
AcDbLine
 10
3.55
 20
-3.862244
 30
0.0
 11
3.449239
 21
-3.800234
 31
0.0
  0
LINE
  5
37B
330
1F
100
AcDbEntity
  8
1
  6
CONTINUOUS
370
50
 62
4
100
AcDbLine
 10
3.55
 20
-1.610023
 30
0.0
 11
3.449239
 21
-1.548744
 31
0.0
  0
LINE
  5
37C
330
1F
100
AcDbEntity
  8
1
  6
CONTINUOUS
370
50
 62
4
100
AcDbLine
 10
3.55
 20
-1.610023
 30
0.0
 11
3.449239
 21
-1.548744
 31
0.0
  0
LINE
  5
37D
330
1F
100
AcDbEntity
  8
1
  6
CONTINUOUS
370
50
 62
4
100
AcDbLine
 10
3.55
 20
-3.88
 30
0.0
 11
2.877964
 21
-3.492
 31
0.0
  0
LINE
  5
37E
330
1F
100
AcDbEntity
  8
1
  6
CONTINUOUS
370
50
 62
4
100
AcDbLine
 10
3.55
 20
-3.88
 30
0.0
 11
2.877964
 21
-3.492
 31
0.0
  0
LINE
  5
37F
330
1F
100
AcDbEntity
  8
1
  6
CONTINUOUS
370
50
 62
4
100
AcDbLine
 10
1.879882
 20
3.492
 30
0.0
 11
1.0
 21
4.0
 31
0.0
  0
LINE
  5
380
330
1F
100
AcDbEntity
  8
1
  6
CONTINUOUS
370
50
 62
4
100
AcDbLine
 10
2.969667
 20
-2.857568
 30
0.0
 11
2.877964
 21
-2.811435
 31
0.0
  0
LINE
  5
381
330
1F
100
AcDbEntity
  8
1
  6
CONTINUOUS
370
50
 62
4
100
AcDbLine
 10
2.969667
 20
-2.857568
 30
0.0
 11
2.877964
 21
-2.811435
 31
0.0
  0
LINE
  5
382
330
1F
100
AcDbEntity
  8
1
  6
CONTINUOUS
370
50
 62
4
100
AcDbLine
 10
3.062751
 20
-2.904387
 30
0.0
 11
2.969667
 21
-2.857568
 31
0.0
  0
LINE
  5
383
330
1F
100
AcDbEntity
  8
1
  6
CONTINUOUS
370
50
 62
4
100
AcDbLine
 10
3.062751
 20
-2.904387
 30
0.0
 11
2.969667
 21
-2.857568
 31
0.0
  0
LINE
  5
384
330
1F
100
AcDbEntity
  8
1
  6
CONTINUOUS
370
50
 62
4
100
AcDbLine
 10
3.157247
 20
-2.951908
 30
0.0
 11
3.062751
 21
-2.904387
 31
0.0
  0
LINE
  5
385
330
1F
100
AcDbEntity
  8
1
  6
CONTINUOUS
370
50
 62
4
100
AcDbLine
 10
3.157247
 20
-2.951908
 30
0.0
 11
3.062751
 21
-2.904387
 31
0.0
  0
LINE
  5
386
330
1F
100
AcDbEntity
  8
1
  6
CONTINUOUS
370
50
 62
4
100
AcDbLine
 10
3.253186
 20
-3.000146
 30
0.0
 11
3.157247
 21
-2.951908
 31
0.0
  0
LINE
  5
387
330
1F
100
AcDbEntity
  8
1
  6
CONTINUOUS
370
50
 62
4
100
AcDbLine
 10
3.253186
 20
-3.000146
 30
0.0
 11
3.157247
 21
-2.951908
 31
0.0
  0
LINE
  5
388
330
1F
100
AcDbEntity
  8
1
  6
CONTINUOUS
370
50
 62
4
100
AcDbLine
 10
3.350602
 20
-3.049119
 30
0.0
 11
3.253186
 21
-3.000146
 31
0.0
  0
LINE
  5
389
330
1F
100
AcDbEntity
  8
1
  6
CONTINUOUS
370
50
 62
4
100
AcDbLine
 10
3.350602
 20
-3.049119
 30
0.0
 11
3.253186
 21
-3.000146
 31
0.0
  0
LINE
  5
38A
330
1F
100
AcDbEntity
  8
1
  6
CONTINUOUS
370
50
 62
4
100
AcDbLine
 10
3.449528
 20
-3.098843
 30
0.0
 11
3.350602
 21
-3.049119
 31
0.0
  0
LINE
  5
38B
330
1F
100
AcDbEntity
  8
1
  6
CONTINUOUS
370
50
 62
4
100
AcDbLine
 10
3.449528
 20
-3.098843
 30
0.0
 11
3.350602
 21
-3.049119
 31
0.0
  0
LINE
  5
38C
330
1F
100
AcDbEntity
  8
1
  6
CONTINUOUS
370
50
 62
4
100
AcDbLine
 10
3.55
 20
-3.149335
 30
0.0
 11
3.449528
 21
-3.098843
 31
0.0
  0
LINE
  5
38D
330
1F
100
AcDbEntity
  8
1
  6
CONTINUOUS
370
50
 62
4
100
AcDbLine
 10
3.55
 20
-3.149335
 30
0.0
 11
3.449528
 21
-3.098843
 31
0.0
  0
LINE
  5
38E
330
1F
100
AcDbEntity
  8
1
  6
CONTINUOUS
370
50
 62
4
100
AcDbLine
 10
2.968649
 20
2.274011
 30
0.0
 11
2.877964
 21
2.284413
 31
0.0
  0
LINE
  5
38F
330
1F
100
AcDbEntity
  8
1
  6
CONTINUOUS
370
50
 62
4
100
AcDbLine
 10
2.968649
 20
2.274011
 30
0.0
 11
2.877964
 21
2.284413
 31
0.0
  0
LINE
  5
390
330
1F
100
AcDbEntity
  8
1
  6
CONTINUOUS
370
50
 62
4
100
AcDbLine
 10
3.061968
 20
2.2657
 30
0.0
 11
2.968649
 21
2.274011
 31
0.0
  0
LINE
  5
391
330
1F
100
AcDbEntity
  8
1
  6
CONTINUOUS
370
50
 62
4
100
AcDbLine
 10
3.061968
 20
2.2657
 30
0.0
 11
2.968649
 21
2.274011
 31
0.0
  0
LINE
  5
392
330
1F
100
AcDbEntity
  8
1
  6
CONTINUOUS
370
50
 62
4
100
AcDbLine
 10
3.157559
 20
2.259363
 30
0.0
 11
3.061968
 21
2.2657
 31
0.0
  0
LINE
  5
393
330
1F
100
AcDbEntity
  8
1
  6
CONTINUOUS
370
50
 62
4
100
AcDbLine
 10
3.157559
 20
2.259363
 30
0.0
 11
3.061968
 21
2.2657
 31
0.0
  0
LINE
  5
394
330
1F
100
AcDbEntity
  8
1
  6
CONTINUOUS
370
50
 62
4
100
AcDbLine
 10
3.255136
 20
2.254931
 30
0.0
 11
3.157559
 21
2.259363
 31
0.0
  0
LINE
  5
395
330
1F
100
AcDbEntity
  8
1
  6
CONTINUOUS
370
50
 62
4
100
AcDbLine
 10
3.255136
 20
2.254931
 30
0.0
 11
3.157559
 21
2.259363
 31
0.0
  0
LINE
  5
396
330
1F
100
AcDbEntity
  8
1
  6
CONTINUOUS
370
50
 62
4
100
AcDbLine
 10
3.354411
 20
2.252331
 30
0.0
 11
3.255136
 21
2.254931
 31
0.0
  0
LINE
  5
397
330
1F
100
AcDbEntity
  8
1
  6
CONTINUOUS
370
50
 62
4
100
AcDbLine
 10
3.354411
 20
2.252331
 30
0.0
 11
3.255136
 21
2.254931
 31
0.0
  0
LINE
  5
398
330
1F
100
AcDbEntity
  8
1
  6
CONTINUOUS
370
50
 62
4
100
AcDbLine
 10
42.758999
 20
2.252183
 30
0.0
 11
42.750023
 21
2.252397
 31
0.0
  0
LINE
  5
399
330
1F
100
AcDbEntity
  8
1
  6
CONTINUOUS
370
50
 62
4
100
AcDbLine
 10
42.767952
 20
2.252007
 30
0.0
 11
42.758999
 21
2.252183
 31
0.0
  0
LINE
  5
39A
330
1F
100
AcDbEntity
  8
1
  6
CONTINUOUS
370
50
 62
4
100
AcDbLine
 10
42.776875
 20
2.251869
 30
0.0
 11
42.767952
 21
2.252007
 31
0.0
  0
LINE
  5
39B
330
1F
100
AcDbEntity
  8
1
  6
CONTINUOUS
370
50
 62
4
100
AcDbLine
 10
42.78577
 20
2.251769
 30
0.0
 11
42.776875
 21
2.251869
 31
0.0
  0
LINE
  5
39C
330
1F
100
AcDbEntity
  8
1
  6
CONTINUOUS
370
50
 62
4
100
AcDbLine
 10
3.455094
 20
2.251488
 30
0.0
 11
3.354411
 21
2.252331
 31
0.0
  0
LINE
  5
39D
330
1F
100
AcDbEntity
  8
1
  6
CONTINUOUS
370
50
 62
4
100
AcDbLine
 10
3.455094
 20
2.251488
 30
0.0
 11
3.354411
 21
2.252331
 31
0.0
  0
LINE
  5
39E
330
1F
100
AcDbEntity
  8
1
  6
CONTINUOUS
370
50
 62
4
100
AcDbLine
 10
42.794636
 20
2.251706
 30
0.0
 11
42.78577
 21
2.251769
 31
0.0
  0
LINE
  5
39F
330
1F
100
AcDbEntity
  8
1
  6
CONTINUOUS
370
50
 62
4
100
AcDbLine
 10
42.803474
 20
2.25168
 30
0.0
 11
42.794636
 21
2.251706
 31
0.0
  0
LINE
  5
3A0
330
1F
100
AcDbEntity
  8
1
  6
CONTINUOUS
370
50
 62
4
100
AcDbLine
 10
0.0
 20
-4.0
 30
0.0
 11
1.0
 21
-4.0
 31
0.0
  0
LINE
  5
3A1
330
1F
100
AcDbEntity
  8
1
  6
CONTINUOUS
370
50
 62
4
100
AcDbLine
 10
3.55
 20
-3.88
 30
0.0
 11
42.75
 21
-3.88
 31
0.0
  0
LINE
  5
3A2
330
1F
100
AcDbEntity
  8
1
  6
CONTINUOUS
370
50
 62
4
100
AcDbLine
 10
3.55
 20
-3.862244
 30
0.0
 11
42.75
 21
-3.862244
 31
0.0
  0
LINE
  5
3A3
330
1F
100
AcDbEntity
  8
1
  6
CONTINUOUS
370
50
 62
4
100
AcDbLine
 10
1.879882
 20
-3.492
 30
0.0
 11
2.877964
 21
-3.492
 31
0.0
  0
LINE
  5
3A4
330
1F
100
AcDbEntity
  8
1
  6
CONTINUOUS
370
50
 62
4
100
AcDbLine
 10
3.55
 20
-3.149335
 30
0.0
 11
42.75
 21
-3.149335
 31
0.0
  0
LINE
  5
3A5
330
1F
100
AcDbEntity
  8
1
  6
CONTINUOUS
370
50
 62
4
100
AcDbLine
 10
3.55
 20
-1.610023
 30
0.0
 11
42.75
 21
-1.610023
 31
0.0
  0
LINE
  5
3A6
330
1F
100
AcDbEntity
  8
1
  6
CONTINUOUS
370
50
 62
4
100
AcDbLine
 10
2.877964
 20
0.0
 30
0.0
 11
43.549999
 21
0.0
 31
0.0
  0
LINE
  5
3A7
330
1F
100
AcDbEntity
  8
1
  6
CONTINUOUS
370
50
 62
4
100
AcDbLine
 10
2.877964
 20
0.388
 30
0.0
 11
43.525658
 21
0.388
 31
0.0
  0
LINE
  5
3A8
330
1F
100
AcDbEntity
  8
1
  6
CONTINUOUS
370
50
 62
4
100
AcDbLine
 10
3.55
 20
2.25222
 30
0.0
 11
42.75
 21
2.25222
 31
0.0
  0
LINE
  5
3A9
330
1F
100
AcDbEntity
  8
1
  6
CONTINUOUS
370
50
 62
4
100
AcDbLine
 10
2.877964
 20
2.667358
 30
0.0
 11
43.549999
 21
2.667358
 31
0.0
  0
LINE
  5
3AA
330
1F
100
AcDbEntity
  8
1
  6
CONTINUOUS
370
50
 62
4
100
AcDbLine
 10
2.877964
 20
2.861358
 30
0.0
 11
43.525658
 21
2.861358
 31
0.0
  0
LINE
  5
3AB
330
1F
100
AcDbEntity
  8
1
  6
CONTINUOUS
370
50
 62
4
100
AcDbLine
 10
1.879882
 20
3.492
 30
0.0
 11
2.877964
 21
3.492
 31
0.0
  0
LINE
  5
3AC
330
1F
100
AcDbEntity
  8
1
  6
CONTINUOUS
370
50
 62
4
100
AcDbLine
 10
3.55
 20
3.537335
 30
0.0
 11
42.75
 21
3.537335
 31
0.0
  0
LINE
  5
3AD
330
1F
100
AcDbEntity
  8
1
  6
CONTINUOUS
370
50
 62
4
100
AcDbLine
 10
3.55
 20
3.88
 30
0.0
 11
42.75
 21
3.88
 31
0.0
  0
LINE
  5
3AE
330
1F
100
AcDbEntity
  8
1
  6
CONTINUOUS
370
50
 62
4
100
AcDbLine
 10
0.0
 20
4.0
 30
0.0
 11
1.0
 21
4.0
 31
0.0
  0
LINE
  5
3AF
330
1F
100
AcDbEntity
  8
1
  6
CONTINUOUS
370
50
 62
4
100
AcDbLine
 10
3.455094
 20
2.251488
 30
0.0
 11
3.47085
 21
2.25151
 31
0.0
  0
LINE
  5
3B0
330
1F
100
AcDbEntity
  8
1
  6
CONTINUOUS
370
50
 62
4
100
AcDbLine
 10
3.455094
 20
2.251488
 30
0.0
 11
3.47085
 21
2.25151
 31
0.0
  0
LINE
  5
3B1
330
1F
100
AcDbEntity
  8
1
  6
CONTINUOUS
370
50
 62
4
100
AcDbLine
 10
3.47085
 20
2.25151
 30
0.0
 11
3.486633
 21
2.251572
 31
0.0
  0
LINE
  5
3B2
330
1F
100
AcDbEntity
  8
1
  6
CONTINUOUS
370
50
 62
4
100
AcDbLine
 10
3.47085
 20
2.25151
 30
0.0
 11
3.486633
 21
2.251572
 31
0.0
  0
LINE
  5
3B3
330
1F
100
AcDbEntity
  8
1
  6
CONTINUOUS
370
50
 62
4
100
AcDbLine
 10
3.486633
 20
2.251572
 30
0.0
 11
3.50244
 21
2.251675
 31
0.0
  0
LINE
  5
3B4
330
1F
100
AcDbEntity
  8
1
  6
CONTINUOUS
370
50
 62
4
100
AcDbLine
 10
3.486633
 20
2.251572
 30
0.0
 11
3.50244
 21
2.251675
 31
0.0
  0
LINE
  5
3B5
330
1F
100
AcDbEntity
  8
1
  6
CONTINUOUS
370
50
 62
4
100
AcDbLine
 10
3.50244
 20
2.251675
 30
0.0
 11
3.518271
 21
2.251817
 31
0.0
  0
LINE
  5
3B6
330
1F
100
AcDbEntity
  8
1
  6
CONTINUOUS
370
50
 62
4
100
AcDbLine
 10
3.50244
 20
2.251675
 30
0.0
 11
3.518271
 21
2.251817
 31
0.0
  0
LINE
  5
3B7
330
1F
100
AcDbEntity
  8
1
  6
CONTINUOUS
370
50
 62
4
100
AcDbLine
 10
3.518271
 20
2.251817
 30
0.0
 11
3.534125
 21
2.251999
 31
0.0
  0
LINE
  5
3B8
330
1F
100
AcDbEntity
  8
1
  6
CONTINUOUS
370
50
 62
4
100
AcDbLine
 10
3.518271
 20
2.251817
 30
0.0
 11
3.534125
 21
2.251999
 31
0.0
  0
LINE
  5
3B9
330
1F
100
AcDbEntity
  8
1
  6
CONTINUOUS
370
50
 62
4
100
AcDbLine
 10
3.534125
 20
2.251999
 30
0.0
 11
3.55
 21
2.25222
 31
0.0
  0
LINE
  5
3BA
330
1F
100
AcDbEntity
  8
1
  6
CONTINUOUS
370
50
 62
4
100
AcDbLine
 10
3.534125
 20
2.251999
 30
0.0
 11
3.55
 21
2.25222
 31
0.0
  0
LINE
  5
3BB
330
1F
100
AcDbEntity
  8
1
  6
CONTINUOUS
370
50
 62
4
100
AcDbLine
 10
42.803474
 20
2.25168
 30
0.0
 11
42.885761
 21
2.253326
 31
0.0
  0
LINE
  5
3BC
330
1F
100
AcDbEntity
  8
1
  6
CONTINUOUS
370
50
 62
4
100
AcDbLine
 10
42.885761
 20
2.253326
 30
0.0
 11
42.964958
 21
2.258409
 31
0.0
  0
LINE
  5
3BD
330
1F
100
AcDbEntity
  8
1
  6
CONTINUOUS
370
50
 62
4
100
AcDbLine
 10
42.964958
 20
2.258409
 30
0.0
 11
43.040653
 21
2.266966
 31
0.0
  0
LINE
  5
3BE
330
1F
100
AcDbEntity
  8
1
  6
CONTINUOUS
370
50
 62
4
100
AcDbLine
 10
43.040653
 20
2.266966
 30
0.0
 11
43.112431
 21
2.279034
 31
0.0
  0
LINE
  5
3BF
330
1F
100
AcDbEntity
  8
1
  6
CONTINUOUS
370
50
 62
4
100
AcDbLine
 10
43.112431
 20
2.279034
 30
0.0
 11
43.181217
 21
2.295018
 31
0.0
  0
LINE
  5
3C0
330
1F
100
AcDbEntity
  8
1
  6
CONTINUOUS
370
50
 62
4
100
AcDbLine
 10
43.181217
 20
2.295018
 30
0.0
 11
43.248161
 21
2.315687
 31
0.0
  0
LINE
  5
3C1
330
1F
100
AcDbEntity
  8
1
  6
CONTINUOUS
370
50
 62
4
100
AcDbLine
 10
43.248161
 20
2.315687
 30
0.0
 11
43.311779
 21
2.341296
 31
0.0
  0
LINE
  5
3C2
330
1F
100
AcDbEntity
  8
1
  6
CONTINUOUS
370
50
 62
4
100
AcDbLine
 10
3.449528
 20
3.486843
 30
0.0
 11
3.55
 21
3.537335
 31
0.0
  0
LINE
  5
3C3
330
1F
100
AcDbEntity
  8
1
  6
CONTINUOUS
370
50
 62
4
100
AcDbLine
 10
3.449528
 20
3.486843
 30
0.0
 11
3.55
 21
3.537335
 31
0.0
  0
LINE
  5
3C4
330
1F
100
AcDbEntity
  8
1
  6
CONTINUOUS
370
50
 62
4
100
AcDbLine
 10
3.350602
 20
3.437119
 30
0.0
 11
3.449528
 21
3.486843
 31
0.0
  0
LINE
  5
3C5
330
1F
100
AcDbEntity
  8
1
  6
CONTINUOUS
370
50
 62
4
100
AcDbLine
 10
3.350602
 20
3.437119
 30
0.0
 11
3.449528
 21
3.486843
 31
0.0
  0
LINE
  5
3C6
330
1F
100
AcDbEntity
  8
1
  6
CONTINUOUS
370
50
 62
4
100
AcDbLine
 10
3.253186
 20
3.388146
 30
0.0
 11
3.350602
 21
3.437119
 31
0.0
  0
LINE
  5
3C7
330
1F
100
AcDbEntity
  8
1
  6
CONTINUOUS
370
50
 62
4
100
AcDbLine
 10
3.253186
 20
3.388146
 30
0.0
 11
3.350602
 21
3.437119
 31
0.0
  0
LINE
  5
3C8
330
1F
100
AcDbEntity
  8
1
  6
CONTINUOUS
370
50
 62
4
100
AcDbLine
 10
3.157247
 20
3.339908
 30
0.0
 11
3.253186
 21
3.388146
 31
0.0
  0
LINE
  5
3C9
330
1F
100
AcDbEntity
  8
1
  6
CONTINUOUS
370
50
 62
4
100
AcDbLine
 10
3.157247
 20
3.339908
 30
0.0
 11
3.253186
 21
3.388146
 31
0.0
  0
LINE
  5
3CA
330
1F
100
AcDbEntity
  8
1
  6
CONTINUOUS
370
50
 62
4
100
AcDbLine
 10
3.062751
 20
3.292387
 30
0.0
 11
3.157247
 21
3.339908
 31
0.0
  0
LINE
  5
3CB
330
1F
100
AcDbEntity
  8
1
  6
CONTINUOUS
370
50
 62
4
100
AcDbLine
 10
3.062751
 20
3.292387
 30
0.0
 11
3.157247
 21
3.339908
 31
0.0
  0
LINE
  5
3CC
330
1F
100
AcDbEntity
  8
1
  6
CONTINUOUS
370
50
 62
4
100
AcDbLine
 10
2.969667
 20
3.245568
 30
0.0
 11
3.062751
 21
3.292387
 31
0.0
  0
LINE
  5
3CD
330
1F
100
AcDbEntity
  8
1
  6
CONTINUOUS
370
50
 62
4
100
AcDbLine
 10
2.969667
 20
3.245568
 30
0.0
 11
3.062751
 21
3.292387
 31
0.0
  0
LINE
  5
3CE
330
1F
100
AcDbEntity
  8
1
  6
CONTINUOUS
370
50
 62
4
100
AcDbLine
 10
2.877964
 20
3.199435
 30
0.0
 11
2.969667
 21
3.245568
 31
0.0
  0
LINE
  5
3CF
330
1F
100
AcDbEntity
  8
1
  6
CONTINUOUS
370
50
 62
4
100
AcDbLine
 10
2.877964
 20
3.199435
 30
0.0
 11
2.969667
 21
3.245568
 31
0.0
  0
LINE
  5
3D0
330
1F
100
AcDbEntity
  8
1
  6
CONTINUOUS
370
50
 62
4
100
AcDbLine
 10
43.311779
 20
2.341296
 30
0.0
 11
43.370548
 21
2.372093
 31
0.0
  0
LINE
  5
3D1
330
1F
100
AcDbEntity
  8
1
  6
CONTINUOUS
370
50
 62
4
100
AcDbLine
 10
1.0
 20
-4.0
 30
0.0
 11
1.879882
 21
-3.492
 31
0.0
  0
LINE
  5
3D2
330
1F
100
AcDbEntity
  8
1
  6
CONTINUOUS
370
50
 62
4
100
AcDbLine
 10
2.877964
 20
3.492
 30
0.0
 11
3.55
 21
3.88
 31
0.0
  0
LINE
  5
3D3
330
1F
100
AcDbEntity
  8
1
  6
CONTINUOUS
370
50
 62
4
100
AcDbLine
 10
2.877964
 20
3.492
 30
0.0
 11
3.55
 21
3.88
 31
0.0
  0
LINE
  5
3D4
330
1F
100
AcDbEntity
  8
1
  6
CONTINUOUS
370
50
 62
4
100
AcDbLine
 10
43.370548
 20
2.372093
 30
0.0
 11
43.422939
 21
2.408327
 31
0.0
  0
LINE
  5
3D5
330
1F
100
AcDbEntity
  8
1
  6
CONTINUOUS
370
50
 62
4
100
AcDbLine
 10
42.75
 20
-3.149335
 30
0.0
 11
42.87199
 21
-3.043139
 31
0.0
  0
LINE
  5
3D6
330
1F
100
AcDbEntity
  8
1
  6
CONTINUOUS
370
50
 62
4
100
AcDbLine
 10
42.87199
 20
-3.043139
 30
0.0
 11
42.989948
 21
-2.940418
 31
0.0
  0
LINE
  5
3D7
330
1F
100
AcDbEntity
  8
1
  6
CONTINUOUS
370
50
 62
4
100
AcDbLine
 10
42.989948
 20
-2.940418
 30
0.0
 11
43.104069
 21
-2.841001
 31
0.0
  0
LINE
  5
3D8
330
1F
100
AcDbEntity
  8
1
  6
CONTINUOUS
370
50
 62
4
100
AcDbLine
 10
43.104069
 20
-2.841001
 30
0.0
 11
43.214535
 21
-2.744731
 31
0.0
  0
LINE
  5
3D9
330
1F
100
AcDbEntity
  8
1
  6
CONTINUOUS
370
50
 62
4
100
AcDbLine
 10
43.214535
 20
-2.744731
 30
0.0
 11
43.321518
 21
-2.651459
 31
0.0
  0
LINE
  5
3DA
330
1F
100
AcDbEntity
  8
1
  6
CONTINUOUS
370
50
 62
4
100
AcDbLine
 10
43.321518
 20
-2.651459
 30
0.0
 11
43.425175
 21
-2.561045
 31
0.0
  0
LINE
  5
3DB
330
1F
100
AcDbEntity
  8
1
  6
CONTINUOUS
370
50
 62
4
100
AcDbLine
 10
43.425175
 20
-2.561045
 30
0.0
 11
43.525658
 21
-2.473358
 31
0.0
  0
LINE
  5
3DC
330
1F
100
AcDbEntity
  8
1
  6
CONTINUOUS
370
50
 62
4
100
AcDbLine
 10
43.422939
 20
2.408327
 30
0.0
 11
43.467541
 21
2.450141
 31
0.0
  0
LINE
  5
3DD
330
1F
100
AcDbEntity
  8
1
  6
CONTINUOUS
370
50
 62
4
100
AcDbLine
 10
42.75
 20
-3.88
 30
0.0
 11
43.549999
 21
-3.08
 31
0.0
  0
LINE
  5
3DE
330
1F
100
AcDbEntity
  8
1
  6
CONTINUOUS
370
50
 62
4
100
AcDbLine
 10
42.750023
 20
-1.609947
 30
0.0
 11
42.832024
 21
-1.522868
 31
0.0
  0
LINE
  5
3DF
330
1F
100
AcDbEntity
  8
1
  6
CONTINUOUS
370
50
 62
4
100
AcDbLine
 10
42.750023
 20
-3.862344
 30
0.0
 11
42.832024
 21
-3.774728
 31
0.0
  0
LINE
  5
3E0
330
1F
100
AcDbEntity
  8
1
  6
CONTINUOUS
370
50
 62
4
100
AcDbLine
 10
42.832024
 20
-3.774728
 30
0.0
 11
42.911343
 21
-3.688467
 31
0.0
  0
LINE
  5
3E1
330
1F
100
AcDbEntity
  8
1
  6
CONTINUOUS
370
50
 62
4
100
AcDbLine
 10
42.911343
 20
-3.688467
 30
0.0
 11
42.987598
 21
-3.603761
 31
0.0
  0
LINE
  5
3E2
330
1F
100
AcDbEntity
  8
1
  6
CONTINUOUS
370
50
 62
4
100
AcDbLine
 10
42.832024
 20
-1.522868
 30
0.0
 11
42.911343
 21
-1.433897
 31
0.0
  0
LINE
  5
3E3
330
1F
100
AcDbEntity
  8
1
  6
CONTINUOUS
370
50
 62
4
100
AcDbLine
 10
42.987598
 20
-3.603761
 30
0.0
 11
43.060402
 21
-3.52081
 31
0.0
  0
LINE
  5
3E4
330
1F
100
AcDbEntity
  8
1
  6
CONTINUOUS
370
50
 62
4
100
AcDbLine
 10
43.060402
 20
-3.52081
 30
0.0
 11
43.12939799999999
 21
-3.439787
 31
0.0
  0
LINE
  5
3E5
330
1F
100
AcDbEntity
  8
1
  6
CONTINUOUS
370
50
 62
4
100
AcDbLine
 10
42.911343
 20
-1.433897
 30
0.0
 11
42.987598
 21
-1.343198
 31
0.0
  0
LINE
  5
3E6
330
1F
100
AcDbEntity
  8
1
  6
CONTINUOUS
370
50
 62
4
100
AcDbLine
 10
43.12939799999999
 20
-3.439787
 30
0.0
 11
43.196186
 21
-3.358366
 31
0.0
  0
LINE
  5
3E7
330
1F
100
AcDbEntity
  8
1
  6
CONTINUOUS
370
50
 62
4
100
AcDbLine
 10
42.987598
 20
-1.343198
 30
0.0
 11
43.060402
 21
-1.250938
 31
0.0
  0
LINE
  5
3E8
330
1F
100
AcDbEntity
  8
1
  6
CONTINUOUS
370
50
 62
4
100
AcDbLine
 10
43.196186
 20
-3.358366
 30
0.0
 11
43.260941
 21
-3.275595
 31
0.0
  0
LINE
  5
3E9
330
1F
100
AcDbEntity
  8
1
  6
CONTINUOUS
370
50
 62
4
100
AcDbLine
 10
43.467541
 20
2.450141
 30
0.0
 11
43.503304
 21
2.497327
 31
0.0
  0
LINE
  5
3EA
330
1F
100
AcDbEntity
  8
1
  6
CONTINUOUS
370
50
 62
4
100
AcDbLine
 10
43.260941
 20
-3.275595
 30
0.0
 11
43.322247
 21
-3.192369
 31
0.0
  0
LINE
  5
3EB
330
1F
100
AcDbEntity
  8
1
  6
CONTINUOUS
370
50
 62
4
100
AcDbLine
 10
43.060402
 20
-1.250938
 30
0.0
 11
43.12939799999999
 21
-1.15725
 31
0.0
  0
LINE
  5
3EC
330
1F
100
AcDbEntity
  8
1
  6
CONTINUOUS
370
50
 62
4
100
AcDbLine
 10
43.322247
 20
-3.192369
 30
0.0
 11
43.378685
 21
-3.109582
 31
0.0
  0
LINE
  5
3ED
330
1F
100
AcDbEntity
  8
1
  6
CONTINUOUS
370
50
 62
4
100
AcDbLine
 10
43.12939799999999
 20
-1.15725
 30
0.0
 11
43.196186
 21
-1.059201
 31
0.0
  0
LINE
  5
3EE
330
1F
100
AcDbEntity
  8
1
  6
CONTINUOUS
370
50
 62
4
100
AcDbLine
 10
43.196186
 20
-1.059201
 30
0.0
 11
43.260941
 21
-0.9552849999999999
 31
0.0
  0
LINE
  5
3EF
330
1F
100
AcDbEntity
  8
1
  6
CONTINUOUS
370
50
 62
4
100
AcDbLine
 10
43.378685
 20
-3.109582
 30
0.0
 11
43.428848
 21
-3.02813
 31
0.0
  0
LINE
  5
3F0
330
1F
100
AcDbEntity
  8
1
  6
CONTINUOUS
370
50
 62
4
100
AcDbLine
 10
43.260941
 20
-0.9552849999999999
 30
0.0
 11
43.322247
 21
-0.846166
 31
0.0
  0
LINE
  5
3F1
330
1F
100
AcDbEntity
  8
1
  6
CONTINUOUS
370
50
 62
4
100
AcDbLine
 10
43.428848
 20
-3.02813
 30
0.0
 11
43.471455
 21
-2.948801
 31
0.0
  0
LINE
  5
3F2
330
1F
100
AcDbEntity
  8
1
  6
CONTINUOUS
370
50
 62
4
100
AcDbLine
 10
43.322247
 20
-0.846166
 30
0.0
 11
43.378685
 21
-0.7325079999999999
 31
0.0
  0
LINE
  5
3F3
330
1F
100
AcDbEntity
  8
1
  6
CONTINUOUS
370
50
 62
4
100
AcDbLine
 10
43.503304
 20
2.497327
 30
0.0
 11
43.529243
 21
2.549615
 31
0.0
  0
LINE
  5
3F4
330
1F
100
AcDbEntity
  8
1
  6
CONTINUOUS
370
50
 62
4
100
AcDbLine
 10
43.471455
 20
-2.948801
 30
0.0
 11
43.505554
 21
-2.87233
 31
0.0
  0
LINE
  5
3F5
330
1F
100
AcDbEntity
  8
1
  6
CONTINUOUS
370
50
 62
4
100
AcDbLine
 10
43.378685
 20
-0.7325079999999999
 30
0.0
 11
43.428848
 21
-0.614978
 31
0.0
  0
LINE
  5
3F6
330
1F
100
AcDbEntity
  8
1
  6
CONTINUOUS
370
50
 62
4
100
AcDbLine
 10
43.428848
 20
-0.614978
 30
0.0
 11
43.471455
 21
-0.494269
 31
0.0
  0
LINE
  5
3F7
330
1F
100
AcDbEntity
  8
1
  6
CONTINUOUS
370
50
 62
4
100
AcDbLine
 10
43.505554
 20
-2.87233
 30
0.0
 11
43.530251
 21
-2.799501
 31
0.0
  0
LINE
  5
3F8
330
1F
100
AcDbEntity
  8
1
  6
CONTINUOUS
370
50
 62
4
100
AcDbLine
 10
43.471455
 20
-0.494269
 30
0.0
 11
43.505554
 21
-0.371329
 31
0.0
  0
LINE
  5
3F9
330
1F
100
AcDbEntity
  8
1
  6
CONTINUOUS
370
50
 62
4
100
AcDbLine
 10
43.529243
 20
2.549615
 30
0.0
 11
43.544815
 21
2.606528
 31
0.0
  0
LINE
  5
3FA
330
1F
100
AcDbEntity
  8
1
  6
CONTINUOUS
370
50
 62
4
100
AcDbLine
 10
43.530251
 20
-2.799501
 30
0.0
 11
43.545063
 21
-2.730994
 31
0.0
  0
LINE
  5
3FB
330
1F
100
AcDbEntity
  8
1
  6
CONTINUOUS
370
50
 62
4
100
AcDbLine
 10
43.505554
 20
-0.371329
 30
0.0
 11
43.530251
 21
-0.247198
 31
0.0
  0
LINE
  5
3FC
330
1F
100
AcDbEntity
  8
1
  6
CONTINUOUS
370
50
 62
4
100
AcDbLine
 10
43.530251
 20
-0.247198
 30
0.0
 11
43.545063
 21
-0.123019
 31
0.0
  0
LINE
  5
3FD
330
1F
100
AcDbEntity
  8
1
  6
CONTINUOUS
370
50
 62
4
100
AcDbLine
 10
43.544815
 20
2.606528
 30
0.0
 11
43.549999
 21
2.667333
 31
0.0
  0
LINE
  5
3FE
330
1F
100
AcDbEntity
  8
1
  6
CONTINUOUS
370
50
 62
4
100
AcDbLine
 10
43.545063
 20
-2.730994
 30
0.0
 11
43.549999
 21
-2.667383
 31
0.0
  0
LINE
  5
3FF
330
1F
100
AcDbEntity
  8
1
  6
CONTINUOUS
370
50
 62
4
100
AcDbLine
 10
43.545063
 20
-0.123019
 30
0.0
 11
43.549999
 21
-0.00005
 31
0.0
  0
LINE
  5
400
330
1F
100
AcDbEntity
  8
1
  6
CONTINUOUS
370
50
 62
4
100
AcDbLine
 10
0.0
 20
-4.0
 30
0.0
 11
0.0
 21
4.0
 31
0.0
  0
LINE
  5
401
330
1F
100
AcDbEntity
  8
1
  6
CONTINUOUS
370
50
 62
4
100
AcDbLine
 10
1.0
 20
-4.0
 30
0.0
 11
1.0
 21
4.0
 31
0.0
  0
LINE
  5
402
330
1F
100
AcDbEntity
  8
1
  6
CONTINUOUS
370
50
 62
4
100
AcDbLine
 10
1.879882
 20
-3.492
 30
0.0
 11
1.879882
 21
3.492
 31
0.0
  0
LINE
  5
403
330
1F
100
AcDbEntity
  8
1
  6
CONTINUOUS
370
50
 62
4
100
AcDbLine
 10
2.877964
 20
-3.492
 30
0.0
 11
2.877964
 21
3.492
 31
0.0
  0
LINE
  5
404
330
1F
100
AcDbEntity
  8
1
  6
CONTINUOUS
370
50
 62
4
100
AcDbLine
 10
3.55
 20
2.252221
 30
0.0
 11
3.55
 21
2.667352
 31
0.0
  0
LINE
  5
405
330
1F
100
AcDbEntity
  8
1
  6
CONTINUOUS
370
50
 62
4
100
AcDbLine
 10
3.55
 20
-3.862244
 30
0.0
 11
3.55
 21
-3.149334
 31
0.0
  0
LINE
  5
406
330
1F
100
AcDbEntity
  8
1
  6
CONTINUOUS
370
50
 62
4
100
AcDbLine
 10
3.55
 20
2.667358
 30
0.0
 11
3.55
 21
2.861358
 31
0.0
  0
LINE
  5
407
330
1F
100
AcDbEntity
  8
1
  6
CONTINUOUS
370
50
 62
4
100
AcDbLine
 10
3.55
 20
2.861358
 30
0.0
 11
3.55
 21
3.537335
 31
0.0
  0
LINE
  5
408
330
1F
100
AcDbEntity
  8
1
  6
CONTINUOUS
370
50
 62
4
100
AcDbLine
 10
3.55
 20
0.0
 30
0.0
 11
3.55
 21
0.388
 31
0.0
  0
LINE
  5
409
330
1F
100
AcDbEntity
  8
1
  6
CONTINUOUS
370
50
 62
4
100
AcDbLine
 10
3.55
 20
-1.610023
 30
0.0
 11
3.55
 21
0.0
 31
0.0
  0
LINE
  5
40A
330
1F
100
AcDbEntity
  8
1
  6
CONTINUOUS
370
50
 62
4
100
AcDbLine
 10
3.55
 20
3.537335
 30
0.0
 11
3.55
 21
3.88
 31
0.0
  0
LINE
  5
40B
330
1F
100
AcDbEntity
  8
1
  6
CONTINUOUS
370
50
 62
4
100
AcDbLine
 10
3.55
 20
0.388
 30
0.0
 11
3.55
 21
2.25222
 31
0.0
  0
LINE
  5
40C
330
1F
100
AcDbEntity
  8
1
  6
CONTINUOUS
370
50
 62
4
100
AcDbLine
 10
3.55
 20
-3.88
 30
0.0
 11
3.55
 21
-3.862244
 31
0.0
  0
LINE
  5
40D
330
1F
100
AcDbEntity
  8
1
  6
CONTINUOUS
370
50
 62
4
100
AcDbLine
 10
3.55
 20
-3.149335
 30
0.0
 11
3.55
 21
-1.610023
 31
0.0
  0
LINE
  5
40E
330
1F
100
AcDbEntity
  8
1
  6
CONTINUOUS
370
50
 62
4
100
AcDbLine
 10
3.55
 20
-3.88
 30
0.0
 11
3.55
 21
-3.862244
 31
0.0
  0
LINE
  5
40F
330
1F
100
AcDbEntity
  8
1
  6
CONTINUOUS
370
50
 62
4
100
AcDbLine
 10
3.55
 20
-3.149335
 30
0.0
 11
3.55
 21
-1.610023
 31
0.0
  0
LINE
  5
410
330
1F
100
AcDbEntity
  8
1
  6
CONTINUOUS
370
50
 62
4
100
AcDbLine
 10
3.55
 20
0.388
 30
0.0
 11
3.55
 21
2.25222
 31
0.0
  0
LINE
  5
411
330
1F
100
AcDbEntity
  8
1
  6
CONTINUOUS
370
50
 62
4
100
AcDbLine
 10
3.55
 20
3.537335
 30
0.0
 11
3.55
 21
3.88
 31
0.0
  0
LINE
  5
412
330
1F
100
AcDbEntity
  8
1
  6
CONTINUOUS
370
50
 62
4
100
AcDbLine
 10
42.75
 20
3.537335
 30
0.0
 11
42.75
 21
3.88
 31
0.0
  0
LINE
  5
413
330
1F
100
AcDbEntity
  8
1
  6
CONTINUOUS
370
50
 62
4
100
AcDbLine
 10
42.75
 20
0.388
 30
0.0
 11
42.75
 21
2.25222
 31
0.0
  0
LINE
  5
414
330
1F
100
AcDbEntity
  8
1
  6
CONTINUOUS
370
50
 62
4
100
AcDbLine
 10
42.75
 20
-3.88
 30
0.0
 11
42.75
 21
-3.862244
 31
0.0
  0
LINE
  5
415
330
1F
100
AcDbEntity
  8
1
  6
CONTINUOUS
370
50
 62
4
100
AcDbLine
 10
42.75
 20
-3.149335
 30
0.0
 11
42.75
 21
-1.610023
 31
0.0
  0
LINE
  5
416
330
1F
100
AcDbEntity
  8
1
  6
CONTINUOUS
370
50
 62
4
100
AcDbLine
 10
43.549999
 20
-3.08
 30
0.0
 11
43.549999
 21
3.08
 31
0.0
  0
LINE
  5
417
330
1F
100
AcDbEntity
  8
SK1
  6
CONTINUOUS
370
50
 62
4
100
AcDbLine
 10
0.0
 20
4.0
 30
0.0
 11
-46.05
 21
4.0
 31
0.0
  0
LINE
  5
418
330
1F
100
AcDbEntity
  8
SK1
  6
CONTINUOUS
370
50
 62
4
100
AcDbLine
 10
-46.05
 20
4.0
 30
0.0
 11
-46.45
 21
3.6
 31
0.0
  0
LINE
  5
419
330
1F
100
AcDbEntity
  8
SK1
  6
CONTINUOUS
370
50
 62
4
100
AcDbLine
 10
-46.45
 20
3.6
 30
0.0
 11
-46.45
 21
-3.6
 31
0.0
  0
LINE
  5
41A
330
1F
100
AcDbEntity
  8
SK1
  6
CONTINUOUS
370
50
 62
4
100
AcDbLine
 10
-46.45
 20
-3.6
 30
0.0
 11
-46.05
 21
-4.0
 31
0.0
  0
LINE
  5
41B
330
1F
100
AcDbEntity
  8
SK1
  6
CONTINUOUS
370
50
 62
4
100
AcDbLine
 10
-46.05
 20
-4.0
 30
0.0
 11
0.0
 21
-4.0
 31
0.0
  0
LINE
  5
41C
330
1F
100
AcDbEntity
  8
NOCUT
  6
CONTINUOUS
370
25
 62
7
100
AcDbLine
 10
0.0
 20
0.0
 30
0.0
 11
0.0
 21
4.0
 31
0.0
  0
LINE
  5
41D
330
1F
100
AcDbEntity
  8
NOCUT
  6
CONTINUOUS
370
25
 62
7
100
AcDbLine
 10
0.0
 20
4.0
 30
0.0
 11
1.0
 21
4.0
 31
0.0
  0
LINE
  5
41E
330
1F
100
AcDbEntity
  8
NOCUT
  6
CONTINUOUS
370
25
 62
7
100
AcDbLine
 10
1.0
 20
0.0
 30
0.0
 11
0.0
 21
0.0
 31
0.0
  0
LINE
  5
41F
330
1F
100
AcDbEntity
  8
SK2
  6
CONTINUOUS
370
25
 62
7
100
AcDbLine
 10
-56.4500002
 20
-4.000001
 30
0.0
 11
-57.4500000000001
 21
-4.000001
 31
0.0
  0
LINE
  5
420
330
1F
100
AcDbEntity
  8
SK2
  6
CONTINUOUS
370
25
 62
7
100
AcDbLine
 10
-46.45
 20
-4.000001
 30
0.0
 11
-56.4499998
 21
-4.000001
 31
0.0
  0
LINE
  5
421
330
1F
100
AcDbEntity
  8
SK2
  6
CONTINUOUS
370
25
 62
7
100
AcDbLine
 10
-57.45
 20
4.0
 30
0.0
 11
-46.45
 21
4.0
 31
0.0
  0
LINE
  5
422
330
1F
100
AcDbEntity
  8
SK2
  6
CONTINUOUS
370
25
 62
7
100
AcDbLine
 10
-56.45
 20
-19.10625
 30
0.0
 11
-56.45
 21
14.0
 31
0.0
  0
LINE
  5
423
330
1F
100
AcDbEntity
  8
SK2
  6
CONTINUOUS
370
25
 62
7
100
AcDbLine
 10
-56.45
 20
-4.0
 30
0.0
 11
-55.45
 21
-9.0
 31
0.0
  0
LINE
  5
424
330
1F
100
AcDbEntity
  8
SK2
  6
CONTINUOUS
370
25
 62
7
100
AcDbLine
 10
-55.45
 20
-9.0
 30
0.0
 11
-57.45
 21
-9.0
 31
0.0
  0
LINE
  5
425
330
1F
100
AcDbEntity
  8
SK2
  6
CONTINUOUS
370
25
 62
7
100
AcDbLine
 10
-57.45
 20
-9.0
 30
0.0
 11
-56.45
 21
-4.0
 31
0.0
  0
LINE
  5
426
330
1F
100
AcDbEntity
  8
SK2
  6
CONTINUOUS
370
25
 62
7
100
AcDbLine
 10
-55.66904755831207
 20
-9.0
 30
0.0
 11
-55.48650792638534
 21
-8.81746036807327
 31
0.0
  0
LINE
  5
427
330
1F
100
AcDbEntity
  8
SK2
  6
CONTINUOUS
370
25
 62
7
100
AcDbLine
 10
-56.09331162702401
 20
-9.0
 30
0.0
 11
-55.55721860450401
 21
-8.46390697748
 31
0.0
  0
LINE
  5
428
330
1F
100
AcDbEntity
  8
SK2
  6
CONTINUOUS
370
25
 62
7
100
AcDbLine
 10
-56.51757569573594
 20
-9.0
 30
0.0
 11
-55.62792928262266
 21
-8.110353586886724
 31
0.0
  0
LINE
  5
429
330
1F
100
AcDbEntity
  8
SK2
  6
CONTINUOUS
370
25
 62
7
100
AcDbLine
 10
-56.94183976444787
 20
-9.0
 30
0.0
 11
-55.69863996074131
 21
-7.756800196293433
 31
0.0
  0
LINE
  5
42A
330
1F
100
AcDbEntity
  8
SK2
  6
CONTINUOUS
370
25
 62
7
100
AcDbLine
 10
-57.3661038331598
 20
-9.0
 30
0.0
 11
-55.76935063885998
 21
-7.403246805700171
 31
0.0
  0
LINE
  5
42B
330
1F
100
AcDbEntity
  8
SK2
  6
CONTINUOUS
370
25
 62
7
100
AcDbLine
 10
-57.36490802453206
 20
-8.57454012266033
 30
0.0
 11
-55.84006131697863
 21
-7.049693415106887
 31
0.0
  0
LINE
  5
42C
330
1F
100
AcDbEntity
  8
SK2
  6
CONTINUOUS
370
25
 62
7
100
AcDbLine
 10
-57.25884200735408
 20
-8.044210036770423
 30
0.0
 11
-55.91077199509729
 21
-6.696140024513618
 31
0.0
  0
LINE
  5
42D
330
1F
100
AcDbEntity
  8
SK2
  6
CONTINUOUS
370
25
 62
7
100
AcDbLine
 10
-57.1527759901761
 20
-7.513879950880508
 30
0.0
 11
-55.98148267321594
 21
-6.342586633920334
 31
0.0
  0
LINE
  5
42E
330
1F
100
AcDbEntity
  8
SK2
  6
CONTINUOUS
370
25
 62
7
100
AcDbLine
 10
-57.04670997299812
 20
-6.983549864990593
 30
0.0
 11
-56.05219335133458
 21
-5.98903324332705
 31
0.0
  0
LINE
  5
42F
330
1F
100
AcDbEntity
  8
SK2
  6
CONTINUOUS
370
25
 62
7
100
AcDbLine
 10
-56.94064395582014
 20
-6.453219779100671
 30
0.0
 11
-56.12290402945325
 21
-5.635479852733781
 31
0.0
  0
LINE
  5
430
330
1F
100
AcDbEntity
  8
SK2
  6
CONTINUOUS
370
25
 62
7
100
AcDbLine
 10
-56.83457793864216
 20
-5.922889693210763
 30
0.0
 11
-56.1936147075719
 21
-5.281926462140504
 31
0.0
  0
LINE
  5
431
330
1F
100
AcDbEntity
  8
SK2
  6
CONTINUOUS
370
25
 62
7
100
AcDbLine
 10
-56.72851192146418
 20
-5.392559607320848
 30
0.0
 11
-56.26432538569055
 21
-4.92837307154722
 31
0.0
  0
LINE
  5
432
330
1F
100
AcDbEntity
  8
SK2
  6
CONTINUOUS
370
25
 62
7
100
AcDbLine
 10
-56.6224459042862
 20
-4.86222952143094
 30
0.0
 11
-56.33503606380921
 21
-4.574819680953951
 31
0.0
  0
LINE
  5
433
330
1F
100
AcDbEntity
  8
SK2
  6
CONTINUOUS
370
25
 62
7
100
AcDbLine
 10
-56.51637988710821
 20
-4.331899435541018
 30
0.0
 11
-56.40574674192786
 21
-4.221266290360667
 31
0.0
  0
LINE
  5
434
330
1F
100
AcDbEntity
  8
SK2
  6
CONTINUOUS
370
25
 62
7
100
AcDbLine
 10
-57.44085057779668
 20
-8.954252888983419
 30
0.0
 11
-57.3951034667801
 21
-9.0
 31
0.0
  0
LINE
  5
435
330
1F
100
AcDbEntity
  8
SK2
  6
CONTINUOUS
370
25
 62
7
100
AcDbLine
 10
-57.37013989967803
 20
-8.600699498390135
 30
0.0
 11
-56.97083939806816
 21
-9.0
 31
0.0
  0
LINE
  5
436
330
1F
100
AcDbEntity
  8
SK2
  6
CONTINUOUS
370
25
 62
7
100
AcDbLine
 10
-57.29942922155937
 20
-8.247146107796873
 30
0.0
 11
-56.54657532935624
 21
-9.0
 31
0.0
  0
LINE
  5
437
330
1F
100
AcDbEntity
  8
SK2
  6
CONTINUOUS
370
25
 62
7
100
AcDbLine
 10
-57.22871854344072
 20
-7.893592717203589
 30
0.0
 11
-56.12231126064431
 21
-9.0
 31
0.0
  0
LINE
  5
438
330
1F
100
AcDbEntity
  8
SK2
  6
CONTINUOUS
370
25
 62
7
100
AcDbLine
 10
-57.15800786532206
 20
-7.540039326610319
 30
0.0
 11
-55.69804719193237
 21
-9.0
 31
0.0
  0
LINE
  5
439
330
1F
100
AcDbEntity
  8
SK2
  6
CONTINUOUS
370
25
 62
7
100
AcDbLine
 10
-57.0872971872034
 20
-7.186485936017036
 30
0.0
 11
-55.49405421919489
 21
-8.779728904025546
 31
0.0
  0
LINE
  5
43A
330
1F
100
AcDbEntity
  8
SK2
  6
CONTINUOUS
370
25
 62
7
100
AcDbLine
 10
-57.01658650908475
 20
-6.832932545423759
 30
0.0
 11
-55.60012023637287
 21
-8.249398818135639
 31
0.0
  0
LINE
  5
43B
330
1F
100
AcDbEntity
  8
SK2
  6
CONTINUOUS
370
25
 62
7
100
AcDbLine
 10
-56.9458758309661
 20
-6.479379154830482
 30
0.0
 11
-55.70618625355085
 21
-7.719068732245724
 31
0.0
  0
LINE
  5
43C
330
1F
100
AcDbEntity
  8
SK2
  6
CONTINUOUS
370
25
 62
7
100
AcDbLine
 10
-56.87516515284744
 20
-6.125825764237206
 30
0.0
 11
-55.81225227072883
 21
-7.188738646355816
 31
0.0
  0
LINE
  5
43D
330
1F
100
AcDbEntity
  8
SK2
  6
CONTINUOUS
370
25
 62
7
100
AcDbLine
 10
-56.80445447472879
 20
-5.772272373643922
 30
0.0
 11
-55.91831828790681
 21
-6.658408560465901
 31
0.0
  0
LINE
  5
43E
330
1F
100
AcDbEntity
  8
SK2
  6
CONTINUOUS
370
25
 62
7
100
AcDbLine
 10
-56.73374379661013
 20
-5.418718983050653
 30
0.0
 11
-56.0243843050848
 21
-6.128078474575986
 31
0.0
  0
LINE
  5
43F
330
1F
100
AcDbEntity
  8
SK2
  6
CONTINUOUS
370
25
 62
7
100
AcDbLine
 10
-56.66303311849148
 20
-5.065165592457369
 30
0.0
 11
-56.13045032226279
 21
-5.597748388686064
 31
0.0
  0
LINE
  5
440
330
1F
100
AcDbEntity
  8
SK2
  6
CONTINUOUS
370
25
 62
7
100
AcDbLine
 10
-56.59232244037283
 20
-4.711612201864092
 30
0.0
 11
-56.23651633944077
 21
-5.067418302796156
 31
0.0
  0
LINE
  5
441
330
1F
100
AcDbEntity
  8
SK2
  6
CONTINUOUS
370
25
 62
7
100
AcDbLine
 10
-56.52161176225417
 20
-4.358058811270823
 30
0.0
 11
-56.34258235661876
 21
-4.537088216906234
 31
0.0
  0
LINE
  5
442
330
1F
100
AcDbEntity
  8
SK2
  6
CONTINUOUS
370
25
 62
7
100
AcDbLine
 10
-56.4509010841355
 20
-4.00450542067756
 30
0.0
 11
-56.44864837379674
 21
-4.006758131016319
 31
0.0
  0
LINE
  5
443
330
1F
100
AcDbEntity
  8
SK2
  6
CONTINUOUS
370
25
 62
7
100
AcDbLine
 10
-56.45
 20
4.0
 30
0.0
 11
-57.45
 21
9.0
 31
0.0
  0
LINE
  5
444
330
1F
100
AcDbEntity
  8
SK2
  6
CONTINUOUS
370
25
 62
7
100
AcDbLine
 10
-57.45
 20
9.0
 30
0.0
 11
-55.45
 21
9.0
 31
0.0
  0
LINE
  5
445
330
1F
100
AcDbEntity
  8
SK2
  6
CONTINUOUS
370
25
 62
7
100
AcDbLine
 10
-55.45
 20
9.0
 30
0.0
 11
-56.45
 21
4.0
 31
0.0
  0
LINE
  5
446
330
1F
100
AcDbEntity
  8
SK2
  6
CONTINUOUS
370
25
 62
7
100
AcDbLine
 10
-56.48662697096762
 20
4.183134854838137
 30
0.0
 11
-56.39505954354856
 21
4.274702282257195
 31
0.0
  0
LINE
  5
447
330
1F
100
AcDbEntity
  8
SK2
  6
CONTINUOUS
370
25
 62
7
100
AcDbLine
 10
-56.55733764908629
 20
4.536688245431407
 30
0.0
 11
-56.28899352637058
 21
4.80503236814711
 31
0.0
  0
LINE
  5
448
330
1F
100
AcDbEntity
  8
SK2
  6
CONTINUOUS
370
25
 62
7
100
AcDbLine
 10
-56.62804832720494
 20
4.890241636024683
 30
0.0
 11
-56.1829275091926
 21
5.335362454037025
 31
0.0
  0
LINE
  5
449
330
1F
100
AcDbEntity
  8
SK2
  6
CONTINUOUS
370
25
 62
7
100
AcDbLine
 10
-56.69875900532359
 20
5.243795026617967
 30
0.0
 11
-56.07686149201461
 21
5.86569253992694
 31
0.0
  0
LINE
  5
44A
330
1F
100
AcDbEntity
  8
SK2
  6
CONTINUOUS
370
25
 62
7
100
AcDbLine
 10
-56.76946968344225
 20
5.597348417211236
 30
0.0
 11
-55.97079547483663
 21
6.396022625816848
 31
0.0
  0
LINE
  5
44B
330
1F
100
AcDbEntity
  8
SK2
  6
CONTINUOUS
370
25
 62
7
100
AcDbLine
 10
-56.8401803615609
 20
5.95090180780452
 30
0.0
 11
-55.86472945765865
 21
6.926352711706762
 31
0.0
  0
LINE
  5
44C
330
1F
100
AcDbEntity
  8
SK2
  6
CONTINUOUS
370
25
 62
7
100
AcDbLine
 10
-56.91089103967956
 20
6.30445519839779
 30
0.0
 11
-55.75866344048067
 21
7.456682797596685
 31
0.0
  0
LINE
  5
44D
330
1F
100
AcDbEntity
  8
SK2
  6
CONTINUOUS
370
25
 62
7
100
AcDbLine
 10
-56.98160171779821
 20
6.658008588991066
 30
0.0
 11
-55.65259742330269
 21
7.987012883486592
 31
0.0
  0
LINE
  5
44E
330
1F
100
AcDbEntity
  8
SK2
  6
CONTINUOUS
370
25
 62
7
100
AcDbLine
 10
-57.05231239591688
 20
7.011561979584322
 30
0.0
 11
-55.54653140612469
 21
8.517342969376507
 31
0.0
  0
LINE
  5
44F
330
1F
100
AcDbEntity
  8
SK2
  6
CONTINUOUS
370
25
 62
7
100
AcDbLine
 10
-57.12302307403553
 20
7.365115370177605
 30
0.0
 11
-55.48813844421313
 21
9.0
 31
0.0
  0
LINE
  5
450
330
1F
100
AcDbEntity
  8
SK2
  6
CONTINUOUS
370
25
 62
7
100
AcDbLine
 10
-57.19373375215418
 20
7.718668760770889
 30
0.0
 11
-55.91240251292507
 21
9.0
 31
0.0
  0
LINE
  5
451
330
1F
100
AcDbEntity
  8
SK2
  6
CONTINUOUS
370
25
 62
7
100
AcDbLine
 10
-57.26444443027284
 20
8.072222151364166
 30
0.0
 11
-56.336666581637
 21
9.0
 31
0.0
  0
LINE
  5
452
330
1F
100
AcDbEntity
  8
SK2
  6
CONTINUOUS
370
25
 62
7
100
AcDbLine
 10
-57.33515510839149
 20
8.425775541957435
 30
0.0
 11
-56.76093065034893
 21
9.0
 31
0.0
  0
LINE
  5
453
330
1F
100
AcDbEntity
  8
SK2
  6
CONTINUOUS
370
25
 62
7
100
AcDbLine
 10
-57.40586578651014
 20
8.779328932550719
 30
0.0
 11
-57.18519471906086
 21
9.0
 31
0.0
  0
LINE
  5
454
330
1F
100
AcDbEntity
  8
SK2
  6
CONTINUOUS
370
25
 62
7
100
AcDbLine
 10
-56.49387565232148
 20
4.21937826160741
 30
0.0
 11
-56.42074956511901
 21
4.146252174404943
 31
0.0
  0
LINE
  5
455
330
1F
100
AcDbEntity
  8
SK2
  6
CONTINUOUS
370
25
 62
7
100
AcDbLine
 10
-56.59994166949946
 20
4.749708347497318
 30
0.0
 11
-56.35003888700036
 21
4.499805564998219
 31
0.0
  0
LINE
  5
456
330
1F
100
AcDbEntity
  8
SK2
  6
CONTINUOUS
370
25
 62
7
100
AcDbLine
 10
-56.70600768667744
 20
5.280038433387233
 30
0.0
 11
-56.27932820888171
 21
4.853358955591503
 31
0.0
  0
LINE
  5
457
330
1F
100
AcDbEntity
  8
SK2
  6
CONTINUOUS
370
25
 62
7
100
AcDbLine
 10
-56.81207370385543
 20
5.810368519277141
 30
0.0
 11
-56.20861753076305
 21
5.206912346184765
 31
0.0
  0
LINE
  5
458
330
1F
100
AcDbEntity
  8
SK2
  6
CONTINUOUS
370
25
 62
7
100
AcDbLine
 10
-56.91813972103341
 20
6.340698605167063
 30
0.0
 11
-56.13790685264439
 21
5.560465736778042
 31
0.0
  0
LINE
  5
459
330
1F
100
AcDbEntity
  8
SK2
  6
CONTINUOUS
370
25
 62
7
100
AcDbLine
 10
-57.02420573821139
 20
6.871028691056978
 30
0.0
 11
-56.06719617452573
 21
5.914019127371319
 31
0.0
  0
LINE
  5
45A
330
1F
100
AcDbEntity
  8
SK2
  6
CONTINUOUS
370
25
 62
7
100
AcDbLine
 10
-57.13027175538937
 20
7.401358776946886
 30
0.0
 11
-55.99648549640708
 21
6.267572517964595
 31
0.0
  0
LINE
  5
45B
330
1F
100
AcDbEntity
  8
SK2
  6
CONTINUOUS
370
25
 62
7
100
AcDbLine
 10
-57.23633777256736
 20
7.931688862836808
 30
0.0
 11
-55.92577481828842
 21
6.621125908557865
 31
0.0
  0
LINE
  5
45C
330
1F
100
AcDbEntity
  8
SK2
  6
CONTINUOUS
370
25
 62
7
100
AcDbLine
 10
-57.34240378974534
 20
8.462018948726715
 30
0.0
 11
-55.85506414016977
 21
6.974679299151141
 31
0.0
  0
LINE
  5
45D
330
1F
100
AcDbEntity
  8
SK2
  6
CONTINUOUS
370
25
 62
7
100
AcDbLine
 10
-57.44846980692333
 20
8.99234903461663
 30
0.0
 11
-55.78435346205112
 21
7.328232689744418
 31
0.0
  0
LINE
  5
45E
330
1F
100
AcDbEntity
  8
SK2
  6
CONTINUOUS
370
25
 62
7
100
AcDbLine
 10
-57.03185670359476
 20
9.0
 30
0.0
 11
-55.71364278393246
 21
7.681786080337695
 31
0.0
  0
LINE
  5
45F
330
1F
100
AcDbEntity
  8
SK2
  6
CONTINUOUS
370
25
 62
7
100
AcDbLine
 10
-56.60759263488283
 20
9.0
 30
0.0
 11
-55.64293210581381
 21
8.035339470930978
 31
0.0
  0
LINE
  5
460
330
1F
100
AcDbEntity
  8
SK2
  6
CONTINUOUS
370
25
 62
7
100
AcDbLine
 10
-56.1833285661709
 20
9.0
 30
0.0
 11
-55.57222142769514
 21
8.388892861524248
 31
0.0
  0
LINE
  5
461
330
1F
100
AcDbEntity
  8
SK2
  6
CONTINUOUS
370
25
 62
7
100
AcDbLine
 10
-55.75906449745897
 20
9.0
 30
0.0
 11
-55.50151074957649
 21
8.742446252117524
 31
0.0
  0
TEXT
  5
462
330
1F
100
AcDbEntity
  8
SK2
  6
CONTINUOUS
370
25
 62
7
100
AcDbText
 10
-57.45
 20
-13.21979166666667
 30
0.0
 40
3.5
  1
8
 50
90.00000000000001
 72
     1
 11
-57.45
 21
-12.053125
 31
0.0
100
AcDbText
  0
CIRCLE
  5
463
330
1F
100
AcDbEntity
  8
SK2
  6
CONTINUOUS
370
25
 62
7
100
AcDbCircle
 10
-58.98125
 20
-16.463125
 30
0.0
 40
1.53125
  0
LINE
  5
464
330
1F
100
AcDbEntity
  8
SK2
  6
CONTINUOUS
370
25
 62
7
100
AcDbLine
 10
-57.45
 20
-17.994375
 30
0.0
 11
-60.5125
 21
-14.931875
 31
0.0
  0
LINE
  5
465
330
1F
100
AcDbEntity
  8
SK2
  6
CONTINUOUS
370
25
 62
7
100
AcDbLine
 10
-46.45
 20
4.0
 30
0.0
 11
-46.45
 21
15.00001
 31
0.0
  0
LINE
  5
466
330
1F
100
AcDbEntity
  8
SK2
  6
CONTINUOUS
370
25
 62
7
100
AcDbLine
 10
0.0000000000000001
 20
15.00001
 30
0.0
 11
-0.0000000000000006
 21
4.0
 31
0.0
  0
LINE
  5
467
330
1F
100
AcDbEntity
  8
SK2
  6
CONTINUOUS
370
25
 62
7
100
AcDbLine
 10
-46.45
 20
14.00001
 30
0.0
 11
0.0
 21
14.00001
 31
0.0
  0
LINE
  5
468
330
1F
100
AcDbEntity
  8
SK2
  6
CONTINUOUS
370
25
 62
7
100
AcDbLine
 10
-46.45
 20
14.00001
 30
0.0
 11
-41.45
 21
15.00001
 31
0.0
  0
LINE
  5
469
330
1F
100
AcDbEntity
  8
SK2
  6
CONTINUOUS
370
25
 62
7
100
AcDbLine
 10
-41.45
 20
15.00001
 30
0.0
 11
-41.45
 21
13.00001
 31
0.0
  0
LINE
  5
46A
330
1F
100
AcDbEntity
  8
SK2
  6
CONTINUOUS
370
25
 62
7
100
AcDbLine
 10
-41.45
 20
13.00001
 30
0.0
 11
-46.45
 21
14.00001
 31
0.0
  0
LINE
  5
46B
330
1F
100
AcDbEntity
  8
SK2
  6
CONTINUOUS
370
25
 62
7
100
AcDbLine
 10
-41.68337905319896
 20
13.04668581063979
 30
0.0
 11
-41.45
 21
13.28006486383875
 31
0.0
  0
LINE
  5
46C
330
1F
100
AcDbEntity
  8
SK2
  6
CONTINUOUS
370
25
 62
7
100
AcDbLine
 10
-42.03693244379224
 20
13.11739648875844
 30
0.0
 11
-41.45
 21
13.70432893255068
 31
0.0
  0
LINE
  5
46D
330
1F
100
AcDbEntity
  8
SK2
  6
CONTINUOUS
370
25
 62
7
100
AcDbLine
 10
-42.39048583438552
 20
13.1881071668771
 30
0.0
 11
-41.45
 21
14.12859300126261
 31
0.0
  0
LINE
  5
46E
330
1F
100
AcDbEntity
  8
SK2
  6
CONTINUOUS
370
25
 62
7
100
AcDbLine
 10
-42.74403922497879
 20
13.25881784499575
 30
0.0
 11
-41.45
 21
14.55285706997454
 31
0.0
  0
LINE
  5
46F
330
1F
100
AcDbEntity
  8
SK2
  6
CONTINUOUS
370
25
 62
7
100
AcDbLine
 10
-43.09759261557207
 20
13.3295285231144
 30
0.0
 11
-41.45
 21
14.97712113868647
 31
0.0
  0
LINE
  5
470
330
1F
100
AcDbEntity
  8
SK2
  6
CONTINUOUS
370
25
 62
7
100
AcDbLine
 10
-43.45114600616534
 20
13.40023920123306
 30
0.0
 11
-41.951719009248
 21
14.8996661981504
 31
0.0
  0
LINE
  5
471
330
1F
100
AcDbEntity
  8
SK2
  6
CONTINUOUS
370
25
 62
7
100
AcDbLine
 10
-43.80469939675861
 20
13.47094987935171
 30
0.0
 11
-42.48204909513791
 21
14.79360018097242
 31
0.0
  0
LINE
  5
472
330
1F
100
AcDbEntity
  8
SK2
  6
CONTINUOUS
370
25
 62
7
100
AcDbLine
 10
-44.15825278735189
 20
13.54166055747037
 30
0.0
 11
-43.01237918102782
 21
14.68753416379444
 31
0.0
  0
LINE
  5
473
330
1F
100
AcDbEntity
  8
SK2
  6
CONTINUOUS
370
25
 62
7
100
AcDbLine
 10
-44.51180617794517
 20
13.61237123558902
 30
0.0
 11
-43.54270926691774
 21
14.58146814661645
 31
0.0
  0
LINE
  5
474
330
1F
100
AcDbEntity
  8
SK2
  6
CONTINUOUS
370
25
 62
7
100
AcDbLine
 10
-44.86535956853844
 20
13.68308191370768
 30
0.0
 11
-44.07303935280765
 21
14.47540212943847
 31
0.0
  0
LINE
  5
475
330
1F
100
AcDbEntity
  8
SK2
  6
CONTINUOUS
370
25
 62
7
100
AcDbLine
 10
-45.21891295913172
 20
13.75379259182633
 30
0.0
 11
-44.60336943869756
 21
14.36933611226049
 31
0.0
  0
LINE
  5
476
330
1F
100
AcDbEntity
  8
SK2
  6
CONTINUOUS
370
25
 62
7
100
AcDbLine
 10
-45.572466349725
 20
13.82450326994499
 30
0.0
 11
-45.13369952458748
 21
14.2632700950825
 31
0.0
  0
LINE
  5
477
330
1F
100
AcDbEntity
  8
SK2
  6
CONTINUOUS
370
25
 62
7
100
AcDbLine
 10
-45.92601974031827
 20
13.89521394806365
 30
0.0
 11
-45.66402961047739
 21
14.15720407790452
 31
0.0
  0
LINE
  5
478
330
1F
100
AcDbEntity
  8
SK2
  6
CONTINUOUS
370
25
 62
7
100
AcDbLine
 10
-46.27957313091155
 20
13.9659246261823
 30
0.0
 11
-46.19435969636731
 21
14.05113806072654
 31
0.0
  0
LINE
  5
479
330
1F
100
AcDbEntity
  8
SK2
  6
CONTINUOUS
370
25
 62
7
100
AcDbLine
 10
-46.25408218347889
 20
14.03919356330422
 30
0.0
 11
-46.15612327521833
 21
13.94123465504367
 31
0.0
  0
LINE
  5
47A
330
1F
100
AcDbEntity
  8
SK2
  6
CONTINUOUS
370
25
 62
7
100
AcDbLine
 10
-45.90052879288562
 20
14.10990424142288
 30
0.0
 11
-45.62579318932842
 21
13.83516863786568
 31
0.0
  0
LINE
  5
47B
330
1F
100
AcDbEntity
  8
SK2
  6
CONTINUOUS
370
25
 62
7
100
AcDbLine
 10
-45.54697540229234
 20
14.18061491954153
 30
0.0
 11
-45.0954631034385
 21
13.72910262068769
 31
0.0
  0
LINE
  5
47C
330
1F
100
AcDbEntity
  8
SK2
  6
CONTINUOUS
370
25
 62
7
100
AcDbLine
 10
-45.19342201169907
 20
14.25132559766019
 30
0.0
 11
-44.56513301754859
 21
13.62303660350971
 31
0.0
  0
LINE
  5
47D
330
1F
100
AcDbEntity
  8
SK2
  6
CONTINUOUS
370
25
 62
7
100
AcDbLine
 10
-44.83986862110579
 20
14.32203627577884
 30
0.0
 11
-44.03480293165867
 21
13.51697058633172
 31
0.0
  0
LINE
  5
47E
330
1F
100
AcDbEntity
  8
SK2
  6
CONTINUOUS
370
25
 62
7
100
AcDbLine
 10
-44.48631523051251
 20
14.3927469538975
 30
0.0
 11
-43.50447284576876
 21
13.41090456915375
 31
0.0
  0
LINE
  5
47F
330
1F
100
AcDbEntity
  8
SK2
  6
CONTINUOUS
370
25
 62
7
100
AcDbLine
 10
-44.13276183991923
 20
14.46345763201615
 30
0.0
 11
-42.97414275987884
 21
13.30483855197576
 31
0.0
  0
LINE
  5
480
330
1F
100
AcDbEntity
  8
SK2
  6
CONTINUOUS
370
25
 62
7
100
AcDbLine
 10
-43.77920844932596
 20
14.53416831013481
 30
0.0
 11
-42.44381267398893
 21
13.19877253479779
 31
0.0
  0
LINE
  5
481
330
1F
100
AcDbEntity
  8
SK2
  6
CONTINUOUS
370
25
 62
7
100
AcDbLine
 10
-43.42565505873269
 20
14.60487898825347
 30
0.0
 11
-41.91348258809902
 21
13.0927065176198
 31
0.0
  0
LINE
  5
482
330
1F
100
AcDbEntity
  8
SK2
  6
CONTINUOUS
370
25
 62
7
100
AcDbLine
 10
-43.07210166813942
 20
14.67558966637213
 30
0.0
 11
-41.45
 21
13.05348799823271
 31
0.0
  0
LINE
  5
483
330
1F
100
AcDbEntity
  8
SK2
  6
CONTINUOUS
370
25
 62
7
100
AcDbLine
 10
-42.71854827754613
 20
14.74630034449078
 30
0.0
 11
-41.45
 21
13.47775206694465
 31
0.0
  0
LINE
  5
484
330
1F
100
AcDbEntity
  8
SK2
  6
CONTINUOUS
370
25
 62
7
100
AcDbLine
 10
-42.36499488695286
 20
14.81701102260943
 30
0.0
 11
-41.45
 21
13.90201613565658
 31
0.0
  0
LINE
  5
485
330
1F
100
AcDbEntity
  8
SK2
  6
CONTINUOUS
370
25
 62
7
100
AcDbLine
 10
-42.01144149635958
 20
14.88772170072809
 30
0.0
 11
-41.45
 21
14.32628020436851
 31
0.0
  0
LINE
  5
486
330
1F
100
AcDbEntity
  8
SK2
  6
CONTINUOUS
370
25
 62
7
100
AcDbLine
 10
-41.65788810576631
 20
14.95843237884675
 30
0.0
 11
-41.45
 21
14.75054427308044
 31
0.0
  0
LINE
  5
487
330
1F
100
AcDbEntity
  8
SK2
  6
CONTINUOUS
370
25
 62
7
100
AcDbLine
 10
0.0
 20
14.00001
 30
0.0
 11
-5.0
 21
13.00001
 31
0.0
  0
LINE
  5
488
330
1F
100
AcDbEntity
  8
SK2
  6
CONTINUOUS
370
25
 62
7
100
AcDbLine
 10
-5.0
 20
13.00001
 30
0.0
 11
-5.0
 21
15.00001
 31
0.0
  0
LINE
  5
489
330
1F
100
AcDbEntity
  8
SK2
  6
CONTINUOUS
370
25
 62
7
100
AcDbLine
 10
-5.0
 20
15.00001
 30
0.0
 11
0.0
 21
14.00001
 31
0.0
  0
LINE
  5
48A
330
1F
100
AcDbEntity
  8
SK2
  6
CONTINUOUS
370
25
 62
7
100
AcDbLine
 10
-0.0008803343670527
 20
13.99983393312659
 30
0.0
 11
-0.0005868895780351
 21
14.00012737791561
 31
0.0
  0
LINE
  5
48B
330
1F
100
AcDbEntity
  8
SK2
  6
CONTINUOUS
370
25
 62
7
100
AcDbLine
 10
-0.5312104202569621
 20
13.89376791594861
 30
0.0
 11
-0.3541402801713082
 21
14.07083805603426
 31
0.0
  0
LINE
  5
48C
330
1F
100
AcDbEntity
  8
SK2
  6
CONTINUOUS
370
25
 62
7
100
AcDbLine
 10
-1.061540506146871
 20
13.78770189877063
 30
0.0
 11
-0.7076936707645811
 21
14.14154873415292
 31
0.0
  0
LINE
  5
48D
330
1F
100
AcDbEntity
  8
SK2
  6
CONTINUOUS
370
25
 62
7
100
AcDbLine
 10
-1.591870592036781
 20
13.68163588159264
 30
0.0
 11
-1.061247061357854
 21
14.21225941227157
 31
0.0
  0
LINE
  5
48E
330
1F
100
AcDbEntity
  8
SK2
  6
CONTINUOUS
370
25
 62
7
100
AcDbLine
 10
-2.12220067792669
 20
13.57556986441466
 30
0.0
 11
-1.414800451951127
 21
14.28297009039023
 31
0.0
  0
LINE
  5
48F
330
1F
100
AcDbEntity
  8
SK2
  6
CONTINUOUS
370
25
 62
7
100
AcDbLine
 10
-2.652530763816599
 20
13.46950384723668
 30
0.0
 11
-1.7683538425444
 21
14.35368076850888
 31
0.0
  0
LINE
  5
490
330
1F
100
AcDbEntity
  8
SK2
  6
CONTINUOUS
370
25
 62
7
100
AcDbLine
 10
-3.182860849706512
 20
13.3634378300587
 30
0.0
 11
-2.121907233137676
 21
14.42439144662753
 31
0.0
  0
LINE
  5
491
330
1F
100
AcDbEntity
  8
SK2
  6
CONTINUOUS
370
25
 62
7
100
AcDbLine
 10
-3.713190935596421
 20
13.25737181288071
 30
0.0
 11
-2.475460623730948
 21
14.49510212474619
 31
0.0
  0
LINE
  5
492
330
1F
100
AcDbEntity
  8
SK2
  6
CONTINUOUS
370
25
 62
7
100
AcDbLine
 10
-4.24352102148633
 20
13.15130579570273
 30
0.0
 11
-2.829014014324221
 21
14.56581280286484
 31
0.0
  0
LINE
  5
493
330
1F
100
AcDbEntity
  8
SK2
  6
CONTINUOUS
370
25
 62
7
100
AcDbLine
 10
-4.773851107376239
 20
13.04523977852475
 30
0.0
 11
-3.182567404917494
 21
14.6365234809835
 31
0.0
  0
LINE
  5
494
330
1F
100
AcDbEntity
  8
SK2
  6
CONTINUOUS
370
25
 62
7
100
AcDbLine
 10
-5.0
 20
13.24335495461292
 30
0.0
 11
-3.536120795510767
 21
14.70723415910215
 31
0.0
  0
LINE
  5
495
330
1F
100
AcDbEntity
  8
SK2
  6
CONTINUOUS
370
25
 62
7
100
AcDbLine
 10
-5.0
 20
13.66761902332485
 30
0.0
 11
-3.88967418610404
 21
14.77794483722081
 31
0.0
  0
LINE
  5
496
330
1F
100
AcDbEntity
  8
SK2
  6
CONTINUOUS
370
25
 62
7
100
AcDbLine
 10
-5.0
 20
14.09188309203677
 30
0.0
 11
-4.243227576697313
 21
14.84865551533946
 31
0.0
  0
LINE
  5
497
330
1F
100
AcDbEntity
  8
SK2
  6
CONTINUOUS
370
25
 62
7
100
AcDbLine
 10
-5.0
 20
14.5161471607487
 30
0.0
 11
-4.596780967290585
 21
14.91936619345812
 31
0.0
  0
LINE
  5
498
330
1F
100
AcDbEntity
  8
SK2
  6
CONTINUOUS
370
25
 62
7
100
AcDbLine
 10
-5.0
 20
14.94041122946063
 30
0.0
 11
-4.950334357883858
 21
14.99007687157677
 31
0.0
  0
LINE
  5
499
330
1F
100
AcDbEntity
  8
SK2
  6
CONTINUOUS
370
25
 62
7
100
AcDbLine
 10
-5.0
 20
13.06101730552664
 30
0.0
 11
-4.949160578727799
 21
13.01017788425444
 31
0.0
  0
LINE
  5
49A
330
1F
100
AcDbEntity
  8
SK2
  6
CONTINUOUS
370
25
 62
7
100
AcDbLine
 10
-5.0
 20
13.48528137423857
 30
0.0
 11
-4.595607188134525
 21
13.08088856237309
 31
0.0
  0
LINE
  5
49B
330
1F
100
AcDbEntity
  8
SK2
  6
CONTINUOUS
370
25
 62
7
100
AcDbLine
 10
-5.0
 20
13.9095454429505
 30
0.0
 11
-4.242053797541253
 21
13.15159924049175
 31
0.0
  0
LINE
  5
49C
330
1F
100
AcDbEntity
  8
SK2
  6
CONTINUOUS
370
25
 62
7
100
AcDbLine
 10
-5.0
 20
14.33380951166242
 30
0.0
 11
-3.888500406947979
 21
13.2223099186104
 31
0.0
  0
LINE
  5
49D
330
1F
100
AcDbEntity
  8
SK2
  6
CONTINUOUS
370
25
 62
7
100
AcDbLine
 10
-5.0
 20
14.75807358037435
 30
0.0
 11
-3.534947016354705
 21
13.29302059672906
 31
0.0
  0
LINE
  5
49E
330
1F
100
AcDbEntity
  8
SK2
  6
CONTINUOUS
370
25
 62
7
100
AcDbLine
 10
-4.77209043864215
 20
14.95442808772843
 30
0.0
 11
-3.18139362576143
 21
13.36373127484771
 31
0.0
  0
LINE
  5
49F
330
1F
100
AcDbEntity
  8
SK2
  6
CONTINUOUS
370
25
 62
7
100
AcDbLine
 10
-4.241760352752241
 20
14.84836207055045
 30
0.0
 11
-2.827840235168158
 21
13.43444195296637
 31
0.0
  0
LINE
  5
4A0
330
1F
100
AcDbEntity
  8
SK2
  6
CONTINUOUS
370
25
 62
7
100
AcDbLine
 10
-3.71143026686233
 20
14.74229605337247
 30
0.0
 11
-2.474286844574884
 21
13.50515263108502
 31
0.0
  0
LINE
  5
4A1
330
1F
100
AcDbEntity
  8
SK2
  6
CONTINUOUS
370
25
 62
7
100
AcDbLine
 10
-3.181100180972421
 20
14.63623003619448
 30
0.0
 11
-2.120733453981612
 21
13.57586330920368
 31
0.0
  0
LINE
  5
4A2
330
1F
100
AcDbEntity
  8
SK2
  6
CONTINUOUS
370
25
 62
7
100
AcDbLine
 10
-2.650770095082511
 20
14.5301640190165
 30
0.0
 11
-1.767180063388339
 21
13.64657398732233
 31
0.0
  0
LINE
  5
4A3
330
1F
100
AcDbEntity
  8
SK2
  6
CONTINUOUS
370
25
 62
7
100
AcDbLine
 10
-2.120440009192598
 20
14.42409800183852
 30
0.0
 11
-1.413626672795064
 21
13.71728466544099
 31
0.0
  0
LINE
  5
4A4
330
1F
100
AcDbEntity
  8
SK2
  6
CONTINUOUS
370
25
 62
7
100
AcDbLine
 10
-1.590109923302689
 20
14.31803198466054
 30
0.0
 11
-1.060073282201792
 21
13.78799534355964
 31
0.0
  0
LINE
  5
4A5
330
1F
100
AcDbEntity
  8
SK2
  6
CONTINUOUS
370
25
 62
7
100
AcDbLine
 10
-1.059779837412778
 20
14.21196596748256
 30
0.0
 11
-0.7065198916085181
 21
13.8587060216783
 31
0.0
  0
LINE
  5
4A6
330
1F
100
AcDbEntity
  8
SK2
  6
CONTINUOUS
370
25
 62
7
100
AcDbLine
 10
-0.5294497515228672
 20
14.10589995030457
 30
0.0
 11
-0.3529665010152445
 21
13.92941669979695
 31
0.0
  0
TEXT
  5
4A7
330
1F
100
AcDbEntity
  8
SK2
  6
CONTINUOUS
370
25
 62
7
100
AcDbText
 10
-30.225
 20
15.00001
 30
0.0
 40
3.5
  1
46.45
 72
     1
 11
-23.225
 21
15.00001
 31
0.0
100
AcDbText
  0
LINE
  5
4A8
330
1F
100
AcDbEntity
  8
2
  6
CONTINUOUS
370
25
 62
7
100
AcDbLine
 10
0.0
 20
-4.00001
 30
0.0
 11
-0.0000000000000007
 21
-15.00001
 31
0.0
  0
LINE
  5
4A9
330
1F
100
AcDbEntity
  8
2
  6
CONTINUOUS
370
25
 62
7
100
AcDbLine
 10
1.009999999999999
 20
-15.00001
 30
0.0
 11
1.01
 21
-4.00001
 31
0.0
  0
LINE
  5
4AA
330
1F
100
AcDbEntity
  8
2
  6
CONTINUOUS
370
25
 62
7
100
AcDbLine
 10
-18.475
 20
-14.00001
 30
0.0
 11
11.01
 21
-14.00001
 31
0.0
  0
LINE
  5
4AB
330
1F
100
AcDbEntity
  8
2
  6
CONTINUOUS
370
25
 62
7
100
AcDbLine
 10
0.0
 20
-14.00001
 30
0.0
 11
-5.0
 21
-15.00001
 31
0.0
  0
LINE
  5
4AC
330
1F
100
AcDbEntity
  8
2
  6
CONTINUOUS
370
25
 62
7
100
AcDbLine
 10
-5.0
 20
-15.00001
 30
0.0
 11
-5.0
 21
-13.00001
 31
0.0
  0
LINE
  5
4AD
330
1F
100
AcDbEntity
  8
2
  6
CONTINUOUS
370
25
 62
7
100
AcDbLine
 10
-5.0
 20
-13.00001
 30
0.0
 11
0.0
 21
-14.00001
 31
0.0
  0
LINE
  5
4AE
330
1F
100
AcDbEntity
  8
2
  6
CONTINUOUS
370
25
 62
7
100
AcDbLine
 10
-0.0218279456255699
 20
-14.00437558912511
 30
0.0
 11
-0.0145519637503799
 21
-13.99709960724992
 31
0.0
  0
LINE
  5
4AF
330
1F
100
AcDbEntity
  8
2
  6
CONTINUOUS
370
25
 62
7
100
AcDbLine
 10
-0.5521580315154796
 20
-14.11044160630309
 30
0.0
 11
-0.3681053543436531
 21
-13.92638892913127
 31
0.0
  0
LINE
  5
4B0
330
1F
100
AcDbEntity
  8
2
  6
CONTINUOUS
370
25
 62
7
100
AcDbLine
 10
-1.082488117405389
 20
-14.21650762348108
 30
0.0
 11
-0.7216587449369262
 21
-13.85567825101261
 31
0.0
  0
LINE
  5
4B1
330
1F
100
AcDbEntity
  8
2
  6
CONTINUOUS
370
25
 62
7
100
AcDbLine
 10
-1.612818203295299
 20
-14.32257364065906
 30
0.0
 11
-1.075212135530199
 21
-13.78496757289396
 31
0.0
  0
LINE
  5
4B2
330
1F
100
AcDbEntity
  8
2
  6
CONTINUOUS
370
25
 62
7
100
AcDbLine
 10
-2.143148289185208
 20
-14.42863965783704
 30
0.0
 11
-1.428765526123472
 21
-13.71425689477531
 31
0.0
  0
LINE
  5
4B3
330
1F
100
AcDbEntity
  8
2
  6
CONTINUOUS
370
25
 62
7
100
AcDbLine
 10
-2.673478375075118
 20
-14.53470567501502
 30
0.0
 11
-1.782318916716745
 21
-13.64354621665665
 31
0.0
  0
LINE
  5
4B4
330
1F
100
AcDbEntity
  8
2
  6
CONTINUOUS
370
25
 62
7
100
AcDbLine
 10
-3.203808460965031
 20
-14.64077169219301
 30
0.0
 11
-2.135872307310021
 21
-13.572835538538
 31
0.0
  0
LINE
  5
4B5
330
1F
100
AcDbEntity
  8
2
  6
CONTINUOUS
370
25
 62
7
100
AcDbLine
 10
-3.73413854685494
 20
-14.74683770937099
 30
0.0
 11
-2.489425697903294
 21
-13.50212486041934
 31
0.0
  0
LINE
  5
4B6
330
1F
100
AcDbEntity
  8
2
  6
CONTINUOUS
370
25
 62
7
100
AcDbLine
 10
-4.264468632744849
 20
-14.85290372654897
 30
0.0
 11
-2.842979088496567
 21
-13.43141418230069
 31
0.0
  0
LINE
  5
4B7
330
1F
100
AcDbEntity
  8
2
  6
CONTINUOUS
370
25
 62
7
100
AcDbLine
 10
-4.794798718634759
 20
-14.95896974372695
 30
0.0
 11
-3.19653247908984
 21
-13.36070350418203
 31
0.0
  0
LINE
  5
4B8
330
1F
100
AcDbEntity
  8
2
  6
CONTINUOUS
370
25
 62
7
100
AcDbLine
 10
-5.0
 20
-14.73990695638026
 30
0.0
 11
-3.550085869683113
 21
-13.28999282606338
 31
0.0
  0
LINE
  5
4B9
330
1F
100
AcDbEntity
  8
2
  6
CONTINUOUS
370
25
 62
7
100
AcDbLine
 10
-5.0
 20
-14.31564288766834
 30
0.0
 11
-3.903639260276386
 21
-13.21928214794472
 31
0.0
  0
LINE
  5
4BA
330
1F
100
AcDbEntity
  8
2
  6
CONTINUOUS
370
25
 62
7
100
AcDbLine
 10
-5.0
 20
-13.89137881895641
 30
0.0
 11
-4.257192650869659
 21
-13.14857146982607
 31
0.0
  0
LINE
  5
4BB
330
1F
100
AcDbEntity
  8
2
  6
CONTINUOUS
370
25
 62
7
100
AcDbLine
 10
-5.0
 20
-13.46711475024448
 30
0.0
 11
-4.610746041462932
 21
-13.07786079170741
 31
0.0
  0
LINE
  5
4BC
330
1F
100
AcDbEntity
  8
2
  6
CONTINUOUS
370
25
 62
7
100
AcDbLine
 10
-5.0
 20
-13.04285068153255
 30
0.0
 11
-4.964299432056205
 21
-13.00715011358876
 31
0.0
  0
LINE
  5
4BD
330
1F
100
AcDbEntity
  8
2
  6
CONTINUOUS
370
25
 62
7
100
AcDbLine
 10
-5.0
 20
-14.73990695638027
 30
0.0
 11
-4.783247463650228
 21
-14.95665949273004
 31
0.0
  0
LINE
  5
4BE
330
1F
100
AcDbEntity
  8
2
  6
CONTINUOUS
370
25
 62
7
100
AcDbLine
 10
-5.0
 20
-14.31564288766834
 30
0.0
 11
-4.429694073056954
 21
-14.88594881461139
 31
0.0
  0
LINE
  5
4BF
330
1F
100
AcDbEntity
  8
2
  6
CONTINUOUS
370
25
 62
7
100
AcDbLine
 10
-5.0
 20
-13.89137881895642
 30
0.0
 11
-4.076140682463681
 21
-14.81523813649273
 31
0.0
  0
LINE
  5
4C0
330
1F
100
AcDbEntity
  8
2
  6
CONTINUOUS
370
25
 62
7
100
AcDbLine
 10
-5.0
 20
-13.46711475024449
 30
0.0
 11
-3.722587291870407
 21
-14.74452745837408
 31
0.0
  0
LINE
  5
4C1
330
1F
100
AcDbEntity
  8
2
  6
CONTINUOUS
370
25
 62
7
100
AcDbLine
 10
-5.0
 20
-13.04285068153256
 30
0.0
 11
-3.369033901277134
 21
-14.67381678025543
 31
0.0
  0
LINE
  5
4C2
330
1F
100
AcDbEntity
  8
2
  6
CONTINUOUS
370
25
 62
7
100
AcDbLine
 10
-4.523220766025792
 20
-13.09536584679484
 30
0.0
 11
-3.01548051068386
 21
-14.60310610213677
 31
0.0
  0
LINE
  5
4C3
330
1F
100
AcDbEntity
  8
2
  6
CONTINUOUS
370
25
 62
7
100
AcDbLine
 10
-3.992890680135886
 20
-13.20143186397282
 30
0.0
 11
-2.66192712009059
 21
-14.53239542401812
 31
0.0
  0
LINE
  5
4C4
330
1F
100
AcDbEntity
  8
2
  6
CONTINUOUS
370
25
 62
7
100
AcDbLine
 10
-3.462560594245976
 20
-13.30749788115081
 30
0.0
 11
-2.308373729497316
 21
-14.46168474589946
 31
0.0
  0
LINE
  5
4C5
330
1F
100
AcDbEntity
  8
2
  6
CONTINUOUS
370
25
 62
7
100
AcDbLine
 10
-2.932230508356062
 20
-13.41356389832879
 30
0.0
 11
-1.95482033890404
 21
-14.39097406778081
 31
0.0
  0
LINE
  5
4C6
330
1F
100
AcDbEntity
  8
2
  6
CONTINUOUS
370
25
 62
7
100
AcDbLine
 10
-2.401900422466154
 20
-13.51962991550677
 30
0.0
 11
-1.601266948310768
 21
-14.32026338966215
 31
0.0
  0
LINE
  5
4C7
330
1F
100
AcDbEntity
  8
2
  6
CONTINUOUS
370
25
 62
7
100
AcDbLine
 10
-1.871570336576243
 20
-13.62569593268475
 30
0.0
 11
-1.247713557717495
 21
-14.2495527115435
 31
0.0
  0
LINE
  5
4C8
330
1F
100
AcDbEntity
  8
2
  6
CONTINUOUS
370
25
 62
7
100
AcDbLine
 10
-1.341240250686331
 20
-13.73176194986273
 30
0.0
 11
-0.8941601671242202
 21
-14.17884203342484
 31
0.0
  0
LINE
  5
4C9
330
1F
100
AcDbEntity
  8
2
  6
CONTINUOUS
370
25
 62
7
100
AcDbLine
 10
-0.8109101647964205
 20
-13.83782796704071
 30
0.0
 11
-0.5406067765309467
 21
-14.10813135530619
 31
0.0
  0
LINE
  5
4CA
330
1F
100
AcDbEntity
  8
2
  6
CONTINUOUS
370
25
 62
7
100
AcDbLine
 10
-0.2805800789065122
 20
-13.9438939842187
 30
0.0
 11
-0.1870533859376747
 21
-14.03742067718754
 31
0.0
  0
LINE
  5
4CB
330
1F
100
AcDbEntity
  8
2
  6
CONTINUOUS
370
25
 62
7
100
AcDbLine
 10
1.009999999999999
 20
-14.00001
 30
0.0
 11
6.01
 21
-13.00001
 31
0.0
  0
LINE
  5
4CC
330
1F
100
AcDbEntity
  8
2
  6
CONTINUOUS
370
25
 62
7
100
AcDbLine
 10
6.01
 20
-13.00001
 30
0.0
 11
6.01
 21
-15.00001
 31
0.0
  0
LINE
  5
4CD
330
1F
100
AcDbEntity
  8
2
  6
CONTINUOUS
370
25
 62
7
100
AcDbLine
 10
6.01
 20
-15.00001
 30
0.0
 11
1.009999999999999
 21
-14.00001
 31
0.0
  0
LINE
  5
4CE
330
1F
100
AcDbEntity
  8
2
  6
CONTINUOUS
370
25
 62
7
100
AcDbLine
 10
5.927807349130338
 20
-14.98357146982607
 30
0.0
 11
6.01
 21
-14.90137881895641
 31
0.0
  0
LINE
  5
4CF
330
1F
100
AcDbEntity
  8
2
  6
CONTINUOUS
370
25
 62
7
100
AcDbLine
 10
5.574253958537062
 20
-14.91286079170741
 30
0.0
 11
6.01
 21
-14.47711475024447
 31
0.0
  0
LINE
  5
4D0
330
1F
100
AcDbEntity
  8
2
  6
CONTINUOUS
370
25
 62
7
100
AcDbLine
 10
5.220700567943789
 20
-14.84215011358876
 30
0.0
 11
6.01
 21
-14.05285068153255
 31
0.0
  0
LINE
  5
4D1
330
1F
100
AcDbEntity
  8
2
  6
CONTINUOUS
370
25
 62
7
100
AcDbLine
 10
4.867147177350516
 20
-14.7714394354701
 30
0.0
 11
6.01
 21
-13.62858661282062
 31
0.0
  0
LINE
  5
4D2
330
1F
100
AcDbEntity
  8
2
  6
CONTINUOUS
370
25
 62
7
100
AcDbLine
 10
4.513593786757243
 20
-14.70072875735145
 30
0.0
 11
6.01
 21
-13.20432254410869
 31
0.0
  0
LINE
  5
4D3
330
1F
100
AcDbEntity
  8
2
  6
CONTINUOUS
370
25
 62
7
100
AcDbLine
 10
4.16004039616397
 20
-14.63001807923279
 30
0.0
 11
5.735060594245956
 21
-13.05499788115081
 31
0.0
  0
LINE
  5
4D4
330
1F
100
AcDbEntity
  8
2
  6
CONTINUOUS
370
25
 62
7
100
AcDbLine
 10
3.806487005570697
 20
-14.55930740111414
 30
0.0
 11
5.204730508356046
 21
-13.16106389832879
 31
0.0
  0
LINE
  5
4D5
330
1F
100
AcDbEntity
  8
2
  6
CONTINUOUS
370
25
 62
7
100
AcDbLine
 10
3.452933614977423
 20
-14.48859672299549
 30
0.0
 11
4.674400422466136
 21
-13.26712991550677
 31
0.0
  0
LINE
  5
4D6
330
1F
100
AcDbEntity
  8
2
  6
CONTINUOUS
370
25
 62
7
100
AcDbLine
 10
3.099380224384151
 20
-14.41788604487683
 30
0.0
 11
4.144070336576227
 21
-13.37319593268476
 31
0.0
  0
LINE
  5
4D7
330
1F
100
AcDbEntity
  8
2
  6
CONTINUOUS
370
25
 62
7
100
AcDbLine
 10
2.745826833790878
 20
-14.34717536675818
 30
0.0
 11
3.613740250686317
 21
-13.47926194986274
 31
0.0
  0
LINE
  5
4D8
330
1F
100
AcDbEntity
  8
2
  6
CONTINUOUS
370
25
 62
7
100
AcDbLine
 10
2.392273443197604
 20
-14.27646468863952
 30
0.0
 11
3.083410164796407
 21
-13.58532796704072
 31
0.0
  0
LINE
  5
4D9
330
1F
100
AcDbEntity
  8
2
  6
CONTINUOUS
370
25
 62
7
100
AcDbLine
 10
2.038720052604331
 20
-14.20575401052087
 30
0.0
 11
2.553080078906497
 21
-13.6913939842187
 31
0.0
  0
LINE
  5
4DA
330
1F
100
AcDbEntity
  8
2
  6
CONTINUOUS
370
25
 62
7
100
AcDbLine
 10
1.685166662011056
 20
-14.13504333240221
 30
0.0
 11
2.022749993016586
 21
-13.79746000139668
 31
0.0
  0
LINE
  5
4DB
330
1F
100
AcDbEntity
  8
2
  6
CONTINUOUS
370
25
 62
7
100
AcDbLine
 10
1.331613271417784
 20
-14.06433265428356
 30
0.0
 11
1.492419907126676
 21
-13.90352601857466
 31
0.0
  0
LINE
  5
4DC
330
1F
100
AcDbEntity
  8
2
  6
CONTINUOUS
370
25
 62
7
100
AcDbLine
 10
1.159111849230475
 20
-13.97018763015391
 30
0.0
 11
1.233667773845714
 21
-14.04474355476914
 31
0.0
  0
LINE
  5
4DD
330
1F
100
AcDbEntity
  8
2
  6
CONTINUOUS
370
25
 62
7
100
AcDbLine
 10
1.512665239823749
 20
-13.89947695203525
 30
0.0
 11
1.763997859735624
 21
-14.15080957194712
 31
0.0
  0
LINE
  5
4DE
330
1F
100
AcDbEntity
  8
2
  6
CONTINUOUS
370
25
 62
7
100
AcDbLine
 10
1.866218630417022
 20
-13.82876627391659
 30
0.0
 11
2.294327945625534
 21
-14.25687558912511
 31
0.0
  0
LINE
  5
4DF
330
1F
100
AcDbEntity
  8
2
  6
CONTINUOUS
370
25
 62
7
100
AcDbLine
 10
2.219772021010296
 20
-13.75805559579794
 30
0.0
 11
2.824658031515444
 21
-14.36294160630309
 31
0.0
  0
LINE
  5
4E0
330
1F
100
AcDbEntity
  8
2
  6
CONTINUOUS
370
25
 62
7
100
AcDbLine
 10
2.573325411603568
 20
-13.68734491767929
 30
0.0
 11
3.354988117405354
 21
-14.46900762348107
 31
0.0
  0
LINE
  5
4E1
330
1F
100
AcDbEntity
  8
2
  6
CONTINUOUS
370
25
 62
7
100
AcDbLine
 10
2.926878802196841
 20
-13.61663423956063
 30
0.0
 11
3.885318203295264
 21
-14.57507364065905
 31
0.0
  0
LINE
  5
4E2
330
1F
100
AcDbEntity
  8
2
  6
CONTINUOUS
370
25
 62
7
100
AcDbLine
 10
3.280432192790115
 20
-13.54592356144198
 30
0.0
 11
4.415648289185174
 21
-14.68113965783703
 31
0.0
  0
LINE
  5
4E3
330
1F
100
AcDbEntity
  8
2
  6
CONTINUOUS
370
25
 62
7
100
AcDbLine
 10
3.633985583383388
 20
-13.47521288332332
 30
0.0
 11
4.945978375075083
 21
-14.78720567501502
 31
0.0
  0
LINE
  5
4E4
330
1F
100
AcDbEntity
  8
2
  6
CONTINUOUS
370
25
 62
7
100
AcDbLine
 10
3.987538973976661
 20
-13.40450220520467
 30
0.0
 11
5.476308460964994
 21
-14.893271692193
 31
0.0
  0
LINE
  5
4E5
330
1F
100
AcDbEntity
  8
2
  6
CONTINUOUS
370
25
 62
7
100
AcDbLine
 10
4.341092364569934
 20
-13.33379152708601
 30
0.0
 11
6.006638546854903
 21
-14.99933770937098
 31
0.0
  0
LINE
  5
4E6
330
1F
100
AcDbEntity
  8
2
  6
CONTINUOUS
370
25
 62
7
100
AcDbLine
 10
4.694645755163207
 20
-13.26308084896736
 30
0.0
 11
6.01
 21
-14.57843509380415
 31
0.0
  0
LINE
  5
4E7
330
1F
100
AcDbEntity
  8
2
  6
CONTINUOUS
370
25
 62
7
100
AcDbLine
 10
5.048199145756481
 20
-13.1923701708487
 30
0.0
 11
6.01
 21
-14.15417102509222
 31
0.0
  0
LINE
  5
4E8
330
1F
100
AcDbEntity
  8
2
  6
CONTINUOUS
370
25
 62
7
100
AcDbLine
 10
5.401752536349754
 20
-13.12165949273005
 30
0.0
 11
6.01
 21
-13.72990695638029
 31
0.0
  0
LINE
  5
4E9
330
1F
100
AcDbEntity
  8
2
  6
CONTINUOUS
370
25
 62
7
100
AcDbLine
 10
5.755305926943028
 20
-13.05094881461139
 30
0.0
 11
6.01
 21
-13.30564288766837
 31
0.0
  0
TEXT
  5
4EA
330
1F
100
AcDbEntity
  8
2
  6
CONTINUOUS
370
25
 62
7
100
AcDbText
 10
-15.52916666666667
 20
-13.00001
 30
0.0
 40
3.5
  1
1.01
 72
     1
 11
-11.7375
 21
-13.00001
 31
0.0
100
AcDbText
  0
LINE
  5
4EB
330
1F
100
AcDbEntity
  8
NOCUT
  6
CONTINUOUS
370
25
 62
7
100
AcDbLine
 10
1.0
 20
0.0
 30
0.0
 11
43.55
 21
0.0
 31
0.0
  0
LINE
  5
4EC
330
1F
100
AcDbEntity
  8
NOCUT
  6
CONTINUOUS
370
25
 62
7
100
AcDbLine
 10
43.55
 20
0.0
 30
0.0
 11
43.55
 21
3.08
 31
0.0
  0
LINE
  5
4ED
330
1F
100
AcDbEntity
  8
NOCUT
  6
CONTINUOUS
370
25
 62
7
100
AcDbLine
 10
43.55
 20
3.08
 30
0.0
 11
3.549999999999997
 21
3.08
 31
0.0
  0
LINE
  5
4EE
330
1F
100
AcDbEntity
  8
NOCUT
  6
CONTINUOUS
370
25
 62
7
100
AcDbLine
 10
3.549999999999997
 20
3.08
 30
0.0
 11
3.549999999999997
 21
3.88
 31
0.0
  0
LINE
  5
4EF
330
1F
100
AcDbEntity
  8
NOCUT
  6
CONTINUOUS
370
25
 62
7
100
AcDbLine
 10
3.549999999999997
 20
3.88
 30
0.0
 11
2.877964286663273
 21
3.492
 31
0.0
  0
LINE
  5
4F0
330
1F
100
AcDbEntity
  8
NOCUT
  6
CONTINUOUS
370
25
 62
7
100
AcDbLine
 10
2.877964286663273
 20
3.492
 30
0.0
 11
1.87988181024499
 21
3.492
 31
0.0
  0
LINE
  5
4F1
330
1F
100
AcDbEntity
  8
NOCUT
  6
CONTINUOUS
370
25
 62
7
100
AcDbLine
 10
1.87988181024499
 20
3.492
 30
0.0
 11
1.0
 21
4.0
 31
0.0
  0
LINE
  5
4F2
330
1F
100
AcDbEntity
  8
CUT
  6
CONTINUOUS
370
25
 62
1
100
AcDbLine
 10
2.164359353944895
 20
3.08
 30
0.0
 11
3.549999999999997
 21
3.88
 31
0.0
  0
LINE
  5
4F3
330
1F
100
AcDbEntity
  8
CUT
  6
CONTINUOUS
370
25
 62
1
100
AcDbLine
 10
3.549999999999997
 20
3.88
 30
0.0
 11
42.75
 21
3.88
 31
0.0
  0
LINE
  5
4F4
330
1F
100
AcDbEntity
  8
CUT
  6
CONTINUOUS
370
25
 62
1
100
AcDbLine
 10
42.75
 20
3.88
 30
0.0
 11
43.55
 21
3.08
 31
0.0
  0
LINE
  5
4F5
330
1F
100
AcDbEntity
  8
CUT
  6
CONTINUOUS
370
25
 62
1
100
AcDbLine
 10
43.55
 20
3.08
 30
0.0
 11
2.164359353944896
 21
3.08
 31
0.0
  0
LINE
  5
4F6
330
1F
100
AcDbEntity
  8
2
  6
CONTINUOUS
370
25
 62
7
100
AcDbLine
 10
43.55
 20
-3.88
 30
0.0
 11
54.55
 21
-3.88
 31
0.0
  0
LINE
  5
4F7
330
1F
100
AcDbEntity
  8
2
  6
CONTINUOUS
370
25
 62
7
100
AcDbLine
 10
54.55
 20
3.88
 30
0.0
 11
43.55
 21
3.88
 31
0.0
  0
LINE
  5
4F8
330
1F
100
AcDbEntity
  8
2
  6
CONTINUOUS
370
25
 62
7
100
AcDbLine
 10
53.55
 20
29.0925
 30
0.0
 11
53.55
 21
-13.88000000000001
 31
0.0
  0
LINE
  5
4F9
330
1F
100
AcDbEntity
  8
2
  6
CONTINUOUS
370
25
 62
7
100
AcDbLine
 10
53.55
 20
-3.88
 30
0.0
 11
54.55
 21
-8.879999999999999
 31
0.0
  0
LINE
  5
4FA
330
1F
100
AcDbEntity
  8
2
  6
CONTINUOUS
370
25
 62
7
100
AcDbLine
 10
54.55
 20
-8.879999999999999
 30
0.0
 11
52.55
 21
-8.879999999999999
 31
0.0
  0
LINE
  5
4FB
330
1F
100
AcDbEntity
  8
2
  6
CONTINUOUS
370
25
 62
7
100
AcDbLine
 10
52.55
 20
-8.879999999999999
 30
0.0
 11
53.55
 21
-3.88
 31
0.0
  0
LINE
  5
4FC
330
1F
100
AcDbEntity
  8
2
  6
CONTINUOUS
370
25
 62
7
100
AcDbLine
 10
54.4449519477636
 20
-8.879999999999995
 30
0.0
 11
54.53249199129394
 21
-8.792459956469656
 31
0.0
  0
LINE
  5
4FD
330
1F
100
AcDbEntity
  8
2
  6
CONTINUOUS
370
25
 62
7
100
AcDbLine
 10
54.02068787905166
 20
-8.879999999999995
 30
0.0
 11
54.46178131317527
 21
-8.438906565876387
 31
0.0
  0
LINE
  5
4FE
330
1F
100
AcDbEntity
  8
2
  6
CONTINUOUS
370
25
 62
7
100
AcDbLine
 10
53.59642381033973
 20
-8.880000000000003
 30
0.0
 11
54.39107063505662
 21
-8.08535317528311
 31
0.0
  0
LINE
  5
4FF
330
1F
100
AcDbEntity
  8
2
  6
CONTINUOUS
370
25
 62
7
100
AcDbLine
 10
53.1721597416278
 20
-8.879999999999995
 30
0.0
 11
54.32035995693796
 21
-7.731799784689841
 31
0.0
  0
LINE
  5
500
330
1F
100
AcDbEntity
  8
2
  6
CONTINUOUS
370
25
 62
7
100
AcDbLine
 10
52.74789567291587
 20
-8.880000000000003
 30
0.0
 11
54.24964927881931
 21
-7.378246394096564
 31
0.0
  0
LINE
  5
501
330
1F
100
AcDbEntity
  8
2
  6
CONTINUOUS
370
25
 62
7
100
AcDbLine
 10
52.60659209894901
 20
-8.597039505254934
 30
0.0
 11
54.17893860070065
 21
-7.024693003503288
 31
0.0
  0
LINE
  5
502
330
1F
100
AcDbEntity
  8
2
  6
CONTINUOUS
370
25
 62
7
100
AcDbLine
 10
52.71265811612699
 20
-8.066709419365019
 30
0.0
 11
54.108227922582
 21
-6.671139612910011
 31
0.0
  0
LINE
  5
503
330
1F
100
AcDbEntity
  8
2
  6
CONTINUOUS
370
25
 62
7
100
AcDbLine
 10
52.81872413330498
 20
-7.536379333475097
 30
0.0
 11
54.03751724446334
 21
-6.317586222316727
 31
0.0
  0
LINE
  5
504
330
1F
100
AcDbEntity
  8
2
  6
CONTINUOUS
370
25
 62
7
100
AcDbLine
 10
52.92479015048296
 20
-7.006049247585182
 30
0.0
 11
53.96680656634469
 21
-5.964032831723451
 31
0.0
  0
LINE
  5
505
330
1F
100
AcDbEntity
  8
2
  6
CONTINUOUS
370
25
 62
7
100
AcDbLine
 10
53.03085616766094
 20
-6.475719161695274
 30
0.0
 11
53.89609588822604
 21
-5.610479441130181
 31
0.0
  0
LINE
  5
506
330
1F
100
AcDbEntity
  8
2
  6
CONTINUOUS
370
25
 62
7
100
AcDbLine
 10
53.13692218483893
 20
-5.945389075805352
 30
0.0
 11
53.82538521010738
 21
-5.256926050536904
 31
0.0
  0
LINE
  5
507
330
1F
100
AcDbEntity
  8
2
  6
CONTINUOUS
370
25
 62
7
100
AcDbLine
 10
53.24298820201691
 20
-5.415058989915437
 30
0.0
 11
53.75467453198872
 21
-4.903372659943628
 31
0.0
  0
LINE
  5
508
330
1F
100
AcDbEntity
  8
2
  6
CONTINUOUS
370
25
 62
7
100
AcDbLine
 10
53.34905421919489
 20
-4.884728904025529
 30
0.0
 11
53.68396385387007
 21
-4.549819269350351
 31
0.0
  0
LINE
  5
509
330
1F
100
AcDbEntity
  8
2
  6
CONTINUOUS
370
25
 62
7
100
AcDbLine
 10
53.45512023637288
 20
-4.3543988181356
 30
0.0
 11
53.6132531757514
 21
-4.196265878757075
 31
0.0
  0
LINE
  5
50A
330
1F
100
AcDbEntity
  8
2
  6
CONTINUOUS
370
25
 62
7
100
AcDbLine
 10
52.55486651288811
 20
-8.855667435559475
 30
0.0
 11
52.57919907732864
 21
-8.880000000000003
 31
0.0
  0
LINE
  5
50B
330
1F
100
AcDbEntity
  8
2
  6
CONTINUOUS
370
25
 62
7
100
AcDbLine
 10
52.62557719100676
 20
-8.502114044966184
 30
0.0
 11
53.00346314604057
 21
-8.880000000000003
 31
0.0
  0
LINE
  5
50C
330
1F
100
AcDbEntity
  8
2
  6
CONTINUOUS
370
25
 62
7
100
AcDbLine
 10
52.69628786912541
 20
-8.148560654372908
 30
0.0
 11
53.4277272147525
 21
-8.879999999999995
 31
0.0
  0
LINE
  5
50D
330
1F
100
AcDbEntity
  8
2
  6
CONTINUOUS
370
25
 62
7
100
AcDbLine
 10
52.76699854724407
 20
-7.795007263779638
 30
0.0
 11
53.85199128346444
 21
-8.879999999999995
 31
0.0
  0
LINE
  5
50E
330
1F
100
AcDbEntity
  8
2
  6
CONTINUOUS
370
25
 62
7
100
AcDbLine
 10
52.83770922536272
 20
-7.441453873186354
 30
0.0
 11
54.27625535217637
 21
-8.879999999999995
 31
0.0
  0
LINE
  5
50F
330
1F
100
AcDbEntity
  8
2
  6
CONTINUOUS
370
25
 62
7
100
AcDbLine
 10
52.90841990348137
 20
-7.087900482593078
 30
0.0
 11
54.51237014477793
 21
-8.691850723889623
 31
0.0
  0
LINE
  5
510
330
1F
100
AcDbEntity
  8
2
  6
CONTINUOUS
370
25
 62
7
100
AcDbLine
 10
52.97913058160003
 20
-6.734347091999801
 30
0.0
 11
54.40630412759995
 21
-8.161520637999715
 31
0.0
  0
LINE
  5
511
330
1F
100
AcDbEntity
  8
2
  6
CONTINUOUS
370
25
 62
7
100
AcDbLine
 10
53.04984125971868
 20
-6.380793701406525
 30
0.0
 11
54.30023811042197
 21
-7.631190552109807
 31
0.0
  0
LINE
  5
512
330
1F
100
AcDbEntity
  8
2
  6
CONTINUOUS
370
25
 62
7
100
AcDbLine
 10
53.12055193783735
 20
-6.027240310813255
 30
0.0
 11
54.19417209324398
 21
-7.100860466219885
 31
0.0
  0
LINE
  5
513
330
1F
100
AcDbEntity
  8
2
  6
CONTINUOUS
370
25
 62
7
100
AcDbLine
 10
53.191262615956
 20
-5.673686920219978
 30
0.0
 11
54.088106076066
 21
-6.570530380329977
 31
0.0
  0
LINE
  5
514
330
1F
100
AcDbEntity
  8
2
  6
CONTINUOUS
370
25
 62
7
100
AcDbLine
 10
53.26197329407465
 20
-5.320133529626695
 30
0.0
 11
53.98204005888801
 21
-6.040200294440055
 31
0.0
  0
LINE
  5
515
330
1F
100
AcDbEntity
  8
2
  6
CONTINUOUS
370
25
 62
7
100
AcDbLine
 10
53.33268397219332
 20
-4.966580139033432
 30
0.0
 11
53.87597404171003
 21
-5.509870208550147
 31
0.0
  0
LINE
  5
516
330
1F
100
AcDbEntity
  8
2
  6
CONTINUOUS
370
25
 62
7
100
AcDbLine
 10
53.40339465031197
 20
-4.613026748440149
 30
0.0
 11
53.76990802453204
 21
-4.979540122660225
 31
0.0
  0
LINE
  5
517
330
1F
100
AcDbEntity
  8
2
  6
CONTINUOUS
370
25
 62
7
100
AcDbLine
 10
53.47410532843062
 20
-4.259473357846872
 30
0.0
 11
53.66384200735406
 21
-4.44921003677031
 31
0.0
  0
LINE
  5
518
330
1F
100
AcDbEntity
  8
2
  6
CONTINUOUS
370
25
 62
7
100
AcDbLine
 10
53.54481600654928
 20
-3.905919967253595
 30
0.0
 11
53.55777599017608
 21
-3.918879950880395
 31
0.0
  0
LINE
  5
519
330
1F
100
AcDbEntity
  8
2
  6
CONTINUOUS
370
25
 62
7
100
AcDbLine
 10
53.55
 20
3.88
 30
0.0
 11
52.55
 21
8.879999999999999
 31
0.0
  0
LINE
  5
51A
330
1F
100
AcDbEntity
  8
2
  6
CONTINUOUS
370
25
 62
7
100
AcDbLine
 10
52.55
 20
8.879999999999999
 30
0.0
 11
54.55
 21
8.879999999999999
 31
0.0
  0
LINE
  5
51B
330
1F
100
AcDbEntity
  8
2
  6
CONTINUOUS
370
25
 62
7
100
AcDbLine
 10
54.55
 20
8.879999999999999
 30
0.0
 11
53.55
 21
3.88
 31
0.0
  0
LINE
  5
51C
330
1F
100
AcDbEntity
  8
2
  6
CONTINUOUS
370
25
 62
7
100
AcDbLine
 10
53.48168030049761
 20
4.221598497511941
 30
0.0
 11
53.65247954925358
 21
4.392397746267918
 31
0.0
  0
LINE
  5
51D
330
1F
100
AcDbEntity
  8
2
  6
CONTINUOUS
370
25
 62
7
100
AcDbLine
 10
53.41096962237894
 20
4.575151888105204
 30
0.0
 11
53.75854556643156
 21
4.922727832157825
 31
0.0
  0
LINE
  5
51E
330
1F
100
AcDbEntity
  8
2
  6
CONTINUOUS
370
25
 62
7
100
AcDbLine
 10
53.34025894426029
 20
4.92870527869848
 30
0.0
 11
53.86461158360954
 21
5.453057918047733
 31
0.0
  0
LINE
  5
51F
330
1F
100
AcDbEntity
  8
2
  6
CONTINUOUS
370
25
 62
7
100
AcDbLine
 10
53.26954826614164
 20
5.282258669291771
 30
0.0
 11
53.97067760078753
 21
5.983388003937655
 31
0.0
  0
LINE
  5
520
330
1F
100
AcDbEntity
  8
2
  6
CONTINUOUS
370
25
 62
7
100
AcDbLine
 10
53.19883758802298
 20
5.635812059885048
 30
0.0
 11
54.07674361796551
 21
6.51371808982757
 31
0.0
  0
LINE
  5
521
330
1F
100
AcDbEntity
  8
2
  6
CONTINUOUS
370
25
 62
7
100
AcDbLine
 10
53.12812690990434
 20
5.989365450478331
 30
0.0
 11
54.1828096351435
 21
7.044048175717492
 31
0.0
  0
LINE
  5
522
330
1F
100
AcDbEntity
  8
2
  6
CONTINUOUS
370
25
 62
7
100
AcDbLine
 10
53.05741623178568
 20
6.342918841071608
 30
0.0
 11
54.28887565232149
 21
7.574378261607414
 31
0.0
  0
LINE
  5
523
330
1F
100
AcDbEntity
  8
2
  6
CONTINUOUS
370
25
 62
7
100
AcDbLine
 10
52.98670555366702
 20
6.696472231664877
 30
0.0
 11
54.39494166949947
 21
8.104708347497322
 31
0.0
  0
LINE
  5
524
330
1F
100
AcDbEntity
  8
2
  6
CONTINUOUS
370
25
 62
7
100
AcDbLine
 10
52.91599487554837
 20
7.050025622258161
 30
0.0
 11
54.50100768667745
 21
8.635038433387237
 31
0.0
  0
LINE
  5
525
330
1F
100
AcDbEntity
  8
2
  6
CONTINUOUS
370
25
 62
7
100
AcDbLine
 10
52.84528419742972
 20
7.403579012851431
 30
0.0
 11
54.32170518457829
 21
8.880000000000003
 31
0.0
  0
LINE
  5
526
330
1F
100
AcDbEntity
  8
2
  6
CONTINUOUS
370
25
 62
7
100
AcDbLine
 10
52.77457351931105
 20
7.7571324034447
 30
0.0
 11
53.89744111586636
 21
8.880000000000003
 31
0.0
  0
LINE
  5
527
330
1F
100
AcDbEntity
  8
2
  6
CONTINUOUS
370
25
 62
7
100
AcDbLine
 10
52.7038628411924
 20
8.110685794037977
 30
0.0
 11
53.47317704715442
 21
8.879999999999995
 31
0.0
  0
LINE
  5
528
330
1F
100
AcDbEntity
  8
2
  6
CONTINUOUS
370
25
 62
7
100
AcDbLine
 10
52.63315216307375
 20
8.464239184631253
 30
0.0
 11
53.04891297844249
 21
8.879999999999995
 31
0.0
  0
LINE
  5
529
330
1F
100
AcDbEntity
  8
2
  6
CONTINUOUS
370
25
 62
7
100
AcDbLine
 10
52.56244148495509
 20
8.817792575224537
 30
0.0
 11
52.62464890973055
 21
8.879999999999995
 31
0.0
  0
LINE
  5
52A
330
1F
100
AcDbEntity
  8
2
  6
CONTINUOUS
370
25
 62
7
100
AcDbLine
 10
53.48252166379443
 20
4.217391681027834
 30
0.0
 11
53.59498555747038
 21
4.104927787351883
 31
0.0
  0
LINE
  5
52B
330
1F
100
AcDbEntity
  8
2
  6
CONTINUOUS
370
25
 62
7
100
AcDbLine
 10
53.37645564661645
 20
4.747721766917735
 30
0.0
 11
53.66569623558903
 21
4.458481177945153
 31
0.0
  0
LINE
  5
52C
330
1F
100
AcDbEntity
  8
2
  6
CONTINUOUS
370
25
 62
7
100
AcDbLine
 10
53.27038962943847
 20
5.27805185280765
 30
0.0
 11
53.73640691370768
 21
4.812034568538436
 31
0.0
  0
LINE
  5
52D
330
1F
100
AcDbEntity
  8
2
  6
CONTINUOUS
370
25
 62
7
100
AcDbLine
 10
53.16432361226049
 20
5.808381938697565
 30
0.0
 11
53.80711759182634
 21
5.165587959131713
 31
0.0
  0
LINE
  5
52E
330
1F
100
AcDbEntity
  8
2
  6
CONTINUOUS
370
25
 62
7
100
AcDbLine
 10
53.05825759508251
 20
6.33871202458748
 30
0.0
 11
53.87782826994499
 21
5.519141349724997
 31
0.0
  0
LINE
  5
52F
330
1F
100
AcDbEntity
  8
2
  6
CONTINUOUS
370
25
 62
7
100
AcDbLine
 10
52.95219157790452
 20
6.869042110477402
 30
0.0
 11
53.94853894806364
 21
5.872694740318281
 31
0.0
  0
LINE
  5
530
330
1F
100
AcDbEntity
  8
2
  6
CONTINUOUS
370
25
 62
7
100
AcDbLine
 10
52.84612556072654
 20
7.39937219636731
 30
0.0
 11
54.01924962618231
 21
6.226248130911543
 31
0.0
  0
LINE
  5
531
330
1F
100
AcDbEntity
  8
2
  6
CONTINUOUS
370
25
 62
7
100
AcDbLine
 10
52.74005954354855
 20
7.929702282257232
 30
0.0
 11
54.08996030430096
 21
6.57980152150482
 31
0.0
  0
LINE
  5
532
330
1F
100
AcDbEntity
  8
2
  6
CONTINUOUS
370
25
 62
7
100
AcDbLine
 10
52.63399352637056
 20
8.460032368147154
 30
0.0
 11
54.16067098241962
 21
6.933354912098089
 31
0.0
  0
LINE
  5
533
330
1F
100
AcDbEntity
  8
2
  6
CONTINUOUS
370
25
 62
7
100
AcDbLine
 10
52.63828996322965
 20
8.879999999999995
 30
0.0
 11
54.23138166053828
 21
7.286908302691373
 31
0.0
  0
LINE
  5
534
330
1F
100
AcDbEntity
  8
2
  6
CONTINUOUS
370
25
 62
7
100
AcDbLine
 10
53.06255403194157
 20
8.880000000000003
 30
0.0
 11
54.30209233865693
 21
7.640461693284649
 31
0.0
  0
LINE
  5
535
330
1F
100
AcDbEntity
  8
2
  6
CONTINUOUS
370
25
 62
7
100
AcDbLine
 10
53.4868181006535
 20
8.879999999999995
 30
0.0
 11
54.37280301677558
 21
7.994015083877919
 31
0.0
  0
LINE
  5
536
330
1F
100
AcDbEntity
  8
2
  6
CONTINUOUS
370
25
 62
7
100
AcDbLine
 10
53.91108216936544
 20
8.879999999999995
 30
0.0
 11
54.44351369489424
 21
8.347568474471203
 31
0.0
  0
LINE
  5
537
330
1F
100
AcDbEntity
  8
2
  6
CONTINUOUS
370
25
 62
7
100
AcDbLine
 10
54.33534623807738
 20
8.879999999999995
 30
0.0
 11
54.5142243730129
 21
8.701121865064472
 31
0.0
  0
TEXT
  5
538
330
1F
100
AcDbEntity
  8
2
  6
CONTINUOUS
370
25
 62
7
100
AcDbText
 10
52.55
 20
15.23625
 30
0.0
 40
3.5
  1
7.76
 50
90.00000000000001
 72
     1
 11
52.55
 21
20.48625
 31
0.0
100
AcDbText
  0
CIRCLE
  5
539
330
1F
100
AcDbEntity
  8
2
  6
CONTINUOUS
370
25
 62
7
100
AcDbCircle
 10
51.01875
 20
11.115
 30
0.0
 40
1.53125
  0
LINE
  5
53A
330
1F
100
AcDbEntity
  8
2
  6
CONTINUOUS
370
25
 62
7
100
AcDbLine
 10
52.55
 20
9.583749999999998
 30
0.0
 11
49.4875
 21
12.64625
 31
0.0
  0
LINE
  5
53B
330
1F
100
AcDbEntity
  8
SK2
  6
CONTINUOUS
370
25
 62
7
100
AcDbLine
 10
-46.45
 20
0.0
 30
0.0
 11
-46.45
 21
22.00001
 31
0.0
  0
LINE
  5
53C
330
1F
100
AcDbEntity
  8
SK2
  6
CONTINUOUS
370
25
 62
7
100
AcDbLine
 10
43.55
 20
22.00001
 30
0.0
 11
43.55
 21
3.879999999999999
 31
0.0
  0
LINE
  5
53D
330
1F
100
AcDbEntity
  8
SK2
  6
CONTINUOUS
370
25
 62
7
100
AcDbLine
 10
-46.45
 20
21.00001
 30
0.0
 11
43.55
 21
21.00001
 31
0.0
  0
LINE
  5
53E
330
1F
100
AcDbEntity
  8
SK2
  6
CONTINUOUS
370
25
 62
7
100
AcDbLine
 10
-46.45
 20
21.00001
 30
0.0
 11
-41.45
 21
22.00001
 31
0.0
  0
LINE
  5
53F
330
1F
100
AcDbEntity
  8
SK2
  6
CONTINUOUS
370
25
 62
7
100
AcDbLine
 10
-41.45
 20
22.00001
 30
0.0
 11
-41.45
 21
20.00001
 31
0.0
  0
LINE
  5
540
330
1F
100
AcDbEntity
  8
SK2
  6
CONTINUOUS
370
25
 62
7
100
AcDbLine
 10
-41.45
 20
20.00001
 30
0.0
 11
-46.45
 21
21.00001
 31
0.0
  0
LINE
  5
541
330
1F
100
AcDbEntity
  8
SK2
  6
CONTINUOUS
370
25
 62
7
100
AcDbLine
 10
-41.50689996935804
 20
20.0113899938716
 30
0.0
 11
-41.45
 21
20.06828996322964
 31
0.0
  0
LINE
  5
542
330
1F
100
AcDbEntity
  8
SK2
  6
CONTINUOUS
370
25
 62
7
100
AcDbLine
 10
-41.86045335995131
 20
20.08210067199025
 30
0.0
 11
-41.45
 21
20.49255403194157
 31
0.0
  0
LINE
  5
543
330
1F
100
AcDbEntity
  8
SK2
  6
CONTINUOUS
370
25
 62
7
100
AcDbLine
 10
-42.21400675054459
 20
20.15281135010891
 30
0.0
 11
-41.45
 21
20.9168181006535
 31
0.0
  0
LINE
  5
544
330
1F
100
AcDbEntity
  8
SK2
  6
CONTINUOUS
370
25
 62
7
100
AcDbLine
 10
-42.56756014113787
 20
20.22352202822756
 30
0.0
 11
-41.45
 21
21.34108216936543
 31
0.0
  0
LINE
  5
545
330
1F
100
AcDbEntity
  8
SK2
  6
CONTINUOUS
370
25
 62
7
100
AcDbLine
 10
-42.92111353173114
 20
20.29423270634622
 30
0.0
 11
-41.45
 21
21.76534623807736
 31
0.0
  0
LINE
  5
546
330
1F
100
AcDbEntity
  8
SK2
  6
CONTINUOUS
370
25
 62
7
100
AcDbLine
 10
-43.27466692232442
 20
20.36494338446487
 30
0.0
 11
-41.68700038348661
 21
21.95260992330268
 31
0.0
  0
LINE
  5
547
330
1F
100
AcDbEntity
  8
SK2
  6
CONTINUOUS
370
25
 62
7
100
AcDbLine
 10
-43.62822031291769
 20
20.43565406258353
 30
0.0
 11
-42.21733046937653
 21
21.84654390612469
 31
0.0
  0
LINE
  5
548
330
1F
100
AcDbEntity
  8
SK2
  6
CONTINUOUS
370
25
 62
7
100
AcDbLine
 10
-43.98177370351097
 20
20.5063647407022
 30
0.0
 11
-42.74766055526646
 21
21.74047788894671
 31
0.0
  0
LINE
  5
549
330
1F
100
AcDbEntity
  8
SK2
  6
CONTINUOUS
370
25
 62
7
100
AcDbLine
 10
-44.33532709410424
 20
20.57707541882085
 30
0.0
 11
-43.27799064115636
 21
21.63441187176873
 31
0.0
  0
LINE
  5
54A
330
1F
100
AcDbEntity
  8
SK2
  6
CONTINUOUS
370
25
 62
7
100
AcDbLine
 10
-44.68888048469751
 20
20.64778609693951
 30
0.0
 11
-43.80832072704627
 21
21.52834585459075
 31
0.0
  0
LINE
  5
54B
330
1F
100
AcDbEntity
  8
SK2
  6
CONTINUOUS
370
25
 62
7
100
AcDbLine
 10
-45.0424338752908
 20
20.71849677505816
 30
0.0
 11
-44.33865081293619
 21
21.42227983741276
 31
0.0
  0
LINE
  5
54C
330
1F
100
AcDbEntity
  8
SK2
  6
CONTINUOUS
370
25
 62
7
100
AcDbLine
 10
-45.39598726588407
 20
20.78920745317681
 30
0.0
 11
-44.86898089882611
 21
21.31621382023478
 31
0.0
  0
LINE
  5
54D
330
1F
100
AcDbEntity
  8
SK2
  6
CONTINUOUS
370
25
 62
7
100
AcDbLine
 10
-45.74954065647735
 20
20.85991813129547
 30
0.0
 11
-45.39931098471603
 21
21.21014780305679
 31
0.0
  0
LINE
  5
54E
330
1F
100
AcDbEntity
  8
SK2
  6
CONTINUOUS
370
25
 62
7
100
AcDbLine
 10
-46.10309404707062
 20
20.93062880941412
 30
0.0
 11
-45.92964107060593
 21
21.10408178587881
 31
0.0
  0
LINE
  5
54F
330
1F
100
AcDbEntity
  8
SK2
  6
CONTINUOUS
370
25
 62
7
100
AcDbLine
 10
-46.43115649023121
 20
21.00377870195375
 30
0.0
 11
-46.42173473534682
 21
20.99435694706937
 31
0.0
  0
LINE
  5
550
330
1F
100
AcDbEntity
  8
SK2
  6
CONTINUOUS
370
25
 62
7
100
AcDbLine
 10
-46.07760309963794
 20
21.07448938007241
 30
0.0
 11
-45.89140464945691
 21
20.88829092989138
 31
0.0
  0
LINE
  5
551
330
1F
100
AcDbEntity
  8
SK2
  6
CONTINUOUS
370
25
 62
7
100
AcDbLine
 10
-45.72404970904466
 20
21.14520005819107
 30
0.0
 11
-45.36107456356699
 21
20.7822249127134
 31
0.0
  0
LINE
  5
552
330
1F
100
AcDbEntity
  8
SK2
  6
CONTINUOUS
370
25
 62
7
100
AcDbLine
 10
-45.37049631845139
 20
21.21591073630972
 30
0.0
 11
-44.83074447767708
 21
20.67615889553542
 31
0.0
  0
LINE
  5
553
330
1F
100
AcDbEntity
  8
SK2
  6
CONTINUOUS
370
25
 62
7
100
AcDbLine
 10
-45.0169429278581
 20
21.28662141442837
 30
0.0
 11
-44.30041439178717
 21
20.57009287835744
 31
0.0
  0
LINE
  5
554
330
1F
100
AcDbEntity
  8
SK2
  6
CONTINUOUS
370
25
 62
7
100
AcDbLine
 10
-44.66338953726483
 20
21.35733209254703
 30
0.0
 11
-43.77008430589725
 21
20.46402686117945
 31
0.0
  0
LINE
  5
555
330
1F
100
AcDbEntity
  8
SK2
  6
CONTINUOUS
370
25
 62
7
100
AcDbLine
 10
-44.30983614667156
 20
21.42804277066569
 30
0.0
 11
-43.23975422000734
 21
20.35796084400147
 31
0.0
  0
LINE
  5
556
330
1F
100
AcDbEntity
  8
SK2
  6
CONTINUOUS
370
25
 62
7
100
AcDbLine
 10
-43.95628275607828
 20
21.49875344878434
 30
0.0
 11
-42.70942413411742
 21
20.25189482682348
 31
0.0
  0
LINE
  5
557
330
1F
100
AcDbEntity
  8
SK2
  6
CONTINUOUS
370
25
 62
7
100
AcDbLine
 10
-43.602729365485
 20
21.569464126903
 30
0.0
 11
-42.17909404822751
 21
20.1458288096455
 31
0.0
  0
LINE
  5
558
330
1F
100
AcDbEntity
  8
SK2
  6
CONTINUOUS
370
25
 62
7
100
AcDbLine
 10
-43.24917597489173
 20
21.64017480502165
 30
0.0
 11
-41.64876396233759
 21
20.03976279246751
 31
0.0
  0
LINE
  5
559
330
1F
100
AcDbEntity
  8
SK2
  6
CONTINUOUS
370
25
 62
7
100
AcDbLine
 10
-42.89562258429846
 20
21.71088548314031
 30
0.0
 11
-41.45
 21
20.26526289884186
 31
0.0
  0
LINE
  5
55A
330
1F
100
AcDbEntity
  8
SK2
  6
CONTINUOUS
370
25
 62
7
100
AcDbLine
 10
-42.54206919370517
 20
21.78159616125896
 30
0.0
 11
-41.45
 21
20.68952696755379
 31
0.0
  0
LINE
  5
55B
330
1F
100
AcDbEntity
  8
SK2
  6
CONTINUOUS
370
25
 62
7
100
AcDbLine
 10
-42.1885158031119
 20
21.85230683937761
 30
0.0
 11
-41.45
 21
21.11379103626572
 31
0.0
  0
LINE
  5
55C
330
1F
100
AcDbEntity
  8
SK2
  6
CONTINUOUS
370
25
 62
7
100
AcDbLine
 10
-41.83496241251862
 20
21.92301751749627
 30
0.0
 11
-41.45
 21
21.53805510497765
 31
0.0
  0
LINE
  5
55D
330
1F
100
AcDbEntity
  8
SK2
  6
CONTINUOUS
370
25
 62
7
100
AcDbLine
 10
-41.48140902192535
 20
21.99372819561493
 30
0.0
 11
-41.45
 21
21.96231917368958
 31
0.0
  0
LINE
  5
55E
330
1F
100
AcDbEntity
  8
SK2
  6
CONTINUOUS
370
25
 62
7
100
AcDbLine
 10
43.55
 20
21.00001
 30
0.0
 11
38.55
 21
20.00001
 31
0.0
  0
LINE
  5
55F
330
1F
100
AcDbEntity
  8
SK2
  6
CONTINUOUS
370
25
 62
7
100
AcDbLine
 10
38.55
 20
20.00001
 30
0.0
 11
38.55
 21
22.00001
 31
0.0
  0
LINE
  5
560
330
1F
100
AcDbEntity
  8
SK2
  6
CONTINUOUS
370
25
 62
7
100
AcDbLine
 10
38.55
 20
22.00001
 30
0.0
 11
43.55
 21
21.00001
 31
0.0
  0
LINE
  5
561
330
1F
100
AcDbEntity
  8
SK2
  6
CONTINUOUS
370
25
 62
7
100
AcDbLine
 10
43.07871525068627
 20
20.90575305013726
 30
0.0
 11
43.23581016712418
 21
21.06284796657516
 31
0.0
  0
LINE
  5
562
330
1F
100
AcDbEntity
  8
SK2
  6
CONTINUOUS
370
25
 62
7
100
AcDbLine
 10
42.54838516479636
 20
20.79968703295928
 30
0.0
 11
42.88225677653092
 21
21.13355864469383
 31
0.0
  0
LINE
  5
563
330
1F
100
AcDbEntity
  8
SK2
  6
CONTINUOUS
370
25
 62
7
100
AcDbLine
 10
42.01805507890644
 20
20.69362101578129
 30
0.0
 11
42.52870338593763
 21
21.20426932281248
 31
0.0
  0
LINE
  5
564
330
1F
100
AcDbEntity
  8
SK2
  6
CONTINUOUS
370
25
 62
7
100
AcDbLine
 10
41.48772499301653
 20
20.58755499860331
 30
0.0
 11
42.17514999534436
 21
21.27498000093113
 31
0.0
  0
LINE
  5
565
330
1F
100
AcDbEntity
  8
SK2
  6
CONTINUOUS
370
25
 62
7
100
AcDbLine
 10
40.95739490712662
 20
20.48148898142533
 30
0.0
 11
41.82159660475108
 21
21.34569067904979
 31
0.0
  0
LINE
  5
566
330
1F
100
AcDbEntity
  8
SK2
  6
CONTINUOUS
370
25
 62
7
100
AcDbLine
 10
40.4270648212367
 20
20.37542296424734
 30
0.0
 11
41.4680432141578
 21
21.41640135716844
 31
0.0
  0
LINE
  5
567
330
1F
100
AcDbEntity
  8
SK2
  6
CONTINUOUS
370
25
 62
7
100
AcDbLine
 10
39.89673473534679
 20
20.26935694706936
 30
0.0
 11
41.11448982356452
 21
21.48711203528709
 31
0.0
  0
LINE
  5
568
330
1F
100
AcDbEntity
  8
SK2
  6
CONTINUOUS
370
25
 62
7
100
AcDbLine
 10
39.36640464945688
 20
20.16329092989138
 30
0.0
 11
40.76093643297124
 21
21.55782271340574
 31
0.0
  0
LINE
  5
569
330
1F
100
AcDbEntity
  8
SK2
  6
CONTINUOUS
370
25
 62
7
100
AcDbLine
 10
38.83607456356696
 20
20.05722491271339
 30
0.0
 11
40.40738304237797
 21
21.62853339152441
 31
0.0
  0
LINE
  5
56A
330
1F
100
AcDbEntity
  8
SK2
  6
CONTINUOUS
370
25
 62
7
100
AcDbLine
 10
38.55
 20
20.19541441785836
 30
0.0
 11
40.0538296517847
 21
21.69924406964306
 31
0.0
  0
LINE
  5
56B
330
1F
100
AcDbEntity
  8
SK2
  6
CONTINUOUS
370
25
 62
7
100
AcDbLine
 10
38.55
 20
20.61967848657029
 30
0.0
 11
39.70027626119141
 21
21.76995474776171
 31
0.0
  0
LINE
  5
56C
330
1F
100
AcDbEntity
  8
SK2
  6
CONTINUOUS
370
25
 62
7
100
AcDbLine
 10
38.55
 20
21.04394255528223
 30
0.0
 11
39.34672287059814
 21
21.84066542588037
 31
0.0
  0
LINE
  5
56D
330
1F
100
AcDbEntity
  8
SK2
  6
CONTINUOUS
370
25
 62
7
100
AcDbLine
 10
38.55
 20
21.46820662399416
 30
0.0
 11
38.99316948000487
 21
21.91137610399903
 31
0.0
  0
LINE
  5
56E
330
1F
100
AcDbEntity
  8
SK2
  6
CONTINUOUS
370
25
 62
7
100
AcDbLine
 10
38.55
 20
21.89247069270609
 30
0.0
 11
38.63961608941159
 21
21.98208678211768
 31
0.0
  0
LINE
  5
56F
330
1F
100
AcDbEntity
  8
SK2
  6
CONTINUOUS
370
25
 62
7
100
AcDbLine
 10
38.55
 20
20.42270555095806
 30
0.0
 11
38.90224629246505
 21
20.07045925849301
 31
0.0
  0
LINE
  5
570
330
1F
100
AcDbEntity
  8
SK2
  6
CONTINUOUS
370
25
 62
7
100
AcDbLine
 10
38.55
 20
20.84696961966999
 30
0.0
 11
39.25579968305832
 21
20.14116993661167
 31
0.0
  0
LINE
  5
571
330
1F
100
AcDbEntity
  8
SK2
  6
CONTINUOUS
370
25
 62
7
100
AcDbLine
 10
38.55
 20
21.27123368838193
 30
0.0
 11
39.6093530736516
 21
20.21188061473033
 31
0.0
  0
LINE
  5
572
330
1F
100
AcDbEntity
  8
SK2
  6
CONTINUOUS
370
25
 62
7
100
AcDbLine
 10
38.55
 20
21.69549775709386
 30
0.0
 11
39.96290646424488
 21
20.28259129284898
 31
0.0
  0
LINE
  5
573
330
1F
100
AcDbEntity
  8
SK2
  6
CONTINUOUS
370
25
 62
7
100
AcDbLine
 10
38.69968978225724
 20
21.97007204354855
 30
0.0
 11
40.31645985483815
 21
20.35330197096764
 31
0.0
  0
LINE
  5
574
330
1F
100
AcDbEntity
  8
SK2
  6
CONTINUOUS
370
25
 62
7
100
AcDbLine
 10
39.23001986814715
 20
21.86400602637057
 30
0.0
 11
40.67001324543143
 21
20.42401264908629
 31
0.0
  0
LINE
  5
575
330
1F
100
AcDbEntity
  8
SK2
  6
CONTINUOUS
370
25
 62
7
100
AcDbLine
 10
39.76034995403707
 20
21.75794000919258
 30
0.0
 11
41.0235666360247
 21
20.49472332720494
 31
0.0
  0
LINE
  5
576
330
1F
100
AcDbEntity
  8
SK2
  6
CONTINUOUS
370
25
 62
7
100
AcDbLine
 10
40.29068003992699
 20
21.65187399201459
 30
0.0
 11
41.37712002661799
 21
20.5654340053236
 31
0.0
  0
LINE
  5
577
330
1F
100
AcDbEntity
  8
SK2
  6
CONTINUOUS
370
25
 62
7
100
AcDbLine
 10
40.82101012581689
 20
21.54580797483662
 30
0.0
 11
41.73067341721126
 21
20.63614468344226
 31
0.0
  0
LINE
  5
578
330
1F
100
AcDbEntity
  8
SK2
  6
CONTINUOUS
370
25
 62
7
100
AcDbLine
 10
41.35134021170681
 20
21.43974195765863
 30
0.0
 11
42.08422680780453
 21
20.70685536156091
 31
0.0
  0
LINE
  5
579
330
1F
100
AcDbEntity
  8
SK2
  6
CONTINUOUS
370
25
 62
7
100
AcDbLine
 10
41.88167029759673
 20
21.33367594048065
 30
0.0
 11
42.43778019839781
 21
20.77756603967957
 31
0.0
  0
LINE
  5
57A
330
1F
100
AcDbEntity
  8
SK2
  6
CONTINUOUS
370
25
 62
7
100
AcDbLine
 10
42.41200038348665
 20
21.22760992330267
 30
0.0
 11
42.79133358899109
 21
20.84827671779823
 31
0.0
  0
LINE
  5
57B
330
1F
100
AcDbEntity
  8
SK2
  6
CONTINUOUS
370
25
 62
7
100
AcDbLine
 10
42.94233046937655
 20
21.12154390612469
 30
0.0
 11
43.14488697958436
 21
20.91898739591688
 31
0.0
  0
LINE
  5
57C
330
1F
100
AcDbEntity
  8
SK2
  6
CONTINUOUS
370
25
 62
7
100
AcDbLine
 10
43.47266055526647
 20
21.01547788894671
 30
0.0
 11
43.49844037017763
 21
20.98969807403554
 31
0.0
  0
TEXT
  5
57D
330
1F
100
AcDbEntity
  8
SK2
  6
CONTINUOUS
370
25
 62
7
100
AcDbText
 10
-4.075000000000003
 20
22.00001
 30
0.0
 40
3.5
  1
90
 72
     1
 11
-1.450000000000003
 21
22.00001
 31
0.0
100
AcDbText
  0
LINE
  5
57E
330
1F
100
AcDbEntity
  8
2
  6
CONTINUOUS
370
25
 62
7
100
AcDbLine
 10
-0.0000000000000002
 20
0.0
 30
0.0
 11
0.0000000000000007
 21
15.00001
 31
0.0
  0
LINE
  5
57F
330
1F
100
AcDbEntity
  8
2
  6
CONTINUOUS
370
25
 62
7
100
AcDbLine
 10
43.55
 20
15.00001
 30
0.0
 11
43.55
 21
3.879999999999999
 31
0.0
  0
LINE
  5
580
330
1F
100
AcDbEntity
  8
2
  6
CONTINUOUS
370
25
 62
7
100
AcDbLine
 10
0.0
 20
14.00001
 30
0.0
 11
43.55
 21
14.00001
 31
0.0
  0
LINE
  5
581
330
1F
100
AcDbEntity
  8
2
  6
CONTINUOUS
370
25
 62
7
100
AcDbLine
 10
0.0
 20
14.00001
 30
0.0
 11
5.0
 21
15.00001
 31
0.0
  0
LINE
  5
582
330
1F
100
AcDbEntity
  8
2
  6
CONTINUOUS
370
25
 62
7
100
AcDbLine
 10
5.0
 20
15.00001
 30
0.0
 11
5.0
 21
13.00001
 31
0.0
  0
LINE
  5
583
330
1F
100
AcDbEntity
  8
2
  6
CONTINUOUS
370
25
 62
7
100
AcDbLine
 10
5.0
 20
13.00001
 30
0.0
 11
0.0
 21
14.00001
 31
0.0
  0
LINE
  5
584
330
1F
100
AcDbEntity
  8
2
  6
CONTINUOUS
370
25
 62
7
100
AcDbLine
 10
4.949160578727799
 20
13.01017788425444
 30
0.0
 11
5.0
 21
13.06101730552664
 31
0.0
  0
LINE
  5
585
330
1F
100
AcDbEntity
  8
2
  6
CONTINUOUS
370
25
 62
7
100
AcDbLine
 10
4.595607188134526
 20
13.08088856237309
 30
0.0
 11
5.0
 21
13.48528137423857
 31
0.0
  0
LINE
  5
586
330
1F
100
AcDbEntity
  8
2
  6
CONTINUOUS
370
25
 62
7
100
AcDbLine
 10
4.242053797541253
 20
13.15159924049175
 30
0.0
 11
5.0
 21
13.9095454429505
 31
0.0
  0
LINE
  5
587
330
1F
100
AcDbEntity
  8
2
  6
CONTINUOUS
370
25
 62
7
100
AcDbLine
 10
3.88850040694798
 20
13.2223099186104
 30
0.0
 11
5.0
 21
14.33380951166242
 31
0.0
  0
LINE
  5
588
330
1F
100
AcDbEntity
  8
2
  6
CONTINUOUS
370
25
 62
7
100
AcDbLine
 10
3.534947016354707
 20
13.29302059672906
 30
0.0
 11
5.0
 21
14.75807358037435
 31
0.0
  0
LINE
  5
589
330
1F
100
AcDbEntity
  8
2
  6
CONTINUOUS
370
25
 62
7
100
AcDbLine
 10
3.181393625761432
 20
13.36373127484771
 30
0.0
 11
4.77209043864215
 21
14.95442808772843
 31
0.0
  0
LINE
  5
58A
330
1F
100
AcDbEntity
  8
2
  6
CONTINUOUS
370
25
 62
7
100
AcDbLine
 10
2.827840235168159
 20
13.43444195296637
 30
0.0
 11
4.241760352752239
 21
14.84836207055045
 31
0.0
  0
LINE
  5
58B
330
1F
100
AcDbEntity
  8
2
  6
CONTINUOUS
370
25
 62
7
100
AcDbLine
 10
2.474286844574886
 20
13.50515263108502
 30
0.0
 11
3.71143026686233
 21
14.74229605337247
 31
0.0
  0
LINE
  5
58C
330
1F
100
AcDbEntity
  8
2
  6
CONTINUOUS
370
25
 62
7
100
AcDbLine
 10
2.120733453981613
 20
13.57586330920368
 30
0.0
 11
3.181100180972421
 21
14.63623003619448
 31
0.0
  0
LINE
  5
58D
330
1F
100
AcDbEntity
  8
2
  6
CONTINUOUS
370
25
 62
7
100
AcDbLine
 10
1.76718006338834
 20
13.64657398732233
 30
0.0
 11
2.650770095082511
 21
14.5301640190165
 31
0.0
  0
LINE
  5
58E
330
1F
100
AcDbEntity
  8
2
  6
CONTINUOUS
370
25
 62
7
100
AcDbLine
 10
1.413626672795067
 20
13.71728466544099
 30
0.0
 11
2.120440009192601
 21
14.42409800183852
 31
0.0
  0
LINE
  5
58F
330
1F
100
AcDbEntity
  8
2
  6
CONTINUOUS
370
25
 62
7
100
AcDbLine
 10
1.060073282201793
 20
13.78799534355964
 30
0.0
 11
1.590109923302691
 21
14.31803198466054
 31
0.0
  0
LINE
  5
590
330
1F
100
AcDbEntity
  8
2
  6
CONTINUOUS
370
25
 62
7
100
AcDbLine
 10
0.7065198916085201
 20
13.8587060216783
 30
0.0
 11
1.059779837412781
 21
14.21196596748256
 31
0.0
  0
LINE
  5
591
330
1F
100
AcDbEntity
  8
2
  6
CONTINUOUS
370
25
 62
7
100
AcDbLine
 10
0.352966501015247
 20
13.92941669979695
 30
0.0
 11
0.5294497515228708
 21
14.10589995030457
 31
0.0
  0
LINE
  5
592
330
1F
100
AcDbEntity
  8
2
  6
CONTINUOUS
370
25
 62
7
100
AcDbLine
 10
0.0005868895780322
 20
14.00012737791561
 30
0.0
 11
0.0008803343670483
 21
13.99983393312659
 31
0.0
  0
LINE
  5
593
330
1F
100
AcDbEntity
  8
2
  6
CONTINUOUS
370
25
 62
7
100
AcDbLine
 10
0.3541402801713057
 20
14.07083805603426
 30
0.0
 11
0.5312104202569589
 21
13.89376791594861
 31
0.0
  0
LINE
  5
594
330
1F
100
AcDbEntity
  8
2
  6
CONTINUOUS
370
25
 62
7
100
AcDbLine
 10
0.7076936707645792
 20
14.14154873415291
 30
0.0
 11
1.061540506146869
 21
13.78770189877063
 31
0.0
  0
LINE
  5
595
330
1F
100
AcDbEntity
  8
2
  6
CONTINUOUS
370
25
 62
7
100
AcDbLine
 10
1.061247061357853
 20
14.21225941227157
 30
0.0
 11
1.59187059203678
 21
13.68163588159264
 31
0.0
  0
LINE
  5
596
330
1F
100
AcDbEntity
  8
2
  6
CONTINUOUS
370
25
 62
7
100
AcDbLine
 10
1.414800451951126
 20
14.28297009039023
 30
0.0
 11
2.122200677926691
 21
13.57556986441466
 31
0.0
  0
LINE
  5
597
330
1F
100
AcDbEntity
  8
2
  6
CONTINUOUS
370
25
 62
7
100
AcDbLine
 10
1.768353842544399
 20
14.35368076850888
 30
0.0
 11
2.652530763816601
 21
13.46950384723668
 31
0.0
  0
LINE
  5
598
330
1F
100
AcDbEntity
  8
2
  6
CONTINUOUS
370
25
 62
7
100
AcDbLine
 10
2.121907233137673
 20
14.42439144662753
 30
0.0
 11
3.182860849706511
 21
13.3634378300587
 31
0.0
  0
LINE
  5
599
330
1F
100
AcDbEntity
  8
2
  6
CONTINUOUS
370
25
 62
7
100
AcDbLine
 10
2.475460623730946
 20
14.49510212474619
 30
0.0
 11
3.713190935596421
 21
13.25737181288072
 31
0.0
  0
LINE
  5
59A
330
1F
100
AcDbEntity
  8
2
  6
CONTINUOUS
370
25
 62
7
100
AcDbLine
 10
2.82901401432422
 20
14.56581280286484
 30
0.0
 11
4.243521021486332
 21
13.15130579570273
 31
0.0
  0
LINE
  5
59B
330
1F
100
AcDbEntity
  8
2
  6
CONTINUOUS
370
25
 62
7
100
AcDbLine
 10
3.182567404917493
 20
14.6365234809835
 30
0.0
 11
4.773851107376243
 21
13.04523977852475
 31
0.0
  0
LINE
  5
59C
330
1F
100
AcDbEntity
  8
2
  6
CONTINUOUS
370
25
 62
7
100
AcDbLine
 10
3.536120795510766
 20
14.70723415910215
 30
0.0
 11
5.0
 21
13.24335495461292
 31
0.0
  0
LINE
  5
59D
330
1F
100
AcDbEntity
  8
2
  6
CONTINUOUS
370
25
 62
7
100
AcDbLine
 10
3.88967418610404
 20
14.77794483722081
 30
0.0
 11
5.0
 21
13.66761902332485
 31
0.0
  0
LINE
  5
59E
330
1F
100
AcDbEntity
  8
2
  6
CONTINUOUS
370
25
 62
7
100
AcDbLine
 10
4.243227576697313
 20
14.84865551533946
 30
0.0
 11
5.0
 21
14.09188309203678
 31
0.0
  0
LINE
  5
59F
330
1F
100
AcDbEntity
  8
2
  6
CONTINUOUS
370
25
 62
7
100
AcDbLine
 10
4.596780967290586
 20
14.91936619345812
 30
0.0
 11
5.0
 21
14.5161471607487
 31
0.0
  0
LINE
  5
5A0
330
1F
100
AcDbEntity
  8
2
  6
CONTINUOUS
370
25
 62
7
100
AcDbLine
 10
4.95033435788386
 20
14.99007687157677
 30
0.0
 11
5.0
 21
14.94041122946063
 31
0.0
  0
LINE
  5
5A1
330
1F
100
AcDbEntity
  8
2
  6
CONTINUOUS
370
25
 62
7
100
AcDbLine
 10
43.55
 20
14.00001
 30
0.0
 11
38.55
 21
13.00001
 31
0.0
  0
LINE
  5
5A2
330
1F
100
AcDbEntity
  8
2
  6
CONTINUOUS
370
25
 62
7
100
AcDbLine
 10
38.55
 20
13.00001
 30
0.0
 11
38.55
 21
15.00001
 31
0.0
  0
LINE
  5
5A3
330
1F
100
AcDbEntity
  8
2
  6
CONTINUOUS
370
25
 62
7
100
AcDbLine
 10
38.55
 20
15.00001
 30
0.0
 11
43.55
 21
14.00001
 31
0.0
  0
LINE
  5
5A4
330
1F
100
AcDbEntity
  8
2
  6
CONTINUOUS
370
25
 62
7
100
AcDbLine
 10
43.3434338764478
 20
13.95869677528957
 30
0.0
 11
43.41228925096519
 21
14.02755214980697
 31
0.0
  0
LINE
  5
5A5
330
1F
100
AcDbEntity
  8
2
  6
CONTINUOUS
370
25
 62
7
100
AcDbLine
 10
42.81310379055788
 20
13.85263075811158
 30
0.0
 11
43.05873586037191
 21
14.09826282792561
 31
0.0
  0
LINE
  5
5A6
330
1F
100
AcDbEntity
  8
2
  6
CONTINUOUS
370
25
 62
7
100
AcDbLine
 10
42.28277370466797
 20
13.7465647409336
 30
0.0
 11
42.70518246977863
 21
14.16897350604427
 31
0.0
  0
LINE
  5
5A7
330
1F
100
AcDbEntity
  8
2
  6
CONTINUOUS
370
25
 62
7
100
AcDbLine
 10
41.75244361877805
 20
13.64049872375561
 30
0.0
 11
42.35162907918536
 21
14.23968418416292
 31
0.0
  0
LINE
  5
5A8
330
1F
100
AcDbEntity
  8
2
  6
CONTINUOUS
370
25
 62
7
100
AcDbLine
 10
41.22211353288814
 20
13.53443270657763
 30
0.0
 11
41.99807568859209
 21
14.31039486228158
 31
0.0
  0
LINE
  5
5A9
330
1F
100
AcDbEntity
  8
2
  6
CONTINUOUS
370
25
 62
7
100
AcDbLine
 10
40.69178344699822
 20
13.42836668939964
 30
0.0
 11
41.64452229799881
 21
14.38110554040024
 31
0.0
  0
LINE
  5
5AA
330
1F
100
AcDbEntity
  8
2
  6
CONTINUOUS
370
25
 62
7
100
AcDbLine
 10
40.16145336110831
 20
13.32230067222167
 30
0.0
 11
41.29096890740553
 21
14.45181621851889
 31
0.0
  0
LINE
  5
5AB
330
1F
100
AcDbEntity
  8
2
  6
CONTINUOUS
370
25
 62
7
100
AcDbLine
 10
39.63112327521839
 20
13.21623465504368
 30
0.0
 11
40.93741551681226
 21
14.52252689663755
 31
0.0
  0
LINE
  5
5AC
330
1F
100
AcDbEntity
  8
2
  6
CONTINUOUS
370
25
 62
7
100
AcDbLine
 10
39.10079318932848
 20
13.1101686378657
 30
0.0
 11
40.58386212621898
 21
14.5932375747562
 31
0.0
  0
LINE
  5
5AD
330
1F
100
AcDbEntity
  8
2
  6
CONTINUOUS
370
25
 62
7
100
AcDbLine
 10
38.57046310343856
 20
13.00410262068771
 30
0.0
 11
40.23030873562571
 21
14.66394825287486
 31
0.0
  0
LINE
  5
5AE
330
1F
100
AcDbEntity
  8
2
  6
CONTINUOUS
370
25
 62
7
100
AcDbLine
 10
38.55
 20
13.40790358596108
 30
0.0
 11
39.87675534503243
 21
14.73465893099351
 31
0.0
  0
LINE
  5
5AF
330
1F
100
AcDbEntity
  8
2
  6
CONTINUOUS
370
25
 62
7
100
AcDbLine
 10
38.55
 20
13.83216765467301
 30
0.0
 11
39.52320195443915
 21
14.80536960911217
 31
0.0
  0
LINE
  5
5B0
330
1F
100
AcDbEntity
  8
2
  6
CONTINUOUS
370
25
 62
7
100
AcDbLine
 10
38.55
 20
14.25643172338494
 30
0.0
 11
39.16964856384588
 21
14.87608028723083
 31
0.0
  0
LINE
  5
5B1
330
1F
100
AcDbEntity
  8
2
  6
CONTINUOUS
370
25
 62
7
100
AcDbLine
 10
38.55
 20
14.68069579209687
 30
0.0
 11
38.8160951732526
 21
14.94679096534948
 31
0.0
  0
LINE
  5
5B2
330
1F
100
AcDbEntity
  8
2
  6
CONTINUOUS
370
25
 62
7
100
AcDbLine
 10
38.55
 20
13.21021638285528
 30
0.0
 11
38.72517198571273
 21
13.03504439714254
 31
0.0
  0
LINE
  5
5B3
330
1F
100
AcDbEntity
  8
2
  6
CONTINUOUS
370
25
 62
7
100
AcDbLine
 10
38.55
 20
13.63448045156721
 30
0.0
 11
39.07872537630601
 21
13.10575507526121
 31
0.0
  0
LINE
  5
5B4
330
1F
100
AcDbEntity
  8
2
  6
CONTINUOUS
370
25
 62
7
100
AcDbLine
 10
38.55
 20
14.05874452027915
 30
0.0
 11
39.43227876689929
 21
13.17646575337986
 31
0.0
  0
LINE
  5
5B5
330
1F
100
AcDbEntity
  8
2
  6
CONTINUOUS
370
25
 62
7
100
AcDbLine
 10
38.55
 20
14.48300858899108
 30
0.0
 11
39.78583215749256
 21
13.24717643149852
 31
0.0
  0
LINE
  5
5B6
330
1F
100
AcDbEntity
  8
2
  6
CONTINUOUS
370
25
 62
7
100
AcDbLine
 10
38.55
 20
14.907272657703
 30
0.0
 11
40.13938554808584
 21
13.31788710961717
 31
0.0
  0
LINE
  5
5B7
330
1F
100
AcDbEntity
  8
2
  6
CONTINUOUS
370
25
 62
7
100
AcDbLine
 10
38.96440840801867
 20
14.91712831839627
 30
0.0
 11
40.49293893867912
 21
13.38859778773583
 31
0.0
  0
LINE
  5
5B8
330
1F
100
AcDbEntity
  8
2
  6
CONTINUOUS
370
25
 62
7
100
AcDbLine
 10
39.49473849390859
 20
14.81106230121829
 30
0.0
 11
40.84649232927239
 21
13.45930846585448
 31
0.0
  0
LINE
  5
5B9
330
1F
100
AcDbEntity
  8
2
  6
CONTINUOUS
370
25
 62
7
100
AcDbLine
 10
40.0250685797985
 20
14.70499628404031
 30
0.0
 11
41.20004571986567
 21
13.53001914397313
 31
0.0
  0
LINE
  5
5BA
330
1F
100
AcDbEntity
  8
2
  6
CONTINUOUS
370
25
 62
7
100
AcDbLine
 10
40.55539866568841
 20
14.59893026686232
 30
0.0
 11
41.55359911045895
 21
13.60072982209179
 31
0.0
  0
LINE
  5
5BB
330
1F
100
AcDbEntity
  8
2
  6
CONTINUOUS
370
25
 62
7
100
AcDbLine
 10
41.08572875157834
 20
14.49286424968433
 30
0.0
 11
41.90715250105222
 21
13.67144050021044
 31
0.0
  0
LINE
  5
5BC
330
1F
100
AcDbEntity
  8
2
  6
CONTINUOUS
370
25
 62
7
100
AcDbLine
 10
41.61605883746826
 20
14.38679823250634
 30
0.0
 11
42.2607058916455
 21
13.7421511783291
 31
0.0
  0
LINE
  5
5BD
330
1F
100
AcDbEntity
  8
2
  6
CONTINUOUS
370
25
 62
7
100
AcDbLine
 10
42.14638892335816
 20
14.28073221532837
 30
0.0
 11
42.61425928223878
 21
13.81286185644775
 31
0.0
  0
LINE
  5
5BE
330
1F
100
AcDbEntity
  8
2
  6
CONTINUOUS
370
25
 62
7
100
AcDbLine
 10
42.67671900924807
 20
14.17466619815038
 30
0.0
 11
42.96781267283205
 21
13.8835725345664
 31
0.0
  0
LINE
  5
5BF
330
1F
100
AcDbEntity
  8
2
  6
CONTINUOUS
370
25
 62
7
100
AcDbLine
 10
43.207049095138
 20
14.0686001809724
 30
0.0
 11
43.32136606342533
 21
13.95428321268506
 31
0.0
  0
TEXT
  5
5C0
330
1F
100
AcDbEntity
  8
2
  6
CONTINUOUS
370
25
 62
7
100
AcDbText
 10
14.775
 20
15.00001
 30
0.0
 40
3.5
  1
43.55
 72
     1
 11
21.775
 21
15.00001
 31
0.0
100
AcDbText
  0
LINE
  5
5C1
330
1F
100
AcDbEntity
  8
2
  6
CONTINUOUS
370
25
 62
7
100
AcDbLine
 10
3.55
 20
-3.879999999999999
 30
0.0
 11
3.549999999999999
 21
-15.00001
 31
0.0
  0
LINE
  5
5C2
330
1F
100
AcDbEntity
  8
2
  6
CONTINUOUS
370
25
 62
7
100
AcDbLine
 10
43.55
 20
-15.00001
 30
0.0
 11
43.55
 21
-3.879999999999999
 31
0.0
  0
LINE
  5
5C3
330
1F
100
AcDbEntity
  8
2
  6
CONTINUOUS
370
25
 62
7
100
AcDbLine
 10
3.549999999999999
 20
-14.00001
 30
0.0
 11
43.55
 21
-14.00001
 31
0.0
  0
LINE
  5
5C4
330
1F
100
AcDbEntity
  8
2
  6
CONTINUOUS
370
25
 62
7
100
AcDbLine
 10
3.549999999999999
 20
-14.00001
 30
0.0
 11
8.549999999999999
 21
-13.00001
 31
0.0
  0
LINE
  5
5C5
330
1F
100
AcDbEntity
  8
2
  6
CONTINUOUS
370
25
 62
7
100
AcDbLine
 10
8.549999999999999
 20
-13.00001
 30
0.0
 11
8.549999999999999
 21
-15.00001
 31
0.0
  0
LINE
  5
5C6
330
1F
100
AcDbEntity
  8
2
  6
CONTINUOUS
370
25
 62
7
100
AcDbLine
 10
8.549999999999999
 20
-15.00001
 30
0.0
 11
3.549999999999999
 21
-14.00001
 31
0.0
  0
LINE
  5
5C7
330
1F
100
AcDbEntity
  8
2
  6
CONTINUOUS
370
25
 62
7
100
AcDbLine
 10
8.463153672237354
 20
-14.98264073444747
 30
0.0
 11
8.549999999999999
 21
-14.89579440668483
 31
0.0
  0
LINE
  5
5C8
330
1F
100
AcDbEntity
  8
2
  6
CONTINUOUS
370
25
 62
7
100
AcDbLine
 10
8.10960028164408
 20
-14.91193005632882
 30
0.0
 11
8.549999999999999
 21
-14.4715303379729
 31
0.0
  0
LINE
  5
5C9
330
1F
100
AcDbEntity
  8
2
  6
CONTINUOUS
370
25
 62
7
100
AcDbLine
 10
7.756046891050809
 20
-14.84121937821016
 30
0.0
 11
8.549999999999999
 21
-14.04726626926097
 31
0.0
  0
LINE
  5
5CA
330
1F
100
AcDbEntity
  8
2
  6
CONTINUOUS
370
25
 62
7
100
AcDbLine
 10
7.402493500457532
 20
-14.77050870009151
 30
0.0
 11
8.549999999999999
 21
-13.62300220054904
 31
0.0
  0
LINE
  5
5CB
330
1F
100
AcDbEntity
  8
2
  6
CONTINUOUS
370
25
 62
7
100
AcDbLine
 10
7.048940109864261
 20
-14.69979802197285
 30
0.0
 11
8.549999999999999
 21
-13.19873813183711
 31
0.0
  0
LINE
  5
5CC
330
1F
100
AcDbEntity
  8
2
  6
CONTINUOUS
370
25
 62
7
100
AcDbLine
 10
6.695386719270987
 20
-14.6290873438542
 30
0.0
 11
8.268080078906483
 21
-13.0563939842187
 31
0.0
  0
LINE
  5
5CD
330
1F
100
AcDbEntity
  8
2
  6
CONTINUOUS
370
25
 62
7
100
AcDbLine
 10
6.341833328677714
 20
-14.55837666573554
 30
0.0
 11
7.737749993016573
 21
-13.16246000139668
 31
0.0
  0
LINE
  5
5CE
330
1F
100
AcDbEntity
  8
2
  6
CONTINUOUS
370
25
 62
7
100
AcDbLine
 10
5.988279938084442
 20
-14.48766598761689
 30
0.0
 11
7.207419907126665
 21
-13.26852601857466
 31
0.0
  0
LINE
  5
5CF
330
1F
100
AcDbEntity
  8
2
  6
CONTINUOUS
370
25
 62
7
100
AcDbLine
 10
5.634726547491169
 20
-14.41695530949823
 30
0.0
 11
6.677089821236755
 21
-13.37459203575265
 31
0.0
  0
LINE
  5
5D0
330
1F
100
AcDbEntity
  8
2
  6
CONTINUOUS
370
25
 62
7
100
AcDbLine
 10
5.281173156897895
 20
-14.34624463137958
 30
0.0
 11
6.146759735346845
 21
-13.48065805293063
 31
0.0
  0
LINE
  5
5D1
330
1F
100
AcDbEntity
  8
2
  6
CONTINUOUS
370
25
 62
7
100
AcDbLine
 10
4.927619766304622
 20
-14.27553395326092
 30
0.0
 11
5.616429649456935
 21
-13.58672407010861
 31
0.0
  0
LINE
  5
5D2
330
1F
100
AcDbEntity
  8
2
  6
CONTINUOUS
370
25
 62
7
100
AcDbLine
 10
4.574066375711348
 20
-14.20482327514227
 30
0.0
 11
5.086099563567025
 21
-13.69279008728659
 31
0.0
  0
LINE
  5
5D3
330
1F
100
AcDbEntity
  8
2
  6
CONTINUOUS
370
25
 62
7
100
AcDbLine
 10
4.220512985118074
 20
-14.13411259702361
 30
0.0
 11
4.555769477677111
 21
-13.79885610446458
 31
0.0
  0
LINE
  5
5D4
330
1F
100
AcDbEntity
  8
2
  6
CONTINUOUS
370
25
 62
7
100
AcDbLine
 10
3.8669595945248
 20
-14.06340191890496
 30
0.0
 11
4.025439391787201
 21
-13.90492212164256
 31
0.0
  0
LINE
  5
5D5
330
1F
100
AcDbEntity
  8
2
  6
CONTINUOUS
370
25
 62
7
100
AcDbLine
 10
3.69445817233749
 20
-13.9711183655325
 30
0.0
 11
3.766687258506236
 21
-14.04334745170125
 31
0.0
  0
LINE
  5
5D6
330
1F
100
AcDbEntity
  8
2
  6
CONTINUOUS
370
25
 62
7
100
AcDbLine
 10
4.048011562930763
 20
-13.90040768741385
 30
0.0
 11
4.297017344396146
 21
-14.14941346887923
 31
0.0
  0
LINE
  5
5D7
330
1F
100
AcDbEntity
  8
2
  6
CONTINUOUS
370
25
 62
7
100
AcDbLine
 10
4.401564953524036
 20
-13.82969700929519
 30
0.0
 11
4.827347430286056
 21
-14.25547948605721
 31
0.0
  0
LINE
  5
5D8
330
1F
100
AcDbEntity
  8
2
  6
CONTINUOUS
370
25
 62
7
100
AcDbLine
 10
4.75511834411731
 20
-13.75898633117654
 30
0.0
 11
5.357677516175966
 21
-14.36154550323519
 31
0.0
  0
LINE
  5
5D9
330
1F
100
AcDbEntity
  8
2
  6
CONTINUOUS
370
25
 62
7
100
AcDbLine
 10
5.108671734710583
 20
-13.68827565305788
 30
0.0
 11
5.888007602065876
 21
-14.46761152041318
 31
0.0
  0
LINE
  5
5DA
330
1F
100
AcDbEntity
  8
2
  6
CONTINUOUS
370
25
 62
7
100
AcDbLine
 10
5.462225125303856
 20
-13.61756497493923
 30
0.0
 11
6.418337687955787
 21
-14.57367753759116
 31
0.0
  0
LINE
  5
5DB
330
1F
100
AcDbEntity
  8
2
  6
CONTINUOUS
370
25
 62
7
100
AcDbLine
 10
5.815778515897128
 20
-13.54685429682057
 30
0.0
 11
6.948667773845695
 21
-14.67974355476914
 31
0.0
  0
LINE
  5
5DC
330
1F
100
AcDbEntity
  8
2
  6
CONTINUOUS
370
25
 62
7
100
AcDbLine
 10
6.169331906490402
 20
-13.47614361870192
 30
0.0
 11
7.478997859735605
 21
-14.78580957194712
 31
0.0
  0
LINE
  5
5DD
330
1F
100
AcDbEntity
  8
2
  6
CONTINUOUS
370
25
 62
7
100
AcDbLine
 10
6.522885297083675
 20
-13.40543294058326
 30
0.0
 11
8.009327945625515
 21
-14.8918755891251
 31
0.0
  0
LINE
  5
5DE
330
1F
100
AcDbEntity
  8
2
  6
CONTINUOUS
370
25
 62
7
100
AcDbLine
 10
6.876438687676948
 20
-13.33472226246461
 30
0.0
 11
8.539658031515424
 21
-14.99794160630308
 31
0.0
  0
LINE
  5
5DF
330
1F
100
AcDbEntity
  8
2
  6
CONTINUOUS
370
25
 62
7
100
AcDbLine
 10
7.229992078270222
 20
-13.26401158434595
 30
0.0
 11
8.549999999999999
 21
-14.58401950607573
 31
0.0
  0
LINE
  5
5E0
330
1F
100
AcDbEntity
  8
2
  6
CONTINUOUS
370
25
 62
7
100
AcDbLine
 10
7.583545468863496
 20
-13.1933009062273
 30
0.0
 11
8.549999999999999
 21
-14.1597554373638
 31
0.0
  0
LINE
  5
5E1
330
1F
100
AcDbEntity
  8
2
  6
CONTINUOUS
370
25
 62
7
100
AcDbLine
 10
7.937098859456768
 20
-13.12259022810865
 30
0.0
 11
8.549999999999999
 21
-13.73549136865187
 31
0.0
  0
LINE
  5
5E2
330
1F
100
AcDbEntity
  8
2
  6
CONTINUOUS
370
25
 62
7
100
AcDbLine
 10
8.290652250050043
 20
-13.05187954998999
 30
0.0
 11
8.549999999999999
 21
-13.31122729993995
 31
0.0
  0
LINE
  5
5E3
330
1F
100
AcDbEntity
  8
2
  6
CONTINUOUS
370
25
 62
7
100
AcDbLine
 10
43.55
 20
-14.00001
 30
0.0
 11
38.55
 21
-15.00001
 31
0.0
  0
LINE
  5
5E4
330
1F
100
AcDbEntity
  8
2
  6
CONTINUOUS
370
25
 62
7
100
AcDbLine
 10
38.55
 20
-15.00001
 30
0.0
 11
38.55
 21
-13.00001
 31
0.0
  0
LINE
  5
5E5
330
1F
100
AcDbEntity
  8
2
  6
CONTINUOUS
370
25
 62
7
100
AcDbLine
 10
38.55
 20
-13.00001
 30
0.0
 11
43.55
 21
-14.00001
 31
0.0
  0
LINE
  5
5E6
330
1F
100
AcDbEntity
  8
2
  6
CONTINUOUS
370
25
 62
7
100
AcDbLine
 10
43.34167320771363
 20
-14.04167535845727
 30
0.0
 11
43.41111547180909
 21
-13.97223309436181
 31
0.0
  0
LINE
  5
5E7
330
1F
100
AcDbEntity
  8
2
  6
CONTINUOUS
370
25
 62
7
100
AcDbLine
 10
42.81134312182371
 20
-14.14774137563526
 30
0.0
 11
43.05756208121581
 21
-13.90152241624316
 31
0.0
  0
LINE
  5
5E8
330
1F
100
AcDbEntity
  8
2
  6
CONTINUOUS
370
25
 62
7
100
AcDbLine
 10
42.2810130359338
 20
-14.25380739281324
 30
0.0
 11
42.70400869062254
 21
-13.8308117381245
 31
0.0
  0
LINE
  5
5E9
330
1F
100
AcDbEntity
  8
2
  6
CONTINUOUS
370
25
 62
7
100
AcDbLine
 10
41.7506829500439
 20
-14.35987340999122
 30
0.0
 11
42.35045530002926
 21
-13.76010106000585
 31
0.0
  0
LINE
  5
5EA
330
1F
100
AcDbEntity
  8
2
  6
CONTINUOUS
370
25
 62
7
100
AcDbLine
 10
41.22035286415397
 20
-14.4659394271692
 30
0.0
 11
41.99690190943598
 21
-13.68939038188719
 31
0.0
  0
LINE
  5
5EB
330
1F
100
AcDbEntity
  8
2
  6
CONTINUOUS
370
25
 62
7
100
AcDbLine
 10
40.69002277826406
 20
-14.57200544434718
 30
0.0
 11
41.6433485188427
 21
-13.61867970376854
 31
0.0
  0
LINE
  5
5EC
330
1F
100
AcDbEntity
  8
2
  6
CONTINUOUS
370
25
 62
7
100
AcDbLine
 10
40.15969269237415
 20
-14.67807146152516
 30
0.0
 11
41.28979512824943
 21
-13.54796902564988
 31
0.0
  0
LINE
  5
5ED
330
1F
100
AcDbEntity
  8
2
  6
CONTINUOUS
370
25
 62
7
100
AcDbLine
 10
39.62936260648424
 20
-14.78413747870315
 30
0.0
 11
40.93624173765615
 21
-13.47725834753123
 31
0.0
  0
LINE
  5
5EE
330
1F
100
AcDbEntity
  8
2
  6
CONTINUOUS
370
25
 62
7
100
AcDbLine
 10
39.09903252059432
 20
-14.89020349588113
 30
0.0
 11
40.58268834706288
 21
-13.40654766941257
 31
0.0
  0
LINE
  5
5EF
330
1F
100
AcDbEntity
  8
2
  6
CONTINUOUS
370
25
 62
7
100
AcDbLine
 10
38.5687024347044
 20
-14.99626951305912
 30
0.0
 11
40.2291349564696
 21
-13.33583699129392
 31
0.0
  0
LINE
  5
5F0
330
1F
100
AcDbEntity
  8
2
  6
CONTINUOUS
370
25
 62
7
100
AcDbLine
 10
38.55
 20
-14.59070787905159
 30
0.0
 11
39.87558156587632
 21
-13.26512631317527
 31
0.0
  0
LINE
  5
5F1
330
1F
100
AcDbEntity
  8
2
  6
CONTINUOUS
370
25
 62
7
100
AcDbLine
 10
38.55
 20
-14.16644381033966
 30
0.0
 11
39.52202817528305
 21
-13.19441563505661
 31
0.0
  0
LINE
  5
5F2
330
1F
100
AcDbEntity
  8
2
  6
CONTINUOUS
370
25
 62
7
100
AcDbLine
 10
38.55
 20
-13.74217974162773
 30
0.0
 11
39.16847478468977
 21
-13.12370495693796
 31
0.0
  0
LINE
  5
5F3
330
1F
100
AcDbEntity
  8
2
  6
CONTINUOUS
370
25
 62
7
100
AcDbLine
 10
38.55
 20
-13.3179156729158
 30
0.0
 11
38.81492139409649
 21
-13.0529942788193
 31
0.0
  0
LINE
  5
5F4
330
1F
100
AcDbEntity
  8
2
  6
CONTINUOUS
370
25
 62
7
100
AcDbLine
 10
38.55
 20
-14.79121215213199
 30
0.0
 11
38.72399820655667
 21
-14.96521035868867
 31
0.0
  0
LINE
  5
5F5
330
1F
100
AcDbEntity
  8
2
  6
CONTINUOUS
370
25
 62
7
100
AcDbLine
 10
38.55
 20
-14.36694808342006
 30
0.0
 11
39.07755159714994
 21
-14.89449968057001
 31
0.0
  0
LINE
  5
5F6
330
1F
100
AcDbEntity
  8
2
  6
CONTINUOUS
370
25
 62
7
100
AcDbLine
 10
38.55
 20
-13.94268401470813
 30
0.0
 11
39.43110498774322
 21
-14.82378900245135
 31
0.0
  0
LINE
  5
5F7
330
1F
100
AcDbEntity
  8
2
  6
CONTINUOUS
370
25
 62
7
100
AcDbLine
 10
38.55
 20
-13.5184199459962
 30
0.0
 11
39.78465837833649
 21
-14.7530783243327
 31
0.0
  0
LINE
  5
5F8
330
1F
100
AcDbEntity
  8
2
  6
CONTINUOUS
370
25
 62
7
100
AcDbLine
 10
38.55
 20
-13.09415587728427
 30
0.0
 11
40.13821176892977
 21
-14.68236764621404
 31
0.0
  0
LINE
  5
5F9
330
1F
100
AcDbEntity
  8
2
  6
CONTINUOUS
370
25
 62
7
100
AcDbLine
 10
38.96264773928458
 20
-13.08253954785692
 30
0.0
 11
40.49176515952305
 21
-14.61165696809539
 31
0.0
  0
LINE
  5
5FA
330
1F
100
AcDbEntity
  8
2
  6
CONTINUOUS
370
25
 62
7
100
AcDbLine
 10
39.49297782517449
 20
-13.1886055650349
 30
0.0
 11
40.84531855011632
 21
-14.54094628997673
 31
0.0
  0
LINE
  5
5FB
330
1F
100
AcDbEntity
  8
2
  6
CONTINUOUS
370
25
 62
7
100
AcDbLine
 10
40.02330791106441
 20
-13.29467158221289
 30
0.0
 11
41.1988719407096
 21
-14.47023561185807
 31
0.0
  0
LINE
  5
5FC
330
1F
100
AcDbEntity
  8
2
  6
CONTINUOUS
370
25
 62
7
100
AcDbLine
 10
40.55363799695432
 20
-13.40073759939087
 30
0.0
 11
41.55242533130288
 21
-14.39952493373942
 31
0.0
  0
LINE
  5
5FD
330
1F
100
AcDbEntity
  8
2
  6
CONTINUOUS
370
25
 62
7
100
AcDbLine
 10
41.08396808284424
 20
-13.50680361656886
 30
0.0
 11
41.90597872189615
 21
-14.32881425562076
 31
0.0
  0
LINE
  5
5FE
330
1F
100
AcDbEntity
  8
2
  6
CONTINUOUS
370
25
 62
7
100
AcDbLine
 10
41.61429816873415
 20
-13.61286963374683
 30
0.0
 11
42.25953211248942
 21
-14.2581035775021
 31
0.0
  0
LINE
  5
5FF
330
1F
100
AcDbEntity
  8
2
  6
CONTINUOUS
370
25
 62
7
100
AcDbLine
 10
42.14462825462407
 20
-13.71893565092482
 30
0.0
 11
42.61308550308271
 21
-14.18739289938345
 31
0.0
  0
LINE
  5
600
330
1F
100
AcDbEntity
  8
2
  6
CONTINUOUS
370
25
 62
7
100
AcDbLine
 10
42.67495834051398
 20
-13.8250016681028
 30
0.0
 11
42.96663889367598
 21
-14.1166822212648
 31
0.0
  0
LINE
  5
601
330
1F
100
AcDbEntity
  8
2
  6
CONTINUOUS
370
25
 62
7
100
AcDbLine
 10
43.2052884264039
 20
-13.93106768528078
 30
0.0
 11
43.32019228426925
 21
-14.04597154314614
 31
0.0
  0
TEXT
  5
602
330
1F
100
AcDbEntity
  8
2
  6
CONTINUOUS
370
25
 62
7
100
AcDbText
 10
20.925
 20
-13.00001
 30
0.0
 40
3.5
  1
40
 72
     1
 11
23.55
 21
-13.00001
 31
0.0
100
AcDbText
  0
LINE
  5
603
330
1F
100
AcDbEntity
  8
4
  6
LONGDASH_DASH
370
25
 62
2
100
AcDbLine
 10
0.0
 20
0.0
 30
0.0
 11
43.55
 21
0.0
 31
0.0
  0
LINE
  5
604
330
1F
100
AcDbEntity
  8
SK4
  6
LONGDASH_DASH
370
25
 62
2
100
AcDbLine
 10
-51.45
 20
0.0
 30
0.0
 11
48.55
 21
0.0
 31
0.0
  0
LINE
  5
605
330
1F
100
AcDbEntity
  8
INFTOTAL
  6
CONTINUOUS
370
18
 62
9
100
AcDbLine
 10
-77.49501099999999
 20
-30.800011
 30
0.0
 11
66.605011
 21
-30.800011
 31
0.0
  0
LINE
  5
606
330
1F
100
AcDbEntity
  8
INFTOTAL
  6
CONTINUOUS
370
18
 62
9
100
AcDbLine
 10
66.605011
 20
-30.800011
 30
0.0
 11
66.605011
 21
30.800011
 31
0.0
  0
LINE
  5
607
330
1F
100
AcDbEntity
  8
INFTOTAL
  6
CONTINUOUS
370
18
 62
9
100
AcDbLine
 10
66.605011
 20
30.800011
 30
0.0
 11
-77.49501099999999
 21
30.800011
 31
0.0
  0
LINE
  5
608
330
1F
100
AcDbEntity
  8
INFTOTAL
  6
CONTINUOUS
370
18
 62
9
100
AcDbLine
 10
-77.49501099999999
 20
30.800011
 30
0.0
 11
-77.49501099999999
 21
-30.800011
 31
0.0
  0
ARC
  5
609
330
1F
100
AcDbEntity
  8
SK6
  6
CONTINUOUS
370
25
 62
5
100
AcDbCircle
 10
87.8613910083765
 20
-30.34525475338786
 30
0.0
 40
2.76048912849221
100
AcDbArc
 50
338.9379403434233
 51
90.44457437511392
  0
LINE
  5
60A
330
1F
100
AcDbEntity
  8
SK6
  6
CONTINUOUS
370
25
 62
5
100
AcDbLine
 10
87.83997179695983
 20
-27.58484872421281
 30
0.0
 11
87.83997179695983
 21
-28.68790735613463
 31
0.0
  0
ARC
  5
60B
330
1F
100
AcDbEntity
  8
SK6
  6
CONTINUOUS
370
25
 62
5
100
AcDbCircle
 10
87.85051802936917
 20
-30.36524824566821
 30
0.0
 40
1.677374043771792
100
AcDbArc
 50
243.421470601786
 51
90.36024081226131
  0
ARC
  5
60C
330
1F
100
AcDbEntity
  8
SK6
  6
CONTINUOUS
370
25
 62
5
100
AcDbCircle
 10
90.37276889684958
 20
-29.93384099215561
 30
0.0
 40
3.80021703002276
100
AcDbArc
 50
210.5483731288539
 51
236.97801693668
  0
LINE
  5
60D
330
1F
100
AcDbEntity
  8
SK6
  6
CONTINUOUS
370
25
 62
5
100
AcDbLine
 10
88.30179968512486
 20
-33.12017681867535
 30
0.0
 11
92.44373996742671
 21
-33.12017681867535
 31
0.0
  0
ARC
  5
60E
330
1F
100
AcDbEntity
  8
SK6
  6
CONTINUOUS
370
25
 62
5
100
AcDbCircle
 10
90.37277083877257
 20
-29.9338410937346
 30
0.0
 40
3.800216899582469
100
AcDbArc
 50
303.0219828477959
 51
326.3732153033476
  0
LINE
  5
60F
330
1F
100
AcDbEntity
  8
SK6
  6
CONTINUOUS
370
25
 62
5
100
AcDbLine
 10
93.53706875135722
 20
-32.0383284907709
 30
0.0
 11
90.1797707057546
 21
-32.0383284907709
 31
0.0
  0
LINE
  5
610
330
1F
100
AcDbEntity
  8
SK6
  6
CONTINUOUS
370
25
 62
5
100
AcDbLine
 10
90.1797707057546
 20
-32.0383284907709
 30
0.0
 11
94.09963009771987
 21
-30.67692729641694
 31
0.0
  0
ARC
  5
611
330
1F
100
AcDbEntity
  8
SK6
  6
CONTINUOUS
370
25
 62
5
100
AcDbCircle
 10
90.37277156157211
 20
-29.9338416048594
 30
0.0
 40
3.800217216614723
100
AcDbArc
 50
348.7238644184696
 51
53.4691051260885
  0
LINE
  5
612
330
1F
100
AcDbEntity
  8
SK6
  6
CONTINUOUS
370
25
 62
5
100
AcDbLine
 10
92.63487424538545
 20
-26.88023024429967
 30
0.0
 11
90.43745947882736
 21
-31.33731873507057
 31
0.0
  0
ENDSEC
  0
SECTION
  2
OBJECTS
  0
DICTIONARY
  5
C
330
0
100
AcDbDictionary
281
     1
  3
ACAD_GROUP
350
D
  3
ACAD_LAYOUT
350
1A
  3
ACAD_MATERIAL
350
3B
  3
ACAD_MLEADERSTYLE
350
615
  3
ACAD_MLINESTYLE
350
17
  3
ACAD_PLOTSETTINGS
350
19
  3
ACAD_PLOTSTYLENAME
350
E
  3
ACAD_SCALELIST
350
169
  3
ACAD_VISUALSTYLE
350
2A
  3
AcDbVariableDictionary
350
613
  0
DICTIONARY
  5
D
102
{ACAD_REACTORS
330
C
102
}
330
C
100
AcDbDictionary
281
     1
  0
DICTIONARY
  5
1A
102
{ACAD_REACTORS
330
C
102
}
330
C
100
AcDbDictionary
281
     1
  3
Layout1
350
1E
  3
Layout2
350
26
  3
Model
350
22
  0
DICTIONARY
  5
3B
102
{ACAD_REACTORS
330
C
102
}
330
C
100
AcDbDictionary
281
     1
  3
ByBlock
350
3D
  3
ByLayer
350
3C
  3
Global
350
3E
  0
DICTIONARY
  5
615
102
{ACAD_REACTORS
330
C
102
}
330
C
100
AcDbDictionary
281
     1
  0
DICTIONARY
  5
17
102
{ACAD_REACTORS
330
C
102
}
330
C
100
AcDbDictionary
281
     1
  3
Standard
350
18
  0
DICTIONARY
  5
19
102
{ACAD_REACTORS
330
C
102
}
330
C
100
AcDbDictionary
281
     1
  0
ACDBDICTIONARYWDFLT
  5
E
102
{ACAD_REACTORS
330
C
102
}
330
C
100
AcDbDictionary
281
     1
  3
Normal
350
F
100
AcDbDictionaryWithDefault
340
F
  0
DICTIONARY
  5
169
102
{ACAD_REACTORS
330
C
102
}
330
C
100
AcDbDictionary
281
     1
  3
A0
350
16A
  3
A1
350
16B
  3
A2
350
16C
  3
A3
350
16D
  3
A4
350
16E
  3
A5
350
16F
  3
A6
350
170
  3
A7
350
171
  3
A8
350
172
  3
A9
350
173
  3
B0
350
174
  3
B1
350
175
  3
B2
350
176
  3
B3
350
177
  3
B4
350
178
  3
B5
350
179
  3
B6
350
17A
  3
B7
350
17B
  3
B8
350
17C
  3
B9
350
17D
  3
C0
350
17E
  3
C1
350
17F
  3
C2
350
180
  3
C3
350
181
  3
C4
350
182
  3
C5
350
183
  3
C6
350
184
  3
C7
350
185
  3
C8
350
186
  3
C9
350
187
  3
D0
350
188
  3
D1
350
189
  3
D2
350
18A
  0
DICTIONARY
  5
2A
102
{ACAD_REACTORS
330
C
102
}
330
C
100
AcDbDictionary
281
     1
  3
2dWireframe
350
2F
  3
3D Hidden
350
31
  3
3dWireframe
350
30
  3
Basic
350
32
  3
Brighten
350
36
  3
ColorChange
350
3A
  3
Conceptual
350
34
  3
Dim
350
35
  3
Facepattern
350
39
  3
Flat
350
2B
  3
FlatWithEdges
350
2C
  3
Gouraud
350
2D
  3
GouraudWithEdges
350
2E
  3
Linepattern
350
38
  3
Realistic
350
33
  3
Thicken
350
37
  0
DICTIONARY
  5
613
102
{ACAD_REACTORS
330
C
102
}
330
C
100
AcDbDictionary
281
     1
  3
CANNOSCALE
350
618
  3
DIMASSOC
350
619
  3
HIDETEXT
350
61A
  3
PSOLHEIGHT
350
617
  3
PSOLWIDTH
350
616
  0
LAYOUT
  5
1E
102
{ACAD_REACTORS
330
1A
102
}
330
1A
100
AcDbPlotSettings
  1

  2
none_device
  4

  6

 40
0.0
 41
0.0
 42
0.0
 43
0.0
 44
0.0
 45
0.0
 46
0.0
 47
0.0
 48
0.0
 49
0.0
140
0.0
141
0.0
142
1.0
143
1.0
 70
   688
 72
     0
 73
     0
 74
     5
  7

 75
    16
147
1.0
148
0.0
149
0.0
100
AcDbLayout
  1
Layout1
 70
     1
 71
     1
 10
0.0
 20
0.0
 11
420.0
 21
297.0
 12
0.0
 22
0.0
 32
0.0
 14
1.000000000000000E+20
 24
1.000000000000000E+20
 34
1.000000000000000E+20
 15
-1.000000000000000E+20
 25
-1.000000000000000E+20
 35
-1.000000000000000E+20
146
0.0
 13
0.0
 23
0.0
 33
0.0
 16
1.0
 26
0.0
 36
0.0
 17
0.0
 27
1.0
 37
0.0
 76
     0
330
1B
  0
LAYOUT
  5
26
102
{ACAD_REACTORS
330
1A
102
}
330
1A
100
AcDbPlotSettings
  1

  2
none_device
  4

  6

 40
0.0
 41
0.0
 42
0.0
 43
0.0
 44
0.0
 45
0.0
 46
0.0
 47
0.0
 48
0.0
 49
0.0
140
0.0
141
0.0
142
1.0
143
1.0
 70
   688
 72
     0
 73
     0
 74
     5
  7

 75
    16
147
1.0
148
0.0
149
0.0
100
AcDbLayout
  1
Layout2
 70
     1
 71
     2
 10
0.0
 20
0.0
 11
0.0
 21
0.0
 12
0.0
 22
0.0
 32
0.0
 14
0.0
 24
0.0
 34
0.0
 15
0.0
 25
0.0
 35
0.0
146
0.0
 13
0.0
 23
0.0
 33
0.0
 16
1.0
 26
0.0
 36
0.0
 17
0.0
 27
1.0
 37
0.0
 76
     0
330
23
  0
LAYOUT
  5
22
102
{ACAD_REACTORS
330
1A
102
}
330
1A
100
AcDbPlotSettings
  1

  2
none_device
  4

  6

 40
0.0
 41
0.0
 42
0.0
 43
0.0
 44
0.0
 45
0.0
 46
0.0
 47
0.0
 48
0.0
 49
0.0
140
0.0
141
0.0
142
1.0
143
1.0
 70
  1712
 72
     0
 73
     0
 74
     0
  7

 75
     0
147
1.0
148
0.0
149
0.0
100
AcDbLayout
  1
Model
 70
     1
 71
     0
 10
0.0
 20
0.0
 11
420.0
 21
297.0
 12
0.0
 22
0.0
 32
0.0
 14
0.0
 24
0.0
 34
0.0
 15
25.0
 25
35.0
 35
0.0
146
0.0
 13
0.0
 23
0.0
 33
0.0
 16
1.0
 26
0.0
 36
0.0
 17
0.0
 27
1.0
 37
0.0
 76
     0
330
1F
331
29
  0
MATERIAL
  5
3D
102
{ACAD_REACTORS
330
3B
102
}
102
{ACAD_XDICTIONARY
360
63D
102
}
330
3B
100
AcDbMaterial
  1
ByBlock
  0
MATERIAL
  5
3C
102
{ACAD_REACTORS
330
3B
102
}
102
{ACAD_XDICTIONARY
360
63B
102
}
330
3B
100
AcDbMaterial
  1
ByLayer
  0
MATERIAL
  5
3E
102
{ACAD_REACTORS
330
3B
102
}
102
{ACAD_XDICTIONARY
360
63F
102
}
330
3B
100
AcDbMaterial
  1
Global
  0
MLINESTYLE
  5
18
102
{ACAD_REACTORS
330
17
102
}
330
17
100
AcDbMlineStyle
  2
Standard
 70
     0
  3

 62
   256
 51
90.0
 52
90.0
 71
     2
 49
0.5
 62
   256
  6
BYLAYER
 49
-0.5
 62
   256
  6
BYLAYER
  0
ACDBPLACEHOLDER
  5
F
102
{ACAD_REACTORS
330
E
102
}
330
E
  0
SCALE
  5
16A
102
{ACAD_REACTORS
330
169
102
}
330
169
100
AcDbScale
 70
     0
300
1:1
140
1.0
141
1.0
290
     1
  0
SCALE
  5
16B
102
{ACAD_REACTORS
330
169
102
}
330
169
100
AcDbScale
 70
     0
300
1:2
140
1.0
141
2.0
290
     0
  0
SCALE
  5
16C
102
{ACAD_REACTORS
330
169
102
}
330
169
100
AcDbScale
 70
     0
300
1:4
140
1.0
141
4.0
290
     0
  0
SCALE
  5
16D
102
{ACAD_REACTORS
330
169
102
}
330
169
100
AcDbScale
 70
     0
300
1:5
140
1.0
141
5.0
290
     0
  0
SCALE
  5
16E
102
{ACAD_REACTORS
330
169
102
}
330
169
100
AcDbScale
 70
     0
300
1:8
140
1.0
141
8.0
290
     0
  0
SCALE
  5
16F
102
{ACAD_REACTORS
330
169
102
}
330
169
100
AcDbScale
 70
     0
300
1:10
140
1.0
141
10.0
290
     0
  0
SCALE
  5
170
102
{ACAD_REACTORS
330
169
102
}
330
169
100
AcDbScale
 70
     0
300
1:16
140
1.0
141
16.0
290
     0
  0
SCALE
  5
171
102
{ACAD_REACTORS
330
169
102
}
330
169
100
AcDbScale
 70
     0
300
1:20
140
1.0
141
20.0
290
     0
  0
SCALE
  5
172
102
{ACAD_REACTORS
330
169
102
}
330
169
100
AcDbScale
 70
     0
300
1:30
140
1.0
141
30.0
290
     0
  0
SCALE
  5
173
102
{ACAD_REACTORS
330
169
102
}
330
169
100
AcDbScale
 70
     0
300
1:40
140
1.0
141
40.0
290
     0
  0
SCALE
  5
174
102
{ACAD_REACTORS
330
169
102
}
330
169
100
AcDbScale
 70
     0
300
1:50
140
1.0
141
50.0
290
     0
  0
SCALE
  5
175
102
{ACAD_REACTORS
330
169
102
}
330
169
100
AcDbScale
 70
     0
300
1:100
140
1.0
141
100.0
290
     0
  0
SCALE
  5
176
102
{ACAD_REACTORS
330
169
102
}
330
169
100
AcDbScale
 70
     0
300
2:1
140
2.0
141
1.0
290
     0
  0
SCALE
  5
177
102
{ACAD_REACTORS
330
169
102
}
330
169
100
AcDbScale
 70
     0
300
4:1
140
4.0
141
1.0
290
     0
  0
SCALE
  5
178
102
{ACAD_REACTORS
330
169
102
}
330
169
100
AcDbScale
 70
     0
300
8:1
140
8.0
141
1.0
290
     0
  0
SCALE
  5
179
102
{ACAD_REACTORS
330
169
102
}
330
169
100
AcDbScale
 70
     0
300
10:1
140
10.0
141
1.0
290
     0
  0
SCALE
  5
17A
102
{ACAD_REACTORS
330
169
102
}
330
169
100
AcDbScale
 70
     0
300
100:1
140
100.0
141
1.0
290
     0
  0
SCALE
  5
17B
102
{ACAD_REACTORS
330
169
102
}
330
169
100
AcDbScale
 70
     0
300
1/128" = 1'-0"
140
0.0078125
141
12.0
290
     0
  0
SCALE
  5
17C
102
{ACAD_REACTORS
330
169
102
}
330
169
100
AcDbScale
 70
     0
300
1/64" = 1'-0"
140
0.015625
141
12.0
290
     0
  0
SCALE
  5
17D
102
{ACAD_REACTORS
330
169
102
}
330
169
100
AcDbScale
 70
     0
300
1/32" = 1'-0"
140
0.03125
141
12.0
290
     0
  0
SCALE
  5
17E
102
{ACAD_REACTORS
330
169
102
}
330
169
100
AcDbScale
 70
     0
300
1/16" = 1'-0"
140
0.0625
141
12.0
290
     0
  0
SCALE
  5
17F
102
{ACAD_REACTORS
330
169
102
}
330
169
100
AcDbScale
 70
     0
300
3/32" = 1'-0"
140
0.09375
141
12.0
290
     0
  0
SCALE
  5
180
102
{ACAD_REACTORS
330
169
102
}
330
169
100
AcDbScale
 70
     0
300
1/8" = 1'-0"
140
0.125
141
12.0
290
     0
  0
SCALE
  5
181
102
{ACAD_REACTORS
330
169
102
}
330
169
100
AcDbScale
 70
     0
300
3/16" = 1'-0"
140
0.1875
141
12.0
290
     0
  0
SCALE
  5
182
102
{ACAD_REACTORS
330
169
102
}
330
169
100
AcDbScale
 70
     0
300
1/4" = 1'-0"
140
0.25
141
12.0
290
     0
  0
SCALE
  5
183
102
{ACAD_REACTORS
330
169
102
}
330
169
100
AcDbScale
 70
     0
300
3/8" = 1'-0"
140
0.375
141
12.0
290
     0
  0
SCALE
  5
184
102
{ACAD_REACTORS
330
169
102
}
330
169
100
AcDbScale
 70
     0
300
1/2" = 1'-0"
140
0.5
141
12.0
290
     0
  0
SCALE
  5
185
102
{ACAD_REACTORS
330
169
102
}
330
169
100
AcDbScale
 70
     0
300
3/4" = 1'-0"
140
0.75
141
12.0
290
     0
  0
SCALE
  5
186
102
{ACAD_REACTORS
330
169
102
}
330
169
100
AcDbScale
 70
     0
300
1" = 1'-0"
140
1.0
141
12.0
290
     0
  0
SCALE
  5
187
102
{ACAD_REACTORS
330
169
102
}
330
169
100
AcDbScale
 70
     0
300
1-1/2" = 1'-0"
140
1.5
141
12.0
290
     0
  0
SCALE
  5
188
102
{ACAD_REACTORS
330
169
102
}
330
169
100
AcDbScale
 70
     0
300
3" = 1'-0"
140
3.0
141
12.0
290
     0
  0
SCALE
  5
189
102
{ACAD_REACTORS
330
169
102
}
330
169
100
AcDbScale
 70
     0
300
6" = 1'-0"
140
6.0
141
12.0
290
     0
  0
SCALE
  5
18A
102
{ACAD_REACTORS
330
169
102
}
330
169
100
AcDbScale
 70
     0
300
1'-0" = 1'-0"
140
12.0
141
12.0
290
     0
  0
VISUALSTYLE
  5
2F
102
{ACAD_REACTORS
330
2A
102
}
102
{ACAD_XDICTIONARY
360
623
102
}
330
2A
100
AcDbVisualStyle
  2
2dWireframe
 70
     4
 71
     0
 72
     2
 73
     0
 90
        0
 40
-0.6
 41
-30.0
 62
     5
 63
     7
 74
     1
 91
        4
 64
     7
 65
   257
 75
     1
175
     1
 42
1.0
 92
        0
 66
   257
 43
1.0
 76
     1
 77
     6
 78
     2
 67
     7
 79
     5
170
     0
171
     0
290
     0
174
     0
 93
        1
 44
0.0
173
     0
291
     0
 45
0.0
1001
ACAD
1000
AcDbSavedByObjectVersion
1070
     0
  0
VISUALSTYLE
  5
31
102
{ACAD_REACTORS
330
2A
102
}
102
{ACAD_XDICTIONARY
360
627
102
}
330
2A
100
AcDbVisualStyle
  2
3D Hidden
 70
     6
 71
     1
 72
     2
 73
     2
 90
        0
 40
-0.6
 41
-30.0
 62
     5
 63
     7
 74
     2
 91
        2
 64
     7
 65
   257
 75
     2
175
     1
 42
40.0
 92
        0
 66
   257
 43
1.0
 76
     1
 77
     6
 78
     2
 67
     7
 79
     3
170
     0
171
     0
290
     0
174
     0
 93
        1
 44
0.0
173
     0
291
     0
 45
0.0
1001
ACAD
1000
AcDbSavedByObjectVersion
1070
     0
  0
VISUALSTYLE
  5
30
102
{ACAD_REACTORS
330
2A
102
}
102
{ACAD_XDICTIONARY
360
625
102
}
330
2A
100
AcDbVisualStyle
  2
3dWireframe
 70
     5
 71
     0
 72
     2
 73
     0
 90
        0
 40
-0.6
 41
-30.0
 62
     5
 63
     7
 74
     1
 91
        4
 64
     7
 65
   257
 75
     1
175
     1
 42
1.0
 92
        0
 66
   257
 43
1.0
 76
     1
 77
     6
 78
     2
 67
     7
 79
     5
170
     0
171
     0
290
     0
174
     0
 93
        1
 44
0.0
173
     0
291
     0
 45
0.0
1001
ACAD
1000
AcDbSavedByObjectVersion
1070
     0
  0
VISUALSTYLE
  5
32
102
{ACAD_REACTORS
330
2A
102
}
102
{ACAD_XDICTIONARY
360
629
102
}
330
2A
100
AcDbVisualStyle
  2
Basic
 70
     7
 71
     1
 72
     0
 73
     1
 90
        0
 40
-0.6
 41
-30.0
 62
     5
 63
     7
 74
     0
 91
        4
 64
     7
 65
   257
 75
     1
175
     1
 42
1.0
 92
        8
 66
     7
 43
1.0
 76
     1
 77
     6
 78
     2
 67
     7
 79
     5
170
     0
171
     0
290
     0
174
     0
 93
        1
 44
0.0
173
     0
291
     1
 45
0.0
1001
ACAD
1000
AcDbSavedByObjectVersion
1070
     0
  0
VISUALSTYLE
  5
36
102
{ACAD_REACTORS
330
2A
102
}
102
{ACAD_XDICTIONARY
360
631
102
}
330
2A
100
AcDbVisualStyle
  2
Brighten
 70
    12
 71
     2
 72
     2
 73
     0
 90
        0
 40
-0.6
 41
-30.0
 62
     5
 63
     7
 74
     1
 91
        4
 64
     7
 65
   257
 75
     1
175
     1
 42
1.0
 92
        8
 66
     7
 43
1.0
 76
     1
 77
     6
 78
     2
 67
     7
 79
     5
170
     0
171
     0
290
     0
174
     0
 93
        1
 44
50.0
173
     0
291
     1
 45
0.0
1001
ACAD
1000
AcDbSavedByObjectVersion
1070
     0
  0
VISUALSTYLE
  5
3A
102
{ACAD_REACTORS
330
2A
102
}
102
{ACAD_XDICTIONARY
360
639
102
}
330
2A
100
AcDbVisualStyle
  2
ColorChange
 70
    16
 71
     2
 72
     2
 73
     3
 90
        0
 40
-0.6
 41
-30.0
 62
     5
 63
     8
 74
     1
 91
        4
 64
     7
 65
   257
 75
     1
175
     1
 42
1.0
 92
        8
 66
     8
 43
1.0
 76
     1
 77
     6
 78
     2
 67
     7
 79
     5
170
     0
171
     0
290
     0
174
     0
 93
        1
 44
0.0
173
     0
291
     1
 45
0.0
1001
ACAD
1000
AcDbSavedByObjectVersion
1070
     0
  0
VISUALSTYLE
  5
34
102
{ACAD_REACTORS
330
2A
102
}
102
{ACAD_XDICTIONARY
360
62D
102
}
330
2A
100
AcDbVisualStyle
  2
Conceptual
 70
     9
 71
     3
 72
     2
 73
     0
 90
        0
 40
-0.6
 41
-30.0
 62
     5
 63
     7
 74
     2
 91
        2
 64
     7
 65
   257
 75
     1
175
     1
 42
40.0
 92
        8
 66
     7
 43
1.0
 76
     1
 77
     6
 78
     2
 67
     7
 79
     3
170
     0
171
     0
290
     0
174
     0
 93
        1
 44
0.0
173
     0
291
     0
 45
0.0
1001
ACAD
1000
AcDbSavedByObjectVersion
1070
     0
  0
VISUALSTYLE
  5
35
102
{ACAD_REACTORS
330
2A
102
}
102
{ACAD_XDICTIONARY
360
62F
102
}
330
2A
100
AcDbVisualStyle
  2
Dim
 70
    11
 71
     2
 72
     2
 73
     0
 90
        0
 40
-0.6
 41
-30.0
 62
     5
 63
     7
 74
     1
 91
        4
 64
     7
 65
   257
 75
     1
175
     1
 42
1.0
 92
        8
 66
     7
 43
1.0
 76
     1
 77
     6
 78
     2
 67
     7
 79
     5
170
     0
171
     0
290
     0
174
     0
 93
        1
 44
-50.0
173
     0
291
     1
 45
0.0
1001
ACAD
1000
AcDbSavedByObjectVersion
1070
     0
  0
VISUALSTYLE
  5
39
102
{ACAD_REACTORS
330
2A
102
}
102
{ACAD_XDICTIONARY
360
637
102
}
330
2A
100
AcDbVisualStyle
  2
Facepattern
 70
    15
 71
     2
 72
     2
 73
     0
 90
        0
 40
-0.6
 41
-30.0
 62
     5
 63
     7
 74
     1
 91
        4
 64
     7
 65
   257
 75
     1
175
     1
 42
1.0
 92
        8
 66
     7
 43
1.0
 76
     1
 77
     6
 78
     2
 67
     7
 79
     5
170
     0
171
     0
290
     0
174
     0
 93
        1
 44
0.0
173
     0
291
     1
 45
0.0
1001
ACAD
1000
AcDbSavedByObjectVersion
1070
     0
  0
VISUALSTYLE
  5
2B
102
{ACAD_REACTORS
330
2A
102
}
102
{ACAD_XDICTIONARY
360
61B
102
}
330
2A
100
AcDbVisualStyle
  2
Flat
 70
     0
 71
     2
 72
     1
 73
     1
 90
        2
 40
-0.6
 41
30.0
 62
     5
 63
     7
 74
     0
 91
        4
 64
     7
 65
   257
 75
     1
175
     1
 42
1.0
 92
        8
 66
     7
 43
1.0
 76
     1
 77
     6
 78
     2
 67
     7
 79
     5
170
     0
171
     0
290
     0
174
     0
 93
       13
 44
0.0
173
     0
291
     1
 45
0.0
1001
ACAD
1000
AcDbSavedByObjectVersion
1070
     0
  0
VISUALSTYLE
  5
2C
102
{ACAD_REACTORS
330
2A
102
}
102
{ACAD_XDICTIONARY
360
61D
102
}
330
2A
100
AcDbVisualStyle
  2
FlatWithEdges
 70
     1
 71
     2
 72
     1
 73
     1
 90
        2
 40
-0.6
 41
30.0
 62
     5
 63
     7
 74
     1
 91
        4
 64
     7
 65
   257
 75
     1
175
     1
 42
1.0
 92
        0
 66
   257
 43
1.0
 76
     1
 77
     6
 78
     2
 67
     7
 79
     5
170
     0
171
     0
290
     0
174
     0
 93
       13
 44
0.0
173
     0
291
     1
 45
0.0
1001
ACAD
1000
AcDbSavedByObjectVersion
1070
     0
  0
VISUALSTYLE
  5
2D
102
{ACAD_REACTORS
330
2A
102
}
102
{ACAD_XDICTIONARY
360
61F
102
}
330
2A
100
AcDbVisualStyle
  2
Gouraud
 70
     2
 71
     2
 72
     2
 73
     1
 90
        2
 40
-0.6
 41
30.0
 62
     5
 63
     7
 74
     0
 91
        4
 64
     7
 65
   257
 75
     1
175
     1
 42
1.0
 92
        0
 66
     7
 43
1.0
 76
     1
 77
     6
 78
     2
 67
     7
 79
     5
170
     0
171
     0
290
     0
174
     0
 93
       13
 44
0.0
173
     0
291
     1
 45
0.0
1001
ACAD
1000
AcDbSavedByObjectVersion
1070
     0
  0
VISUALSTYLE
  5
2E
102
{ACAD_REACTORS
330
2A
102
}
102
{ACAD_XDICTIONARY
360
621
102
}
330
2A
100
AcDbVisualStyle
  2
GouraudWithEdges
 70
     3
 71
     2
 72
     2
 73
     1
 90
        2
 40
-0.6
 41
30.0
 62
     5
 63
     7
 74
     1
 91
        4
 64
     7
 65
   257
 75
     1
175
     1
 42
1.0
 92
        0
 66
   257
 43
1.0
 76
     1
 77
     6
 78
     2
 67
     7
 79
     5
170
     0
171
     0
290
     0
174
     0
 93
       13
 44
0.0
173
     0
291
     1
 45
0.0
1001
ACAD
1000
AcDbSavedByObjectVersion
1070
     0
  0
VISUALSTYLE
  5
38
102
{ACAD_REACTORS
330
2A
102
}
102
{ACAD_XDICTIONARY
360
635
102
}
330
2A
100
AcDbVisualStyle
  2
Linepattern
 70
    14
 71
     2
 72
     2
 73
     0
 90
        0
 40
-0.6
 41
-30.0
 62
     5
 63
     7
 74
     1
 91
        4
 64
     7
 65
   257
 75
     7
175
     7
 42
1.0
 92
        8
 66
     7
 43
1.0
 76
     1
 77
     6
 78
     2
 67
     7
 79
     5
170
     0
171
     0
290
     0
174
     0
 93
        1
 44
0.0
173
     0
291
     1
 45
0.0
1001
ACAD
1000
AcDbSavedByObjectVersion
1070
     0
  0
VISUALSTYLE
  5
33
102
{ACAD_REACTORS
330
2A
102
}
102
{ACAD_XDICTIONARY
360
62B
102
}
330
2A
100
AcDbVisualStyle
  2
Realistic
 70
     8
 71
     2
 72
     2
 73
     0
 90
        0
 40
-0.6
 41
-30.0
 62
     5
 63
     7
 74
     1
 91
        0
 64
     7
 65
   257
 75
     1
175
     1
 42
1.0
 92
        8
 66
     8
 43
1.0
 76
     1
 77
     6
 78
     2
 67
     7
 79
     5
170
     0
171
     0
290
     0
174
     0
 93
       13
 44
0.0
173
     0
291
     0
 45
0.0
1001
ACAD
1000
AcDbSavedByObjectVersion
1070
     0
  0
VISUALSTYLE
  5
37
102
{ACAD_REACTORS
330
2A
102
}
102
{ACAD_XDICTIONARY
360
633
102
}
330
2A
100
AcDbVisualStyle
  2
Thicken
 70
    13
 71
     2
 72
     2
 73
     0
 90
        0
 40
-0.6
 41
-30.0
 62
     5
 63
     7
 74
     1
 91
        4
 64
     7
 65
   257
 75
     1
175
     1
 42
1.0
 92
       12
 66
     7
 43
1.0
 76
     1
 77
     6
 78
     2
 67
     7
 79
     5
170
     0
171
     0
290
     0
174
     0
 93
        1
 44
0.0
173
     0
291
     1
 45
0.0
1001
ACAD
1000
AcDbSavedByObjectVersion
1070
     0
  0
DICTIONARYVAR
  5
618
102
{ACAD_REACTORS
330
613
102
}
330
613
100
DictionaryVariables
280
     0
  1
1:1
  0
DICTIONARYVAR
  5
619
102
{ACAD_REACTORS
330
613
102
}
330
613
100
DictionaryVariables
280
     0
  1
2
  0
DICTIONARYVAR
  5
61A
102
{ACAD_REACTORS
330
613
102
}
330
613
100
DictionaryVariables
280
     0
  1
1
  0
DICTIONARYVAR
  5
617
102
{ACAD_REACTORS
330
613
102
}
330
613
100
DictionaryVariables
280
     0
  1
80.000000
  0
DICTIONARYVAR
  5
616
102
{ACAD_REACTORS
330
613
102
}
330
613
100
DictionaryVariables
280
     0
  1
5.000000
  0
DICTIONARY
  5
63D
330
3D
100
AcDbDictionary
280
     1
281
     1
  3
ACAD_XREC_ROUNDTRIP
360
63E
  0
DICTIONARY
  5
63B
330
3C
100
AcDbDictionary
280
     1
281
     1
  3
ACAD_XREC_ROUNDTRIP
360
63C
  0
DICTIONARY
  5
63F
330
3E
100
AcDbDictionary
280
     1
281
     1
  3
ACAD_XREC_ROUNDTRIP
360
640
  0
DICTIONARY
  5
623
330
2F
100
AcDbDictionary
280
     1
281
     1
  3
ACAD_XREC_ROUNDTRIP
360
624
  0
DICTIONARY
  5
627
330
31
100
AcDbDictionary
280
     1
281
     1
  3
ACAD_XREC_ROUNDTRIP
360
628
  0
DICTIONARY
  5
625
330
30
100
AcDbDictionary
280
     1
281
     1
  3
ACAD_XREC_ROUNDTRIP
360
626
  0
DICTIONARY
  5
629
330
32
100
AcDbDictionary
280
     1
281
     1
  3
ACAD_XREC_ROUNDTRIP
360
62A
  0
DICTIONARY
  5
631
330
36
100
AcDbDictionary
280
     1
281
     1
  3
ACAD_XREC_ROUNDTRIP
360
632
  0
DICTIONARY
  5
639
330
3A
100
AcDbDictionary
280
     1
281
     1
  3
ACAD_XREC_ROUNDTRIP
360
63A
  0
DICTIONARY
  5
62D
330
34
100
AcDbDictionary
280
     1
281
     1
  3
ACAD_XREC_ROUNDTRIP
360
62E
  0
DICTIONARY
  5
62F
330
35
100
AcDbDictionary
280
     1
281
     1
  3
ACAD_XREC_ROUNDTRIP
360
630
  0
DICTIONARY
  5
637
330
39
100
AcDbDictionary
280
     1
281
     1
  3
ACAD_XREC_ROUNDTRIP
360
638
  0
DICTIONARY
  5
61B
330
2B
100
AcDbDictionary
280
     1
281
     1
  3
ACAD_XREC_ROUNDTRIP
360
61C
  0
DICTIONARY
  5
61D
330
2C
100
AcDbDictionary
280
     1
281
     1
  3
ACAD_XREC_ROUNDTRIP
360
61E
  0
DICTIONARY
  5
61F
330
2D
100
AcDbDictionary
280
     1
281
     1
  3
ACAD_XREC_ROUNDTRIP
360
620
  0
DICTIONARY
  5
621
330
2E
100
AcDbDictionary
280
     1
281
     1
  3
ACAD_XREC_ROUNDTRIP
360
622
  0
DICTIONARY
  5
635
330
38
100
AcDbDictionary
280
     1
281
     1
  3
ACAD_XREC_ROUNDTRIP
360
636
  0
DICTIONARY
  5
62B
330
33
100
AcDbDictionary
280
     1
281
     1
  3
ACAD_XREC_ROUNDTRIP
360
62C
  0
DICTIONARY
  5
633
330
37
100
AcDbDictionary
280
     1
281
     1
  3
ACAD_XREC_ROUNDTRIP
360
634
  0
XRECORD
  5
63E
102
{ACAD_REACTORS
330
63D
102
}
330
63D
100
AcDbXrecord
280
     1
102
MATERIAL
148
0.0
149
0.0
149
0.0
 93
        0
 94
      127
282
     0
 72
     1
 77
     1
171
     1
175
     1
179
     1
273
     0
  0
XRECORD
  5
63C
102
{ACAD_REACTORS
330
63B
102
}
330
63B
100
AcDbXrecord
280
     1
102
MATERIAL
148
0.0
149
0.0
149
0.0
 93
        0
 94
      127
282
     0
 72
     1
 77
     1
171
     1
175
     1
179
     1
273
     0
  0
XRECORD
  5
640
102
{ACAD_REACTORS
330
63F
102
}
330
63F
100
AcDbXrecord
280
     1
102
MATERIAL
148
0.0
149
0.0
149
0.0
 93
        0
 94
      127
282
     0
 72
     1
 77
     1
171
     1
175
     1
179
     1
273
     0
  0
XRECORD
  5
624
102
{ACAD_REACTORS
330
623
102
}
330
623
100
AcDbXrecord
280
     1
102
RTVSPropertyOp0
 70
     1
102
RTVSPropertyOp1
 70
     1
102
RTVSPropertyOp2
 70
     1
102
RTVSPropertyOp3
 70
     1
102
RTVSPropertyOp4
 70
     1
102
RTVSPropertyOp5
 70
     1
102
RTVSPropertyOp6
 70
     1
102
RTVSPropertyOp7
 70
     1
102
RTVSPropertyOp8
 70
     1
102
RTVSPropertyOp9
 70
     1
102
RTVSPropertyOp10
 70
     1
102
RTVSPropertyOp11
 70
     1
102
RTVSPropertyOp12
 70
     1
102
RTVSPropertyOp13
 70
     1
102
RTVSPropertyOp14
 70
     1
102
RTVSPropertyOp15
 70
     1
102
RTVSPropertyOp16
 70
     1
102
RTVSPropertyOp17
 70
     1
102
RTVSPropertyOp18
 70
     1
102
RTVSPropertyOp19
 70
     1
102
RTVSPropertyOp20
 70
     1
102
RTVSPropertyOp21
 70
     1
102
RTVSPropertyOp22
 70
     1
102
RTVSPropertyOp23
 70
     1
102
RTVSPropertyOp24
 70
     1
102
RTVSPropertyOp25
 70
     1
102
RTVSPropertyOp26
 70
     1
102
RTVSPropertyOp27
 70
     1
  0
XRECORD
  5
628
102
{ACAD_REACTORS
330
627
102
}
330
627
100
AcDbXrecord
280
     1
102
RTVSPropertyOp0
 70
     1
102
RTVSPropertyOp1
 70
     1
102
RTVSPropertyOp2
 70
     1
102
RTVSPropertyOp3
 70
     1
102
RTVSPropertyOp4
 70
     1
102
RTVSPropertyOp5
 70
     1
102
RTVSPropertyOp6
 70
     1
102
RTVSPropertyOp7
 70
     1
102
RTVSPropertyOp8
 70
     1
102
RTVSPropertyOp9
 70
     1
102
RTVSPropertyOp10
 70
     1
102
RTVSPropertyOp11
 70
     1
102
RTVSPropertyOp12
 70
     1
102
RTVSPropertyOp13
 70
     1
102
RTVSPropertyOp14
 70
     1
102
RTVSPropertyOp15
 70
     1
102
RTVSPropertyOp16
 70
     1
102
RTVSPropertyOp17
 70
     1
102
RTVSPropertyOp18
 70
     1
102
RTVSPropertyOp19
 70
     1
102
RTVSPropertyOp20
 70
     1
102
RTVSPropertyOp21
 70
     1
102
RTVSPropertyOp22
 70
     1
102
RTVSPropertyOp23
 70
     1
102
RTVSPropertyOp24
 70
     1
102
RTVSPropertyOp25
 70
     1
102
RTVSPropertyOp26
 70
     1
102
RTVSPropertyOp27
 70
     1
  0
XRECORD
  5
626
102
{ACAD_REACTORS
330
625
102
}
330
625
100
AcDbXrecord
280
     1
102
RTVSPropertyOp0
 70
     1
102
RTVSPropertyOp1
 70
     1
102
RTVSPropertyOp2
 70
     1
102
RTVSPropertyOp3
 70
     1
102
RTVSPropertyOp4
 70
     1
102
RTVSPropertyOp5
 70
     1
102
RTVSPropertyOp6
 70
     1
102
RTVSPropertyOp7
 70
     1
102
RTVSPropertyOp8
 70
     1
102
RTVSPropertyOp9
 70
     1
102
RTVSPropertyOp10
 70
     1
102
RTVSPropertyOp11
 70
     1
102
RTVSPropertyOp12
 70
     1
102
RTVSPropertyOp13
 70
     1
102
RTVSPropertyOp14
 70
     1
102
RTVSPropertyOp15
 70
     1
102
RTVSPropertyOp16
 70
     1
102
RTVSPropertyOp17
 70
     1
102
RTVSPropertyOp18
 70
     1
102
RTVSPropertyOp19
 70
     1
102
RTVSPropertyOp20
 70
     1
102
RTVSPropertyOp21
 70
     1
102
RTVSPropertyOp22
 70
     1
102
RTVSPropertyOp23
 70
     1
102
RTVSPropertyOp24
 70
     1
102
RTVSPropertyOp25
 70
     1
102
RTVSPropertyOp26
 70
     1
102
RTVSPropertyOp27
 70
     1
  0
XRECORD
  5
62A
102
{ACAD_REACTORS
330
629
102
}
330
629
100
AcDbXrecord
280
     1
102
RTVSPropertyOp0
 70
     1
102
RTVSPropertyOp1
 70
     1
102
RTVSPropertyOp2
 70
     1
102
RTVSPropertyOp3
 70
     1
102
RTVSPropertyOp4
 70
     1
102
RTVSPropertyOp5
 70
     1
102
RTVSPropertyOp6
 70
     1
102
RTVSPropertyOp7
 70
     1
102
RTVSPropertyOp8
 70
     1
102
RTVSPropertyOp9
 70
     1
102
RTVSPropertyOp10
 70
     1
102
RTVSPropertyOp11
 70
     1
102
RTVSPropertyOp12
 70
     1
102
RTVSPropertyOp13
 70
     1
102
RTVSPropertyOp14
 70
     1
102
RTVSPropertyOp15
 70
     1
102
RTVSPropertyOp16
 70
     1
102
RTVSPropertyOp17
 70
     1
102
RTVSPropertyOp18
 70
     1
102
RTVSPropertyOp19
 70
     1
102
RTVSPropertyOp20
 70
     1
102
RTVSPropertyOp21
 70
     1
102
RTVSPropertyOp22
 70
     1
102
RTVSPropertyOp23
 70
     1
102
RTVSPropertyOp24
 70
     1
102
RTVSPropertyOp25
 70
     1
102
RTVSPropertyOp26
 70
     1
102
RTVSPropertyOp27
 70
     1
  0
XRECORD
  5
632
102
{ACAD_REACTORS
330
631
102
}
330
631
100
AcDbXrecord
280
     1
102
RTVSPropertyOp0
 70
     1
102
RTVSPropertyOp1
 70
     1
102
RTVSPropertyOp2
 70
     1
102
RTVSPropertyOp3
 70
     1
102
RTVSPropertyOp4
 70
     1
102
RTVSPropertyOp5
 70
     1
102
RTVSPropertyOp6
 70
     1
102
RTVSPropertyOp7
 70
     1
102
RTVSPropertyOp8
 70
     1
102
RTVSPropertyOp9
 70
     1
102
RTVSPropertyOp10
 70
     1
102
RTVSPropertyOp11
 70
     1
102
RTVSPropertyOp12
 70
     1
102
RTVSPropertyOp13
 70
     1
102
RTVSPropertyOp14
 70
     1
102
RTVSPropertyOp15
 70
     1
102
RTVSPropertyOp16
 70
     1
102
RTVSPropertyOp17
 70
     1
102
RTVSPropertyOp18
 70
     1
102
RTVSPropertyOp19
 70
     1
102
RTVSPropertyOp20
 70
     1
102
RTVSPropertyOp21
 70
     1
102
RTVSPropertyOp22
 70
     1
102
RTVSPropertyOp23
 70
     1
102
RTVSPropertyOp24
 70
     1
102
RTVSPropertyOp25
 70
     1
102
RTVSPropertyOp26
 70
     1
102
RTVSPropertyOp27
 70
     1
  0
XRECORD
  5
63A
102
{ACAD_REACTORS
330
639
102
}
330
639
100
AcDbXrecord
280
     1
102
RTVSPropertyOp0
 70
     1
102
RTVSPropertyOp1
 70
     1
102
RTVSPropertyOp2
 70
     1
102
RTVSPropertyOp3
 70
     1
102
RTVSPropertyOp4
 70
     1
102
RTVSPropertyOp5
 70
     1
102
RTVSPropertyOp6
 70
     1
102
RTVSPropertyOp7
 70
     1
102
RTVSPropertyOp8
 70
     1
102
RTVSPropertyOp9
 70
     1
102
RTVSPropertyOp10
 70
     1
102
RTVSPropertyOp11
 70
     1
102
RTVSPropertyOp12
 70
     1
102
RTVSPropertyOp13
 70
     1
102
RTVSPropertyOp14
 70
     1
102
RTVSPropertyOp15
 70
     1
102
RTVSPropertyOp16
 70
     1
102
RTVSPropertyOp17
 70
     1
102
RTVSPropertyOp18
 70
     1
102
RTVSPropertyOp19
 70
     1
102
RTVSPropertyOp20
 70
     1
102
RTVSPropertyOp21
 70
     1
102
RTVSPropertyOp22
 70
     1
102
RTVSPropertyOp23
 70
     1
102
RTVSPropertyOp24
 70
     1
102
RTVSPropertyOp25
 70
     1
102
RTVSPropertyOp26
 70
     1
102
RTVSPropertyOp27
 70
     1
  0
XRECORD
  5
62E
102
{ACAD_REACTORS
330
62D
102
}
330
62D
100
AcDbXrecord
280
     1
102
RTVSPropertyOp0
 70
     1
102
RTVSPropertyOp1
 70
     1
102
RTVSPropertyOp2
 70
     1
102
RTVSPropertyOp3
 70
     1
102
RTVSPropertyOp4
 70
     1
102
RTVSPropertyOp5
 70
     1
102
RTVSPropertyOp6
 70
     1
102
RTVSPropertyOp7
 70
     1
102
RTVSPropertyOp8
 70
     1
102
RTVSPropertyOp9
 70
     1
102
RTVSPropertyOp10
 70
     1
102
RTVSPropertyOp11
 70
     1
102
RTVSPropertyOp12
 70
     1
102
RTVSPropertyOp13
 70
     1
102
RTVSPropertyOp14
 70
     1
102
RTVSPropertyOp15
 70
     1
102
RTVSPropertyOp16
 70
     1
102
RTVSPropertyOp17
 70
     1
102
RTVSPropertyOp18
 70
     1
102
RTVSPropertyOp19
 70
     1
102
RTVSPropertyOp20
 70
     1
102
RTVSPropertyOp21
 70
     1
102
RTVSPropertyOp22
 70
     1
102
RTVSPropertyOp23
 70
     1
102
RTVSPropertyOp24
 70
     1
102
RTVSPropertyOp25
 70
     1
102
RTVSPropertyOp26
 70
     1
102
RTVSPropertyOp27
 70
     1
  0
XRECORD
  5
630
102
{ACAD_REACTORS
330
62F
102
}
330
62F
100
AcDbXrecord
280
     1
102
RTVSPropertyOp0
 70
     1
102
RTVSPropertyOp1
 70
     1
102
RTVSPropertyOp2
 70
     1
102
RTVSPropertyOp3
 70
     1
102
RTVSPropertyOp4
 70
     1
102
RTVSPropertyOp5
 70
     1
102
RTVSPropertyOp6
 70
     1
102
RTVSPropertyOp7
 70
     1
102
RTVSPropertyOp8
 70
     1
102
RTVSPropertyOp9
 70
     1
102
RTVSPropertyOp10
 70
     1
102
RTVSPropertyOp11
 70
     1
102
RTVSPropertyOp12
 70
     1
102
RTVSPropertyOp13
 70
     1
102
RTVSPropertyOp14
 70
     1
102
RTVSPropertyOp15
 70
     1
102
RTVSPropertyOp16
 70
     1
102
RTVSPropertyOp17
 70
     1
102
RTVSPropertyOp18
 70
     1
102
RTVSPropertyOp19
 70
     1
102
RTVSPropertyOp20
 70
     1
102
RTVSPropertyOp21
 70
     1
102
RTVSPropertyOp22
 70
     1
102
RTVSPropertyOp23
 70
     1
102
RTVSPropertyOp24
 70
     1
102
RTVSPropertyOp25
 70
     1
102
RTVSPropertyOp26
 70
     1
102
RTVSPropertyOp27
 70
     1
  0
XRECORD
  5
638
102
{ACAD_REACTORS
330
637
102
}
330
637
100
AcDbXrecord
280
     1
102
RTVSPropertyOp0
 70
     1
102
RTVSPropertyOp1
 70
     1
102
RTVSPropertyOp2
 70
     1
102
RTVSPropertyOp3
 70
     1
102
RTVSPropertyOp4
 70
     1
102
RTVSPropertyOp5
 70
     1
102
RTVSPropertyOp6
 70
     1
102
RTVSPropertyOp7
 70
     1
102
RTVSPropertyOp8
 70
     1
102
RTVSPropertyOp9
 70
     1
102
RTVSPropertyOp10
 70
     1
102
RTVSPropertyOp11
 70
     1
102
RTVSPropertyOp12
 70
     1
102
RTVSPropertyOp13
 70
     1
102
RTVSPropertyOp14
 70
     1
102
RTVSPropertyOp15
 70
     1
102
RTVSPropertyOp16
 70
     1
102
RTVSPropertyOp17
 70
     1
102
RTVSPropertyOp18
 70
     1
102
RTVSPropertyOp19
 70
     1
102
RTVSPropertyOp20
 70
     1
102
RTVSPropertyOp21
 70
     1
102
RTVSPropertyOp22
 70
     1
102
RTVSPropertyOp23
 70
     1
102
RTVSPropertyOp24
 70
     1
102
RTVSPropertyOp25
 70
     1
102
RTVSPropertyOp26
 70
     1
102
RTVSPropertyOp27
 70
     1
  0
XRECORD
  5
61C
102
{ACAD_REACTORS
330
61B
102
}
330
61B
100
AcDbXrecord
280
     1
102
RTVSPropertyOp0
 70
     1
102
RTVSPropertyOp1
 70
     1
102
RTVSPropertyOp2
 70
     1
102
RTVSPropertyOp3
 70
     1
102
RTVSPropertyOp4
 70
     1
102
RTVSPropertyOp5
 70
     1
102
RTVSPropertyOp6
 70
     1
102
RTVSPropertyOp7
 70
     1
102
RTVSPropertyOp8
 70
     1
102
RTVSPropertyOp9
 70
     1
102
RTVSPropertyOp10
 70
     1
102
RTVSPropertyOp11
 70
     1
102
RTVSPropertyOp12
 70
     1
102
RTVSPropertyOp13
 70
     1
102
RTVSPropertyOp14
 70
     1
102
RTVSPropertyOp15
 70
     1
102
RTVSPropertyOp16
 70
     1
102
RTVSPropertyOp17
 70
     1
102
RTVSPropertyOp18
 70
     1
102
RTVSPropertyOp19
 70
     1
102
RTVSPropertyOp20
 70
     1
102
RTVSPropertyOp21
 70
     1
102
RTVSPropertyOp22
 70
     1
102
RTVSPropertyOp23
 70
     1
102
RTVSPropertyOp24
 70
     1
102
RTVSPropertyOp25
 70
     1
102
RTVSPropertyOp26
 70
     1
102
RTVSPropertyOp27
 70
     1
  0
XRECORD
  5
61E
102
{ACAD_REACTORS
330
61D
102
}
330
61D
100
AcDbXrecord
280
     1
102
RTVSPropertyOp0
 70
     1
102
RTVSPropertyOp1
 70
     1
102
RTVSPropertyOp2
 70
     1
102
RTVSPropertyOp3
 70
     1
102
RTVSPropertyOp4
 70
     1
102
RTVSPropertyOp5
 70
     1
102
RTVSPropertyOp6
 70
     1
102
RTVSPropertyOp7
 70
     1
102
RTVSPropertyOp8
 70
     1
102
RTVSPropertyOp9
 70
     1
102
RTVSPropertyOp10
 70
     1
102
RTVSPropertyOp11
 70
     1
102
RTVSPropertyOp12
 70
     1
102
RTVSPropertyOp13
 70
     1
102
RTVSPropertyOp14
 70
     1
102
RTVSPropertyOp15
 70
     1
102
RTVSPropertyOp16
 70
     1
102
RTVSPropertyOp17
 70
     1
102
RTVSPropertyOp18
 70
     1
102
RTVSPropertyOp19
 70
     1
102
RTVSPropertyOp20
 70
     1
102
RTVSPropertyOp21
 70
     1
102
RTVSPropertyOp22
 70
     1
102
RTVSPropertyOp23
 70
     1
102
RTVSPropertyOp24
 70
     1
102
RTVSPropertyOp25
 70
     1
102
RTVSPropertyOp26
 70
     1
102
RTVSPropertyOp27
 70
     1
  0
XRECORD
  5
620
102
{ACAD_REACTORS
330
61F
102
}
330
61F
100
AcDbXrecord
280
     1
102
RTVSPropertyOp0
 70
     1
102
RTVSPropertyOp1
 70
     1
102
RTVSPropertyOp2
 70
     1
102
RTVSPropertyOp3
 70
     1
102
RTVSPropertyOp4
 70
     1
102
RTVSPropertyOp5
 70
     1
102
RTVSPropertyOp6
 70
     1
102
RTVSPropertyOp7
 70
     1
102
RTVSPropertyOp8
 70
     1
102
RTVSPropertyOp9
 70
     1
102
RTVSPropertyOp10
 70
     1
102
RTVSPropertyOp11
 70
     1
102
RTVSPropertyOp12
 70
     1
102
RTVSPropertyOp13
 70
     1
102
RTVSPropertyOp14
 70
     1
102
RTVSPropertyOp15
 70
     1
102
RTVSPropertyOp16
 70
     1
102
RTVSPropertyOp17
 70
     1
102
RTVSPropertyOp18
 70
     1
102
RTVSPropertyOp19
 70
     1
102
RTVSPropertyOp20
 70
     1
102
RTVSPropertyOp21
 70
     1
102
RTVSPropertyOp22
 70
     1
102
RTVSPropertyOp23
 70
     1
102
RTVSPropertyOp24
 70
     1
102
RTVSPropertyOp25
 70
     1
102
RTVSPropertyOp26
 70
     1
102
RTVSPropertyOp27
 70
     1
  0
XRECORD
  5
622
102
{ACAD_REACTORS
330
621
102
}
330
621
100
AcDbXrecord
280
     1
102
RTVSPropertyOp0
 70
     1
102
RTVSPropertyOp1
 70
     1
102
RTVSPropertyOp2
 70
     1
102
RTVSPropertyOp3
 70
     1
102
RTVSPropertyOp4
 70
     1
102
RTVSPropertyOp5
 70
     1
102
RTVSPropertyOp6
 70
     1
102
RTVSPropertyOp7
 70
     1
102
RTVSPropertyOp8
 70
     1
102
RTVSPropertyOp9
 70
     1
102
RTVSPropertyOp10
 70
     1
102
RTVSPropertyOp11
 70
     1
102
RTVSPropertyOp12
 70
     1
102
RTVSPropertyOp13
 70
     1
102
RTVSPropertyOp14
 70
     1
102
RTVSPropertyOp15
 70
     1
102
RTVSPropertyOp16
 70
     1
102
RTVSPropertyOp17
 70
     1
102
RTVSPropertyOp18
 70
     1
102
RTVSPropertyOp19
 70
     1
102
RTVSPropertyOp20
 70
     1
102
RTVSPropertyOp21
 70
     1
102
RTVSPropertyOp22
 70
     1
102
RTVSPropertyOp23
 70
     1
102
RTVSPropertyOp24
 70
     1
102
RTVSPropertyOp25
 70
     1
102
RTVSPropertyOp26
 70
     1
102
RTVSPropertyOp27
 70
     1
  0
XRECORD
  5
636
102
{ACAD_REACTORS
330
635
102
}
330
635
100
AcDbXrecord
280
     1
102
RTVSPropertyOp0
 70
     1
102
RTVSPropertyOp1
 70
     1
102
RTVSPropertyOp2
 70
     1
102
RTVSPropertyOp3
 70
     1
102
RTVSPropertyOp4
 70
     1
102
RTVSPropertyOp5
 70
     1
102
RTVSPropertyOp6
 70
     1
102
RTVSPropertyOp7
 70
     1
102
RTVSPropertyOp8
 70
     1
102
RTVSPropertyOp9
 70
     1
102
RTVSPropertyOp10
 70
     1
102
RTVSPropertyOp11
 70
     1
102
RTVSPropertyOp12
 70
     1
102
RTVSPropertyOp13
 70
     1
102
RTVSPropertyOp14
 70
     1
102
RTVSPropertyOp15
 70
     1
102
RTVSPropertyOp16
 70
     1
102
RTVSPropertyOp17
 70
     1
102
RTVSPropertyOp18
 70
     1
102
RTVSPropertyOp19
 70
     1
102
RTVSPropertyOp20
 70
     1
102
RTVSPropertyOp21
 70
     1
102
RTVSPropertyOp22
 70
     1
102
RTVSPropertyOp23
 70
     1
102
RTVSPropertyOp24
 70
     1
102
RTVSPropertyOp25
 70
     1
102
RTVSPropertyOp26
 70
     1
102
RTVSPropertyOp27
 70
     1
  0
XRECORD
  5
62C
102
{ACAD_REACTORS
330
62B
102
}
330
62B
100
AcDbXrecord
280
     1
102
RTVSPropertyOp0
 70
     1
102
RTVSPropertyOp1
 70
     1
102
RTVSPropertyOp2
 70
     1
102
RTVSPropertyOp3
 70
     1
102
RTVSPropertyOp4
 70
     1
102
RTVSPropertyOp5
 70
     1
102
RTVSPropertyOp6
 70
     1
102
RTVSPropertyOp7
 70
     1
102
RTVSPropertyOp8
 70
     1
102
RTVSPropertyOp9
 70
     1
102
RTVSPropertyOp10
 70
     1
102
RTVSPropertyOp11
 70
     1
102
RTVSPropertyOp12
 70
     1
102
RTVSPropertyOp13
 70
     1
102
RTVSPropertyOp14
 70
     1
102
RTVSPropertyOp15
 70
     1
102
RTVSPropertyOp16
 70
     1
102
RTVSPropertyOp17
 70
     1
102
RTVSPropertyOp18
 70
     1
102
RTVSPropertyOp19
 70
     1
102
RTVSPropertyOp20
 70
     1
102
RTVSPropertyOp21
 70
     1
102
RTVSPropertyOp22
 70
     1
102
RTVSPropertyOp23
 70
     1
102
RTVSPropertyOp24
 70
     1
102
RTVSPropertyOp25
 70
     1
102
RTVSPropertyOp26
 70
     1
102
RTVSPropertyOp27
 70
     1
  0
XRECORD
  5
634
102
{ACAD_REACTORS
330
633
102
}
330
633
100
AcDbXrecord
280
     1
102
RTVSPropertyOp0
 70
     1
102
RTVSPropertyOp1
 70
     1
102
RTVSPropertyOp2
 70
     1
102
RTVSPropertyOp3
 70
     1
102
RTVSPropertyOp4
 70
     1
102
RTVSPropertyOp5
 70
     1
102
RTVSPropertyOp6
 70
     1
102
RTVSPropertyOp7
 70
     1
102
RTVSPropertyOp8
 70
     1
102
RTVSPropertyOp9
 70
     1
102
RTVSPropertyOp10
 70
     1
102
RTVSPropertyOp11
 70
     1
102
RTVSPropertyOp12
 70
     1
102
RTVSPropertyOp13
 70
     1
102
RTVSPropertyOp14
 70
     1
102
RTVSPropertyOp15
 70
     1
102
RTVSPropertyOp16
 70
     1
102
RTVSPropertyOp17
 70
     1
102
RTVSPropertyOp18
 70
     1
102
RTVSPropertyOp19
 70
     1
102
RTVSPropertyOp20
 70
     1
102
RTVSPropertyOp21
 70
     1
102
RTVSPropertyOp22
 70
     1
102
RTVSPropertyOp23
 70
     1
102
RTVSPropertyOp24
 70
     1
102
RTVSPropertyOp25
 70
     1
102
RTVSPropertyOp26
 70
     1
102
RTVSPropertyOp27
 70
     1
  0
ENDSEC
  0
EOF
