  0
SECTION
  2
HEADER
  9
$ACADVER
  1
AC1015
  9
$ACADMAINTVER
 70
     6
  9
$DWGCODEPAGE
  3
ANSI_1252
  9
$INSBASE
 10
0.0
 20
0.0
 30
0.0
  9
$EXTMIN
 10
0.0
 20
0.0
 30
0.0
  9
$EXTMAX
 10
25.0
 20
35.0
 30
0.0
  9
$LIMMIN
 10
0.0
 20
0.0
  9
$LIMMAX
 10
420.0
 20
297.0
  9
$ORTHOMODE
 70
     0
  9
$REGENMODE
 70
     1
  9
$FILLMODE
 70
     1
  9
$QTEXTMODE
 70
     0
  9
$MIRRTEXT
 70
     1
  9
$LTSCALE
 40
4.2
  9
$ATTMODE
 70
     1
  9
$TEXTSIZE
 40
2.5
  9
$TRACEWID
 40
1.0
  9
$TEXTSTYLE
  7
Standard
  9
$CLAYER
  8
0
  9
$CELTYPE
  6
ByLayer
  9
$CECOLOR
 62
   256
  9
$CELTSCALE
 40
1.0
  9
$DISPSILH
 70
     0
  9
$DIMSCALE
 40
1.0
  9
$DIMASZ
 40
2.5
  9
$DIMEXO
 40
0.625
  9
$DIMDLI
 40
3.75
  9
$DIMRND
 40
0.0
  9
$DIMDLE
 40
0.0
  9
$DIMEXE
 40
1.25
  9
$DIMTP
 40
0.0
  9
$DIMTM
 40
0.0
  9
$DIMTXT
 40
2.5
  9
$DIMCEN
 40
2.5
  9
$DIMTSZ
 40
0.0
  9
$DIMTOL
 70
     0
  9
$DIMLIM
 70
     0
  9
$DIMTIH
 70
     0
  9
$DIMTOH
 70
     0
  9
$DIMSE1
 70
     0
  9
$DIMSE2
 70
     0
  9
$DIMTAD
 70
     1
  9
$DIMZIN
 70
     8
  9
$DIMBLK
  1

  9
$DIMASO
 70
     1
  9
$DIMSHO
 70
     1
  9
$DIMPOST
  1

  9
$DIMAPOST
  1

  9
$DIMALT
 70
     0
  9
$DIMALTD
 70
     3
  9
$DIMALTF
 40
0.03937007874016
  9
$DIMLFAC
 40
1.0
  9
$DIMTOFL
 70
     1
  9
$DIMTVP
 40
0.0
  9
$DIMTIX
 70
     0
  9
$DIMSOXD
 70
     0
  9
$DIMSAH
 70
     0
  9
$DIMBLK1
  1

  9
$DIMBLK2
  1

  9
$DIMSTYLE
  2
ISO-25
  9
$DIMCLRD
 70
     0
  9
$DIMCLRE
 70
     0
  9
$DIMCLRT
 70
     0
  9
$DIMTFAC
 40
1.0
  9
$DIMGAP
 40
0.625
  9
$DIMJUST
 70
     0
  9
$DIMSD1
 70
     0
  9
$DIMSD2
 70
     0
  9
$DIMTOLJ
 70
     0
  9
$DIMTZIN
 70
     8
  9
$DIMALTZ
 70
     0
  9
$DIMALTTZ
 70
     0
  9
$DIMUPT
 70
     0
  9
$DIMDEC
 70
     2
  9
$DIMTDEC
 70
     2
  9
$DIMALTU
 70
     2
  9
$DIMALTTD
 70
     3
  9
$DIMTXSTY
  7
Standard
  9
$DIMAUNIT
 70
     0
  9
$DIMADEC
 70
     0
  9
$DIMALTRND
 40
0.0
  9
$DIMAZIN
 70
     0
  9
$DIMDSEP
 70
    44
  9
$DIMATFIT
 70
     3
  9
$DIMFRAC
 70
     0
  9
$DIMLDRBLK
  1

  9
$DIMLUNIT
 70
     2
  9
$DIMLWD
 70
    -2
  9
$DIMLWE
 70
    -2
  9
$DIMTMOVE
 70
     0
  9
$LUNITS
 70
     2
  9
$LUPREC
 70
     4
  9
$SKETCHINC
 40
1.0
  9
$FILLETRAD
 40
10.0
  9
$AUNITS
 70
     0
  9
$AUPREC
 70
     0
  9
$MENU
  1
.
  9
$ELEVATION
 40
0.0
  9
$PELEVATION
 40
0.0
  9
$THICKNESS
 40
0.0
  9
$LIMCHECK
 70
     0
  9
$CHAMFERA
 40
10.0
  9
$CHAMFERB
 40
10.0
  9
$CHAMFERC
 40
20.0
  9
$CHAMFERD
 40
0.0
  9
$SKPOLY
 70
     0
  9
$TDCREATE
 40
2457248.656944444
  9
$TDUCREATE
 40
2457248.573611111
  9
$TDUPDATE
 40
2457248.660416667
  9
$TDUUPDATE
 40
2457248.577083333
  9
$TDINDWG
 40
0.0000000116
  9
$TDUSRTIMER
 40
0.0000000116
  9
$USRTIMER
 70
     1
  9
$ANGBASE
 50
0.0
  9
$ANGDIR
 70
     0
  9
$PDMODE
 70
     0
  9
$PDSIZE
 40
0.0
  9
$PLINEWID
 40
0.0
  9
$SPLFRAME
 70
     0
  9
$SPLINETYPE
 70
     6
  9
$SPLINESEGS
 70
     8
  9
$HANDSEED
  5
60F
  9
$SURFTAB1
 70
     6
  9
$SURFTAB2
 70
     6
  9
$SURFTYPE
 70
     6
  9
$SURFU
 70
     6
  9
$SURFV
 70
     6
  9
$UCSBASE
  2

  9
$UCSNAME
  2

  9
$UCSORG
 10
0.0
 20
0.0
 30
0.0
  9
$UCSXDIR
 10
1.0
 20
0.0
 30
0.0
  9
$UCSYDIR
 10
0.0
 20
1.0
 30
0.0
  9
$UCSORTHOREF
  2

  9
$UCSORTHOVIEW
 70
     0
  9
$UCSORGTOP
 10
0.0
 20
0.0
 30
0.0
  9
$UCSORGBOTTOM
 10
0.0
 20
0.0
 30
0.0
  9
$UCSORGLEFT
 10
0.0
 20
0.0
 30
0.0
  9
$UCSORGRIGHT
 10
0.0
 20
0.0
 30
0.0
  9
$UCSORGFRONT
 10
0.0
 20
0.0
 30
0.0
  9
$UCSORGBACK
 10
0.0
 20
0.0
 30
0.0
  9
$PUCSBASE
  2

  9
$PUCSNAME
  2

  9
$PUCSORG
 10
0.0
 20
0.0
 30
0.0
  9
$PUCSXDIR
 10
1.0
 20
0.0
 30
0.0
  9
$PUCSYDIR
 10
0.0
 20
1.0
 30
0.0
  9
$PUCSORTHOREF
  2

  9
$PUCSORTHOVIEW
 70
     0
  9
$PUCSORGTOP
 10
0.0
 20
0.0
 30
0.0
  9
$PUCSORGBOTTOM
 10
0.0
 20
0.0
 30
0.0
  9
$PUCSORGLEFT
 10
0.0
 20
0.0
 30
0.0
  9
$PUCSORGRIGHT
 10
0.0
 20
0.0
 30
0.0
  9
$PUCSORGFRONT
 10
0.0
 20
0.0
 30
0.0
  9
$PUCSORGBACK
 10
0.0
 20
0.0
 30
0.0
  9
$USERI1
 70
     0
  9
$USERI2
 70
     0
  9
$USERI3
 70
     0
  9
$USERI4
 70
     0
  9
$USERI5
 70
     0
  9
$USERR1
 40
0.0
  9
$USERR2
 40
0.0
  9
$USERR3
 40
0.0
  9
$USERR4
 40
0.0
  9
$USERR5
 40
0.0
  9
$WORLDVIEW
 70
     1
  9
$SHADEDGE
 70
     3
  9
$SHADEDIF
 70
    70
  9
$TILEMODE
 70
     1
  9
$MAXACTVP
 70
    64
  9
$PINSBASE
 10
0.0
 20
0.0
 30
0.0
  9
$PLIMCHECK
 70
     0
  9
$PEXTMIN
 10
1.000000000000000E+20
 20
1.000000000000000E+20
 30
1.000000000000000E+20
  9
$PEXTMAX
 10
-1.000000000000000E+20
 20
-1.000000000000000E+20
 30
-1.000000000000000E+20
  9
$PLIMMIN
 10
0.0
 20
0.0
  9
$PLIMMAX
 10
420.0
 20
297.0
  9
$UNITMODE
 70
     0
  9
$VISRETAIN
 70
     1
  9
$PLINEGEN
 70
     0
  9
$PSLTSCALE
 70
     1
  9
$TREEDEPTH
 70
  3020
  9
$CMLSTYLE
  2
Standard
  9
$CMLJUST
 70
     0
  9
$CMLSCALE
 40
20.0
  9
$PROXYGRAPHICS
 70
     1
  9
$MEASUREMENT
 70
     1
  9
$CELWEIGHT
370
    -1
  9
$ENDCAPS
280
     0
  9
$JOINSTYLE
280
     0
  9
$LWDISPLAY
290
     0
  9
$INSUNITS
 70
     4
  9
$HYPERLINKBASE
  1

  9
$STYLESHEET
  1

  9
$XEDIT
290
     1
  9
$CEPSNTYPE
380
     0
  9
$PSTYLEMODE
290
     1
  9
$FINGERPRINTGUID
  2
{69C9D37E-B453-45A0-B894-B724F5374790}
  9
$VERSIONGUID
  2
{FAEB1C32-E019-11D5-929B-00C0DF256EC4}
  9
$EXTNAMES
290
     1
  9
$PSVPSCALE
 40
0.0
  9
$OLESTARTUP
290
     0
  0
ENDSEC
  0
SECTION
  2
CLASSES
  0
CLASS
  1
ACDBDICTIONARYWDFLT
  2
AcDbDictionaryWithDefault
  3
ObjectDBX Classes
 90
        0
280
     0
281
     0
  0
CLASS
  1
VISUALSTYLE
  2
AcDbVisualStyle
  3
ObjectDBX Classes
 90
     4095
280
     0
281
     0
  0
CLASS
  1
MATERIAL
  2
AcDbMaterial
  3
ObjectDBX Classes
 90
     1153
280
     0
281
     0
  0
CLASS
  1
SCALE
  2
AcDbScale
  3
ObjectDBX Classes
 90
     1153
280
     0
281
     0
  0
CLASS
  1
DICTIONARYVAR
  2
AcDbDictionaryVar
  3
ObjectDBX Classes
 90
        0
280
     0
281
     0
  0
CLASS
  1
ACDBPLACEHOLDER
  2
AcDbPlaceHolder
  3
ObjectDBX Classes
 90
        0
280
     0
281
     0
  0
CLASS
  1
LAYOUT
  2
AcDbLayout
  3
ObjectDBX Classes
 90
        0
280
     0
281
     0
  0
ENDSEC
  0
SECTION
  2
TABLES
  0
TABLE
  2
VPORT
  5
8
330
0
100
AcDbSymbolTable
 70
     1
  0
VPORT
  5
29
330
8
100
AcDbSymbolTableRecord
100
AcDbViewportTableRecord
  2
*Active
 70
     0
 10
0.0
 20
0.0
 11
1.0
 21
1.0
 12
11.26
 22
4.5
 13
0.0
 23
0.0
 14
10.0
 24
10.0
 15
10.0
 25
10.0
 16
0.0
 26
0.0
 36
1.0
 17
0.0
 27
0.0
 37
0.0
 40
9.0
 41
2.503333333333333
 42
50.0
 43
0.0
 44
0.0
 50
0.0
 51
0.0
 71
     0
 72
   100
 73
     1
 74
     3
 75
     0
 76
     0
 77
     0
 78
     0
281
     0
 65
     1
110
0.0
120
0.0
130
0.0
111
1.0
121
0.0
131
0.0
112
0.0
122
1.0
132
0.0
 79
     0
146
0.0
  0
ENDTAB
  0
TABLE
  2
LTYPE
  5
5
330
0
100
AcDbSymbolTable
 70
     7
  0
LTYPE
  5
14
330
5
100
AcDbSymbolTableRecord
100
AcDbLinetypeTableRecord
  2
ByBlock
 70
     0
  3

 72
    65
 73
     0
 40
0.0
  0
LTYPE
  5
15
330
5
100
AcDbSymbolTableRecord
100
AcDbLinetypeTableRecord
  2
ByLayer
 70
     0
  3

 72
    65
 73
     0
 40
0.0
  0
LTYPE
  5
16
330
5
100
AcDbSymbolTableRecord
100
AcDbLinetypeTableRecord
  2
Continuous
 70
     0
  3
Solid line
 72
    65
 73
     0
 40
0.0
  0
LTYPE
  5
101
330
5
100
AcDbSymbolTableRecord
100
AcDbLinetypeTableRecord
  2
SK1
 70
     0
  3
THICK
 72
    65
 73
     0
 40
0.0
  0
LTYPE
  5
108
330
5
100
AcDbSymbolTableRecord
100
AcDbLinetypeTableRecord
  2
NOCUT
 70
     0
  3
THICK
 72
    65
 73
     0
 40
0.0
  0
LTYPE
  5
10D
330
5
100
AcDbSymbolTableRecord
100
AcDbLinetypeTableRecord
  2
SK2
 70
     0
  3
THIN
 72
    65
 73
     0
 40
0.0
  0
LTYPE
  5
1B9
330
5
100
AcDbSymbolTableRecord
100
AcDbLinetypeTableRecord
  2
L2
 70
     0
  3
THIN
 72
    65
 73
     0
 40
0.0
  0
LTYPE
  5
316
330
5
100
AcDbSymbolTableRecord
100
AcDbLinetypeTableRecord
  2
LONGDASH_DASH
 70
     0
  3
THIN_DASHDOT
 72
    65
 73
     4
 40
0.85
 49
0.4
 74
     0
 49
-0.2
 74
     0
 49
0.05
 74
     0
 49
-0.2
 74
     0
  0
LTYPE
  5
31C
330
5
100
AcDbSymbolTableRecord
100
AcDbLinetypeTableRecord
  2
INFTOTAL
 70
     0
  3
THIN
 72
    65
 73
     0
 40
0.0
  0
ENDTAB
  0
TABLE
  2
LAYER
  5
2
330
0
100
AcDbSymbolTable
 70
    11
  0
LAYER
  5
10
330
2
100
AcDbSymbolTableRecord
100
AcDbLayerTableRecord
  2
0
 70
     0
 62
     7
  6
Continuous
370
    -3
390
F
  0
LAYER
  5
44
330
2
100
AcDbSymbolTableRecord
100
AcDbLayerTableRecord
  2
1
 70
     0
 62
4
  6
CONTINUOUS
370
50
370
    -3
390
F
  0
LAYER
  5
100
330
2
100
AcDbSymbolTableRecord
100
AcDbLayerTableRecord
  2
SK1
 70
     0
 62
4
  6
CONTINUOUS
370
50
370
    -3
390
F
  0
LAYER
  5
107
330
2
100
AcDbSymbolTableRecord
100
AcDbLayerTableRecord
  2
NOCUT
 70
     0
 62
7
  6
CONTINUOUS
370
25
370
    -3
390
F
  0
LAYER
  5
10C
330
2
100
AcDbSymbolTableRecord
100
AcDbLayerTableRecord
  2
SK2
 70
     0
 62
7
  6
CONTINUOUS
370
25
370
    -3
390
F
  0
LAYER
  5
1B8
330
2
100
AcDbSymbolTableRecord
100
AcDbLayerTableRecord
  2
2
 70
     0
 62
7
  6
CONTINUOUS
370
25
370
    -3
390
F
  0
LAYER
  5
204
330
2
100
AcDbSymbolTableRecord
100
AcDbLayerTableRecord
  2
CUT
 70
     0
 62
1
  6
CONTINUOUS
370
25
370
    -3
390
F
  0
LAYER
  5
317
330
2
100
AcDbSymbolTableRecord
100
AcDbLayerTableRecord
  2
4
 70
     0
 62
2
  6
LONGDASH_DASH
370
25
370
    -3
390
F
  0
LAYER
  5
319
330
2
100
AcDbSymbolTableRecord
100
AcDbLayerTableRecord
  2
SK4
 70
     0
 62
2
  6
LONGDASH_DASH
370
25
370
    -3
390
F
  0
LAYER
  5
31B
330
2
100
AcDbSymbolTableRecord
100
AcDbLayerTableRecord
  2
INFTOTAL
 70
     0
 62
9
  6
CONTINUOUS
370
18
370
    -3
390
F
  0
LAYER
  5
321
330
2
100
AcDbSymbolTableRecord
100
AcDbLayerTableRecord
  2
SK6
 70
     0
 62
5
  6
CONTINUOUS
370
25
370
    -3
390
F
  0
ENDTAB
  0
TABLE
  2
STYLE
  5
3
330
0
100
AcDbSymbolTable
 70
     1
  0
STYLE
  5
11
330
3
100
AcDbSymbolTableRecord
100
AcDbTextStyleTableRecord
  2
Standard
 70
     0
 40
0.0
 41
1.0
 50
0.0
 71
     0
 42
2.5
  3
Monospac821 BT
  4

  0
ENDTAB
  0
TABLE
  2
VIEW
  5
6
330
0
100
AcDbSymbolTable
 70
     0
  0
ENDTAB
  0
TABLE
  2
UCS
  5
7
330
0
100
AcDbSymbolTable
 70
     0
  0
ENDTAB
  0
TABLE
  2
APPID
  5
9
330
0
100
AcDbSymbolTable
 70
     2
  0
APPID
  5
12
330
9
100
AcDbSymbolTableRecord
100
AcDbRegAppTableRecord
  2
ACAD
 70
     0
  0
APPID
  5
3F
330
9
100
AcDbSymbolTableRecord
100
AcDbRegAppTableRecord
  2
ccLab
 70
     0
  0
ENDTAB
  0
TABLE
  2
DIMSTYLE
  5
A
330
0
100
AcDbSymbolTable
 70
     1
100
AcDbDimStyleTable
  0
DIMSTYLE
105
27
330
A
100
AcDbSymbolTableRecord
100
AcDbDimStyleTableRecord
  2
ISO-25
 70
     0
 41
2.5
 42
0.625
 43
3.75
 44
1.25
 73
     0
 74
     0
 77
     1
 78
     8
140
2.5
141
2.5
143
0.03937007874016
147
0.625
171
     3
172
     1
271
     2
272
     2
274
     3
278
    44
283
     0
284
     8
340
11
  0
ENDTAB
  0
TABLE
  2
BLOCK_RECORD
  5
1
330
0
100
AcDbSymbolTable
 70
     2
  0
BLOCK_RECORD
  5
1F
330
1
100
AcDbSymbolTableRecord
100
AcDbBlockTableRecord
  2
*Model_Space
340
22
  0
BLOCK_RECORD
  5
1B
330
1
100
AcDbSymbolTableRecord
100
AcDbBlockTableRecord
  2
*Paper_Space
340
1E
  0
BLOCK_RECORD
  5
23
330
1
100
AcDbSymbolTableRecord
100
AcDbBlockTableRecord
  2
*Paper_Space0
340
26
  0
ENDTAB
  0
ENDSEC
  0
SECTION
  2
BLOCKS
  0
BLOCK
  5
20
330
1F
100
AcDbEntity
  8
0
100
AcDbBlockBegin
  2
*Model_Space
 70
     0
 10
0.0
 20
0.0
 30
0.0
  3
*Model_Space
  1

  0
ENDBLK
  5
21
330
1F
100
AcDbEntity
  8
0
100
AcDbBlockEnd
  0
BLOCK
  5
1C
330
1B
100
AcDbEntity
 67
     1
  8
0
100
AcDbBlockBegin
  2
*Paper_Space
 70
     0
 10
0.0
 20
0.0
 30
0.0
  3
*Paper_Space
  1

  0
ENDBLK
  5
1D
330
1B
100
AcDbEntity
 67
     1
  8
0
100
AcDbBlockEnd
  0
BLOCK
  5
24
330
23
100
AcDbEntity
  8
0
100
AcDbBlockBegin
  2
*Paper_Space0
 70
     0
 10
0.0
 20
0.0
 30
0.0
  3
*Paper_Space0
  1

  0
ENDBLK
  5
25
330
23
100
AcDbEntity
  8
0
100
AcDbBlockEnd
  0
ENDSEC
  0
SECTION
  2
ENTITIES
  0
LINE
  5
32B
330
1F
100
AcDbEntity
  8
1
  6
CONTINUOUS
370
50
 62
4
100
AcDbLine
 10
48.610001
 20
0.0
 30
0.0
 11
48.60928699999999
 21
0.082025
 31
0.0
  0
LINE
  5
32C
330
1F
100
AcDbEntity
  8
1
  6
CONTINUOUS
370
50
 62
4
100
AcDbLine
 10
48.610001
 20
-4.08331
 30
0.0
 11
48.60928699999999
 21
-4.042297
 31
0.0
  0
LINE
  5
32D
330
1F
100
AcDbEntity
  8
1
  6
CONTINUOUS
370
50
 62
4
100
AcDbLine
 10
48.610001
 20
4.08331
 30
0.0
 11
48.60928699999999
 21
4.124321999999999
 31
0.0
  0
LINE
  5
32E
330
1F
100
AcDbEntity
  8
1
  6
CONTINUOUS
370
50
 62
4
100
AcDbLine
 10
48.60928699999999
 20
0.082025
 30
0.0
 11
48.607155
 21
0.163861
 31
0.0
  0
LINE
  5
32F
330
1F
100
AcDbEntity
  8
1
  6
CONTINUOUS
370
50
 62
4
100
AcDbLine
 10
48.607155
 20
0.163861
 30
0.0
 11
48.603611
 21
0.245546
 31
0.0
  0
LINE
  5
330
330
1F
100
AcDbEntity
  8
1
  6
CONTINUOUS
370
50
 62
4
100
AcDbLine
 10
48.60928699999999
 20
-4.042297
 30
0.0
 11
48.607155
 21
-4.001379
 31
0.0
  0
LINE
  5
331
330
1F
100
AcDbEntity
  8
1
  6
CONTINUOUS
370
50
 62
4
100
AcDbLine
 10
48.60928699999999
 20
4.124321999999999
 30
0.0
 11
48.607155
 21
4.16524
 31
0.0
  0
LINE
  5
332
330
1F
100
AcDbEntity
  8
1
  6
CONTINUOUS
370
50
 62
4
100
AcDbLine
 10
48.603611
 20
0.245546
 30
0.0
 11
48.598667
 21
0.327115
 31
0.0
  0
LINE
  5
333
330
1F
100
AcDbEntity
  8
1
  6
CONTINUOUS
370
50
 62
4
100
AcDbLine
 10
48.598667
 20
0.327115
 30
0.0
 11
48.592327
 21
0.408607
 31
0.0
  0
LINE
  5
334
330
1F
100
AcDbEntity
  8
1
  6
CONTINUOUS
370
50
 62
4
100
AcDbLine
 10
48.607155
 20
4.16524
 30
0.0
 11
48.603611
 21
4.206083
 31
0.0
  0
LINE
  5
335
330
1F
100
AcDbEntity
  8
1
  6
CONTINUOUS
370
50
 62
4
100
AcDbLine
 10
48.607155
 20
-4.001379
 30
0.0
 11
48.603611
 21
-3.960537
 31
0.0
  0
LINE
  5
336
330
1F
100
AcDbEntity
  8
1
  6
CONTINUOUS
370
50
 62
4
100
AcDbLine
 10
48.592327
 20
0.408607
 30
0.0
 11
48.584602
 21
0.490057
 31
0.0
  0
LINE
  5
337
330
1F
100
AcDbEntity
  8
1
  6
CONTINUOUS
370
50
 62
4
100
AcDbLine
 10
48.584602
 20
0.490057
 30
0.0
 11
48.575489
 21
0.5715
 31
0.0
  0
LINE
  5
338
330
1F
100
AcDbEntity
  8
1
  6
CONTINUOUS
370
50
 62
4
100
AcDbLine
 10
48.603611
 20
-3.960537
 30
0.0
 11
48.598667
 21
-3.919752
 31
0.0
  0
LINE
  5
339
330
1F
100
AcDbEntity
  8
1
  6
CONTINUOUS
370
50
 62
4
100
AcDbLine
 10
48.603611
 20
4.206083
 30
0.0
 11
48.598667
 21
4.246868
 31
0.0
  0
LINE
  5
33A
330
1F
100
AcDbEntity
  8
1
  6
CONTINUOUS
370
50
 62
4
100
AcDbLine
 10
48.598667
 20
-3.919752
 30
0.0
 11
48.592327
 21
-3.879006
 31
0.0
  0
LINE
  5
33B
330
1F
100
AcDbEntity
  8
1
  6
CONTINUOUS
370
50
 62
4
100
AcDbLine
 10
48.598667
 20
4.246868
 30
0.0
 11
48.592327
 21
4.287612999999999
 31
0.0
  0
LINE
  5
33C
330
1F
100
AcDbEntity
  8
1
  6
CONTINUOUS
370
50
 62
4
100
AcDbLine
 10
48.592327
 20
-3.879006
 30
0.0
 11
48.584602
 21
-3.838281
 31
0.0
  0
LINE
  5
33D
330
1F
100
AcDbEntity
  8
1
  6
CONTINUOUS
370
50
 62
4
100
AcDbLine
 10
48.592327
 20
4.287612999999999
 30
0.0
 11
48.584602
 21
4.328338
 31
0.0
  0
LINE
  5
33E
330
1F
100
AcDbEntity
  8
1
  6
CONTINUOUS
370
50
 62
4
100
AcDbLine
 10
48.584602
 20
4.328338
 30
0.0
 11
48.575489
 21
4.36906
 31
0.0
  0
LINE
  5
33F
330
1F
100
AcDbEntity
  8
1
  6
CONTINUOUS
370
50
 62
4
100
AcDbLine
 10
48.584602
 20
-3.838281
 30
0.0
 11
48.575489
 21
-3.79756
 31
0.0
  0
LINE
  5
340
330
1F
100
AcDbEntity
  8
1
  6
CONTINUOUS
370
50
 62
4
100
AcDbLine
 10
48.610001
 20
4.715
 30
0.0
 11
47.610001
 21
5.715
 31
0.0
  0
LINE
  5
341
330
1F
100
AcDbEntity
  8
1
  6
CONTINUOUS
370
50
 62
4
100
AcDbLine
 10
2.748237
 20
-1.5443
 30
0.0
 11
2.620133
 21
-1.424072
 31
0.0
  0
LINE
  5
342
330
1F
100
AcDbEntity
  8
1
  6
CONTINUOUS
370
50
 62
4
100
AcDbLine
 10
2.748237
 20
-1.5443
 30
0.0
 11
2.620133
 21
-1.424072
 31
0.0
  0
LINE
  5
343
330
1F
100
AcDbEntity
  8
1
  6
CONTINUOUS
370
50
 62
4
100
AcDbLine
 10
2.882061
 20
-1.661087
 30
0.0
 11
2.748237
 21
-1.5443
 31
0.0
  0
LINE
  5
344
330
1F
100
AcDbEntity
  8
1
  6
CONTINUOUS
370
50
 62
4
100
AcDbLine
 10
2.882061
 20
-1.661087
 30
0.0
 11
2.748237
 21
-1.5443
 31
0.0
  0
LINE
  5
345
330
1F
100
AcDbEntity
  8
1
  6
CONTINUOUS
370
50
 62
4
100
AcDbLine
 10
48.575489
 20
4.36906
 30
0.0
 11
48.448292
 21
4.480001
 31
0.0
  0
LINE
  5
346
330
1F
100
AcDbEntity
  8
1
  6
CONTINUOUS
370
50
 62
4
100
AcDbLine
 10
48.448292
 20
4.480001
 30
0.0
 11
48.317753
 21
4.593818
 31
0.0
  0
LINE
  5
347
330
1F
100
AcDbEntity
  8
1
  6
CONTINUOUS
370
50
 62
4
100
AcDbLine
 10
48.317753
 20
4.593818
 30
0.0
 11
48.18373099999999
 21
4.710624999999999
 31
0.0
  0
LINE
  5
348
330
1F
100
AcDbEntity
  8
1
  6
CONTINUOUS
370
50
 62
4
100
AcDbLine
 10
48.18373099999999
 20
4.710624999999999
 30
0.0
 11
48.046097
 21
4.830543
 31
0.0
  0
LINE
  5
349
330
1F
100
AcDbEntity
  8
1
  6
CONTINUOUS
370
50
 62
4
100
AcDbLine
 10
48.046097
 20
4.830543
 30
0.0
 11
47.904701
 21
4.9537
 31
0.0
  0
LINE
  5
34A
330
1F
100
AcDbEntity
  8
1
  6
CONTINUOUS
370
50
 62
4
100
AcDbLine
 10
47.904701
 20
4.9537
 30
0.0
 11
47.759392
 21
5.080229999999999
 31
0.0
  0
LINE
  5
34B
330
1F
100
AcDbEntity
  8
1
  6
CONTINUOUS
370
50
 62
4
100
AcDbLine
 10
47.759392
 20
5.080229999999999
 30
0.0
 11
47.610001
 21
5.210275999999999
 31
0.0
  0
LINE
  5
34C
330
1F
100
AcDbEntity
  8
1
  6
CONTINUOUS
370
50
 62
4
100
AcDbLine
 10
3.020771
 20
-1.774558
 30
0.0
 11
2.882061
 21
-1.661087
 31
0.0
  0
LINE
  5
34D
330
1F
100
AcDbEntity
  8
1
  6
CONTINUOUS
370
50
 62
4
100
AcDbLine
 10
3.020771
 20
-1.774558
 30
0.0
 11
2.882061
 21
-1.661087
 31
0.0
  0
LINE
  5
34E
330
1F
100
AcDbEntity
  8
1
  6
CONTINUOUS
370
50
 62
4
100
AcDbLine
 10
3.16364
 20
-1.884717
 30
0.0
 11
3.020771
 21
-1.774558
 31
0.0
  0
LINE
  5
34F
330
1F
100
AcDbEntity
  8
1
  6
CONTINUOUS
370
50
 62
4
100
AcDbLine
 10
3.16364
 20
-1.884717
 30
0.0
 11
3.020771
 21
-1.774558
 31
0.0
  0
LINE
  5
350
330
1F
100
AcDbEntity
  8
1
  6
CONTINUOUS
370
50
 62
4
100
AcDbLine
 10
2.748237
 20
-5.088152
 30
0.0
 11
2.620133
 21
-4.992306
 31
0.0
  0
LINE
  5
351
330
1F
100
AcDbEntity
  8
1
  6
CONTINUOUS
370
50
 62
4
100
AcDbLine
 10
2.748237
 20
-5.088152
 30
0.0
 11
2.620133
 21
-4.992306
 31
0.0
  0
LINE
  5
352
330
1F
100
AcDbEntity
  8
1
  6
CONTINUOUS
370
50
 62
4
100
AcDbLine
 10
3.309948
 20
-1.991568
 30
0.0
 11
3.16364
 21
-1.884717
 31
0.0
  0
LINE
  5
353
330
1F
100
AcDbEntity
  8
1
  6
CONTINUOUS
370
50
 62
4
100
AcDbLine
 10
3.309948
 20
-1.991568
 30
0.0
 11
3.16364
 21
-1.884717
 31
0.0
  0
LINE
  5
354
330
1F
100
AcDbEntity
  8
1
  6
CONTINUOUS
370
50
 62
4
100
AcDbLine
 10
2.882061
 20
-5.184412
 30
0.0
 11
2.748237
 21
-5.088152
 31
0.0
  0
LINE
  5
355
330
1F
100
AcDbEntity
  8
1
  6
CONTINUOUS
370
50
 62
4
100
AcDbLine
 10
2.882061
 20
-5.184412
 30
0.0
 11
2.748237
 21
-5.088152
 31
0.0
  0
LINE
  5
356
330
1F
100
AcDbEntity
  8
1
  6
CONTINUOUS
370
50
 62
4
100
AcDbLine
 10
3.020771
 20
-5.280990999999999
 30
0.0
 11
2.882061
 21
-5.184412
 31
0.0
  0
LINE
  5
357
330
1F
100
AcDbEntity
  8
1
  6
CONTINUOUS
370
50
 62
4
100
AcDbLine
 10
3.020771
 20
-5.280990999999999
 30
0.0
 11
2.882061
 21
-5.184412
 31
0.0
  0
LINE
  5
358
330
1F
100
AcDbEntity
  8
1
  6
CONTINUOUS
370
50
 62
4
100
AcDbLine
 10
3.458971
 20
-2.095114
 30
0.0
 11
3.309948
 21
-1.991568
 31
0.0
  0
LINE
  5
359
330
1F
100
AcDbEntity
  8
1
  6
CONTINUOUS
370
50
 62
4
100
AcDbLine
 10
3.458971
 20
-2.095114
 30
0.0
 11
3.309948
 21
-1.991568
 31
0.0
  0
LINE
  5
35A
330
1F
100
AcDbEntity
  8
1
  6
CONTINUOUS
370
50
 62
4
100
AcDbLine
 10
3.16364
 20
-5.377733
 30
0.0
 11
3.020771
 21
-5.280990999999999
 31
0.0
  0
LINE
  5
35B
330
1F
100
AcDbEntity
  8
1
  6
CONTINUOUS
370
50
 62
4
100
AcDbLine
 10
3.16364
 20
-5.377733
 30
0.0
 11
3.020771
 21
-5.280990999999999
 31
0.0
  0
LINE
  5
35C
330
1F
100
AcDbEntity
  8
1
  6
CONTINUOUS
370
50
 62
4
100
AcDbLine
 10
3.61
 20
-2.195325
 30
0.0
 11
3.458971
 21
-2.095114
 31
0.0
  0
LINE
  5
35D
330
1F
100
AcDbEntity
  8
1
  6
CONTINUOUS
370
50
 62
4
100
AcDbLine
 10
3.61
 20
-2.195325
 30
0.0
 11
3.458971
 21
-2.095114
 31
0.0
  0
LINE
  5
35E
330
1F
100
AcDbEntity
  8
1
  6
CONTINUOUS
370
50
 62
4
100
AcDbLine
 10
3.309948
 20
-5.474474
 30
0.0
 11
3.16364
 21
-5.377733
 31
0.0
  0
LINE
  5
35F
330
1F
100
AcDbEntity
  8
1
  6
CONTINUOUS
370
50
 62
4
100
AcDbLine
 10
3.309948
 20
-5.474474
 30
0.0
 11
3.16364
 21
-5.377733
 31
0.0
  0
LINE
  5
360
330
1F
100
AcDbEntity
  8
1
  6
CONTINUOUS
370
50
 62
4
100
AcDbLine
 10
3.458971
 20
-5.571052
 30
0.0
 11
3.309948
 21
-5.474474
 31
0.0
  0
LINE
  5
361
330
1F
100
AcDbEntity
  8
1
  6
CONTINUOUS
370
50
 62
4
100
AcDbLine
 10
3.458971
 20
-5.571052
 30
0.0
 11
3.309948
 21
-5.474474
 31
0.0
  0
LINE
  5
362
330
1F
100
AcDbEntity
  8
1
  6
CONTINUOUS
370
50
 62
4
100
AcDbLine
 10
3.61
 20
-5.667272
 30
0.0
 11
3.458971
 21
-5.571052
 31
0.0
  0
LINE
  5
363
330
1F
100
AcDbEntity
  8
1
  6
CONTINUOUS
370
50
 62
4
100
AcDbLine
 10
3.61
 20
-5.667272
 30
0.0
 11
3.458971
 21
-5.571052
 31
0.0
  0
LINE
  5
364
330
1F
100
AcDbEntity
  8
1
  6
CONTINUOUS
370
50
 62
4
100
AcDbLine
 10
3.61
 20
-5.715
 30
0.0
 11
2.620133
 21
-5.1435
 31
0.0
  0
LINE
  5
365
330
1F
100
AcDbEntity
  8
1
  6
CONTINUOUS
370
50
 62
4
100
AcDbLine
 10
3.61
 20
-5.715
 30
0.0
 11
2.620133
 21
-5.1435
 31
0.0
  0
LINE
  5
366
330
1F
100
AcDbEntity
  8
1
  6
CONTINUOUS
370
50
 62
4
100
AcDbLine
 10
1.617476
 20
5.1435
 30
0.0
 11
1.0
 21
5.5
 31
0.0
  0
LINE
  5
367
330
1F
100
AcDbEntity
  8
1
  6
CONTINUOUS
370
50
 62
4
100
AcDbLine
 10
2.755206
 20
-4.209021
 30
0.0
 11
2.620133
 21
-4.14107
 31
0.0
  0
LINE
  5
368
330
1F
100
AcDbEntity
  8
1
  6
CONTINUOUS
370
50
 62
4
100
AcDbLine
 10
2.755206
 20
-4.209021
 30
0.0
 11
2.620133
 21
-4.14107
 31
0.0
  0
LINE
  5
369
330
1F
100
AcDbEntity
  8
1
  6
CONTINUOUS
370
50
 62
4
100
AcDbLine
 10
2.892313
 20
-4.277983
 30
0.0
 11
2.755206
 21
-4.209021
 31
0.0
  0
LINE
  5
36A
330
1F
100
AcDbEntity
  8
1
  6
CONTINUOUS
370
50
 62
4
100
AcDbLine
 10
2.892313
 20
-4.277983
 30
0.0
 11
2.755206
 21
-4.209021
 31
0.0
  0
LINE
  5
36B
330
1F
100
AcDbEntity
  8
1
  6
CONTINUOUS
370
50
 62
4
100
AcDbLine
 10
3.031499
 20
-4.347977999999999
 30
0.0
 11
2.892313
 21
-4.277983
 31
0.0
  0
LINE
  5
36C
330
1F
100
AcDbEntity
  8
1
  6
CONTINUOUS
370
50
 62
4
100
AcDbLine
 10
3.031499
 20
-4.347977999999999
 30
0.0
 11
2.892313
 21
-4.277983
 31
0.0
  0
LINE
  5
36D
330
1F
100
AcDbEntity
  8
1
  6
CONTINUOUS
370
50
 62
4
100
AcDbLine
 10
3.172811
 20
-4.419029
 30
0.0
 11
3.031499
 21
-4.347977999999999
 31
0.0
  0
LINE
  5
36E
330
1F
100
AcDbEntity
  8
1
  6
CONTINUOUS
370
50
 62
4
100
AcDbLine
 10
3.172811
 20
-4.419029
 30
0.0
 11
3.031499
 21
-4.347977999999999
 31
0.0
  0
LINE
  5
36F
330
1F
100
AcDbEntity
  8
1
  6
CONTINUOUS
370
50
 62
4
100
AcDbLine
 10
3.316299
 20
-4.491163
 30
0.0
 11
3.172811
 21
-4.419029
 31
0.0
  0
LINE
  5
370
330
1F
100
AcDbEntity
  8
1
  6
CONTINUOUS
370
50
 62
4
100
AcDbLine
 10
3.316299
 20
-4.491163
 30
0.0
 11
3.172811
 21
-4.419029
 31
0.0
  0
LINE
  5
371
330
1F
100
AcDbEntity
  8
1
  6
CONTINUOUS
370
50
 62
4
100
AcDbLine
 10
3.462011
 20
-4.564404
 30
0.0
 11
3.316299
 21
-4.491163
 31
0.0
  0
LINE
  5
372
330
1F
100
AcDbEntity
  8
1
  6
CONTINUOUS
370
50
 62
4
100
AcDbLine
 10
3.462011
 20
-4.564404
 30
0.0
 11
3.316299
 21
-4.491163
 31
0.0
  0
LINE
  5
373
330
1F
100
AcDbEntity
  8
1
  6
CONTINUOUS
370
50
 62
4
100
AcDbLine
 10
3.61
 20
-4.638776
 30
0.0
 11
3.462011
 21
-4.564404
 31
0.0
  0
LINE
  5
374
330
1F
100
AcDbEntity
  8
1
  6
CONTINUOUS
370
50
 62
4
100
AcDbLine
 10
3.61
 20
-4.638776
 30
0.0
 11
3.462011
 21
-4.564404
 31
0.0
  0
LINE
  5
375
330
1F
100
AcDbEntity
  8
1
  6
CONTINUOUS
370
50
 62
4
100
AcDbLine
 10
2.748237
 20
3.543852
 30
0.0
 11
2.620133
 21
3.568234
 31
0.0
  0
LINE
  5
376
330
1F
100
AcDbEntity
  8
1
  6
CONTINUOUS
370
50
 62
4
100
AcDbLine
 10
2.748237
 20
3.543852
 30
0.0
 11
2.620133
 21
3.568234
 31
0.0
  0
LINE
  5
377
330
1F
100
AcDbEntity
  8
1
  6
CONTINUOUS
370
50
 62
4
100
AcDbLine
 10
2.882061
 20
3.523324
 30
0.0
 11
2.748237
 21
3.543852
 31
0.0
  0
LINE
  5
378
330
1F
100
AcDbEntity
  8
1
  6
CONTINUOUS
370
50
 62
4
100
AcDbLine
 10
2.882061
 20
3.523324
 30
0.0
 11
2.748237
 21
3.543852
 31
0.0
  0
LINE
  5
379
330
1F
100
AcDbEntity
  8
1
  6
CONTINUOUS
370
50
 62
4
100
AcDbLine
 10
3.020771
 20
3.506433
 30
0.0
 11
2.882061
 21
3.523324
 31
0.0
  0
LINE
  5
37A
330
1F
100
AcDbEntity
  8
1
  6
CONTINUOUS
370
50
 62
4
100
AcDbLine
 10
3.020771
 20
3.506433
 30
0.0
 11
2.882061
 21
3.523324
 31
0.0
  0
LINE
  5
37B
330
1F
100
AcDbEntity
  8
1
  6
CONTINUOUS
370
50
 62
4
100
AcDbLine
 10
3.16364
 20
3.493016
 30
0.0
 11
3.020771
 21
3.506433
 31
0.0
  0
LINE
  5
37C
330
1F
100
AcDbEntity
  8
1
  6
CONTINUOUS
370
50
 62
4
100
AcDbLine
 10
3.16364
 20
3.493016
 30
0.0
 11
3.020771
 21
3.506433
 31
0.0
  0
LINE
  5
37D
330
1F
100
AcDbEntity
  8
1
  6
CONTINUOUS
370
50
 62
4
100
AcDbLine
 10
3.309948
 20
3.482906
 30
0.0
 11
3.16364
 21
3.493016
 31
0.0
  0
LINE
  5
37E
330
1F
100
AcDbEntity
  8
1
  6
CONTINUOUS
370
50
 62
4
100
AcDbLine
 10
3.309948
 20
3.482906
 30
0.0
 11
3.16364
 21
3.493016
 31
0.0
  0
LINE
  5
37F
330
1F
100
AcDbEntity
  8
1
  6
CONTINUOUS
370
50
 62
4
100
AcDbLine
 10
3.458971
 20
3.475938
 30
0.0
 11
3.309948
 21
3.482906
 31
0.0
  0
LINE
  5
380
330
1F
100
AcDbEntity
  8
1
  6
CONTINUOUS
370
50
 62
4
100
AcDbLine
 10
3.458971
 20
3.475938
 30
0.0
 11
3.309948
 21
3.482906
 31
0.0
  0
LINE
  5
381
330
1F
100
AcDbEntity
  8
1
  6
CONTINUOUS
370
50
 62
4
100
AcDbLine
 10
3.61
 20
3.471947
 30
0.0
 11
3.458971
 21
3.475938
 31
0.0
  0
LINE
  5
382
330
1F
100
AcDbEntity
  8
1
  6
CONTINUOUS
370
50
 62
4
100
AcDbLine
 10
3.61
 20
3.471947
 30
0.0
 11
3.458971
 21
3.475938
 31
0.0
  0
LINE
  5
383
330
1F
100
AcDbEntity
  8
1
  6
CONTINUOUS
370
50
 62
4
100
AcDbLine
 10
3.61
 20
-5.715
 30
0.0
 11
47.610001
 21
-5.715
 31
0.0
  0
LINE
  5
384
330
1F
100
AcDbEntity
  8
1
  6
CONTINUOUS
370
50
 62
4
100
AcDbLine
 10
3.61
 20
-5.667272
 30
0.0
 11
47.610001
 21
-5.667272
 31
0.0
  0
LINE
  5
385
330
1F
100
AcDbEntity
  8
1
  6
CONTINUOUS
370
50
 62
4
100
AcDbLine
 10
0.0
 20
-5.5
 30
0.0
 11
1.0
 21
-5.5
 31
0.0
  0
LINE
  5
386
330
1F
100
AcDbEntity
  8
1
  6
CONTINUOUS
370
50
 62
4
100
AcDbLine
 10
1.617476
 20
-5.1435
 30
0.0
 11
2.620133
 21
-5.1435
 31
0.0
  0
LINE
  5
387
330
1F
100
AcDbEntity
  8
1
  6
CONTINUOUS
370
50
 62
4
100
AcDbLine
 10
3.61
 20
-4.638776
 30
0.0
 11
47.610001
 21
-4.638776
 31
0.0
  0
LINE
  5
388
330
1F
100
AcDbEntity
  8
1
  6
CONTINUOUS
370
50
 62
4
100
AcDbLine
 10
3.61
 20
-2.195325
 30
0.0
 11
47.610001
 21
-2.195325
 31
0.0
  0
LINE
  5
389
330
1F
100
AcDbEntity
  8
1
  6
CONTINUOUS
370
50
 62
4
100
AcDbLine
 10
2.620133
 20
0.0
 30
0.0
 11
48.610001
 21
0.0
 31
0.0
  0
LINE
  5
38A
330
1F
100
AcDbEntity
  8
1
  6
CONTINUOUS
370
50
 62
4
100
AcDbLine
 10
2.620133
 20
0.5715
 30
0.0
 11
48.575489
 21
0.5715
 31
0.0
  0
LINE
  5
38B
330
1F
100
AcDbEntity
  8
1
  6
CONTINUOUS
370
50
 62
4
100
AcDbLine
 10
3.61
 20
3.471947
 30
0.0
 11
47.610001
 21
3.471947
 31
0.0
  0
LINE
  5
38C
330
1F
100
AcDbEntity
  8
1
  6
CONTINUOUS
370
50
 62
4
100
AcDbLine
 10
2.620133
 20
4.08331
 30
0.0
 11
48.610001
 21
4.08331
 31
0.0
  0
LINE
  5
38D
330
1F
100
AcDbEntity
  8
1
  6
CONTINUOUS
370
50
 62
4
100
AcDbLine
 10
2.620133
 20
4.36906
 30
0.0
 11
48.575489
 21
4.36906
 31
0.0
  0
LINE
  5
38E
330
1F
100
AcDbEntity
  8
1
  6
CONTINUOUS
370
50
 62
4
100
AcDbLine
 10
1.617476
 20
5.1435
 30
0.0
 11
2.620133
 21
5.1435
 31
0.0
  0
LINE
  5
38F
330
1F
100
AcDbEntity
  8
1
  6
CONTINUOUS
370
50
 62
4
100
AcDbLine
 10
3.61
 20
5.210275999999999
 30
0.0
 11
47.610001
 21
5.210275999999999
 31
0.0
  0
LINE
  5
390
330
1F
100
AcDbEntity
  8
1
  6
CONTINUOUS
370
50
 62
4
100
AcDbLine
 10
0.0
 20
5.5
 30
0.0
 11
1.0
 21
5.5
 31
0.0
  0
LINE
  5
391
330
1F
100
AcDbEntity
  8
1
  6
CONTINUOUS
370
50
 62
4
100
AcDbLine
 10
3.61
 20
5.715
 30
0.0
 11
47.610001
 21
5.715
 31
0.0
  0
LINE
  5
392
330
1F
100
AcDbEntity
  8
1
  6
CONTINUOUS
370
50
 62
4
100
AcDbLine
 10
47.610043
 20
3.471968
 30
0.0
 11
47.717834
 21
3.477337
 31
0.0
  0
LINE
  5
393
330
1F
100
AcDbEntity
  8
1
  6
CONTINUOUS
370
50
 62
4
100
AcDbLine
 10
47.717834
 20
3.477337
 30
0.0
 11
47.822216
 21
3.487152
 31
0.0
  0
LINE
  5
394
330
1F
100
AcDbEntity
  8
1
  6
CONTINUOUS
370
50
 62
4
100
AcDbLine
 10
47.822216
 20
3.487152
 30
0.0
 11
47.922691
 21
3.501543
 31
0.0
  0
LINE
  5
395
330
1F
100
AcDbEntity
  8
1
  6
CONTINUOUS
370
50
 62
4
100
AcDbLine
 10
47.922691
 20
3.501543
 30
0.0
 11
48.018749
 21
3.520622
 31
0.0
  0
LINE
  5
396
330
1F
100
AcDbEntity
  8
1
  6
CONTINUOUS
370
50
 62
4
100
AcDbLine
 10
48.018749
 20
3.520622
 30
0.0
 11
48.109814
 21
3.544488
 31
0.0
  0
LINE
  5
397
330
1F
100
AcDbEntity
  8
1
  6
CONTINUOUS
370
50
 62
4
100
AcDbLine
 10
48.109814
 20
3.544488
 30
0.0
 11
48.195293
 21
3.573291
 31
0.0
  0
LINE
  5
398
330
1F
100
AcDbEntity
  8
1
  6
CONTINUOUS
370
50
 62
4
100
AcDbLine
 10
48.195293
 20
3.573291
 30
0.0
 11
48.274601
 21
3.607176
 31
0.0
  0
LINE
  5
399
330
1F
100
AcDbEntity
  8
1
  6
CONTINUOUS
370
50
 62
4
100
AcDbLine
 10
3.462011
 20
5.135903
 30
0.0
 11
3.61
 21
5.210275999999999
 31
0.0
  0
LINE
  5
39A
330
1F
100
AcDbEntity
  8
1
  6
CONTINUOUS
370
50
 62
4
100
AcDbLine
 10
3.462011
 20
5.135903
 30
0.0
 11
3.61
 21
5.210275999999999
 31
0.0
  0
LINE
  5
39B
330
1F
100
AcDbEntity
  8
1
  6
CONTINUOUS
370
50
 62
4
100
AcDbLine
 10
3.316299
 20
5.062663
 30
0.0
 11
3.462011
 21
5.135903
 31
0.0
  0
LINE
  5
39C
330
1F
100
AcDbEntity
  8
1
  6
CONTINUOUS
370
50
 62
4
100
AcDbLine
 10
3.316299
 20
5.062663
 30
0.0
 11
3.462011
 21
5.135903
 31
0.0
  0
LINE
  5
39D
330
1F
100
AcDbEntity
  8
1
  6
CONTINUOUS
370
50
 62
4
100
AcDbLine
 10
3.172811
 20
4.99053
 30
0.0
 11
3.316299
 21
5.062663
 31
0.0
  0
LINE
  5
39E
330
1F
100
AcDbEntity
  8
1
  6
CONTINUOUS
370
50
 62
4
100
AcDbLine
 10
3.172811
 20
4.99053
 30
0.0
 11
3.316299
 21
5.062663
 31
0.0
  0
LINE
  5
39F
330
1F
100
AcDbEntity
  8
1
  6
CONTINUOUS
370
50
 62
4
100
AcDbLine
 10
3.031499
 20
4.919477
 30
0.0
 11
3.172811
 21
4.99053
 31
0.0
  0
LINE
  5
3A0
330
1F
100
AcDbEntity
  8
1
  6
CONTINUOUS
370
50
 62
4
100
AcDbLine
 10
3.031499
 20
4.919477
 30
0.0
 11
3.172811
 21
4.99053
 31
0.0
  0
LINE
  5
3A1
330
1F
100
AcDbEntity
  8
1
  6
CONTINUOUS
370
50
 62
4
100
AcDbLine
 10
2.892313
 20
4.849483
 30
0.0
 11
3.031499
 21
4.919477
 31
0.0
  0
LINE
  5
3A2
330
1F
100
AcDbEntity
  8
1
  6
CONTINUOUS
370
50
 62
4
100
AcDbLine
 10
2.892313
 20
4.849483
 30
0.0
 11
3.031499
 21
4.919477
 31
0.0
  0
LINE
  5
3A3
330
1F
100
AcDbEntity
  8
1
  6
CONTINUOUS
370
50
 62
4
100
AcDbLine
 10
2.755206
 20
4.780520999999999
 30
0.0
 11
2.892313
 21
4.849483
 31
0.0
  0
LINE
  5
3A4
330
1F
100
AcDbEntity
  8
1
  6
CONTINUOUS
370
50
 62
4
100
AcDbLine
 10
2.755206
 20
4.780520999999999
 30
0.0
 11
2.892313
 21
4.849483
 31
0.0
  0
LINE
  5
3A5
330
1F
100
AcDbEntity
  8
1
  6
CONTINUOUS
370
50
 62
4
100
AcDbLine
 10
2.620133
 20
4.712569999999999
 30
0.0
 11
2.755206
 21
4.780520999999999
 31
0.0
  0
LINE
  5
3A6
330
1F
100
AcDbEntity
  8
1
  6
CONTINUOUS
370
50
 62
4
100
AcDbLine
 10
2.620133
 20
4.712569999999999
 30
0.0
 11
2.755206
 21
4.780520999999999
 31
0.0
  0
LINE
  5
3A7
330
1F
100
AcDbEntity
  8
1
  6
CONTINUOUS
370
50
 62
4
100
AcDbLine
 10
48.274601
 20
3.607176
 30
0.0
 11
48.347145
 21
3.646293
 31
0.0
  0
LINE
  5
3A8
330
1F
100
AcDbEntity
  8
1
  6
CONTINUOUS
370
50
 62
4
100
AcDbLine
 10
1.0
 20
-5.5
 30
0.0
 11
1.617476
 21
-5.1435
 31
0.0
  0
LINE
  5
3A9
330
1F
100
AcDbEntity
  8
1
  6
CONTINUOUS
370
50
 62
4
100
AcDbLine
 10
2.620133
 20
5.1435
 30
0.0
 11
3.61
 21
5.715
 31
0.0
  0
LINE
  5
3AA
330
1F
100
AcDbEntity
  8
1
  6
CONTINUOUS
370
50
 62
4
100
AcDbLine
 10
2.620133
 20
5.1435
 30
0.0
 11
3.61
 21
5.715
 31
0.0
  0
LINE
  5
3AB
330
1F
100
AcDbEntity
  8
1
  6
CONTINUOUS
370
50
 62
4
100
AcDbLine
 10
48.347145
 20
3.646293
 30
0.0
 11
48.412338
 21
3.690789
 31
0.0
  0
LINE
  5
3AC
330
1F
100
AcDbEntity
  8
1
  6
CONTINUOUS
370
50
 62
4
100
AcDbLine
 10
47.610001
 20
-4.638776
 30
0.0
 11
47.759392
 21
-4.50873
 31
0.0
  0
LINE
  5
3AD
330
1F
100
AcDbEntity
  8
1
  6
CONTINUOUS
370
50
 62
4
100
AcDbLine
 10
47.759392
 20
-4.50873
 30
0.0
 11
47.904701
 21
-4.3822
 31
0.0
  0
LINE
  5
3AE
330
1F
100
AcDbEntity
  8
1
  6
CONTINUOUS
370
50
 62
4
100
AcDbLine
 10
47.904701
 20
-4.3822
 30
0.0
 11
48.046097
 21
-4.259043
 31
0.0
  0
LINE
  5
3AF
330
1F
100
AcDbEntity
  8
1
  6
CONTINUOUS
370
50
 62
4
100
AcDbLine
 10
48.046097
 20
-4.259043
 30
0.0
 11
48.18373099999999
 21
-4.139124
 31
0.0
  0
LINE
  5
3B0
330
1F
100
AcDbEntity
  8
1
  6
CONTINUOUS
370
50
 62
4
100
AcDbLine
 10
48.18373099999999
 20
-4.139124
 30
0.0
 11
48.317753
 21
-4.022317
 31
0.0
  0
LINE
  5
3B1
330
1F
100
AcDbEntity
  8
1
  6
CONTINUOUS
370
50
 62
4
100
AcDbLine
 10
48.317753
 20
-4.022317
 30
0.0
 11
48.448292
 21
-3.908501
 31
0.0
  0
LINE
  5
3B2
330
1F
100
AcDbEntity
  8
1
  6
CONTINUOUS
370
50
 62
4
100
AcDbLine
 10
48.448292
 20
-3.908501
 30
0.0
 11
48.575489
 21
-3.79756
 31
0.0
  0
LINE
  5
3B3
330
1F
100
AcDbEntity
  8
1
  6
CONTINUOUS
370
50
 62
4
100
AcDbLine
 10
48.412338
 20
3.690789
 30
0.0
 11
48.469563
 21
3.740807
 31
0.0
  0
LINE
  5
3B4
330
1F
100
AcDbEntity
  8
1
  6
CONTINUOUS
370
50
 62
4
100
AcDbLine
 10
47.610001
 20
-5.715
 30
0.0
 11
48.610001
 21
-4.715
 31
0.0
  0
LINE
  5
3B5
330
1F
100
AcDbEntity
  8
1
  6
CONTINUOUS
370
50
 62
4
100
AcDbLine
 10
47.610043
 20
-5.667313
 30
0.0
 11
47.717834
 21
-5.548124
 31
0.0
  0
LINE
  5
3B6
330
1F
100
AcDbEntity
  8
1
  6
CONTINUOUS
370
50
 62
4
100
AcDbLine
 10
47.717834
 20
-5.548124
 30
0.0
 11
47.822216
 21
-5.430118999999999
 31
0.0
  0
LINE
  5
3B7
330
1F
100
AcDbEntity
  8
1
  6
CONTINUOUS
370
50
 62
4
100
AcDbLine
 10
48.469563
 20
3.740807
 30
0.0
 11
48.518089
 21
3.796581
 31
0.0
  0
LINE
  5
3B8
330
1F
100
AcDbEntity
  8
1
  6
CONTINUOUS
370
50
 62
4
100
AcDbLine
 10
47.610043
 20
-2.195345
 30
0.0
 11
47.717834
 21
-2.070786
 31
0.0
  0
LINE
  5
3B9
330
1F
100
AcDbEntity
  8
1
  6
CONTINUOUS
370
50
 62
4
100
AcDbLine
 10
47.822216
 20
-5.430118999999999
 30
0.0
 11
47.922691
 21
-5.313511
 31
0.0
  0
LINE
  5
3BA
330
1F
100
AcDbEntity
  8
1
  6
CONTINUOUS
370
50
 62
4
100
AcDbLine
 10
47.922691
 20
-5.313511
 30
0.0
 11
48.018749
 21
-5.198519999999999
 31
0.0
  0
LINE
  5
3BB
330
1F
100
AcDbEntity
  8
1
  6
CONTINUOUS
370
50
 62
4
100
AcDbLine
 10
47.717834
 20
-2.070786
 30
0.0
 11
47.822216
 21
-1.942967
 31
0.0
  0
LINE
  5
3BC
330
1F
100
AcDbEntity
  8
1
  6
CONTINUOUS
370
50
 62
4
100
AcDbLine
 10
48.018749
 20
-5.198519999999999
 30
0.0
 11
48.109814
 21
-5.08533
 31
0.0
  0
LINE
  5
3BD
330
1F
100
AcDbEntity
  8
1
  6
CONTINUOUS
370
50
 62
4
100
AcDbLine
 10
48.109814
 20
-5.08533
 30
0.0
 11
48.195293
 21
-4.974076999999999
 31
0.0
  0
LINE
  5
3BE
330
1F
100
AcDbEntity
  8
1
  6
CONTINUOUS
370
50
 62
4
100
AcDbLine
 10
47.822216
 20
-1.942967
 30
0.0
 11
47.922691
 21
-1.811968
 31
0.0
  0
LINE
  5
3BF
330
1F
100
AcDbEntity
  8
1
  6
CONTINUOUS
370
50
 62
4
100
AcDbLine
 10
48.195293
 20
-4.974076999999999
 30
0.0
 11
48.274601
 21
-4.864896
 31
0.0
  0
LINE
  5
3C0
330
1F
100
AcDbEntity
  8
1
  6
CONTINUOUS
370
50
 62
4
100
AcDbLine
 10
47.922691
 20
-1.811968
 30
0.0
 11
48.018749
 21
-1.677899
 31
0.0
  0
LINE
  5
3C1
330
1F
100
AcDbEntity
  8
1
  6
CONTINUOUS
370
50
 62
4
100
AcDbLine
 10
48.274601
 20
-4.864896
 30
0.0
 11
48.347145
 21
-4.757921
 31
0.0
  0
LINE
  5
3C2
330
1F
100
AcDbEntity
  8
1
  6
CONTINUOUS
370
50
 62
4
100
AcDbLine
 10
48.018749
 20
-1.677899
 30
0.0
 11
48.109814
 21
-1.540842
 31
0.0
  0
LINE
  5
3C3
330
1F
100
AcDbEntity
  8
1
  6
CONTINUOUS
370
50
 62
4
100
AcDbLine
 10
48.518089
 20
3.796581
 30
0.0
 11
48.557156
 21
3.858413
 31
0.0
  0
LINE
  5
3C4
330
1F
100
AcDbEntity
  8
1
  6
CONTINUOUS
370
50
 62
4
100
AcDbLine
 10
48.347145
 20
-4.757921
 30
0.0
 11
48.412338
 21
-4.653286
 31
0.0
  0
LINE
  5
3C5
330
1F
100
AcDbEntity
  8
1
  6
CONTINUOUS
370
50
 62
4
100
AcDbLine
 10
48.109814
 20
-1.540842
 30
0.0
 11
48.195293
 21
-1.400787
 31
0.0
  0
LINE
  5
3C6
330
1F
100
AcDbEntity
  8
1
  6
CONTINUOUS
370
50
 62
4
100
AcDbLine
 10
48.412338
 20
-4.653286
 30
0.0
 11
48.469563
 21
-4.551114
 31
0.0
  0
LINE
  5
3C7
330
1F
100
AcDbEntity
  8
1
  6
CONTINUOUS
370
50
 62
4
100
AcDbLine
 10
48.195293
 20
-1.400787
 30
0.0
 11
48.274601
 21
-1.25772
 31
0.0
  0
LINE
  5
3C8
330
1F
100
AcDbEntity
  8
1
  6
CONTINUOUS
370
50
 62
4
100
AcDbLine
 10
48.274601
 20
-1.25772
 30
0.0
 11
48.347145
 21
-1.111628
 31
0.0
  0
LINE
  5
3C9
330
1F
100
AcDbEntity
  8
1
  6
CONTINUOUS
370
50
 62
4
100
AcDbLine
 10
48.469563
 20
-4.551114
 30
0.0
 11
48.518089
 21
-4.451556
 31
0.0
  0
LINE
  5
3CA
330
1F
100
AcDbEntity
  8
1
  6
CONTINUOUS
370
50
 62
4
100
AcDbLine
 10
48.347145
 20
-1.111628
 30
0.0
 11
48.412338
 21
-0.962498
 31
0.0
  0
LINE
  5
3CB
330
1F
100
AcDbEntity
  8
1
  6
CONTINUOUS
370
50
 62
4
100
AcDbLine
 10
48.557156
 20
3.858413
 30
0.0
 11
48.586006
 21
3.926605
 31
0.0
  0
LINE
  5
3CC
330
1F
100
AcDbEntity
  8
1
  6
CONTINUOUS
370
50
 62
4
100
AcDbLine
 10
48.518089
 20
-4.451556
 30
0.0
 11
48.557156
 21
-4.354806
 31
0.0
  0
LINE
  5
3CD
330
1F
100
AcDbEntity
  8
1
  6
CONTINUOUS
370
50
 62
4
100
AcDbLine
 10
48.412338
 20
-0.962498
 30
0.0
 11
48.469563
 21
-0.8103079999999999
 31
0.0
  0
LINE
  5
3CE
330
1F
100
AcDbEntity
  8
1
  6
CONTINUOUS
370
50
 62
4
100
AcDbLine
 10
48.469563
 20
-0.8103079999999999
 30
0.0
 11
48.518089
 21
-0.654975
 31
0.0
  0
LINE
  5
3CF
330
1F
100
AcDbEntity
  8
1
  6
CONTINUOUS
370
50
 62
4
100
AcDbLine
 10
48.557156
 20
-4.354806
 30
0.0
 11
48.586006
 21
-4.261057
 31
0.0
  0
LINE
  5
3D0
330
1F
100
AcDbEntity
  8
1
  6
CONTINUOUS
370
50
 62
4
100
AcDbLine
 10
48.518089
 20
-0.654975
 30
0.0
 11
48.557156
 21
-0.496393
 31
0.0
  0
LINE
  5
3D1
330
1F
100
AcDbEntity
  8
1
  6
CONTINUOUS
370
50
 62
4
100
AcDbLine
 10
48.586006
 20
3.926605
 30
0.0
 11
48.603874
 21
4.00146
 31
0.0
  0
LINE
  5
3D2
330
1F
100
AcDbEntity
  8
1
  6
CONTINUOUS
370
50
 62
4
100
AcDbLine
 10
48.586006
 20
-4.261057
 30
0.0
 11
48.603874
 21
-4.170504
 31
0.0
  0
LINE
  5
3D3
330
1F
100
AcDbEntity
  8
1
  6
CONTINUOUS
370
50
 62
4
100
AcDbLine
 10
48.557156
 20
-0.496393
 30
0.0
 11
48.586006
 21
-0.334452
 31
0.0
  0
LINE
  5
3D4
330
1F
100
AcDbEntity
  8
1
  6
CONTINUOUS
370
50
 62
4
100
AcDbLine
 10
48.586006
 20
-0.334452
 30
0.0
 11
48.603874
 21
-0.169044
 31
0.0
  0
LINE
  5
3D5
330
1F
100
AcDbEntity
  8
1
  6
CONTINUOUS
370
50
 62
4
100
AcDbLine
 10
48.603874
 20
4.00146
 30
0.0
 11
48.610001
 21
4.08328
 31
0.0
  0
LINE
  5
3D6
330
1F
100
AcDbEntity
  8
1
  6
CONTINUOUS
370
50
 62
4
100
AcDbLine
 10
48.603874
 20
-4.170504
 30
0.0
 11
48.610001
 21
-4.08334
 31
0.0
  0
LINE
  5
3D7
330
1F
100
AcDbEntity
  8
1
  6
CONTINUOUS
370
50
 62
4
100
AcDbLine
 10
48.603874
 20
-0.169044
 30
0.0
 11
48.610001
 21
-0.00006
 31
0.0
  0
LINE
  5
3D8
330
1F
100
AcDbEntity
  8
1
  6
CONTINUOUS
370
50
 62
4
100
AcDbLine
 10
0.0
 20
-5.5
 30
0.0
 11
0.0
 21
5.5
 31
0.0
  0
LINE
  5
3D9
330
1F
100
AcDbEntity
  8
1
  6
CONTINUOUS
370
50
 62
4
100
AcDbLine
 10
1.0
 20
-5.5
 30
0.0
 11
1.0
 21
5.5
 31
0.0
  0
LINE
  5
3DA
330
1F
100
AcDbEntity
  8
1
  6
CONTINUOUS
370
50
 62
4
100
AcDbLine
 10
1.617476
 20
-5.1435
 30
0.0
 11
1.617476
 21
5.1435
 31
0.0
  0
LINE
  5
3DB
330
1F
100
AcDbEntity
  8
1
  6
CONTINUOUS
370
50
 62
4
100
AcDbLine
 10
2.620133
 20
-5.1435
 30
0.0
 11
2.620133
 21
5.1435
 31
0.0
  0
LINE
  5
3DC
330
1F
100
AcDbEntity
  8
1
  6
CONTINUOUS
370
50
 62
4
100
AcDbLine
 10
3.61
 20
-5.715
 30
0.0
 11
3.61
 21
4.08328
 31
0.0
  0
LINE
  5
3DD
330
1F
100
AcDbEntity
  8
1
  6
CONTINUOUS
370
50
 62
4
100
AcDbLine
 10
3.61
 20
4.08331
 30
0.0
 11
3.61
 21
4.36906
 31
0.0
  0
LINE
  5
3DE
330
1F
100
AcDbEntity
  8
1
  6
CONTINUOUS
370
50
 62
4
100
AcDbLine
 10
3.61
 20
4.36906
 30
0.0
 11
3.61
 21
5.210275999999999
 31
0.0
  0
LINE
  5
3DF
330
1F
100
AcDbEntity
  8
1
  6
CONTINUOUS
370
50
 62
4
100
AcDbLine
 10
3.61
 20
5.210275999999999
 30
0.0
 11
3.61
 21
5.715
 31
0.0
  0
LINE
  5
3E0
330
1F
100
AcDbEntity
  8
1
  6
CONTINUOUS
370
50
 62
4
100
AcDbLine
 10
3.61
 20
5.210275999999999
 30
0.0
 11
3.61
 21
5.715
 31
0.0
  0
LINE
  5
3E1
330
1F
100
AcDbEntity
  8
1
  6
CONTINUOUS
370
50
 62
4
100
AcDbLine
 10
47.610001
 20
5.210275999999999
 30
0.0
 11
47.610001
 21
5.715
 31
0.0
  0
LINE
  5
3E2
330
1F
100
AcDbEntity
  8
1
  6
CONTINUOUS
370
50
 62
4
100
AcDbLine
 10
47.610001
 20
0.5715
 30
0.0
 11
47.610001
 21
3.471947
 31
0.0
  0
LINE
  5
3E3
330
1F
100
AcDbEntity
  8
1
  6
CONTINUOUS
370
50
 62
4
100
AcDbLine
 10
47.610001
 20
-5.715
 30
0.0
 11
47.610001
 21
-5.667272
 31
0.0
  0
LINE
  5
3E4
330
1F
100
AcDbEntity
  8
1
  6
CONTINUOUS
370
50
 62
4
100
AcDbLine
 10
47.610001
 20
-4.638776
 30
0.0
 11
47.610001
 21
-2.195325
 31
0.0
  0
LINE
  5
3E5
330
1F
100
AcDbEntity
  8
1
  6
CONTINUOUS
370
50
 62
4
100
AcDbLine
 10
48.610001
 20
-4.715
 30
0.0
 11
48.610001
 21
4.715
 31
0.0
  0
LINE
  5
3E6
330
1F
100
AcDbEntity
  8
SK1
  6
CONTINUOUS
370
50
 62
4
100
AcDbLine
 10
0.0
 20
5.5
 30
0.0
 11
-60.79
 21
5.5
 31
0.0
  0
LINE
  5
3E7
330
1F
100
AcDbEntity
  8
SK1
  6
CONTINUOUS
370
50
 62
4
100
AcDbLine
 10
-60.79
 20
5.5
 30
0.0
 11
-61.39
 21
4.9
 31
0.0
  0
LINE
  5
3E8
330
1F
100
AcDbEntity
  8
SK1
  6
CONTINUOUS
370
50
 62
4
100
AcDbLine
 10
-61.39
 20
4.9
 30
0.0
 11
-61.39
 21
-4.9
 31
0.0
  0
LINE
  5
3E9
330
1F
100
AcDbEntity
  8
SK1
  6
CONTINUOUS
370
50
 62
4
100
AcDbLine
 10
-61.39
 20
-4.9
 30
0.0
 11
-60.79
 21
-5.5
 31
0.0
  0
LINE
  5
3EA
330
1F
100
AcDbEntity
  8
SK1
  6
CONTINUOUS
370
50
 62
4
100
AcDbLine
 10
-60.79
 20
-5.5
 30
0.0
 11
0.0
 21
-5.5
 31
0.0
  0
LINE
  5
3EB
330
1F
100
AcDbEntity
  8
NOCUT
  6
CONTINUOUS
370
25
 62
7
100
AcDbLine
 10
0.0
 20
0.0
 30
0.0
 11
0.0
 21
5.5
 31
0.0
  0
LINE
  5
3EC
330
1F
100
AcDbEntity
  8
NOCUT
  6
CONTINUOUS
370
25
 62
7
100
AcDbLine
 10
0.0
 20
5.5
 30
0.0
 11
1.0
 21
5.5
 31
0.0
  0
LINE
  5
3ED
330
1F
100
AcDbEntity
  8
NOCUT
  6
CONTINUOUS
370
25
 62
7
100
AcDbLine
 10
1.0
 20
0.0
 30
0.0
 11
0.0
 21
0.0
 31
0.0
  0
LINE
  5
3EE
330
1F
100
AcDbEntity
  8
SK2
  6
CONTINUOUS
370
25
 62
7
100
AcDbLine
 10
-71.3900002
 20
-5.500001
 30
0.0
 11
-72.39000000000009
 21
-5.500001
 31
0.0
  0
LINE
  5
3EF
330
1F
100
AcDbEntity
  8
SK2
  6
CONTINUOUS
370
25
 62
7
100
AcDbLine
 10
-61.39
 20
-5.500001
 30
0.0
 11
-71.3899998
 21
-5.500001
 31
0.0
  0
LINE
  5
3F0
330
1F
100
AcDbEntity
  8
SK2
  6
CONTINUOUS
370
25
 62
7
100
AcDbLine
 10
-72.39
 20
5.5
 30
0.0
 11
-61.39
 21
5.5
 31
0.0
  0
LINE
  5
3F1
330
1F
100
AcDbEntity
  8
SK2
  6
CONTINUOUS
370
25
 62
7
100
AcDbLine
 10
-71.39
 20
-23.975
 30
0.0
 11
-71.39
 21
15.5
 31
0.0
  0
LINE
  5
3F2
330
1F
100
AcDbEntity
  8
SK2
  6
CONTINUOUS
370
25
 62
7
100
AcDbLine
 10
-71.39
 20
-5.5
 30
0.0
 11
-70.39
 21
-10.5
 31
0.0
  0
LINE
  5
3F3
330
1F
100
AcDbEntity
  8
SK2
  6
CONTINUOUS
370
25
 62
7
100
AcDbLine
 10
-70.39
 20
-10.5
 30
0.0
 11
-72.39
 21
-10.5
 31
0.0
  0
LINE
  5
3F4
330
1F
100
AcDbEntity
  8
SK2
  6
CONTINUOUS
370
25
 62
7
100
AcDbLine
 10
-72.39
 20
-10.5
 30
0.0
 11
-71.39
 21
-5.5
 31
0.0
  0
LINE
  5
3F5
330
1F
100
AcDbEntity
  8
SK2
  6
CONTINUOUS
370
25
 62
7
100
AcDbLine
 10
-70.74549775709414
 20
-10.50000000000001
 30
0.0
 11
-70.44924962618235
 21
-10.20375186908822
 31
0.0
  0
LINE
  5
3F6
330
1F
100
AcDbEntity
  8
SK2
  6
CONTINUOUS
370
25
 62
7
100
AcDbLine
 10
-71.16976182580606
 20
-10.5
 30
0.0
 11
-70.51996030430101
 21
-9.850198478494946
 31
0.0
  0
LINE
  5
3F7
330
1F
100
AcDbEntity
  8
SK2
  6
CONTINUOUS
370
25
 62
7
100
AcDbLine
 10
-71.59402589451798
 20
-10.5
 30
0.0
 11
-70.59067098241967
 21
-9.496645087901683
 31
0.0
  0
LINE
  5
3F8
330
1F
100
AcDbEntity
  8
SK2
  6
CONTINUOUS
370
25
 62
7
100
AcDbLine
 10
-72.0182899632299
 20
-10.49999999999999
 30
0.0
 11
-70.66138166053831
 21
-9.1430916973084
 31
0.0
  0
LINE
  5
3F9
330
1F
100
AcDbEntity
  8
SK2
  6
CONTINUOUS
370
25
 62
7
100
AcDbLine
 10
-72.37686149201454
 20
-10.43430746007271
 30
0.0
 11
-70.73209233865697
 21
-8.789538306715137
 31
0.0
  0
LINE
  5
3FA
330
1F
100
AcDbEntity
  8
SK2
  6
CONTINUOUS
370
25
 62
7
100
AcDbLine
 10
-72.27079547483656
 20
-9.903977374182801
 30
0.0
 11
-70.80280301677563
 21
-8.435984916121868
 31
0.0
  0
LINE
  5
3FB
330
1F
100
AcDbEntity
  8
SK2
  6
CONTINUOUS
370
25
 62
7
100
AcDbLine
 10
-72.16472945765858
 20
-9.3736472882929
 30
0.0
 11
-70.87351369489427
 21
-8.082431525528591
 31
0.0
  0
LINE
  5
3FC
330
1F
100
AcDbEntity
  8
SK2
  6
CONTINUOUS
370
25
 62
7
100
AcDbLine
 10
-72.05866344048059
 20
-8.843317202402979
 30
0.0
 11
-70.94422437301294
 21
-7.728878134935336
 31
0.0
  0
LINE
  5
3FD
330
1F
100
AcDbEntity
  8
SK2
  6
CONTINUOUS
370
25
 62
7
100
AcDbLine
 10
-71.9525974233026
 20
-8.312987116513078
 30
0.0
 11
-71.01493505113159
 21
-7.375324744342059
 31
0.0
  0
LINE
  5
3FE
330
1F
100
AcDbEntity
  8
SK2
  6
CONTINUOUS
370
25
 62
7
100
AcDbLine
 10
-71.84653140612463
 20
-7.78265703062317
 30
0.0
 11
-71.08564572925025
 21
-7.02177135374879
 31
0.0
  0
LINE
  5
3FF
330
1F
100
AcDbEntity
  8
SK2
  6
CONTINUOUS
370
25
 62
7
100
AcDbLine
 10
-71.74046538894666
 20
-7.252326944733284
 30
0.0
 11
-71.1563564073689
 21
-6.668217963155527
 31
0.0
  0
LINE
  5
400
330
1F
100
AcDbEntity
  8
SK2
  6
CONTINUOUS
370
25
 62
7
100
AcDbLine
 10
-71.63439937176868
 20
-6.721996858843383
 30
0.0
 11
-71.22706708548755
 21
-6.314664572562251
 31
0.0
  0
LINE
  5
401
330
1F
100
AcDbEntity
  8
SK2
  6
CONTINUOUS
370
25
 62
7
100
AcDbLine
 10
-71.5283333545907
 20
-6.191666772953468
 30
0.0
 11
-71.2977777636062
 21
-5.961111181968974
 31
0.0
  0
LINE
  5
402
330
1F
100
AcDbEntity
  8
SK2
  6
CONTINUOUS
370
25
 62
7
100
AcDbLine
 10
-71.42226733741272
 20
-5.661336687063567
 30
0.0
 11
-71.36848844172486
 21
-5.607557791375712
 31
0.0
  0
LINE
  5
403
330
1F
100
AcDbEntity
  8
SK2
  6
CONTINUOUS
370
25
 62
7
100
AcDbLine
 10
-72.3631341311691
 20
-10.36567065584551
 30
0.0
 11
-72.22880478701461
 21
-10.5
 31
0.0
  0
LINE
  5
404
330
1F
100
AcDbEntity
  8
SK2
  6
CONTINUOUS
370
25
 62
7
100
AcDbLine
 10
-72.29242345305045
 20
-10.01211726525224
 30
0.0
 11
-71.80454071830269
 21
-10.5
 31
0.0
  0
LINE
  5
405
330
1F
100
AcDbEntity
  8
SK2
  6
CONTINUOUS
370
25
 62
7
100
AcDbLine
 10
-72.22171277493179
 20
-9.65856387465898
 30
0.0
 11
-71.38027664959077
 21
-10.5
 31
0.0
  0
LINE
  5
406
330
1F
100
AcDbEntity
  8
SK2
  6
CONTINUOUS
370
25
 62
7
100
AcDbLine
 10
-72.15100209681314
 20
-9.305010484065704
 30
0.0
 11
-70.95601258087885
 21
-10.5
 31
0.0
  0
LINE
  5
407
330
1F
100
AcDbEntity
  8
SK2
  6
CONTINUOUS
370
25
 62
7
100
AcDbLine
 10
-72.08029141869449
 20
-8.951457093472428
 30
0.0
 11
-70.53174851216691
 21
-10.5
 31
0.0
  0
LINE
  5
408
330
1F
100
AcDbEntity
  8
SK2
  6
CONTINUOUS
370
25
 62
7
100
AcDbLine
 10
-72.00958074057583
 20
-8.597903702879165
 30
0.0
 11
-70.46062888913626
 21
-10.14685555431873
 31
0.0
  0
LINE
  5
409
330
1F
100
AcDbEntity
  8
SK2
  6
CONTINUOUS
370
25
 62
7
100
AcDbLine
 10
-71.93887006245718
 20
-8.244350312285889
 30
0.0
 11
-70.56669490631424
 21
-9.616525468428833
 31
0.0
  0
LINE
  5
40A
330
1F
100
AcDbEntity
  8
SK2
  6
CONTINUOUS
370
25
 62
7
100
AcDbLine
 10
-71.86815938433851
 20
-7.89079692169264
 30
0.0
 11
-70.67276092349222
 21
-9.086195382538932
 31
0.0
  0
LINE
  5
40B
330
1F
100
AcDbEntity
  8
SK2
  6
CONTINUOUS
370
25
 62
7
100
AcDbLine
 10
-71.79744870621987
 20
-7.537243531099364
 30
0.0
 11
-70.77882694067019
 21
-8.555865296649046
 31
0.0
  0
LINE
  5
40C
330
1F
100
AcDbEntity
  8
SK2
  6
CONTINUOUS
370
25
 62
7
100
AcDbLine
 10
-71.72673802810121
 20
-7.183690140506101
 30
0.0
 11
-70.88489295784818
 21
-8.02553521075913
 31
0.0
  0
LINE
  5
40D
330
1F
100
AcDbEntity
  8
SK2
  6
CONTINUOUS
370
25
 62
7
100
AcDbLine
 10
-71.65602734998257
 20
-6.830136749912825
 30
0.0
 11
-70.99095897502615
 21
-7.495205124869244
 31
0.0
  0
LINE
  5
40E
330
1F
100
AcDbEntity
  8
SK2
  6
CONTINUOUS
370
25
 62
7
100
AcDbLine
 10
-71.58531667186391
 20
-6.476583359319548
 30
0.0
 11
-71.09702499220414
 21
-6.964875038979315
 31
0.0
  0
LINE
  5
40F
330
1F
100
AcDbEntity
  8
SK2
  6
CONTINUOUS
370
25
 62
7
100
AcDbLine
 10
-71.51460599374525
 20
-6.123029968726286
 30
0.0
 11
-71.20309100938212
 21
-6.434544953089414
 31
0.0
  0
LINE
  5
410
330
1F
100
AcDbEntity
  8
SK2
  6
CONTINUOUS
370
25
 62
7
100
AcDbLine
 10
-71.44389531562659
 20
-5.769476578133023
 30
0.0
 11
-71.3091570265601
 21
-5.904214867199514
 31
0.0
  0
LINE
  5
411
330
1F
100
AcDbEntity
  8
SK2
  6
CONTINUOUS
370
25
 62
7
100
AcDbLine
 10
-71.39
 20
5.5
 30
0.0
 11
-72.39
 21
10.5
 31
0.0
  0
LINE
  5
412
330
1F
100
AcDbEntity
  8
SK2
  6
CONTINUOUS
370
25
 62
7
100
AcDbLine
 10
-72.39
 20
10.5
 30
0.0
 11
-70.39
 21
10.5
 31
0.0
  0
LINE
  5
413
330
1F
100
AcDbEntity
  8
SK2
  6
CONTINUOUS
370
25
 62
7
100
AcDbLine
 10
-70.39
 20
10.5
 30
0.0
 11
-71.39
 21
5.5
 31
0.0
  0
LINE
  5
414
330
1F
100
AcDbEntity
  8
SK2
  6
CONTINUOUS
370
25
 62
7
100
AcDbLine
 10
-71.44434341759519
 20
5.771717087976057
 30
0.0
 11
-71.3084848736072
 21
5.90757563196405
 31
0.0
  0
LINE
  5
415
330
1F
100
AcDbEntity
  8
SK2
  6
CONTINUOUS
370
25
 62
7
100
AcDbLine
 10
-71.51505409571386
 20
6.12527047856932
 30
0.0
 11
-71.2024188564292
 21
6.43790571785398
 31
0.0
  0
LINE
  5
416
330
1F
100
AcDbEntity
  8
SK2
  6
CONTINUOUS
370
25
 62
7
100
AcDbLine
 10
-71.58576477383251
 20
6.478823869162596
 30
0.0
 11
-71.09635283925122
 21
6.96823580374388
 31
0.0
  0
LINE
  5
417
330
1F
100
AcDbEntity
  8
SK2
  6
CONTINUOUS
370
25
 62
7
100
AcDbLine
 10
-71.65647545195118
 20
6.832377259755845
 30
0.0
 11
-70.99028682207323
 21
7.498565889633795
 31
0.0
  0
LINE
  5
418
330
1F
100
AcDbEntity
  8
SK2
  6
CONTINUOUS
370
25
 62
7
100
AcDbLine
 10
-71.72718613006982
 20
7.185930650349135
 30
0.0
 11
-70.88422080489525
 21
8.02889597552371
 31
0.0
  0
LINE
  5
419
330
1F
100
AcDbEntity
  8
SK2
  6
CONTINUOUS
370
25
 62
7
100
AcDbLine
 10
-71.79789680818848
 20
7.539484040942398
 30
0.0
 11
-70.77815478771727
 21
8.55922606141361
 31
0.0
  0
LINE
  5
41A
330
1F
100
AcDbEntity
  8
SK2
  6
CONTINUOUS
370
25
 62
7
100
AcDbLine
 10
-71.86860748630713
 20
7.893037431535674
 30
0.0
 11
-70.6720887705393
 21
9.089556147303497
 31
0.0
  0
LINE
  5
41B
330
1F
100
AcDbEntity
  8
SK2
  6
CONTINUOUS
370
25
 62
7
100
AcDbLine
 10
-71.93931816442579
 20
8.246590822128937
 30
0.0
 11
-70.56602275336131
 21
9.619886233193412
 31
0.0
  0
LINE
  5
41C
330
1F
100
AcDbEntity
  8
SK2
  6
CONTINUOUS
370
25
 62
7
100
AcDbLine
 10
-72.01002884254444
 20
8.600144212722213
 30
0.0
 11
-70.45995673618333
 21
10.15021631908333
 31
0.0
  0
LINE
  5
41D
330
1F
100
AcDbEntity
  8
SK2
  6
CONTINUOUS
370
25
 62
7
100
AcDbLine
 10
-72.0807395206631
 20
8.953697603315476
 30
0.0
 11
-70.53443712397858
 21
10.5
 31
0.0
  0
LINE
  5
41E
330
1F
100
AcDbEntity
  8
SK2
  6
CONTINUOUS
370
25
 62
7
100
AcDbLine
 10
-72.15145019878175
 20
9.307250993908752
 30
0.0
 11
-70.9587011926905
 21
10.5
 31
0.0
  0
LINE
  5
41F
330
1F
100
AcDbEntity
  8
SK2
  6
CONTINUOUS
370
25
 62
7
100
AcDbLine
 10
-72.2221608769004
 20
9.660804384502029
 30
0.0
 11
-71.38296526140243
 21
10.5
 31
0.0
  0
LINE
  5
420
330
1F
100
AcDbEntity
  8
SK2
  6
CONTINUOUS
370
25
 62
7
100
AcDbLine
 10
-72.29287155501906
 20
10.01435777509529
 30
0.0
 11
-71.80722933011435
 21
10.5
 31
0.0
  0
LINE
  5
421
330
1F
100
AcDbEntity
  8
SK2
  6
CONTINUOUS
370
25
 62
7
100
AcDbLine
 10
-72.3635822331377
 20
10.36791116568857
 30
0.0
 11
-72.23149339882627
 21
10.5
 31
0.0
  0
LINE
  5
422
330
1F
100
AcDbEntity
  8
SK2
  6
CONTINUOUS
370
25
 62
7
100
AcDbLine
 10
-71.467988202017
 20
5.889941010084996
 30
0.0
 11
-71.338007865322
 21
5.759960673389998
 31
0.0
  0
LINE
  5
423
330
1F
100
AcDbEntity
  8
SK2
  6
CONTINUOUS
370
25
 62
7
100
AcDbLine
 10
-71.57405421919498
 20
6.420271095974897
 30
0.0
 11
-71.26729718720334
 21
6.11351406398326
 31
0.0
  0
LINE
  5
424
330
1F
100
AcDbEntity
  8
SK2
  6
CONTINUOUS
370
25
 62
7
100
AcDbLine
 10
-71.68012023637296
 20
6.950601181864798
 30
0.0
 11
-71.1965865090847
 21
6.467067454576537
 31
0.0
  0
LINE
  5
425
330
1F
100
AcDbEntity
  8
SK2
  6
CONTINUOUS
370
25
 62
7
100
AcDbLine
 10
-71.78618625355094
 20
7.480931267754698
 30
0.0
 11
-71.12587583096604
 21
6.820620845169799
 31
0.0
  0
LINE
  5
426
330
1F
100
AcDbEntity
  8
SK2
  6
CONTINUOUS
370
25
 62
7
100
AcDbLine
 10
-71.89225227072892
 20
8.011261353644606
 30
0.0
 11
-71.05516515284738
 21
7.174174235763068
 31
0.0
  0
LINE
  5
427
330
1F
100
AcDbEntity
  8
SK2
  6
CONTINUOUS
370
25
 62
7
100
AcDbLine
 10
-71.99831828790691
 20
8.541591439534528
 30
0.0
 11
-70.98445447472872
 21
7.527727626356338
 31
0.0
  0
LINE
  5
428
330
1F
100
AcDbEntity
  8
SK2
  6
CONTINUOUS
370
25
 62
7
100
AcDbLine
 10
-72.10438430508489
 20
9.071921525424429
 30
0.0
 11
-70.91374379661006
 21
7.8812810169496
 31
0.0
  0
LINE
  5
429
330
1F
100
AcDbEntity
  8
SK2
  6
CONTINUOUS
370
25
 62
7
100
AcDbLine
 10
-72.21045032226287
 20
9.602251611314337
 30
0.0
 11
-70.84303311849142
 21
8.234834407542884
 31
0.0
  0
LINE
  5
42A
330
1F
100
AcDbEntity
  8
SK2
  6
CONTINUOUS
370
25
 62
7
100
AcDbLine
 10
-72.31651633944085
 20
10.13258169720424
 30
0.0
 11
-70.77232244037276
 21
8.588387798136147
 31
0.0
  0
LINE
  5
42B
330
1F
100
AcDbEntity
  8
SK2
  6
CONTINUOUS
370
25
 62
7
100
AcDbLine
 10
-72.25967057352469
 20
10.5
 30
0.0
 11
-70.7016117622541
 21
8.941941188729416
 31
0.0
  0
LINE
  5
42C
330
1F
100
AcDbEntity
  8
SK2
  6
CONTINUOUS
370
25
 62
7
100
AcDbLine
 10
-71.83540650481277
 20
10.5
 30
0.0
 11
-70.63090108413546
 21
9.295494579322693
 31
0.0
  0
LINE
  5
42D
330
1F
100
AcDbEntity
  8
SK2
  6
CONTINUOUS
370
25
 62
7
100
AcDbLine
 10
-71.41114243610085
 20
10.50000000000001
 30
0.0
 11
-70.5601904060168
 21
9.649047969915962
 31
0.0
  0
LINE
  5
42E
330
1F
100
AcDbEntity
  8
SK2
  6
CONTINUOUS
370
25
 62
7
100
AcDbLine
 10
-70.98687836738893
 20
10.50000000000001
 30
0.0
 11
-70.48947972789814
 21
10.00260136050922
 31
0.0
  0
LINE
  5
42F
330
1F
100
AcDbEntity
  8
SK2
  6
CONTINUOUS
370
25
 62
7
100
AcDbLine
 10
-70.56261429867699
 20
10.5
 30
0.0
 11
-70.4187690497795
 21
10.35615475110251
 31
0.0
  0
TEXT
  5
430
330
1F
100
AcDbEntity
  8
SK2
  6
CONTINUOUS
370
25
 62
7
100
AcDbText
 10
-72.39
 20
-16.9875
 30
0.0
 40
3.5
  1
11
 50
90.00000000000001
 72
     1
 11
-72.39
 21
-15.2375
 31
0.0
100
AcDbText
  0
CIRCLE
  5
431
330
1F
100
AcDbEntity
  8
SK2
  6
CONTINUOUS
370
25
 62
7
100
AcDbCircle
 10
-73.92125
 20
-21.30125
 30
0.0
 40
1.53125
  0
LINE
  5
432
330
1F
100
AcDbEntity
  8
SK2
  6
CONTINUOUS
370
25
 62
7
100
AcDbLine
 10
-72.39
 20
-22.8325
 30
0.0
 11
-75.4525
 21
-19.77
 31
0.0
  0
LINE
  5
433
330
1F
100
AcDbEntity
  8
SK2
  6
CONTINUOUS
370
25
 62
7
100
AcDbLine
 10
-61.39
 20
5.5
 30
0.0
 11
-61.39
 21
15.6863632
 31
0.0
  0
LINE
  5
434
330
1F
100
AcDbEntity
  8
SK2
  6
CONTINUOUS
370
25
 62
7
100
AcDbLine
 10
0.0000000000000001
 20
16.6863632
 30
0.0
 11
-0.0000000000000006
 21
5.500000000000002
 31
0.0
  0
LINE
  5
435
330
1F
100
AcDbEntity
  8
SK2
  6
CONTINUOUS
370
25
 62
7
100
AcDbLine
 10
-61.39
 20
15.6863632
 30
0.0
 11
0.0
 21
15.6863632
 31
0.0
  0
LINE
  5
436
330
1F
100
AcDbEntity
  8
SK2
  6
CONTINUOUS
370
25
 62
7
100
AcDbLine
 10
-61.39
 20
15.6863632
 30
0.0
 11
-56.39
 21
16.6863632
 31
0.0
  0
LINE
  5
437
330
1F
100
AcDbEntity
  8
SK2
  6
CONTINUOUS
370
25
 62
7
100
AcDbLine
 10
-56.39
 20
16.6863632
 30
0.0
 11
-56.39
 21
14.6863632
 31
0.0
  0
LINE
  5
438
330
1F
100
AcDbEntity
  8
SK2
  6
CONTINUOUS
370
25
 62
7
100
AcDbLine
 10
-56.39
 20
14.6863632
 30
0.0
 11
-61.39
 21
15.6863632
 31
0.0
  0
LINE
  5
439
330
1F
100
AcDbEntity
  8
SK2
  6
CONTINUOUS
370
25
 62
7
100
AcDbLine
 10
-56.55666695300329
 20
14.71969659060066
 30
0.0
 11
-56.39
 21
14.88636354360396
 31
0.0
  0
LINE
  5
43A
330
1F
100
AcDbEntity
  8
SK2
  6
CONTINUOUS
370
25
 62
7
100
AcDbLine
 10
-56.91022034359657
 20
14.79040726871932
 30
0.0
 11
-56.39
 21
15.31062761231589
 31
0.0
  0
LINE
  5
43B
330
1F
100
AcDbEntity
  8
SK2
  6
CONTINUOUS
370
25
 62
7
100
AcDbLine
 10
-57.26377373418985
 20
14.86111794683797
 30
0.0
 11
-56.39
 21
15.73489168102783
 31
0.0
  0
LINE
  5
43C
330
1F
100
AcDbEntity
  8
SK2
  6
CONTINUOUS
370
25
 62
7
100
AcDbLine
 10
-57.61732712478313
 20
14.93182862495663
 30
0.0
 11
-56.39
 21
16.15915574973976
 31
0.0
  0
LINE
  5
43D
330
1F
100
AcDbEntity
  8
SK2
  6
CONTINUOUS
370
25
 62
7
100
AcDbLine
 10
-57.97088051537641
 20
15.00253930307529
 30
0.0
 11
-56.39
 21
16.58341981845169
 31
0.0
  0
LINE
  5
43E
330
1F
100
AcDbEntity
  8
SK2
  6
CONTINUOUS
370
25
 62
7
100
AcDbLine
 10
-58.32443390596968
 20
15.07324998119394
 30
0.0
 11
-56.79165085895452
 21
16.6060330282091
 31
0.0
  0
LINE
  5
43F
330
1F
100
AcDbEntity
  8
SK2
  6
CONTINUOUS
370
25
 62
7
100
AcDbLine
 10
-58.67798729656296
 20
15.14396065931259
 30
0.0
 11
-57.32198094484444
 21
16.49996701103111
 31
0.0
  0
LINE
  5
440
330
1F
100
AcDbEntity
  8
SK2
  6
CONTINUOUS
370
25
 62
7
100
AcDbLine
 10
-59.03154068715624
 20
15.21467133743125
 30
0.0
 11
-57.85231103073436
 21
16.39390099385313
 31
0.0
  0
LINE
  5
441
330
1F
100
AcDbEntity
  8
SK2
  6
CONTINUOUS
370
25
 62
7
100
AcDbLine
 10
-59.38509407774951
 20
15.2853820155499
 30
0.0
 11
-58.38264111662426
 21
16.28783497667515
 31
0.0
  0
LINE
  5
442
330
1F
100
AcDbEntity
  8
SK2
  6
CONTINUOUS
370
25
 62
7
100
AcDbLine
 10
-59.73864746834278
 20
15.35609269366856
 30
0.0
 11
-58.91297120251418
 21
16.18176895949716
 31
0.0
  0
LINE
  5
443
330
1F
100
AcDbEntity
  8
SK2
  6
CONTINUOUS
370
25
 62
7
100
AcDbLine
 10
-60.09220085893606
 20
15.42680337178722
 30
0.0
 11
-59.44330128840409
 21
16.07570294231918
 31
0.0
  0
LINE
  5
444
330
1F
100
AcDbEntity
  8
SK2
  6
CONTINUOUS
370
25
 62
7
100
AcDbLine
 10
-60.44575424952933
 20
15.49751404990587
 30
0.0
 11
-59.97363137429399
 21
15.9696369251412
 31
0.0
  0
LINE
  5
445
330
1F
100
AcDbEntity
  8
SK2
  6
CONTINUOUS
370
25
 62
7
100
AcDbLine
 10
-60.79930764012261
 20
15.56822472802452
 30
0.0
 11
-60.5039614601839
 21
15.86357090796322
 31
0.0
  0
LINE
  5
446
330
1F
100
AcDbEntity
  8
SK2
  6
CONTINUOUS
370
25
 62
7
100
AcDbLine
 10
-61.15286103071589
 20
15.63893540614317
 30
0.0
 11
-61.03429154607382
 21
15.75750489078523
 31
0.0
  0
LINE
  5
447
330
1F
100
AcDbEntity
  8
SK2
  6
CONTINUOUS
370
25
 62
7
100
AcDbLine
 10
-61.27863274175409
 20
15.70863665164918
 30
0.0
 11
-61.22294911263114
 21
15.65295302252623
 31
0.0
  0
LINE
  5
448
330
1F
100
AcDbEntity
  8
SK2
  6
CONTINUOUS
370
25
 62
7
100
AcDbLine
 10
-60.92507935116082
 20
15.77934732976784
 30
0.0
 11
-60.69261902674123
 21
15.54688700534825
 31
0.0
  0
LINE
  5
449
330
1F
100
AcDbEntity
  8
SK2
  6
CONTINUOUS
370
25
 62
7
100
AcDbLine
 10
-60.57152596056755
 20
15.85005800788649
 30
0.0
 11
-60.16228894085132
 21
15.44082098817027
 31
0.0
  0
LINE
  5
44A
330
1F
100
AcDbEntity
  8
SK2
  6
CONTINUOUS
370
25
 62
7
100
AcDbLine
 10
-60.21797256997426
 20
15.92076868600514
 30
0.0
 11
-59.63195885496141
 21
15.33475497099229
 31
0.0
  0
LINE
  5
44B
330
1F
100
AcDbEntity
  8
SK2
  6
CONTINUOUS
370
25
 62
7
100
AcDbLine
 10
-59.864419179381
 20
15.9914793641238
 30
0.0
 11
-59.1016287690715
 21
15.22868895381431
 31
0.0
  0
LINE
  5
44C
330
1F
100
AcDbEntity
  8
SK2
  6
CONTINUOUS
370
25
 62
7
100
AcDbLine
 10
-59.51086578878773
 20
16.06219004224246
 30
0.0
 11
-58.57129868318158
 21
15.12262293663633
 31
0.0
  0
LINE
  5
44D
330
1F
100
AcDbEntity
  8
SK2
  6
CONTINUOUS
370
25
 62
7
100
AcDbLine
 10
-59.15731239819444
 20
16.13290072036111
 30
0.0
 11
-58.04096859729167
 21
15.01655691945834
 31
0.0
  0
LINE
  5
44E
330
1F
100
AcDbEntity
  8
SK2
  6
CONTINUOUS
370
25
 62
7
100
AcDbLine
 10
-58.80375900760116
 20
16.20361139847976
 30
0.0
 11
-57.51063851140175
 21
14.91049090228036
 31
0.0
  0
LINE
  5
44F
330
1F
100
AcDbEntity
  8
SK2
  6
CONTINUOUS
370
25
 62
7
100
AcDbLine
 10
-58.45020561700789
 20
16.27432207659842
 30
0.0
 11
-56.98030842551183
 21
14.80442488510238
 31
0.0
  0
LINE
  5
450
330
1F
100
AcDbEntity
  8
SK2
  6
CONTINUOUS
370
25
 62
7
100
AcDbLine
 10
-58.0966522264146
 20
16.34503275471707
 30
0.0
 11
-56.4499783396219
 21
14.69835886792438
 31
0.0
  0
LINE
  5
451
330
1F
100
AcDbEntity
  8
SK2
  6
CONTINUOUS
370
25
 62
7
100
AcDbLine
 10
-57.74309883582133
 20
16.41574343283573
 30
0.0
 11
-56.39
 21
15.0626445970144
 31
0.0
  0
LINE
  5
452
330
1F
100
AcDbEntity
  8
SK2
  6
CONTINUOUS
370
25
 62
7
100
AcDbLine
 10
-57.38954544522806
 20
16.48645411095439
 30
0.0
 11
-56.39
 21
15.48690866572634
 31
0.0
  0
LINE
  5
453
330
1F
100
AcDbEntity
  8
SK2
  6
CONTINUOUS
370
25
 62
7
100
AcDbLine
 10
-57.03599205463478
 20
16.55716478907304
 30
0.0
 11
-56.39
 21
15.91117273443827
 31
0.0
  0
LINE
  5
454
330
1F
100
AcDbEntity
  8
SK2
  6
CONTINUOUS
370
25
 62
7
100
AcDbLine
 10
-56.6824386640415
 20
16.62787546719169
 30
0.0
 11
-56.39
 21
16.33543680315019
 31
0.0
  0
LINE
  5
455
330
1F
100
AcDbEntity
  8
SK2
  6
CONTINUOUS
370
25
 62
7
100
AcDbLine
 10
0.0
 20
15.6863632
 30
0.0
 11
-5.0
 21
14.6863632
 31
0.0
  0
LINE
  5
456
330
1F
100
AcDbEntity
  8
SK2
  6
CONTINUOUS
370
25
 62
7
100
AcDbLine
 10
-5.0
 20
14.6863632
 30
0.0
 11
-5.0
 21
16.6863632
 31
0.0
  0
LINE
  5
457
330
1F
100
AcDbEntity
  8
SK2
  6
CONTINUOUS
370
25
 62
7
100
AcDbLine
 10
-5.0
 20
16.6863632
 30
0.0
 11
0.0
 21
15.6863632
 31
0.0
  0
LINE
  5
458
330
1F
100
AcDbEntity
  8
SK2
  6
CONTINUOUS
370
25
 62
7
100
AcDbLine
 10
-0.0142591779266921
 20
15.68351136441466
 30
0.0
 11
-0.0095061186177947
 21
15.68826442372356
 31
0.0
  0
LINE
  5
459
330
1F
100
AcDbEntity
  8
SK2
  6
CONTINUOUS
370
25
 62
7
100
AcDbLine
 10
-0.5445892638166013
 20
15.57744534723668
 30
0.0
 11
-0.3630595092110677
 21
15.75897510184222
 31
0.0
  0
LINE
  5
45A
330
1F
100
AcDbEntity
  8
SK2
  6
CONTINUOUS
370
25
 62
7
100
AcDbLine
 10
-1.074919349706511
 20
15.4713793300587
 30
0.0
 11
-0.7166128998043406
 21
15.82968577996087
 31
0.0
  0
LINE
  5
45B
330
1F
100
AcDbEntity
  8
SK2
  6
CONTINUOUS
370
25
 62
7
100
AcDbLine
 10
-1.60524943559642
 20
15.36531331288072
 30
0.0
 11
-1.070166290397613
 21
15.90039645807953
 31
0.0
  0
LINE
  5
45C
330
1F
100
AcDbEntity
  8
SK2
  6
CONTINUOUS
370
25
 62
7
100
AcDbLine
 10
-2.135579521486329
 20
15.25924729570274
 30
0.0
 11
-1.423719680990886
 21
15.97110713619818
 31
0.0
  0
LINE
  5
45D
330
1F
100
AcDbEntity
  8
SK2
  6
CONTINUOUS
370
25
 62
7
100
AcDbLine
 10
-2.665909607376238
 20
15.15318127852476
 30
0.0
 11
-1.777273071584159
 21
16.04181781431683
 31
0.0
  0
LINE
  5
45E
330
1F
100
AcDbEntity
  8
SK2
  6
CONTINUOUS
370
25
 62
7
100
AcDbLine
 10
-3.196239693266147
 20
15.04711526134677
 30
0.0
 11
-2.130826462177432
 21
16.11252849243549
 31
0.0
  0
LINE
  5
45F
330
1F
100
AcDbEntity
  8
SK2
  6
CONTINUOUS
370
25
 62
7
100
AcDbLine
 10
-3.726569779156061
 20
14.94104924416879
 30
0.0
 11
-2.484379852770708
 21
16.18323917055415
 31
0.0
  0
LINE
  5
460
330
1F
100
AcDbEntity
  8
SK2
  6
CONTINUOUS
370
25
 62
7
100
AcDbLine
 10
-4.25689986504597
 20
14.83498322699081
 30
0.0
 11
-2.837933243363981
 21
16.2539498486728
 31
0.0
  0
LINE
  5
461
330
1F
100
AcDbEntity
  8
SK2
  6
CONTINUOUS
370
25
 62
7
100
AcDbLine
 10
-4.787229950935878
 20
14.72891720981283
 30
0.0
 11
-3.191486633957254
 21
16.32466052679145
 31
0.0
  0
LINE
  5
462
330
1F
100
AcDbEntity
  8
SK2
  6
CONTINUOUS
370
25
 62
7
100
AcDbLine
 10
-5.0
 20
14.94041122946063
 30
0.0
 11
-3.545040024550527
 21
16.39537120491011
 31
0.0
  0
LINE
  5
463
330
1F
100
AcDbEntity
  8
SK2
  6
CONTINUOUS
370
25
 62
7
100
AcDbLine
 10
-5.0
 20
15.36467529817256
 30
0.0
 11
-3.898593415143798
 21
16.46608188302876
 31
0.0
  0
LINE
  5
464
330
1F
100
AcDbEntity
  8
SK2
  6
CONTINUOUS
370
25
 62
7
100
AcDbLine
 10
-5.0
 20
15.78893936688449
 30
0.0
 11
-4.252146805737071
 21
16.53679256114741
 31
0.0
  0
LINE
  5
465
330
1F
100
AcDbEntity
  8
SK2
  6
CONTINUOUS
370
25
 62
7
100
AcDbLine
 10
-5.0
 20
16.21320343559642
 30
0.0
 11
-4.605700196330345
 21
16.60750323926607
 31
0.0
  0
LINE
  5
466
330
1F
100
AcDbEntity
  8
SK2
  6
CONTINUOUS
370
25
 62
7
100
AcDbLine
 10
-5.0
 20
16.63746750430834
 30
0.0
 11
-4.959253586923617
 21
16.67821391738472
 31
0.0
  0
LINE
  5
467
330
1F
100
AcDbEntity
  8
SK2
  6
CONTINUOUS
370
25
 62
7
100
AcDbLine
 10
-5.0
 20
14.75807358037433
 30
0.0
 11
-4.940241349688061
 21
14.69831493006239
 31
0.0
  0
LINE
  5
468
330
1F
100
AcDbEntity
  8
SK2
  6
CONTINUOUS
370
25
 62
7
100
AcDbLine
 10
-5.0
 20
15.18233764908626
 30
0.0
 11
-4.586687959094788
 21
14.76902560818105
 31
0.0
  0
LINE
  5
469
330
1F
100
AcDbEntity
  8
SK2
  6
CONTINUOUS
370
25
 62
7
100
AcDbLine
 10
-5.0
 20
15.60660171779818
 30
0.0
 11
-4.233134568501516
 21
14.8397362862997
 31
0.0
  0
LINE
  5
46A
330
1F
100
AcDbEntity
  8
SK2
  6
CONTINUOUS
370
25
 62
7
100
AcDbLine
 10
-5.0
 20
16.03086578651011
 30
0.0
 11
-3.879581177908242
 21
14.91044696441835
 31
0.0
  0
LINE
  5
46B
330
1F
100
AcDbEntity
  8
SK2
  6
CONTINUOUS
370
25
 62
7
100
AcDbLine
 10
-5.0
 20
16.45512985522204
 30
0.0
 11
-3.526027787314968
 21
14.98115764253701
 31
0.0
  0
LINE
  5
46C
330
1F
100
AcDbEntity
  8
SK2
  6
CONTINUOUS
370
25
 62
7
100
AcDbLine
 10
-4.758711595082545
 20
16.63810551901651
 30
0.0
 11
-3.172474396721694
 21
15.05186832065566
 31
0.0
  0
LINE
  5
46D
330
1F
100
AcDbEntity
  8
SK2
  6
CONTINUOUS
370
25
 62
7
100
AcDbLine
 10
-4.228381509192634
 20
16.53203950183853
 30
0.0
 11
-2.818921006128421
 21
15.12257899877432
 31
0.0
  0
LINE
  5
46E
330
1F
100
AcDbEntity
  8
SK2
  6
CONTINUOUS
370
25
 62
7
100
AcDbLine
 10
-3.698051423302723
 20
16.42597348466055
 30
0.0
 11
-2.465367615535147
 21
15.19328967689297
 31
0.0
  0
LINE
  5
46F
330
1F
100
AcDbEntity
  8
SK2
  6
CONTINUOUS
370
25
 62
7
100
AcDbLine
 10
-3.167721337412814
 20
16.31990746748257
 30
0.0
 11
-2.111814224941875
 21
15.26400035501163
 31
0.0
  0
LINE
  5
470
330
1F
100
AcDbEntity
  8
SK2
  6
CONTINUOUS
370
25
 62
7
100
AcDbLine
 10
-2.637391251522904
 20
16.21384145030458
 30
0.0
 11
-1.758260834348601
 21
15.33471103313028
 31
0.0
  0
LINE
  5
471
330
1F
100
AcDbEntity
  8
SK2
  6
CONTINUOUS
370
25
 62
7
100
AcDbLine
 10
-2.107061165632995
 20
16.1077754331266
 30
0.0
 11
-1.404707443755329
 21
15.40542171124894
 31
0.0
  0
LINE
  5
472
330
1F
100
AcDbEntity
  8
SK2
  6
CONTINUOUS
370
25
 62
7
100
AcDbLine
 10
-1.576731079743083
 20
16.00170941594862
 30
0.0
 11
-1.051154053162054
 21
15.47613238936759
 31
0.0
  0
LINE
  5
473
330
1F
100
AcDbEntity
  8
SK2
  6
CONTINUOUS
370
25
 62
7
100
AcDbLine
 10
-1.046400993853174
 20
15.89564339877064
 30
0.0
 11
-0.6976006625687821
 21
15.54684306748625
 31
0.0
  0
LINE
  5
474
330
1F
100
AcDbEntity
  8
SK2
  6
CONTINUOUS
370
25
 62
7
100
AcDbLine
 10
-0.5160709079632632
 20
15.78957738159266
 30
0.0
 11
-0.3440472719755085
 21
15.6175537456049
 31
0.0
  0
TEXT
  5
475
330
1F
100
AcDbEntity
  8
SK2
  6
CONTINUOUS
370
25
 62
7
100
AcDbText
 10
-37.11166666666666
 20
16.6863632
 30
0.0
 40
3.5
  1
61.39
 72
     1
 11
-30.695
 21
16.6863632
 31
0.0
100
AcDbText
  0
LINE
  5
476
330
1F
100
AcDbEntity
  8
2
  6
CONTINUOUS
370
25
 62
7
100
AcDbLine
 10
0.0
 20
-5.6863632
 30
0.0
 11
-0.0000000000000007
 21
-16.6863632
 31
0.0
  0
LINE
  5
477
330
1F
100
AcDbEntity
  8
2
  6
CONTINUOUS
370
25
 62
7
100
AcDbLine
 10
1.009999999999999
 20
-16.6863632
 30
0.0
 11
1.01
 21
-5.686363199999999
 31
0.0
  0
LINE
  5
478
330
1F
100
AcDbEntity
  8
2
  6
CONTINUOUS
370
25
 62
7
100
AcDbLine
 10
-18.475
 20
-15.6863632
 30
0.0
 11
11.01
 21
-15.6863632
 31
0.0
  0
LINE
  5
479
330
1F
100
AcDbEntity
  8
2
  6
CONTINUOUS
370
25
 62
7
100
AcDbLine
 10
0.0
 20
-15.6863632
 30
0.0
 11
-5.0
 21
-16.6863632
 31
0.0
  0
LINE
  5
47A
330
1F
100
AcDbEntity
  8
2
  6
CONTINUOUS
370
25
 62
7
100
AcDbLine
 10
-5.0
 20
-16.6863632
 30
0.0
 11
-5.0
 21
-14.6863632
 31
0.0
  0
LINE
  5
47B
330
1F
100
AcDbEntity
  8
2
  6
CONTINUOUS
370
25
 62
7
100
AcDbLine
 10
-5.0
 20
-14.6863632
 30
0.0
 11
0.0
 21
-15.6863632
 31
0.0
  0
LINE
  5
47C
330
1F
100
AcDbEntity
  8
2
  6
CONTINUOUS
370
25
 62
7
100
AcDbLine
 10
-0.035206789185187
 20
-15.69340455783704
 30
0.0
 11
-0.0234711927901247
 21
-15.68166896144197
 31
0.0
  0
LINE
  5
47D
330
1F
100
AcDbEntity
  8
2
  6
CONTINUOUS
370
25
 62
7
100
AcDbLine
 10
-0.5655368750750963
 20
-15.79947057501502
 30
0.0
 11
-0.3770245833833976
 21
-15.61095828332332
 31
0.0
  0
LINE
  5
47E
330
1F
100
AcDbEntity
  8
2
  6
CONTINUOUS
370
25
 62
7
100
AcDbLine
 10
-1.095866960965006
 20
-15.905536592193
 30
0.0
 11
-0.7305779739766706
 21
-15.54024760520466
 31
0.0
  0
LINE
  5
47F
330
1F
100
AcDbEntity
  8
2
  6
CONTINUOUS
370
25
 62
7
100
AcDbLine
 10
-1.626197046854915
 20
-16.01160260937098
 30
0.0
 11
-1.084131364569944
 21
-15.46953692708601
 31
0.0
  0
LINE
  5
480
330
1F
100
AcDbEntity
  8
2
  6
CONTINUOUS
370
25
 62
7
100
AcDbLine
 10
-2.156527132744824
 20
-16.11766862654896
 30
0.0
 11
-1.437684755163217
 21
-15.39882624896736
 31
0.0
  0
LINE
  5
481
330
1F
100
AcDbEntity
  8
2
  6
CONTINUOUS
370
25
 62
7
100
AcDbLine
 10
-2.686857218634733
 20
-16.22373464372695
 30
0.0
 11
-1.791238145756489
 21
-15.3281155708487
 31
0.0
  0
LINE
  5
482
330
1F
100
AcDbEntity
  8
2
  6
CONTINUOUS
370
25
 62
7
100
AcDbLine
 10
-3.217187304524642
 20
-16.32980066090493
 30
0.0
 11
-2.144791536349762
 21
-15.25740489273005
 31
0.0
  0
LINE
  5
483
330
1F
100
AcDbEntity
  8
2
  6
CONTINUOUS
370
25
 62
7
100
AcDbLine
 10
-3.747517390414553
 20
-16.43586667808291
 30
0.0
 11
-2.498344926943036
 21
-15.18669421461139
 31
0.0
  0
LINE
  5
484
330
1F
100
AcDbEntity
  8
2
  6
CONTINUOUS
370
25
 62
7
100
AcDbLine
 10
-4.277847476304462
 20
-16.54193269526089
 30
0.0
 11
-2.851898317536309
 21
-15.11598353649274
 31
0.0
  0
LINE
  5
485
330
1F
100
AcDbEntity
  8
2
  6
CONTINUOUS
370
25
 62
7
100
AcDbLine
 10
-4.808177562194372
 20
-16.64799871243887
 30
0.0
 11
-3.205451708129582
 21
-15.04527285837408
 31
0.0
  0
LINE
  5
486
330
1F
100
AcDbEntity
  8
2
  6
CONTINUOUS
370
25
 62
7
100
AcDbLine
 10
-5.0
 20
-16.41555708153258
 30
0.0
 11
-3.559005098722855
 21
-14.97456218025543
 31
0.0
  0
LINE
  5
487
330
1F
100
AcDbEntity
  8
2
  6
CONTINUOUS
370
25
 62
7
100
AcDbLine
 10
-5.0
 20
-15.99129301282065
 30
0.0
 11
-3.912558489316128
 21
-14.90385150213677
 31
0.0
  0
LINE
  5
488
330
1F
100
AcDbEntity
  8
2
  6
CONTINUOUS
370
25
 62
7
100
AcDbLine
 10
-5.0
 20
-15.56702894410872
 30
0.0
 11
-4.266111879909401
 21
-14.83314082401812
 31
0.0
  0
LINE
  5
489
330
1F
100
AcDbEntity
  8
2
  6
CONTINUOUS
370
25
 62
7
100
AcDbLine
 10
-5.0
 20
-15.14276487539679
 30
0.0
 11
-4.619665270502674
 21
-14.76243014589947
 31
0.0
  0
LINE
  5
48A
330
1F
100
AcDbEntity
  8
2
  6
CONTINUOUS
370
25
 62
7
100
AcDbLine
 10
-5.0
 20
-14.71850080668486
 30
0.0
 11
-4.973218661095947
 21
-14.69171946778081
 31
0.0
  0
LINE
  5
48B
330
1F
100
AcDbEntity
  8
2
  6
CONTINUOUS
370
25
 62
7
100
AcDbLine
 10
-5.0
 20
-16.41555708153256
 30
0.0
 11
-4.774328234610469
 21
-16.64122884692209
 31
0.0
  0
LINE
  5
48C
330
1F
100
AcDbEntity
  8
2
  6
CONTINUOUS
370
25
 62
7
100
AcDbLine
 10
-5.0
 20
-15.99129301282064
 30
0.0
 11
-4.420774844017198
 21
-16.57051816880344
 31
0.0
  0
LINE
  5
48D
330
1F
100
AcDbEntity
  8
2
  6
CONTINUOUS
370
25
 62
7
100
AcDbLine
 10
-5.0
 20
-15.56702894410871
 30
0.0
 11
-4.067221453423925
 21
-16.49980749068478
 31
0.0
  0
LINE
  5
48E
330
1F
100
AcDbEntity
  8
2
  6
CONTINUOUS
370
25
 62
7
100
AcDbLine
 10
-5.0
 20
-15.14276487539678
 30
0.0
 11
-3.713668062830649
 21
-16.42909681256613
 31
0.0
  0
LINE
  5
48F
330
1F
100
AcDbEntity
  8
2
  6
CONTINUOUS
370
25
 62
7
100
AcDbLine
 10
-5.0
 20
-14.71850080668485
 30
0.0
 11
-3.360114672237375
 21
-16.35838613444747
 31
0.0
  0
LINE
  5
490
330
1F
100
AcDbEntity
  8
2
  6
CONTINUOUS
370
25
 62
7
100
AcDbLine
 10
-4.50984192246616
 20
-14.78439481550677
 30
0.0
 11
-3.006561281644105
 21
-16.28767545632882
 31
0.0
  0
LINE
  5
491
330
1F
100
AcDbEntity
  8
2
  6
CONTINUOUS
370
25
 62
7
100
AcDbLine
 10
-3.979511836576249
 20
-14.89046083268475
 30
0.0
 11
-2.653007891050831
 21
-16.21696477821017
 31
0.0
  0
LINE
  5
492
330
1F
100
AcDbEntity
  8
2
  6
CONTINUOUS
370
25
 62
7
100
AcDbLine
 10
-3.449181750686339
 20
-14.99652684986273
 30
0.0
 11
-2.299454500457558
 21
-16.14625410009151
 31
0.0
  0
LINE
  5
493
330
1F
100
AcDbEntity
  8
2
  6
CONTINUOUS
370
25
 62
7
100
AcDbLine
 10
-2.918851664796428
 20
-15.10259286704071
 30
0.0
 11
-1.945901109864284
 21
-16.07554342197286
 31
0.0
  0
LINE
  5
494
330
1F
100
AcDbEntity
  8
2
  6
CONTINUOUS
370
25
 62
7
100
AcDbLine
 10
-2.388521578906517
 20
-15.2086588842187
 30
0.0
 11
-1.592347719271011
 21
-16.0048327438542
 31
0.0
  0
LINE
  5
495
330
1F
100
AcDbEntity
  8
2
  6
CONTINUOUS
370
25
 62
7
100
AcDbLine
 10
-1.858191493016607
 20
-15.31472490139668
 30
0.0
 11
-1.238794328677737
 21
-15.93412206573555
 31
0.0
  0
LINE
  5
496
330
1F
100
AcDbEntity
  8
2
  6
CONTINUOUS
370
25
 62
7
100
AcDbLine
 10
-1.327861407126697
 20
-15.42079091857466
 30
0.0
 11
-0.8852409380844638
 21
-15.86341138761689
 31
0.0
  0
LINE
  5
497
330
1F
100
AcDbEntity
  8
2
  6
CONTINUOUS
370
25
 62
7
100
AcDbLine
 10
-0.7975313212367858
 20
-15.52685693575264
 30
0.0
 11
-0.5316875474911902
 21
-15.79270070949824
 31
0.0
  0
LINE
  5
498
330
1F
100
AcDbEntity
  8
2
  6
CONTINUOUS
370
25
 62
7
100
AcDbLine
 10
-0.2672012353468751
 20
-15.63292295293062
 30
0.0
 11
-0.1781341568979166
 21
-15.72199003137958
 31
0.0
  0
LINE
  5
499
330
1F
100
AcDbEntity
  8
2
  6
CONTINUOUS
370
25
 62
7
100
AcDbLine
 10
1.009999999999999
 20
-15.6863632
 30
0.0
 11
6.01
 21
-14.6863632
 31
0.0
  0
LINE
  5
49A
330
1F
100
AcDbEntity
  8
2
  6
CONTINUOUS
370
25
 62
7
100
AcDbLine
 10
6.01
 20
-14.6863632
 30
0.0
 11
6.01
 21
-16.6863632
 31
0.0
  0
LINE
  5
49B
330
1F
100
AcDbEntity
  8
2
  6
CONTINUOUS
370
25
 62
7
100
AcDbLine
 10
6.01
 20
-16.6863632
 30
0.0
 11
1.009999999999999
 21
-15.6863632
 31
0.0
  0
LINE
  5
49C
330
1F
100
AcDbEntity
  8
2
  6
CONTINUOUS
370
25
 62
7
100
AcDbLine
 10
5.918888120090586
 20
-16.66814082401812
 30
0.0
 11
6.01
 21
-16.5770289441087
 31
0.0
  0
LINE
  5
49D
330
1F
100
AcDbEntity
  8
2
  6
CONTINUOUS
370
25
 62
7
100
AcDbLine
 10
5.565334729497313
 20
-16.59743014589946
 30
0.0
 11
6.01
 21
-16.15276487539678
 31
0.0
  0
LINE
  5
49E
330
1F
100
AcDbEntity
  8
2
  6
CONTINUOUS
370
25
 62
7
100
AcDbLine
 10
5.21178133890404
 20
-16.52671946778081
 30
0.0
 11
6.01
 21
-15.72850080668485
 31
0.0
  0
LINE
  5
49F
330
1F
100
AcDbEntity
  8
2
  6
CONTINUOUS
370
25
 62
7
100
AcDbLine
 10
4.858227948310767
 20
-16.45600878966215
 30
0.0
 11
6.01
 21
-15.30423673797292
 31
0.0
  0
LINE
  5
4A0
330
1F
100
AcDbEntity
  8
2
  6
CONTINUOUS
370
25
 62
7
100
AcDbLine
 10
4.504674557717495
 20
-16.3852981115435
 30
0.0
 11
6.01
 21
-14.87997266926099
 31
0.0
  0
LINE
  5
4A1
330
1F
100
AcDbEntity
  8
2
  6
CONTINUOUS
370
25
 62
7
100
AcDbLine
 10
4.151121167124222
 20
-16.31458743342484
 30
0.0
 11
5.721681750686333
 21
-14.74402684986273
 31
0.0
  0
LINE
  5
4A2
330
1F
100
AcDbEntity
  8
2
  6
CONTINUOUS
370
25
 62
7
100
AcDbLine
 10
3.797567776530949
 20
-16.24387675530619
 30
0.0
 11
5.191351664796423
 21
-14.85009286704071
 31
0.0
  0
LINE
  5
4A3
330
1F
100
AcDbEntity
  8
2
  6
CONTINUOUS
370
25
 62
7
100
AcDbLine
 10
3.444014385937673
 20
-16.17316607718753
 30
0.0
 11
4.661021578906509
 21
-14.9561588842187
 31
0.0
  0
LINE
  5
4A4
330
1F
100
AcDbEntity
  8
2
  6
CONTINUOUS
370
25
 62
7
100
AcDbLine
 10
3.0904609953444
 20
-16.10245539906888
 30
0.0
 11
4.130691493016601
 21
-15.06222490139668
 31
0.0
  0
LINE
  5
4A5
330
1F
100
AcDbEntity
  8
2
  6
CONTINUOUS
370
25
 62
7
100
AcDbLine
 10
2.736907604751126
 20
-16.03174472095023
 30
0.0
 11
3.600361407126691
 21
-15.16829091857466
 31
0.0
  0
LINE
  5
4A6
330
1F
100
AcDbEntity
  8
2
  6
CONTINUOUS
370
25
 62
7
100
AcDbLine
 10
2.383354214157853
 20
-15.96103404283157
 30
0.0
 11
3.07003132123678
 21
-15.27435693575264
 31
0.0
  0
LINE
  5
4A7
330
1F
100
AcDbEntity
  8
2
  6
CONTINUOUS
370
25
 62
7
100
AcDbLine
 10
2.02980082356458
 20
-15.89032336471292
 30
0.0
 11
2.539701235346871
 21
-15.38042295293062
 31
0.0
  0
LINE
  5
4A8
330
1F
100
AcDbEntity
  8
2
  6
CONTINUOUS
370
25
 62
7
100
AcDbLine
 10
1.676247432971307
 20
-15.81961268659426
 30
0.0
 11
2.009371149456961
 21
-15.48648897010861
 31
0.0
  0
LINE
  5
4A9
330
1F
100
AcDbEntity
  8
2
  6
CONTINUOUS
370
25
 62
7
100
AcDbLine
 10
1.322694042378034
 20
-15.74890200847561
 30
0.0
 11
1.479041063567051
 21
-15.59255498728659
 31
0.0
  0
LINE
  5
4AA
330
1F
100
AcDbEntity
  8
2
  6
CONTINUOUS
370
25
 62
7
100
AcDbLine
 10
1.168031078270235
 20
-15.65475698434595
 30
0.0
 11
1.247046617405353
 21
-15.73377252348107
 31
0.0
  0
LINE
  5
4AB
330
1F
100
AcDbEntity
  8
2
  6
CONTINUOUS
370
25
 62
7
100
AcDbLine
 10
1.52158446886351
 20
-15.5840463062273
 30
0.0
 11
1.777376703295266
 21
-15.83983854065905
 31
0.0
  0
LINE
  5
4AC
330
1F
100
AcDbEntity
  8
2
  6
CONTINUOUS
370
25
 62
7
100
AcDbLine
 10
1.875137859456782
 20
-15.51333562810864
 30
0.0
 11
2.307706789185174
 21
-15.94590455783703
 31
0.0
  0
LINE
  5
4AD
330
1F
100
AcDbEntity
  8
2
  6
CONTINUOUS
370
25
 62
7
100
AcDbLine
 10
2.228691250050055
 20
-15.44262494998999
 30
0.0
 11
2.838036875075084
 21
-16.05197057501502
 31
0.0
  0
LINE
  5
4AE
330
1F
100
AcDbEntity
  8
2
  6
CONTINUOUS
370
25
 62
7
100
AcDbLine
 10
2.582244640643328
 20
-15.37191427187133
 30
0.0
 11
3.368366960964994
 21
-16.158036592193
 31
0.0
  0
LINE
  5
4AF
330
1F
100
AcDbEntity
  8
2
  6
CONTINUOUS
370
25
 62
7
100
AcDbLine
 10
2.935798031236601
 20
-15.30120359375268
 30
0.0
 11
3.898697046854904
 21
-16.26410260937098
 31
0.0
  0
LINE
  5
4B0
330
1F
100
AcDbEntity
  8
2
  6
CONTINUOUS
370
25
 62
7
100
AcDbLine
 10
3.289351421829875
 20
-15.23049291563402
 30
0.0
 11
4.429027132744814
 21
-16.37016862654896
 31
0.0
  0
LINE
  5
4B1
330
1F
100
AcDbEntity
  8
2
  6
CONTINUOUS
370
25
 62
7
100
AcDbLine
 10
3.642904812423148
 20
-15.15978223751537
 30
0.0
 11
4.959357218634724
 21
-16.47623464372694
 31
0.0
  0
LINE
  5
4B2
330
1F
100
AcDbEntity
  8
2
  6
CONTINUOUS
370
25
 62
7
100
AcDbLine
 10
3.996458203016422
 20
-15.08907155939671
 30
0.0
 11
5.489687304524635
 21
-16.58230066090493
 31
0.0
  0
LINE
  5
4B3
330
1F
100
AcDbEntity
  8
2
  6
CONTINUOUS
370
25
 62
7
100
AcDbLine
 10
4.350011593609695
 20
-15.01836088127806
 30
0.0
 11
6.01
 21
-16.67834928766836
 31
0.0
  0
LINE
  5
4B4
330
1F
100
AcDbEntity
  8
2
  6
CONTINUOUS
370
25
 62
7
100
AcDbLine
 10
4.703564984202969
 20
-14.94765020315941
 30
0.0
 11
6.01
 21
-16.25408521895643
 31
0.0
  0
LINE
  5
4B5
330
1F
100
AcDbEntity
  8
2
  6
CONTINUOUS
370
25
 62
7
100
AcDbLine
 10
5.057118374796242
 20
-14.87693952504075
 30
0.0
 11
6.01
 21
-15.82982115024451
 31
0.0
  0
LINE
  5
4B6
330
1F
100
AcDbEntity
  8
2
  6
CONTINUOUS
370
25
 62
7
100
AcDbLine
 10
5.410671765389515
 20
-14.8062288469221
 30
0.0
 11
6.01
 21
-15.40555708153258
 31
0.0
  0
LINE
  5
4B7
330
1F
100
AcDbEntity
  8
2
  6
CONTINUOUS
370
25
 62
7
100
AcDbLine
 10
5.764225155982788
 20
-14.73551816880344
 30
0.0
 11
6.01
 21
-14.98129301282065
 31
0.0
  0
TEXT
  5
4B8
330
1F
100
AcDbEntity
  8
2
  6
CONTINUOUS
370
25
 62
7
100
AcDbText
 10
-15.52916666666667
 20
-14.6863632
 30
0.0
 40
3.5
  1
1.01
 72
     1
 11
-11.7375
 21
-14.6863632
 31
0.0
100
AcDbText
  0
LINE
  5
4B9
330
1F
100
AcDbEntity
  8
NOCUT
  6
CONTINUOUS
370
25
 62
7
100
AcDbLine
 10
1.0
 20
0.0
 30
0.0
 11
48.61
 21
0.0
 31
0.0
  0
LINE
  5
4BA
330
1F
100
AcDbEntity
  8
NOCUT
  6
CONTINUOUS
370
25
 62
7
100
AcDbLine
 10
48.61
 20
0.0
 30
0.0
 11
48.61
 21
4.715
 31
0.0
  0
LINE
  5
4BB
330
1F
100
AcDbEntity
  8
NOCUT
  6
CONTINUOUS
370
25
 62
7
100
AcDbLine
 10
48.61
 20
4.715
 30
0.0
 11
3.609999999999999
 21
4.715
 31
0.0
  0
LINE
  5
4BC
330
1F
100
AcDbEntity
  8
NOCUT
  6
CONTINUOUS
370
25
 62
7
100
AcDbLine
 10
3.609999999999999
 20
4.715
 30
0.0
 11
3.609999999999999
 21
5.715
 31
0.0
  0
LINE
  5
4BD
330
1F
100
AcDbEntity
  8
NOCUT
  6
CONTINUOUS
370
25
 62
7
100
AcDbLine
 10
3.609999999999999
 20
5.715
 30
0.0
 11
2.620132963474387
 21
5.1435
 31
0.0
  0
LINE
  5
4BE
330
1F
100
AcDbEntity
  8
NOCUT
  6
CONTINUOUS
370
25
 62
7
100
AcDbLine
 10
2.620132963474387
 20
5.1435
 30
0.0
 11
1.617476112898304
 21
5.1435
 31
0.0
  0
LINE
  5
4BF
330
1F
100
AcDbEntity
  8
NOCUT
  6
CONTINUOUS
370
25
 62
7
100
AcDbLine
 10
1.617476112898304
 20
5.1435
 30
0.0
 11
1.0
 21
5.5
 31
0.0
  0
LINE
  5
4C0
330
1F
100
AcDbEntity
  8
CUT
  6
CONTINUOUS
370
25
 62
1
100
AcDbLine
 10
1.877949192431122
 20
4.715
 30
0.0
 11
3.609999999999999
 21
5.715
 31
0.0
  0
LINE
  5
4C1
330
1F
100
AcDbEntity
  8
CUT
  6
CONTINUOUS
370
25
 62
1
100
AcDbLine
 10
3.609999999999999
 20
5.715
 30
0.0
 11
47.61
 21
5.715
 31
0.0
  0
LINE
  5
4C2
330
1F
100
AcDbEntity
  8
CUT
  6
CONTINUOUS
370
25
 62
1
100
AcDbLine
 10
47.61
 20
5.715
 30
0.0
 11
48.61
 21
4.715
 31
0.0
  0
LINE
  5
4C3
330
1F
100
AcDbEntity
  8
CUT
  6
CONTINUOUS
370
25
 62
1
100
AcDbLine
 10
48.61
 20
4.715
 30
0.0
 11
1.877949192431124
 21
4.715
 31
0.0
  0
LINE
  5
4C4
330
1F
100
AcDbEntity
  8
2
  6
CONTINUOUS
370
25
 62
7
100
AcDbLine
 10
48.61
 20
-5.715
 30
0.0
 11
59.61
 21
-5.715
 31
0.0
  0
LINE
  5
4C5
330
1F
100
AcDbEntity
  8
2
  6
CONTINUOUS
370
25
 62
7
100
AcDbLine
 10
59.61
 20
5.715
 30
0.0
 11
48.61
 21
5.715
 31
0.0
  0
LINE
  5
4C6
330
1F
100
AcDbEntity
  8
2
  6
CONTINUOUS
370
25
 62
7
100
AcDbLine
 10
58.61
 20
34.29625
 30
0.0
 11
58.61
 21
-15.715
 31
0.0
  0
LINE
  5
4C7
330
1F
100
AcDbEntity
  8
2
  6
CONTINUOUS
370
25
 62
7
100
AcDbLine
 10
58.61
 20
-5.715
 30
0.0
 11
59.61
 21
-10.715
 31
0.0
  0
LINE
  5
4C8
330
1F
100
AcDbEntity
  8
2
  6
CONTINUOUS
370
25
 62
7
100
AcDbLine
 10
59.61
 20
-10.715
 30
0.0
 11
57.61
 21
-10.715
 31
0.0
  0
LINE
  5
4C9
330
1F
100
AcDbEntity
  8
2
  6
CONTINUOUS
370
25
 62
7
100
AcDbLine
 10
57.61
 20
-10.715
 30
0.0
 11
58.61
 21
-5.715
 31
0.0
  0
LINE
  5
4CA
330
1F
100
AcDbEntity
  8
2
  6
CONTINUOUS
370
25
 62
7
100
AcDbLine
 10
59.18746277966082
 20
-10.715
 30
0.0
 11
59.53957712994347
 21
-10.36288564971736
 31
0.0
  0
LINE
  5
4CB
330
1F
100
AcDbEntity
  8
2
  6
CONTINUOUS
370
25
 62
7
100
AcDbLine
 10
58.76319871094889
 20
-10.715
 30
0.0
 11
59.46886645182482
 21
-10.00933225912407
 31
0.0
  0
LINE
  5
4CC
330
1F
100
AcDbEntity
  8
2
  6
CONTINUOUS
370
25
 62
7
100
AcDbLine
 10
58.33893464223696
 20
-10.715
 30
0.0
 11
59.39815577370616
 21
-9.655778868530795
 31
0.0
  0
LINE
  5
4CD
330
1F
100
AcDbEntity
  8
2
  6
CONTINUOUS
370
25
 62
7
100
AcDbLine
 10
57.91467057352503
 20
-10.715
 30
0.0
 11
59.32744509558751
 21
-9.302225477937526
 31
0.0
  0
LINE
  5
4CE
330
1F
100
AcDbEntity
  8
2
  6
CONTINUOUS
370
25
 62
7
100
AcDbLine
 10
57.63989837379672
 20
-10.56550813101638
 30
0.0
 11
59.25673441746886
 21
-8.94867208734425
 31
0.0
  0
LINE
  5
4CF
330
1F
100
AcDbEntity
  8
2
  6
CONTINUOUS
370
25
 62
7
100
AcDbLine
 10
57.7459643909747
 20
-10.03517804512648
 30
0.0
 11
59.1860237393502
 21
-8.59511869675098
 31
0.0
  0
LINE
  5
4D0
330
1F
100
AcDbEntity
  8
2
  6
CONTINUOUS
370
25
 62
7
100
AcDbLine
 10
57.85203040815268
 20
-9.504847959236564
 30
0.0
 11
59.11531306123155
 21
-8.241565306157696
 31
0.0
  0
LINE
  5
4D1
330
1F
100
AcDbEntity
  8
2
  6
CONTINUOUS
370
25
 62
7
100
AcDbLine
 10
57.95809642533066
 20
-8.974517873346663
 30
0.0
 11
59.0446023831129
 21
-7.888011915564434
 31
0.0
  0
LINE
  5
4D2
330
1F
100
AcDbEntity
  8
2
  6
CONTINUOUS
370
25
 62
7
100
AcDbLine
 10
58.06416244250865
 20
-8.444187787456734
 30
0.0
 11
58.97389170499424
 21
-7.53445852497115
 31
0.0
  0
LINE
  5
4D3
330
1F
100
AcDbEntity
  8
2
  6
CONTINUOUS
370
25
 62
7
100
AcDbLine
 10
58.17022845968663
 20
-7.913857701566833
 30
0.0
 11
58.90318102687559
 21
-7.180905134377873
 31
0.0
  0
LINE
  5
4D4
330
1F
100
AcDbEntity
  8
2
  6
CONTINUOUS
370
25
 62
7
100
AcDbLine
 10
58.27629447686461
 20
-7.383527615676911
 30
0.0
 11
58.83247034875693
 21
-6.827351743784604
 31
0.0
  0
LINE
  5
4D5
330
1F
100
AcDbEntity
  8
2
  6
CONTINUOUS
370
25
 62
7
100
AcDbLine
 10
58.38236049404261
 20
-6.853197529786982
 30
0.0
 11
58.76175967063826
 21
-6.473798353191334
 31
0.0
  0
LINE
  5
4D6
330
1F
100
AcDbEntity
  8
2
  6
CONTINUOUS
370
25
 62
7
100
AcDbLine
 10
58.48842651122059
 20
-6.322867443897074
 30
0.0
 11
58.69104899251961
 21
-6.120244962598051
 31
0.0
  0
LINE
  5
4D7
330
1F
100
AcDbEntity
  8
2
  6
CONTINUOUS
370
25
 62
7
100
AcDbLine
 10
58.59449252839857
 20
-5.792537358007174
 30
0.0
 11
58.62033831440096
 21
-5.766691572004781
 31
0.0
  0
LINE
  5
4D8
330
1F
100
AcDbEntity
  8
2
  6
CONTINUOUS
370
25
 62
7
100
AcDbLine
 10
57.64305193783733
 20
-10.54974031081333
 30
0.0
 11
57.808311627024
 21
-10.715
 31
0.0
  0
LINE
  5
4D9
330
1F
100
AcDbEntity
  8
2
  6
CONTINUOUS
370
25
 62
7
100
AcDbLine
 10
57.71376261595599
 20
-10.19618692022006
 30
0.0
 11
58.23257569573593
 21
-10.715
 31
0.0
  0
LINE
  5
4DA
330
1F
100
AcDbEntity
  8
2
  6
CONTINUOUS
370
25
 62
7
100
AcDbLine
 10
57.78447329407464
 20
-9.842633529626774
 30
0.0
 11
58.65683976444787
 21
-10.715
 31
0.0
  0
LINE
  5
4DB
330
1F
100
AcDbEntity
  8
2
  6
CONTINUOUS
370
25
 62
7
100
AcDbLine
 10
57.8551839721933
 20
-9.489080139033497
 30
0.0
 11
59.08110383315979
 21
-10.715
 31
0.0
  0
LINE
  5
4DC
330
1F
100
AcDbEntity
  8
2
  6
CONTINUOUS
370
25
 62
7
100
AcDbLine
 10
57.92589465031195
 20
-9.13552674844022
 30
0.0
 11
59.50536790187173
 21
-10.715
 31
0.0
  0
LINE
  5
4DD
330
1F
100
AcDbEntity
  8
2
  6
CONTINUOUS
370
25
 62
7
100
AcDbLine
 10
57.9966053284306
 20
-8.781973357846944
 30
0.0
 11
59.5300920073541
 21
-10.31546003677044
 31
0.0
  0
LINE
  5
4DE
330
1F
100
AcDbEntity
  8
2
  6
CONTINUOUS
370
25
 62
7
100
AcDbLine
 10
58.06731600654926
 20
-8.428419967253667
 30
0.0
 11
59.42402599017612
 21
-9.785129950880531
 31
0.0
  0
LINE
  5
4DF
330
1F
100
AcDbEntity
  8
2
  6
CONTINUOUS
370
25
 62
7
100
AcDbLine
 10
58.13802668466792
 20
-8.074866576660398
 30
0.0
 11
59.31795997299813
 21
-9.25479986499061
 31
0.0
  0
LINE
  5
4E0
330
1F
100
AcDbEntity
  8
2
  6
CONTINUOUS
370
25
 62
7
100
AcDbLine
 10
58.20873736278657
 20
-7.721313186067121
 30
0.0
 11
59.21189395582015
 21
-8.724469779100701
 31
0.0
  0
LINE
  5
4E1
330
1F
100
AcDbEntity
  8
2
  6
CONTINUOUS
370
25
 62
7
100
AcDbLine
 10
58.27944804090523
 20
-7.367759795473845
 30
0.0
 11
59.10582793864216
 21
-8.19413969321078
 31
0.0
  0
LINE
  5
4E2
330
1F
100
AcDbEntity
  8
2
  6
CONTINUOUS
370
25
 62
7
100
AcDbLine
 10
58.35015871902388
 20
-7.014206404880568
 30
0.0
 11
58.99976192146418
 21
-7.663809607320871
 31
0.0
  0
LINE
  5
4E3
330
1F
100
AcDbEntity
  8
2
  6
CONTINUOUS
370
25
 62
7
100
AcDbLine
 10
58.42086939714253
 20
-6.660653014287284
 30
0.0
 11
58.8936959042862
 21
-7.133479521430949
 31
0.0
  0
LINE
  5
4E4
330
1F
100
AcDbEntity
  8
2
  6
CONTINUOUS
370
25
 62
7
100
AcDbLine
 10
58.4915800752612
 20
-6.307099623694015
 30
0.0
 11
58.78762988710821
 21
-6.603149435541027
 31
0.0
  0
LINE
  5
4E5
330
1F
100
AcDbEntity
  8
2
  6
CONTINUOUS
370
25
 62
7
100
AcDbLine
 10
58.56229075337985
 20
-5.953546233100738
 30
0.0
 11
58.68156386993024
 21
-6.072819349651134
 31
0.0
  0
LINE
  5
4E6
330
1F
100
AcDbEntity
  8
2
  6
CONTINUOUS
370
25
 62
7
100
AcDbLine
 10
58.61
 20
5.715
 30
0.0
 11
57.61
 21
10.715
 31
0.0
  0
LINE
  5
4E7
330
1F
100
AcDbEntity
  8
2
  6
CONTINUOUS
370
25
 62
7
100
AcDbLine
 10
57.61
 20
10.715
 30
0.0
 11
59.61
 21
10.715
 31
0.0
  0
LINE
  5
4E8
330
1F
100
AcDbEntity
  8
2
  6
CONTINUOUS
370
25
 62
7
100
AcDbLine
 10
59.61
 20
10.715
 30
0.0
 11
58.61
 21
5.715
 31
0.0
  0
LINE
  5
4E9
330
1F
100
AcDbEntity
  8
2
  6
CONTINUOUS
370
25
 62
7
100
AcDbLine
 10
58.58420555366702
 20
5.84397223166485
 30
0.0
 11
58.64869166949948
 21
5.908458347497309
 31
0.0
  0
LINE
  5
4EA
330
1F
100
AcDbEntity
  8
2
  6
CONTINUOUS
370
25
 62
7
100
AcDbLine
 10
58.51349487554837
 20
6.197525622258134
 30
0.0
 11
58.75475768667746
 21
6.438788433387224
 31
0.0
  0
LINE
  5
4EB
330
1F
100
AcDbEntity
  8
2
  6
CONTINUOUS
370
25
 62
7
100
AcDbLine
 10
58.44278419742971
 20
6.551079012851396
 30
0.0
 11
58.86082370385544
 21
6.969118519277124
 31
0.0
  0
LINE
  5
4EC
330
1F
100
AcDbEntity
  8
2
  6
CONTINUOUS
370
25
 62
7
100
AcDbLine
 10
58.37207351931107
 20
6.904632403444687
 30
0.0
 11
58.9668897210334
 21
7.499448605167025
 31
0.0
  0
LINE
  5
4ED
330
1F
100
AcDbEntity
  8
2
  6
CONTINUOUS
370
25
 62
7
100
AcDbLine
 10
58.30136284119241
 20
7.258185794037963
 30
0.0
 11
59.07295573821139
 21
8.02977869105694
 31
0.0
  0
LINE
  5
4EE
330
1F
100
AcDbEntity
  8
2
  6
CONTINUOUS
370
25
 62
7
100
AcDbLine
 10
58.23065216307375
 20
7.611739184631233
 30
0.0
 11
59.17902175538937
 21
8.560108776946855
 31
0.0
  0
LINE
  5
4EF
330
1F
100
AcDbEntity
  8
2
  6
CONTINUOUS
370
25
 62
7
100
AcDbLine
 10
58.1599414849551
 20
7.96529257522451
 30
0.0
 11
59.28508777256736
 21
9.090438862836763
 31
0.0
  0
LINE
  5
4F0
330
1F
100
AcDbEntity
  8
2
  6
CONTINUOUS
370
25
 62
7
100
AcDbLine
 10
58.08923080683644
 20
8.318845965817786
 30
0.0
 11
59.39115378974534
 21
9.62076894872667
 31
0.0
  0
LINE
  5
4F1
330
1F
100
AcDbEntity
  8
2
  6
CONTINUOUS
370
25
 62
7
100
AcDbLine
 10
58.01852012871779
 20
8.67239935641107
 30
0.0
 11
59.49721980692332
 21
10.15109903461659
 31
0.0
  0
LINE
  5
4F2
330
1F
100
AcDbEntity
  8
2
  6
CONTINUOUS
370
25
 62
7
100
AcDbLine
 10
57.94780945059914
 20
9.025952747004347
 30
0.0
 11
59.60328582410131
 21
10.6814291205065
 31
0.0
  0
LINE
  5
4F3
330
1F
100
AcDbEntity
  8
2
  6
CONTINUOUS
370
25
 62
7
100
AcDbLine
 10
57.87709877248048
 20
9.379506137597616
 30
0.0
 11
59.21259263488287
 21
10.715
 31
0.0
  0
LINE
  5
4F4
330
1F
100
AcDbEntity
  8
2
  6
CONTINUOUS
370
25
 62
7
100
AcDbLine
 10
57.80638809436182
 20
9.733059528190886
 30
0.0
 11
58.78832856617094
 21
10.715
 31
0.0
  0
LINE
  5
4F5
330
1F
100
AcDbEntity
  8
2
  6
CONTINUOUS
370
25
 62
7
100
AcDbLine
 10
57.73567741624316
 20
10.08661291878416
 30
0.0
 11
58.36406449745902
 21
10.715
 31
0.0
  0
LINE
  5
4F6
330
1F
100
AcDbEntity
  8
2
  6
CONTINUOUS
370
25
 62
7
100
AcDbLine
 10
57.66496673812451
 20
10.44016630937744
 30
0.0
 11
57.93980042874708
 21
10.715
 31
0.0
  0
LINE
  5
4F7
330
1F
100
AcDbEntity
  8
2
  6
CONTINUOUS
370
25
 62
7
100
AcDbLine
 10
58.56921538894671
 20
5.918923055266418
 30
0.0
 11
58.6371897407022
 21
5.85094870351093
 31
0.0
  0
LINE
  5
4F8
330
1F
100
AcDbEntity
  8
2
  6
CONTINUOUS
370
25
 62
7
100
AcDbLine
 10
58.46314937176873
 20
6.449253141156333
 30
0.0
 11
58.70790041882084
 21
6.204502094104221
 31
0.0
  0
LINE
  5
4F9
330
1F
100
AcDbEntity
  8
2
  6
CONTINUOUS
370
25
 62
7
100
AcDbLine
 10
58.35708335459074
 20
6.979583227046255
 30
0.0
 11
58.77861109693951
 21
6.558055484697491
 31
0.0
  0
LINE
  5
4FA
330
1F
100
AcDbEntity
  8
2
  6
CONTINUOUS
370
25
 62
7
100
AcDbLine
 10
58.25101733741276
 20
7.50991331293617
 30
0.0
 11
58.84932177505816
 21
6.911608875290774
 31
0.0
  0
LINE
  5
4FB
330
1F
100
AcDbEntity
  8
2
  6
CONTINUOUS
370
25
 62
7
100
AcDbLine
 10
58.14495132023478
 20
8.040243398826071
 30
0.0
 11
58.92003245317682
 21
7.265162265884044
 31
0.0
  0
LINE
  5
4FC
330
1F
100
AcDbEntity
  8
2
  6
CONTINUOUS
370
25
 62
7
100
AcDbLine
 10
58.0388853030568
 20
8.570573484715972
 30
0.0
 11
58.99074313129547
 21
7.618715656477313
 31
0.0
  0
LINE
  5
4FD
330
1F
100
AcDbEntity
  8
2
  6
CONTINUOUS
370
25
 62
7
100
AcDbLine
 10
57.93281928587882
 20
9.100903570605887
 30
0.0
 11
59.06145380941412
 21
7.972269047070597
 31
0.0
  0
LINE
  5
4FE
330
1F
100
AcDbEntity
  8
2
  6
CONTINUOUS
370
25
 62
7
100
AcDbLine
 10
57.82675326870083
 20
9.631233656495809
 30
0.0
 11
59.13216448753278
 21
8.325822437663867
 31
0.0
  0
LINE
  5
4FF
330
1F
100
AcDbEntity
  8
2
  6
CONTINUOUS
370
25
 62
7
100
AcDbLine
 10
57.72068725152285
 20
10.16156374238573
 30
0.0
 11
59.20287516565143
 21
8.67937582825715
 31
0.0
  0
LINE
  5
500
330
1F
100
AcDbEntity
  8
2
  6
CONTINUOUS
370
25
 62
7
100
AcDbLine
 10
57.61462123434487
 20
10.69189382827562
 30
0.0
 11
59.27358584377009
 21
9.032929218850413
 31
0.0
  0
LINE
  5
501
330
1F
100
AcDbEntity
  8
2
  6
CONTINUOUS
370
25
 62
7
100
AcDbLine
 10
58.01577913133243
 20
10.715
 30
0.0
 11
59.34429652188874
 21
9.38648260944369
 31
0.0
  0
LINE
  5
502
330
1F
100
AcDbEntity
  8
2
  6
CONTINUOUS
370
25
 62
7
100
AcDbLine
 10
58.44004320004436
 20
10.715
 30
0.0
 11
59.41500720000739
 21
9.740036000036973
 31
0.0
  0
LINE
  5
503
330
1F
100
AcDbEntity
  8
2
  6
CONTINUOUS
370
25
 62
7
100
AcDbLine
 10
58.86430726875629
 20
10.715
 30
0.0
 11
59.48571787812605
 21
10.09358939063025
 31
0.0
  0
LINE
  5
504
330
1F
100
AcDbEntity
  8
2
  6
CONTINUOUS
370
25
 62
7
100
AcDbLine
 10
59.28857133746821
 20
10.715
 30
0.0
 11
59.5564285562447
 21
10.44714278122351
 31
0.0
  0
TEXT
  5
505
330
1F
100
AcDbEntity
  8
2
  6
CONTINUOUS
370
25
 62
7
100
AcDbText
 10
57.61
 20
18.17229166666667
 30
0.0
 40
3.5
  1
11.43
 50
90.00000000000001
 72
     1
 11
57.61
 21
24.005625
 31
0.0
100
AcDbText
  0
CIRCLE
  5
506
330
1F
100
AcDbEntity
  8
2
  6
CONTINUOUS
370
25
 62
7
100
AcDbCircle
 10
56.07875
 20
12.980625
 30
0.0
 40
1.53125
  0
LINE
  5
507
330
1F
100
AcDbEntity
  8
2
  6
CONTINUOUS
370
25
 62
7
100
AcDbLine
 10
57.61
 20
11.449375
 30
0.0
 11
54.5475
 21
14.511875
 31
0.0
  0
LINE
  5
508
330
1F
100
AcDbEntity
  8
SK2
  6
CONTINUOUS
370
25
 62
7
100
AcDbLine
 10
-61.39
 20
0.0
 30
0.0
 11
-61.39
 21
23.6863632
 31
0.0
  0
LINE
  5
509
330
1F
100
AcDbEntity
  8
SK2
  6
CONTINUOUS
370
25
 62
7
100
AcDbLine
 10
48.61
 20
23.6863632
 30
0.0
 11
48.61
 21
5.715
 31
0.0
  0
LINE
  5
50A
330
1F
100
AcDbEntity
  8
SK2
  6
CONTINUOUS
370
25
 62
7
100
AcDbLine
 10
-61.39
 20
22.6863632
 30
0.0
 11
48.61
 21
22.6863632
 31
0.0
  0
LINE
  5
50B
330
1F
100
AcDbEntity
  8
SK2
  6
CONTINUOUS
370
25
 62
7
100
AcDbLine
 10
-61.39
 20
22.6863632
 30
0.0
 11
-56.39
 21
23.6863632
 31
0.0
  0
LINE
  5
50C
330
1F
100
AcDbEntity
  8
SK2
  6
CONTINUOUS
370
25
 62
7
100
AcDbLine
 10
-56.39
 20
23.6863632
 30
0.0
 11
-56.39
 21
21.6863632
 31
0.0
  0
LINE
  5
50D
330
1F
100
AcDbEntity
  8
SK2
  6
CONTINUOUS
370
25
 62
7
100
AcDbLine
 10
-56.39
 20
21.6863632
 30
0.0
 11
-61.39
 21
22.6863632
 31
0.0
  0
LINE
  5
50E
330
1F
100
AcDbEntity
  8
SK2
  6
CONTINUOUS
370
25
 62
7
100
AcDbLine
 10
-56.73374125975565
 20
21.75511145195113
 30
0.0
 11
-56.39
 21
22.09885271170678
 31
0.0
  0
LINE
  5
50F
330
1F
100
AcDbEntity
  8
SK2
  6
CONTINUOUS
370
25
 62
7
100
AcDbLine
 10
-57.08729465034892
 20
21.82582213006979
 30
0.0
 11
-56.39
 21
22.52311678041871
 31
0.0
  0
LINE
  5
510
330
1F
100
AcDbEntity
  8
SK2
  6
CONTINUOUS
370
25
 62
7
100
AcDbLine
 10
-57.4408480409422
 20
21.89653280818845
 30
0.0
 11
-56.39
 21
22.94738084913065
 31
0.0
  0
LINE
  5
511
330
1F
100
AcDbEntity
  8
SK2
  6
CONTINUOUS
370
25
 62
7
100
AcDbLine
 10
-57.79440143153547
 20
21.9672434863071
 30
0.0
 11
-56.39
 21
23.37164491784257
 31
0.0
  0
LINE
  5
512
330
1F
100
AcDbEntity
  8
SK2
  6
CONTINUOUS
370
25
 62
7
100
AcDbLine
 10
-58.14795482212875
 20
22.03795416442576
 30
0.0
 11
-56.52693223319313
 21
23.65897675336137
 31
0.0
  0
LINE
  5
513
330
1F
100
AcDbEntity
  8
SK2
  6
CONTINUOUS
370
25
 62
7
100
AcDbLine
 10
-58.50150821272203
 20
22.10866484254441
 30
0.0
 11
-57.05726231908304
 21
23.55291073618339
 31
0.0
  0
LINE
  5
514
330
1F
100
AcDbEntity
  8
SK2
  6
CONTINUOUS
370
25
 62
7
100
AcDbLine
 10
-58.85506160331531
 20
22.17937552066306
 30
0.0
 11
-57.58759240497297
 21
23.44684471900541
 31
0.0
  0
LINE
  5
515
330
1F
100
AcDbEntity
  8
SK2
  6
CONTINUOUS
370
25
 62
7
100
AcDbLine
 10
-59.20861499390859
 20
22.25008619878172
 30
0.0
 11
-58.11792249086288
 21
23.34077870182742
 31
0.0
  0
LINE
  5
516
330
1F
100
AcDbEntity
  8
SK2
  6
CONTINUOUS
370
25
 62
7
100
AcDbLine
 10
-59.56216838450185
 20
22.32079687690037
 30
0.0
 11
-58.64825257675278
 21
23.23471268464944
 31
0.0
  0
LINE
  5
517
330
1F
100
AcDbEntity
  8
SK2
  6
CONTINUOUS
370
25
 62
7
100
AcDbLine
 10
-59.91572177509514
 20
22.39150755501903
 30
0.0
 11
-59.1785826626427
 21
23.12864666747146
 31
0.0
  0
LINE
  5
518
330
1F
100
AcDbEntity
  8
SK2
  6
CONTINUOUS
370
25
 62
7
100
AcDbLine
 10
-60.26927516568841
 20
22.46221823313768
 30
0.0
 11
-59.70891274853261
 21
23.02258065029348
 31
0.0
  0
LINE
  5
519
330
1F
100
AcDbEntity
  8
SK2
  6
CONTINUOUS
370
25
 62
7
100
AcDbLine
 10
-60.62282855628168
 20
22.53292891125633
 30
0.0
 11
-60.23924283442251
 21
22.9165146331155
 31
0.0
  0
LINE
  5
51A
330
1F
100
AcDbEntity
  8
SK2
  6
CONTINUOUS
370
25
 62
7
100
AcDbLine
 10
-60.97638194687495
 20
22.60363958937499
 30
0.0
 11
-60.76957292031241
 21
22.81044861593752
 31
0.0
  0
LINE
  5
51B
330
1F
100
AcDbEntity
  8
SK2
  6
CONTINUOUS
370
25
 62
7
100
AcDbLine
 10
-61.32993533746823
 20
22.67435026749364
 30
0.0
 11
-61.29990300620234
 21
22.70438259875954
 31
0.0
  0
LINE
  5
51C
330
1F
100
AcDbEntity
  8
SK2
  6
CONTINUOUS
370
25
 62
7
100
AcDbLine
 10
-61.10215365791314
 20
22.74393246841738
 30
0.0
 11
-60.9582304868697
 21
22.60000929737394
 31
0.0
  0
LINE
  5
51D
330
1F
100
AcDbEntity
  8
SK2
  6
CONTINUOUS
370
25
 62
7
100
AcDbLine
 10
-60.74860026731985
 20
22.81464314653602
 30
0.0
 11
-60.42790040097979
 21
22.49394328019596
 31
0.0
  0
LINE
  5
51E
330
1F
100
AcDbEntity
  8
SK2
  6
CONTINUOUS
370
25
 62
7
100
AcDbLine
 10
-60.3950468767266
 20
22.88535382465469
 30
0.0
 11
-59.89757031508988
 21
22.38787726301797
 31
0.0
  0
LINE
  5
51F
330
1F
100
AcDbEntity
  8
SK2
  6
CONTINUOUS
370
25
 62
7
100
AcDbLine
 10
-60.04149348613331
 20
22.95606450277334
 30
0.0
 11
-59.36724022919996
 21
22.28181124583998
 31
0.0
  0
LINE
  5
520
330
1F
100
AcDbEntity
  8
SK2
  6
CONTINUOUS
370
25
 62
7
100
AcDbLine
 10
-59.68794009554004
 20
23.026775180892
 30
0.0
 11
-58.83691014331004
 21
22.175745228662
 31
0.0
  0
LINE
  5
521
330
1F
100
AcDbEntity
  8
SK2
  6
CONTINUOUS
370
25
 62
7
100
AcDbLine
 10
-59.33438670494676
 20
23.09748585901065
 30
0.0
 11
-58.30658005742012
 21
22.06967921148402
 31
0.0
  0
LINE
  5
522
330
1F
100
AcDbEntity
  8
SK2
  6
CONTINUOUS
370
25
 62
7
100
AcDbLine
 10
-58.98083331435348
 20
23.1681965371293
 30
0.0
 11
-57.77624997153021
 21
21.96361319430603
 31
0.0
  0
LINE
  5
523
330
1F
100
AcDbEntity
  8
SK2
  6
CONTINUOUS
370
25
 62
7
100
AcDbLine
 10
-58.62727992376021
 20
23.23890721524796
 30
0.0
 11
-57.24591988564029
 21
21.85754717712805
 31
0.0
  0
LINE
  5
524
330
1F
100
AcDbEntity
  8
SK2
  6
CONTINUOUS
370
25
 62
7
100
AcDbLine
 10
-58.27372653316694
 20
23.30961789336663
 30
0.0
 11
-56.71558979975038
 21
21.75148115995007
 31
0.0
  0
LINE
  5
525
330
1F
100
AcDbEntity
  8
SK2
  6
CONTINUOUS
370
25
 62
7
100
AcDbLine
 10
-57.92017314257365
 20
23.38032857148526
 30
0.0
 11
-56.39
 21
21.85015542891163
 31
0.0
  0
LINE
  5
526
330
1F
100
AcDbEntity
  8
SK2
  6
CONTINUOUS
370
25
 62
7
100
AcDbLine
 10
-57.56661975198038
 20
23.45103924960393
 30
0.0
 11
-56.39
 21
22.27441949762356
 31
0.0
  0
LINE
  5
527
330
1F
100
AcDbEntity
  8
SK2
  6
CONTINUOUS
370
25
 62
7
100
AcDbLine
 10
-57.21306636138711
 20
23.52174992772259
 30
0.0
 11
-56.39
 21
22.69868356633548
 31
0.0
  0
LINE
  5
528
330
1F
100
AcDbEntity
  8
SK2
  6
CONTINUOUS
370
25
 62
7
100
AcDbLine
 10
-56.85951297079382
 20
23.59246060584123
 30
0.0
 11
-56.39
 21
23.12294763504742
 31
0.0
  0
LINE
  5
529
330
1F
100
AcDbEntity
  8
SK2
  6
CONTINUOUS
370
25
 62
7
100
AcDbLine
 10
-56.50595958020055
 20
23.66317128395989
 30
0.0
 11
-56.39
 21
23.54721170375934
 31
0.0
  0
LINE
  5
52A
330
1F
100
AcDbEntity
  8
SK2
  6
CONTINUOUS
370
25
 62
7
100
AcDbLine
 10
48.61
 20
22.6863632
 30
0.0
 11
43.61
 21
21.6863632
 31
0.0
  0
LINE
  5
52B
330
1F
100
AcDbEntity
  8
SK2
  6
CONTINUOUS
370
25
 62
7
100
AcDbLine
 10
43.61
 20
21.6863632
 30
0.0
 11
43.61
 21
23.6863632
 31
0.0
  0
LINE
  5
52C
330
1F
100
AcDbEntity
  8
SK2
  6
CONTINUOUS
370
25
 62
7
100
AcDbLine
 10
43.61
 20
23.6863632
 30
0.0
 11
48.61
 21
22.6863632
 31
0.0
  0
LINE
  5
52D
330
1F
100
AcDbEntity
  8
SK2
  6
CONTINUOUS
370
25
 62
7
100
AcDbLine
 10
48.11313306356699
 20
22.5869898127134
 30
0.0
 11
48.27875537571133
 21
22.75261212485774
 31
0.0
  0
LINE
  5
52E
330
1F
100
AcDbEntity
  8
SK2
  6
CONTINUOUS
370
25
 62
7
100
AcDbLine
 10
47.58280297767707
 20
22.48092379553541
 30
0.0
 11
47.92520198511804
 21
22.82332280297639
 31
0.0
  0
LINE
  5
52F
330
1F
100
AcDbEntity
  8
SK2
  6
CONTINUOUS
370
25
 62
7
100
AcDbLine
 10
47.05247289178716
 20
22.37485777835743
 30
0.0
 11
47.57164859452477
 21
22.89403348109504
 31
0.0
  0
LINE
  5
530
330
1F
100
AcDbEntity
  8
SK2
  6
CONTINUOUS
370
25
 62
7
100
AcDbLine
 10
46.52214280589725
 20
22.26879176117946
 30
0.0
 11
47.21809520393149
 21
22.96474415921369
 31
0.0
  0
LINE
  5
531
330
1F
100
AcDbEntity
  8
SK2
  6
CONTINUOUS
370
25
 62
7
100
AcDbLine
 10
45.99181272000733
 20
22.16272574400147
 30
0.0
 11
46.86454181333822
 21
23.03545483733236
 31
0.0
  0
LINE
  5
532
330
1F
100
AcDbEntity
  8
SK2
  6
CONTINUOUS
370
25
 62
7
100
AcDbLine
 10
45.46148263411742
 20
22.05665972682348
 30
0.0
 11
46.51098842274494
 21
23.106165515451
 31
0.0
  0
LINE
  5
533
330
1F
100
AcDbEntity
  8
SK2
  6
CONTINUOUS
370
25
 62
7
100
AcDbLine
 10
44.9311525482275
 20
21.9505937096455
 30
0.0
 11
46.15743503215166
 21
23.17687619356966
 31
0.0
  0
LINE
  5
534
330
1F
100
AcDbEntity
  8
SK2
  6
CONTINUOUS
370
25
 62
7
100
AcDbLine
 10
44.40082246233759
 20
21.84452769246752
 30
0.0
 11
45.80388164155839
 21
23.24758687168832
 31
0.0
  0
LINE
  5
535
330
1F
100
AcDbEntity
  8
SK2
  6
CONTINUOUS
370
25
 62
7
100
AcDbLine
 10
43.87049237644768
 20
21.73846167528954
 30
0.0
 11
45.45032825096511
 21
23.31829754980697
 31
0.0
  0
LINE
  5
536
330
1F
100
AcDbEntity
  8
SK2
  6
CONTINUOUS
370
25
 62
7
100
AcDbLine
 10
43.61
 20
21.90223336755379
 30
0.0
 11
45.09677486037184
 21
23.38900822792563
 31
0.0
  0
LINE
  5
537
330
1F
100
AcDbEntity
  8
SK2
  6
CONTINUOUS
370
25
 62
7
100
AcDbLine
 10
43.61
 20
22.32649743626572
 30
0.0
 11
44.74322146977855
 21
23.45971890604428
 31
0.0
  0
LINE
  5
538
330
1F
100
AcDbEntity
  8
SK2
  6
CONTINUOUS
370
25
 62
7
100
AcDbLine
 10
43.61
 20
22.75076150497765
 30
0.0
 11
44.38966807918528
 21
23.53042958416294
 31
0.0
  0
LINE
  5
539
330
1F
100
AcDbEntity
  8
SK2
  6
CONTINUOUS
370
25
 62
7
100
AcDbLine
 10
43.61
 20
23.17502557368958
 30
0.0
 11
44.03611468859201
 21
23.60114026228159
 31
0.0
  0
LINE
  5
53A
330
1F
100
AcDbEntity
  8
SK2
  6
CONTINUOUS
370
25
 62
7
100
AcDbLine
 10
43.61
 20
23.59928964240152
 30
0.0
 11
43.68256129799873
 21
23.67185094040025
 31
0.0
  0
LINE
  5
53B
330
1F
100
AcDbEntity
  8
SK2
  6
CONTINUOUS
370
25
 62
7
100
AcDbLine
 10
43.61
 20
21.726666581637
 30
0.0
 11
43.64358615136417
 21
21.69308043027283
 31
0.0
  0
LINE
  5
53C
330
1F
100
AcDbEntity
  8
SK2
  6
CONTINUOUS
370
25
 62
7
100
AcDbLine
 10
43.61
 20
22.15093065034893
 30
0.0
 11
43.99713954195744
 21
21.76379110839149
 31
0.0
  0
LINE
  5
53D
330
1F
100
AcDbEntity
  8
SK2
  6
CONTINUOUS
370
25
 62
7
100
AcDbLine
 10
43.61
 20
22.57519471906087
 30
0.0
 11
44.35069293255072
 21
21.83450178651015
 31
0.0
  0
LINE
  5
53E
330
1F
100
AcDbEntity
  8
SK2
  6
CONTINUOUS
370
25
 62
7
100
AcDbLine
 10
43.61
 20
22.99945878777279
 30
0.0
 11
44.70424632314399
 21
21.9052124646288
 31
0.0
  0
LINE
  5
53F
330
1F
100
AcDbEntity
  8
SK2
  6
CONTINUOUS
370
25
 62
7
100
AcDbLine
 10
43.61
 20
23.42372285648472
 30
0.0
 11
45.05779971373727
 21
21.97592314274745
 31
0.0
  0
LINE
  5
540
330
1F
100
AcDbEntity
  8
SK2
  6
CONTINUOUS
370
25
 62
7
100
AcDbLine
 10
43.81202965649583
 20
23.64595726870083
 30
0.0
 11
45.41135310433055
 21
22.04663382086611
 31
0.0
  0
LINE
  5
541
330
1F
100
AcDbEntity
  8
SK2
  6
CONTINUOUS
370
25
 62
7
100
AcDbLine
 10
44.34235974238573
 20
23.53989125152285
 30
0.0
 11
45.76490649492381
 21
22.11734449898476
 31
0.0
  0
LINE
  5
542
330
1F
100
AcDbEntity
  8
SK2
  6
CONTINUOUS
370
25
 62
7
100
AcDbLine
 10
44.87268982827565
 20
23.43382523434487
 30
0.0
 11
46.1184598855171
 21
22.18805517710341
 31
0.0
  0
LINE
  5
543
330
1F
100
AcDbEntity
  8
SK2
  6
CONTINUOUS
370
25
 62
7
100
AcDbLine
 10
45.40301991416557
 20
23.32775921716688
 30
0.0
 11
46.47201327611037
 21
22.25876585522207
 31
0.0
  0
LINE
  5
544
330
1F
100
AcDbEntity
  8
SK2
  6
CONTINUOUS
370
25
 62
7
100
AcDbLine
 10
45.93335000005547
 20
23.2216931999889
 30
0.0
 11
46.82556666670364
 21
22.32947653334072
 31
0.0
  0
LINE
  5
545
330
1F
100
AcDbEntity
  8
SK2
  6
CONTINUOUS
370
25
 62
7
100
AcDbLine
 10
46.46368008594538
 20
23.11562718281092
 30
0.0
 11
47.17912005729692
 21
22.40018721145938
 31
0.0
  0
LINE
  5
546
330
1F
100
AcDbEntity
  8
SK2
  6
CONTINUOUS
370
25
 62
7
100
AcDbLine
 10
46.99401017183531
 20
23.00956116563293
 30
0.0
 11
47.5326734478902
 21
22.47089788957803
 31
0.0
  0
LINE
  5
547
330
1F
100
AcDbEntity
  8
SK2
  6
CONTINUOUS
370
25
 62
7
100
AcDbLine
 10
47.52434025772521
 20
22.90349514845495
 30
0.0
 11
47.88622683848347
 21
22.54160856769669
 31
0.0
  0
LINE
  5
548
330
1F
100
AcDbEntity
  8
SK2
  6
CONTINUOUS
370
25
 62
7
100
AcDbLine
 10
48.05467034361513
 20
22.79742913127696
 30
0.0
 11
48.23978022907675
 21
22.61231924581534
 31
0.0
  0
LINE
  5
549
330
1F
100
AcDbEntity
  8
SK2
  6
CONTINUOUS
370
25
 62
7
100
AcDbLine
 10
48.58500042950504
 20
22.69136311409898
 30
0.0
 11
48.59333361967003
 21
22.683029923934
 31
0.0
  0
TEXT
  5
54A
330
1F
100
AcDbEntity
  8
SK2
  6
CONTINUOUS
370
25
 62
7
100
AcDbText
 10
-9.598333333333334
 20
23.6863632
 30
0.0
 40
3.5
  1
110
 72
     1
 11
-6.390000000000001
 21
23.6863632
 31
0.0
100
AcDbText
  0
LINE
  5
54B
330
1F
100
AcDbEntity
  8
2
  6
CONTINUOUS
370
25
 62
7
100
AcDbLine
 10
-0.0000000000000003
 20
0.0
 30
0.0
 11
0.0000000000000007
 21
16.6863632
 31
0.0
  0
LINE
  5
54C
330
1F
100
AcDbEntity
  8
2
  6
CONTINUOUS
370
25
 62
7
100
AcDbLine
 10
48.61
 20
16.6863632
 30
0.0
 11
48.61
 21
5.714999999999998
 31
0.0
  0
LINE
  5
54D
330
1F
100
AcDbEntity
  8
2
  6
CONTINUOUS
370
25
 62
7
100
AcDbLine
 10
0.0
 20
15.6863632
 30
0.0
 11
48.61
 21
15.6863632
 31
0.0
  0
LINE
  5
54E
330
1F
100
AcDbEntity
  8
2
  6
CONTINUOUS
370
25
 62
7
100
AcDbLine
 10
0.0
 20
15.6863632
 30
0.0
 11
5.0
 21
16.6863632
 31
0.0
  0
LINE
  5
54F
330
1F
100
AcDbEntity
  8
2
  6
CONTINUOUS
370
25
 62
7
100
AcDbLine
 10
5.0
 20
16.6863632
 30
0.0
 11
5.0
 21
14.6863632
 31
0.0
  0
LINE
  5
550
330
1F
100
AcDbEntity
  8
2
  6
CONTINUOUS
370
25
 62
7
100
AcDbLine
 10
5.0
 20
14.6863632
 30
0.0
 11
0.0
 21
15.6863632
 31
0.0
  0
LINE
  5
551
330
1F
100
AcDbEntity
  8
2
  6
CONTINUOUS
370
25
 62
7
100
AcDbLine
 10
4.940241349688037
 20
14.69831493006239
 30
0.0
 11
5.0
 21
14.75807358037435
 31
0.0
  0
LINE
  5
552
330
1F
100
AcDbEntity
  8
2
  6
CONTINUOUS
370
25
 62
7
100
AcDbLine
 10
4.586687959094763
 20
14.76902560818105
 30
0.0
 11
5.0
 21
15.18233764908628
 31
0.0
  0
LINE
  5
553
330
1F
100
AcDbEntity
  8
2
  6
CONTINUOUS
370
25
 62
7
100
AcDbLine
 10
4.23313456850149
 20
14.8397362862997
 30
0.0
 11
5.0
 21
15.60660171779821
 31
0.0
  0
LINE
  5
554
330
1F
100
AcDbEntity
  8
2
  6
CONTINUOUS
370
25
 62
7
100
AcDbLine
 10
3.879581177908217
 20
14.91044696441836
 30
0.0
 11
5.0
 21
16.03086578651014
 31
0.0
  0
LINE
  5
555
330
1F
100
AcDbEntity
  8
2
  6
CONTINUOUS
370
25
 62
7
100
AcDbLine
 10
3.526027787314944
 20
14.98115764253701
 30
0.0
 11
5.0
 21
16.45512985522207
 31
0.0
  0
LINE
  5
556
330
1F
100
AcDbEntity
  8
2
  6
CONTINUOUS
370
25
 62
7
100
AcDbLine
 10
3.17247439672167
 20
15.05186832065566
 30
0.0
 11
4.758711595082506
 21
16.6381055190165
 31
0.0
  0
LINE
  5
557
330
1F
100
AcDbEntity
  8
2
  6
CONTINUOUS
370
25
 62
7
100
AcDbLine
 10
2.818921006128396
 20
15.12257899877432
 30
0.0
 11
4.228381509192595
 21
16.53203950183852
 31
0.0
  0
LINE
  5
558
330
1F
100
AcDbEntity
  8
2
  6
CONTINUOUS
370
25
 62
7
100
AcDbLine
 10
2.465367615535123
 20
15.19328967689297
 30
0.0
 11
3.698051423302686
 21
16.42597348466053
 31
0.0
  0
LINE
  5
559
330
1F
100
AcDbEntity
  8
2
  6
CONTINUOUS
370
25
 62
7
100
AcDbLine
 10
2.11181422494185
 20
15.26400035501163
 30
0.0
 11
3.167721337412776
 21
16.31990746748255
 31
0.0
  0
LINE
  5
55A
330
1F
100
AcDbEntity
  8
2
  6
CONTINUOUS
370
25
 62
7
100
AcDbLine
 10
1.758260834348577
 20
15.33471103313028
 30
0.0
 11
2.637391251522867
 21
16.21384145030457
 31
0.0
  0
LINE
  5
55B
330
1F
100
AcDbEntity
  8
2
  6
CONTINUOUS
370
25
 62
7
100
AcDbLine
 10
1.404707443755304
 20
15.40542171124894
 30
0.0
 11
2.107061165632957
 21
16.10777543312659
 31
0.0
  0
LINE
  5
55C
330
1F
100
AcDbEntity
  8
2
  6
CONTINUOUS
370
25
 62
7
100
AcDbLine
 10
1.051154053162031
 20
15.47613238936759
 30
0.0
 11
1.576731079743047
 21
16.00170941594861
 31
0.0
  0
LINE
  5
55D
330
1F
100
AcDbEntity
  8
2
  6
CONTINUOUS
370
25
 62
7
100
AcDbLine
 10
0.6976006625687577
 20
15.54684306748625
 30
0.0
 11
1.046400993853137
 21
15.89564339877063
 31
0.0
  0
LINE
  5
55E
330
1F
100
AcDbEntity
  8
2
  6
CONTINUOUS
370
25
 62
7
100
AcDbLine
 10
0.3440472719754845
 20
15.6175537456049
 30
0.0
 11
0.516070907963227
 21
15.78957738159265
 31
0.0
  0
LINE
  5
55F
330
1F
100
AcDbEntity
  8
2
  6
CONTINUOUS
370
25
 62
7
100
AcDbLine
 10
0.009506118617777
 20
15.68826442372355
 30
0.0
 11
0.0142591779266654
 21
15.68351136441466
 31
0.0
  0
LINE
  5
560
330
1F
100
AcDbEntity
  8
2
  6
CONTINUOUS
370
25
 62
7
100
AcDbLine
 10
0.3630595092110503
 20
15.75897510184221
 30
0.0
 11
0.5445892638165758
 21
15.57744534723668
 31
0.0
  0
LINE
  5
561
330
1F
100
AcDbEntity
  8
2
  6
CONTINUOUS
370
25
 62
7
100
AcDbLine
 10
0.7166128998043236
 20
15.82968577996086
 30
0.0
 11
1.074919349706486
 21
15.4713793300587
 31
0.0
  0
LINE
  5
562
330
1F
100
AcDbEntity
  8
2
  6
CONTINUOUS
370
25
 62
7
100
AcDbLine
 10
1.070166290397597
 20
15.90039645807952
 30
0.0
 11
1.605249435596396
 21
15.36531331288072
 31
0.0
  0
LINE
  5
563
330
1F
100
AcDbEntity
  8
2
  6
CONTINUOUS
370
25
 62
7
100
AcDbLine
 10
1.42371968099087
 20
15.97110713619817
 30
0.0
 11
2.135579521486306
 21
15.25924729570274
 31
0.0
  0
LINE
  5
564
330
1F
100
AcDbEntity
  8
2
  6
CONTINUOUS
370
25
 62
7
100
AcDbLine
 10
1.777273071584143
 20
16.04181781431683
 30
0.0
 11
2.665909607376216
 21
15.15318127852476
 31
0.0
  0
LINE
  5
565
330
1F
100
AcDbEntity
  8
2
  6
CONTINUOUS
370
25
 62
7
100
AcDbLine
 10
2.130826462177417
 20
16.11252849243548
 30
0.0
 11
3.196239693266127
 21
15.04711526134677
 31
0.0
  0
LINE
  5
566
330
1F
100
AcDbEntity
  8
2
  6
CONTINUOUS
370
25
 62
7
100
AcDbLine
 10
2.48437985277069
 20
16.18323917055414
 30
0.0
 11
3.726569779156037
 21
14.94104924416879
 31
0.0
  0
LINE
  5
567
330
1F
100
AcDbEntity
  8
2
  6
CONTINUOUS
370
25
 62
7
100
AcDbLine
 10
2.837933243363963
 20
16.25394984867279
 30
0.0
 11
4.256899865045947
 21
14.83498322699081
 31
0.0
  0
LINE
  5
568
330
1F
100
AcDbEntity
  8
2
  6
CONTINUOUS
370
25
 62
7
100
AcDbLine
 10
3.191486633957236
 20
16.32466052679145
 30
0.0
 11
4.787229950935857
 21
14.72891720981283
 31
0.0
  0
LINE
  5
569
330
1F
100
AcDbEntity
  8
2
  6
CONTINUOUS
370
25
 62
7
100
AcDbLine
 10
3.54504002455051
 20
16.3953712049101
 30
0.0
 11
5.0
 21
14.94041122946061
 31
0.0
  0
LINE
  5
56A
330
1F
100
AcDbEntity
  8
2
  6
CONTINUOUS
370
25
 62
7
100
AcDbLine
 10
3.898593415143782
 20
16.46608188302876
 30
0.0
 11
5.0
 21
15.36467529817254
 31
0.0
  0
LINE
  5
56B
330
1F
100
AcDbEntity
  8
2
  6
CONTINUOUS
370
25
 62
7
100
AcDbLine
 10
4.252146805737056
 20
16.53679256114741
 30
0.0
 11
5.0
 21
15.78893936688447
 31
0.0
  0
LINE
  5
56C
330
1F
100
AcDbEntity
  8
2
  6
CONTINUOUS
370
25
 62
7
100
AcDbLine
 10
4.605700196330331
 20
16.60750323926607
 30
0.0
 11
5.0
 21
16.2132034355964
 31
0.0
  0
LINE
  5
56D
330
1F
100
AcDbEntity
  8
2
  6
CONTINUOUS
370
25
 62
7
100
AcDbLine
 10
4.959253586923605
 20
16.67821391738472
 30
0.0
 11
5.0
 21
16.63746750430833
 31
0.0
  0
LINE
  5
56E
330
1F
100
AcDbEntity
  8
2
  6
CONTINUOUS
370
25
 62
7
100
AcDbLine
 10
48.61
 20
15.6863632
 30
0.0
 11
43.61
 21
14.6863632
 31
0.0
  0
LINE
  5
56F
330
1F
100
AcDbEntity
  8
2
  6
CONTINUOUS
370
25
 62
7
100
AcDbLine
 10
43.61
 20
14.6863632
 30
0.0
 11
43.61
 21
16.6863632
 31
0.0
  0
LINE
  5
570
330
1F
100
AcDbEntity
  8
2
  6
CONTINUOUS
370
25
 62
7
100
AcDbLine
 10
43.61
 20
16.6863632
 30
0.0
 11
48.61
 21
15.6863632
 31
0.0
  0
LINE
  5
571
330
1F
100
AcDbEntity
  8
2
  6
CONTINUOUS
370
25
 62
7
100
AcDbLine
 10
48.37785168932852
 20
15.6399335378657
 30
0.0
 11
48.45523445955235
 21
15.71731630808953
 31
0.0
  0
LINE
  5
572
330
1F
100
AcDbEntity
  8
2
  6
CONTINUOUS
370
25
 62
7
100
AcDbLine
 10
47.84752160343861
 20
15.53386752068772
 30
0.0
 11
48.10168106895907
 21
15.78802698620818
 31
0.0
  0
LINE
  5
573
330
1F
100
AcDbEntity
  8
2
  6
CONTINUOUS
370
25
 62
7
100
AcDbLine
 10
47.3171915175487
 20
15.42780150350974
 30
0.0
 11
47.74812767836579
 21
15.85873766432683
 31
0.0
  0
LINE
  5
574
330
1F
100
AcDbEntity
  8
2
  6
CONTINUOUS
370
25
 62
7
100
AcDbLine
 10
46.78686143165879
 20
15.32173548633176
 30
0.0
 11
47.39457428777251
 21
15.92944834244549
 31
0.0
  0
LINE
  5
575
330
1F
100
AcDbEntity
  8
2
  6
CONTINUOUS
370
25
 62
7
100
AcDbLine
 10
46.25653134576887
 20
15.21566946915378
 30
0.0
 11
47.04102089717924
 21
16.00015902056415
 31
0.0
  0
LINE
  5
576
330
1F
100
AcDbEntity
  8
2
  6
CONTINUOUS
370
25
 62
7
100
AcDbLine
 10
45.72620125987895
 20
15.10960345197579
 30
0.0
 11
46.68746750658596
 21
16.0708696986828
 31
0.0
  0
LINE
  5
577
330
1F
100
AcDbEntity
  8
2
  6
CONTINUOUS
370
25
 62
7
100
AcDbLine
 10
45.19587117398904
 20
15.00353743479781
 30
0.0
 11
46.33391411599268
 21
16.14158037680145
 31
0.0
  0
LINE
  5
578
330
1F
100
AcDbEntity
  8
2
  6
CONTINUOUS
370
25
 62
7
100
AcDbLine
 10
44.66554108809913
 20
14.89747141761983
 30
0.0
 11
45.98036072539941
 21
16.21229105492012
 31
0.0
  0
LINE
  5
579
330
1F
100
AcDbEntity
  8
2
  6
CONTINUOUS
370
25
 62
7
100
AcDbLine
 10
44.13521100220921
 20
14.79140540044184
 30
0.0
 11
45.62680733480614
 21
16.28300173303877
 31
0.0
  0
LINE
  5
57A
330
1F
100
AcDbEntity
  8
2
  6
CONTINUOUS
370
25
 62
7
100
AcDbLine
 10
43.61
 20
14.69045846694456
 30
0.0
 11
45.27325394421286
 21
16.35371241115742
 31
0.0
  0
LINE
  5
57B
330
1F
100
AcDbEntity
  8
2
  6
CONTINUOUS
370
25
 62
7
100
AcDbLine
 10
43.61
 20
15.11472253565649
 30
0.0
 11
44.91970055361958
 21
16.42442308927607
 31
0.0
  0
LINE
  5
57C
330
1F
100
AcDbEntity
  8
2
  6
CONTINUOUS
370
25
 62
7
100
AcDbLine
 10
43.61
 20
15.53898660436843
 30
0.0
 11
44.56614716302631
 21
16.49513376739473
 31
0.0
  0
LINE
  5
57D
330
1F
100
AcDbEntity
  8
2
  6
CONTINUOUS
370
25
 62
7
100
AcDbLine
 10
43.61
 20
15.96325067308036
 30
0.0
 11
44.21259377243303
 21
16.56584444551339
 31
0.0
  0
LINE
  5
57E
330
1F
100
AcDbEntity
  8
2
  6
CONTINUOUS
370
25
 62
7
100
AcDbLine
 10
43.61
 20
16.38751474179229
 30
0.0
 11
43.85904038183975
 21
16.63655512363204
 31
0.0
  0
LINE
  5
57F
330
1F
100
AcDbEntity
  8
2
  6
CONTINUOUS
370
25
 62
7
100
AcDbLine
 10
43.61
 20
14.93844148224614
 30
0.0
 11
43.82006523520512
 21
14.72837624704102
 31
0.0
  0
LINE
  5
580
330
1F
100
AcDbEntity
  8
2
  6
CONTINUOUS
370
25
 62
7
100
AcDbLine
 10
43.61
 20
15.36270555095808
 30
0.0
 11
44.1736186257984
 21
14.79908692515968
 31
0.0
  0
LINE
  5
581
330
1F
100
AcDbEntity
  8
2
  6
CONTINUOUS
370
25
 62
7
100
AcDbLine
 10
43.61
 20
15.78696961967001
 30
0.0
 11
44.52717201639167
 21
14.86979760327834
 31
0.0
  0
LINE
  5
582
330
1F
100
AcDbEntity
  8
2
  6
CONTINUOUS
370
25
 62
7
100
AcDbLine
 10
43.61
 20
16.21123368838194
 30
0.0
 11
44.88072540698494
 21
14.94050828139699
 31
0.0
  0
LINE
  5
583
330
1F
100
AcDbEntity
  8
2
  6
CONTINUOUS
370
25
 62
7
100
AcDbLine
 10
43.61
 20
16.63549775709387
 30
0.0
 11
45.23427879757822
 21
15.01121895951565
 31
0.0
  0
LINE
  5
584
330
1F
100
AcDbEntity
  8
2
  6
CONTINUOUS
370
25
 62
7
100
AcDbLine
 10
44.07674828225726
 20
16.59301354354854
 30
0.0
 11
45.5878321881715
 21
15.0819296376343
 31
0.0
  0
LINE
  5
585
330
1F
100
AcDbEntity
  8
2
  6
CONTINUOUS
370
25
 62
7
100
AcDbLine
 10
44.60707836814716
 20
16.48694752637056
 30
0.0
 11
45.94138557876477
 21
15.15264031575295
 31
0.0
  0
LINE
  5
586
330
1F
100
AcDbEntity
  8
2
  6
CONTINUOUS
370
25
 62
7
100
AcDbLine
 10
45.13740845403708
 20
16.38088150919258
 30
0.0
 11
46.29493896935805
 21
15.22335099387161
 31
0.0
  0
LINE
  5
587
330
1F
100
AcDbEntity
  8
2
  6
CONTINUOUS
370
25
 62
7
100
AcDbLine
 10
45.66773853992699
 20
16.2748154920146
 30
0.0
 11
46.64849235995133
 21
15.29406167199026
 31
0.0
  0
LINE
  5
588
330
1F
100
AcDbEntity
  8
2
  6
CONTINUOUS
370
25
 62
7
100
AcDbLine
 10
46.19806862581691
 20
16.16874947483661
 30
0.0
 11
47.0020457505446
 21
15.36477235010892
 31
0.0
  0
LINE
  5
589
330
1F
100
AcDbEntity
  8
2
  6
CONTINUOUS
370
25
 62
7
100
AcDbLine
 10
46.72839871170682
 20
16.06268345765863
 30
0.0
 11
47.35559914113787
 21
15.43548302822757
 31
0.0
  0
LINE
  5
58A
330
1F
100
AcDbEntity
  8
2
  6
CONTINUOUS
370
25
 62
7
100
AcDbLine
 10
47.25872879759674
 20
15.95661744048064
 30
0.0
 11
47.70915253173116
 21
15.50619370634622
 31
0.0
  0
LINE
  5
58B
330
1F
100
AcDbEntity
  8
2
  6
CONTINUOUS
370
25
 62
7
100
AcDbLine
 10
47.78905888348665
 20
15.85055142330266
 30
0.0
 11
48.06270592232443
 21
15.57690438446488
 31
0.0
  0
LINE
  5
58C
330
1F
100
AcDbEntity
  8
2
  6
CONTINUOUS
370
25
 62
7
100
AcDbLine
 10
48.31938896937655
 20
15.74448540612468
 30
0.0
 11
48.4162593129177
 21
15.64761506258353
 31
0.0
  0
TEXT
  5
58D
330
1F
100
AcDbEntity
  8
2
  6
CONTINUOUS
370
25
 62
7
100
AcDbText
 10
17.88833333333334
 20
16.6863632
 30
0.0
 40
3.5
  1
48.61
 72
     1
 11
24.305
 21
16.6863632
 31
0.0
100
AcDbText
  0
LINE
  5
58E
330
1F
100
AcDbEntity
  8
2
  6
CONTINUOUS
370
25
 62
7
100
AcDbLine
 10
3.61
 20
-5.715
 30
0.0
 11
3.609999999999999
 21
-16.6863632
 31
0.0
  0
LINE
  5
58F
330
1F
100
AcDbEntity
  8
2
  6
CONTINUOUS
370
25
 62
7
100
AcDbLine
 10
48.61
 20
-16.6863632
 30
0.0
 11
48.61
 21
-5.715000000000002
 31
0.0
  0
LINE
  5
590
330
1F
100
AcDbEntity
  8
2
  6
CONTINUOUS
370
25
 62
7
100
AcDbLine
 10
3.609999999999999
 20
-15.6863632
 30
0.0
 11
48.61
 21
-15.6863632
 31
0.0
  0
LINE
  5
591
330
1F
100
AcDbEntity
  8
2
  6
CONTINUOUS
370
25
 62
7
100
AcDbLine
 10
3.609999999999999
 20
-15.6863632
 30
0.0
 11
8.61
 21
-14.6863632
 31
0.0
  0
LINE
  5
592
330
1F
100
AcDbEntity
  8
2
  6
CONTINUOUS
370
25
 62
7
100
AcDbLine
 10
8.61
 20
-14.6863632
 30
0.0
 11
8.61
 21
-16.6863632
 31
0.0
  0
LINE
  5
593
330
1F
100
AcDbEntity
  8
2
  6
CONTINUOUS
370
25
 62
7
100
AcDbLine
 10
8.61
 20
-16.6863632
 30
0.0
 11
3.609999999999999
 21
-15.6863632
 31
0.0
  0
LINE
  5
594
330
1F
100
AcDbEntity
  8
2
  6
CONTINUOUS
370
25
 62
7
100
AcDbLine
 10
8.564234443197607
 20
-16.67721008863952
 30
0.0
 11
8.61
 21
-16.63144453183713
 31
0.0
  0
LINE
  5
595
330
1F
100
AcDbEntity
  8
2
  6
CONTINUOUS
370
25
 62
7
100
AcDbLine
 10
8.210681052604334
 20
-16.60649941052087
 30
0.0
 11
8.61
 21
-16.2071804631252
 31
0.0
  0
LINE
  5
596
330
1F
100
AcDbEntity
  8
2
  6
CONTINUOUS
370
25
 62
7
100
AcDbLine
 10
7.85712766201106
 20
-16.53578873240221
 30
0.0
 11
8.61
 21
-15.78291639441328
 31
0.0
  0
LINE
  5
597
330
1F
100
AcDbEntity
  8
2
  6
CONTINUOUS
370
25
 62
7
100
AcDbLine
 10
7.503574271417787
 20
-16.46507805428356
 30
0.0
 11
8.61
 21
-15.35865232570135
 31
0.0
  0
LINE
  5
598
330
1F
100
AcDbEntity
  8
2
  6
CONTINUOUS
370
25
 62
7
100
AcDbLine
 10
7.150020880824514
 20
-16.39436737616491
 30
0.0
 11
8.61
 21
-14.93438825698942
 31
0.0
  0
LINE
  5
599
330
1F
100
AcDbEntity
  8
2
  6
CONTINUOUS
370
25
 62
7
100
AcDbLine
 10
6.796467490231241
 20
-16.32365669804625
 30
0.0
 11
8.389701235346863
 21
-14.73042295293063
 31
0.0
  0
LINE
  5
59A
330
1F
100
AcDbEntity
  8
2
  6
CONTINUOUS
370
25
 62
7
100
AcDbLine
 10
6.442914099637968
 20
-16.2529460199276
 30
0.0
 11
7.859371149456952
 21
-14.83648897010861
 31
0.0
  0
LINE
  5
59B
330
1F
100
AcDbEntity
  8
2
  6
CONTINUOUS
370
25
 62
7
100
AcDbLine
 10
6.089360709044695
 20
-16.18223534180894
 30
0.0
 11
7.329041063567042
 21
-14.9425549872866
 31
0.0
  0
LINE
  5
59C
330
1F
100
AcDbEntity
  8
2
  6
CONTINUOUS
370
25
 62
7
100
AcDbLine
 10
5.735807318451419
 20
-16.11152466369029
 30
0.0
 11
6.79871097767713
 21
-15.04862100446458
 31
0.0
  0
LINE
  5
59D
330
1F
100
AcDbEntity
  8
2
  6
CONTINUOUS
370
25
 62
7
100
AcDbLine
 10
5.382253927858146
 20
-16.04081398557163
 30
0.0
 11
6.26838089178722
 21
-15.15468702164256
 31
0.0
  0
LINE
  5
59E
330
1F
100
AcDbEntity
  8
2
  6
CONTINUOUS
370
25
 62
7
100
AcDbLine
 10
5.028700537264873
 20
-15.97010330745298
 30
0.0
 11
5.73805080589731
 21
-15.26075303882054
 31
0.0
  0
LINE
  5
59F
330
1F
100
AcDbEntity
  8
2
  6
CONTINUOUS
370
25
 62
7
100
AcDbLine
 10
4.675147146671601
 20
-15.89939262933432
 30
0.0
 11
5.207720720007401
 21
-15.36681905599852
 31
0.0
  0
LINE
  5
5A0
330
1F
100
AcDbEntity
  8
2
  6
CONTINUOUS
370
25
 62
7
100
AcDbLine
 10
4.321593756078328
 20
-15.82868195121567
 30
0.0
 11
4.677390634117492
 21
-15.4728850731765
 31
0.0
  0
LINE
  5
5A1
330
1F
100
AcDbEntity
  8
2
  6
CONTINUOUS
370
25
 62
7
100
AcDbLine
 10
3.968040365485054
 20
-15.75797127309701
 30
0.0
 11
4.147060548227581
 21
-15.57895109035449
 31
0.0
  0
LINE
  5
5A2
330
1F
100
AcDbEntity
  8
2
  6
CONTINUOUS
370
25
 62
7
100
AcDbLine
 10
3.614486974891781
 20
-15.68726059497836
 30
0.0
 11
3.616730462337671
 21
-15.68501710753247
 31
0.0
  0
LINE
  5
5A3
330
1F
100
AcDbEntity
  8
2
  6
CONTINUOUS
370
25
 62
7
100
AcDbLine
 10
3.813377401377246
 20
-15.64568771972455
 30
0.0
 11
3.915066102065868
 21
-15.74737642041318
 31
0.0
  0
LINE
  5
5A4
330
1F
100
AcDbEntity
  8
2
  6
CONTINUOUS
370
25
 62
7
100
AcDbLine
 10
4.166930791970519
 20
-15.5749770416059
 30
0.0
 11
4.445396187955779
 21
-15.85344243759116
 31
0.0
  0
LINE
  5
5A5
330
1F
100
AcDbEntity
  8
2
  6
CONTINUOUS
370
25
 62
7
100
AcDbLine
 10
4.520484182563792
 20
-15.50426636348725
 30
0.0
 11
4.975726273845688
 21
-15.95950845476914
 31
0.0
  0
LINE
  5
5A6
330
1F
100
AcDbEntity
  8
2
  6
CONTINUOUS
370
25
 62
7
100
AcDbLine
 10
4.874037573157065
 20
-15.43355568536859
 30
0.0
 11
5.506056359735599
 21
-16.06557447194712
 31
0.0
  0
LINE
  5
5A7
330
1F
100
AcDbEntity
  8
2
  6
CONTINUOUS
370
25
 62
7
100
AcDbLine
 10
5.227590963750339
 20
-15.36284500724994
 30
0.0
 11
6.036386445625509
 21
-16.1716404891251
 31
0.0
  0
LINE
  5
5A8
330
1F
100
AcDbEntity
  8
2
  6
CONTINUOUS
370
25
 62
7
100
AcDbLine
 10
5.581144354343612
 20
-15.29213432913128
 30
0.0
 11
6.56671653151542
 21
-16.27770650630309
 31
0.0
  0
LINE
  5
5A9
330
1F
100
AcDbEntity
  8
2
  6
CONTINUOUS
370
25
 62
7
100
AcDbLine
 10
5.934697744936885
 20
-15.22142365101262
 30
0.0
 11
7.09704661740533
 21
-16.38377252348107
 31
0.0
  0
LINE
  5
5AA
330
1F
100
AcDbEntity
  8
2
  6
CONTINUOUS
370
25
 62
7
100
AcDbLine
 10
6.288251135530159
 20
-15.15071297289397
 30
0.0
 11
7.62737670329524
 21
-16.48983854065905
 31
0.0
  0
LINE
  5
5AB
330
1F
100
AcDbEntity
  8
2
  6
CONTINUOUS
370
25
 62
7
100
AcDbLine
 10
6.641804526123432
 20
-15.08000229477532
 30
0.0
 11
8.15770678918515
 21
-16.59590455783703
 31
0.0
  0
LINE
  5
5AC
330
1F
100
AcDbEntity
  8
2
  6
CONTINUOUS
370
25
 62
7
100
AcDbLine
 10
6.995357916716705
 20
-15.00929161665666
 30
0.0
 11
8.61
 21
-16.62393369993995
 31
0.0
  0
LINE
  5
5AD
330
1F
100
AcDbEntity
  8
2
  6
CONTINUOUS
370
25
 62
7
100
AcDbLine
 10
7.348911307309979
 20
-14.93858093853801
 30
0.0
 11
8.61
 21
-16.19966963122803
 31
0.0
  0
LINE
  5
5AE
330
1F
100
AcDbEntity
  8
2
  6
CONTINUOUS
370
25
 62
7
100
AcDbLine
 10
7.702464697903252
 20
-14.86787026041935
 30
0.0
 11
8.61
 21
-15.7754055625161
 31
0.0
  0
LINE
  5
5AF
330
1F
100
AcDbEntity
  8
2
  6
CONTINUOUS
370
25
 62
7
100
AcDbLine
 10
8.056018088496526
 20
-14.7971595823007
 30
0.0
 11
8.61
 21
-15.35114149380417
 31
0.0
  0
LINE
  5
5B0
330
1F
100
AcDbEntity
  8
2
  6
CONTINUOUS
370
25
 62
7
100
AcDbLine
 10
8.409571479089799
 20
-14.72644890418204
 30
0.0
 11
8.61
 21
-14.92687742509224
 31
0.0
  0
LINE
  5
5B1
330
1F
100
AcDbEntity
  8
2
  6
CONTINUOUS
370
25
 62
7
100
AcDbLine
 10
48.61
 20
-15.6863632
 30
0.0
 11
43.61
 21
-16.6863632
 31
0.0
  0
LINE
  5
5B2
330
1F
100
AcDbEntity
  8
2
  6
CONTINUOUS
370
25
 62
7
100
AcDbLine
 10
43.61
 20
-16.6863632
 30
0.0
 11
43.61
 21
-14.6863632
 31
0.0
  0
LINE
  5
5B3
330
1F
100
AcDbEntity
  8
2
  6
CONTINUOUS
370
25
 62
7
100
AcDbLine
 10
43.61
 20
-14.6863632
 30
0.0
 11
48.61
 21
-15.6863632
 31
0.0
  0
LINE
  5
5B4
330
1F
100
AcDbEntity
  8
2
  6
CONTINUOUS
370
25
 62
7
100
AcDbLine
 10
48.34933333347505
 20
-15.73849653330499
 30
0.0
 11
48.43622222231669
 21
-15.65160764446335
 31
0.0
  0
LINE
  5
5B5
330
1F
100
AcDbEntity
  8
2
  6
CONTINUOUS
370
25
 62
7
100
AcDbLine
 10
47.81900324758513
 20
-15.84456255048298
 30
0.0
 11
48.08266883172342
 21
-15.58089696634469
 31
0.0
  0
LINE
  5
5B6
330
1F
100
AcDbEntity
  8
2
  6
CONTINUOUS
370
25
 62
7
100
AcDbLine
 10
47.28867316169522
 20
-15.95062856766096
 30
0.0
 11
47.72911544113014
 21
-15.51018628822604
 31
0.0
  0
LINE
  5
5B7
330
1F
100
AcDbEntity
  8
2
  6
CONTINUOUS
370
25
 62
7
100
AcDbLine
 10
46.75834307580531
 20
-16.05669458483894
 30
0.0
 11
47.37556205053687
 21
-15.43947561010738
 31
0.0
  0
LINE
  5
5B8
330
1F
100
AcDbEntity
  8
2
  6
CONTINUOUS
370
25
 62
7
100
AcDbLine
 10
46.22801298991539
 20
-16.16276060201692
 30
0.0
 11
47.02200865994359
 21
-15.36876493198872
 31
0.0
  0
LINE
  5
5B9
330
1F
100
AcDbEntity
  8
2
  6
CONTINUOUS
370
25
 62
7
100
AcDbLine
 10
45.69768290402547
 20
-16.26882661919491
 30
0.0
 11
46.66845526935031
 21
-15.29805425387007
 31
0.0
  0
LINE
  5
5BA
330
1F
100
AcDbEntity
  8
2
  6
CONTINUOUS
370
25
 62
7
100
AcDbLine
 10
45.16735281813556
 20
-16.37489263637289
 30
0.0
 11
46.31490187875704
 21
-15.22734357575141
 31
0.0
  0
LINE
  5
5BB
330
1F
100
AcDbEntity
  8
2
  6
CONTINUOUS
370
25
 62
7
100
AcDbLine
 10
44.63702273224565
 20
-16.48095865355086
 30
0.0
 11
45.96134848816376
 21
-15.15663289763276
 31
0.0
  0
LINE
  5
5BC
330
1F
100
AcDbEntity
  8
2
  6
CONTINUOUS
370
25
 62
7
100
AcDbLine
 10
44.10669264635573
 20
-16.58702467072885
 30
0.0
 11
45.60779509757049
 21
-15.0859222195141
 31
0.0
  0
LINE
  5
5BD
330
1F
100
AcDbEntity
  8
2
  6
CONTINUOUS
370
25
 62
7
100
AcDbLine
 10
43.61
 20
-16.65945324837265
 30
0.0
 11
45.2542417069772
 21
-15.01521154139545
 31
0.0
  0
LINE
  5
5BE
330
1F
100
AcDbEntity
  8
2
  6
CONTINUOUS
370
25
 62
7
100
AcDbLine
 10
43.61
 20
-16.23518917966072
 30
0.0
 11
44.90068831638393
 21
-14.94450086327679
 31
0.0
  0
LINE
  5
5BF
330
1F
100
AcDbEntity
  8
2
  6
CONTINUOUS
370
25
 62
7
100
AcDbLine
 10
43.61
 20
-15.81092511094879
 30
0.0
 11
44.54713492579066
 21
-14.87379018515814
 31
0.0
  0
LINE
  5
5C0
330
1F
100
AcDbEntity
  8
2
  6
CONTINUOUS
370
25
 62
7
100
AcDbLine
 10
43.61
 20
-15.38666104223686
 30
0.0
 11
44.19358153519738
 21
-14.80307950703948
 31
0.0
  0
LINE
  5
5C1
330
1F
100
AcDbEntity
  8
2
  6
CONTINUOUS
370
25
 62
7
100
AcDbLine
 10
43.61
 20
-14.96239697352492
 30
0.0
 11
43.8400281446041
 21
-14.73236882892082
 31
0.0
  0
LINE
  5
5C2
330
1F
100
AcDbEntity
  8
2
  6
CONTINUOUS
370
25
 62
7
100
AcDbLine
 10
43.61
 20
-16.45709960243656
 30
0.0
 11
43.80105299796953
 21
-16.64815260040609
 31
0.0
  0
LINE
  5
5C3
330
1F
100
AcDbEntity
  8
2
  6
CONTINUOUS
370
25
 62
7
100
AcDbLine
 10
43.61
 20
-16.03283553372463
 30
0.0
 11
44.1546063885628
 21
-16.57744192228744
 31
0.0
  0
LINE
  5
5C4
330
1F
100
AcDbEntity
  8
2
  6
CONTINUOUS
370
25
 62
7
100
AcDbLine
 10
43.61
 20
-15.6085714650127
 30
0.0
 11
44.50815977915608
 21
-16.50673124416878
 31
0.0
  0
LINE
  5
5C5
330
1F
100
AcDbEntity
  8
2
  6
CONTINUOUS
370
25
 62
7
100
AcDbLine
 10
43.61
 20
-15.18430739630077
 30
0.0
 11
44.86171316974936
 21
-16.43602056605013
 31
0.0
  0
LINE
  5
5C6
330
1F
100
AcDbEntity
  8
2
  6
CONTINUOUS
370
25
 62
7
100
AcDbLine
 10
43.61
 20
-14.76004332758884
 30
0.0
 11
45.21526656034263
 21
-16.36530988793147
 31
0.0
  0
LINE
  5
5C7
330
1F
100
AcDbEntity
  8
2
  6
CONTINUOUS
370
25
 62
7
100
AcDbLine
 10
44.04822992640387
 20
-14.77400918528078
 30
0.0
 11
45.5688199509359
 21
-16.29459920981281
 31
0.0
  0
LINE
  5
5C8
330
1F
100
AcDbEntity
  8
2
  6
CONTINUOUS
370
25
 62
7
100
AcDbLine
 10
44.57856001229379
 20
-14.88007520245876
 30
0.0
 11
45.92237334152919
 21
-16.22388853169416
 31
0.0
  0
LINE
  5
5C9
330
1F
100
AcDbEntity
  8
2
  6
CONTINUOUS
370
25
 62
7
100
AcDbLine
 10
45.10889009818369
 20
-14.98614121963675
 30
0.0
 11
46.27592673212246
 21
-16.15317785357551
 31
0.0
  0
LINE
  5
5CA
330
1F
100
AcDbEntity
  8
2
  6
CONTINUOUS
370
25
 62
7
100
AcDbLine
 10
45.6392201840736
 20
-15.09220723681472
 30
0.0
 11
46.62948012271573
 21
-16.08246717545686
 31
0.0
  0
LINE
  5
5CB
330
1F
100
AcDbEntity
  8
2
  6
CONTINUOUS
370
25
 62
7
100
AcDbLine
 10
46.16955026996352
 20
-15.19827325399271
 30
0.0
 11
46.98303351330901
 21
-16.0117564973382
 31
0.0
  0
LINE
  5
5CC
330
1F
100
AcDbEntity
  8
2
  6
CONTINUOUS
370
25
 62
7
100
AcDbLine
 10
46.69988035585343
 20
-15.30433927117069
 30
0.0
 11
47.33658690390229
 21
-15.94104581921955
 31
0.0
  0
LINE
  5
5CD
330
1F
100
AcDbEntity
  8
2
  6
CONTINUOUS
370
25
 62
7
100
AcDbLine
 10
47.23021044174335
 20
-15.41040528834868
 30
0.0
 11
47.69014029449556
 21
-15.87033514110088
 31
0.0
  0
LINE
  5
5CE
330
1F
100
AcDbEntity
  8
2
  6
CONTINUOUS
370
25
 62
7
100
AcDbLine
 10
47.76054052763326
 20
-15.51647130552666
 30
0.0
 11
48.04369368508884
 21
-15.79962446298224
 31
0.0
  0
LINE
  5
5CF
330
1F
100
AcDbEntity
  8
2
  6
CONTINUOUS
370
25
 62
7
100
AcDbLine
 10
48.29087061352317
 20
-15.62253732270464
 30
0.0
 11
48.39724707568211
 21
-15.72891378486358
 31
0.0
  0
TEXT
  5
5D0
330
1F
100
AcDbEntity
  8
2
  6
CONTINUOUS
370
25
 62
7
100
AcDbText
 10
23.19333333333333
 20
-14.6863632
 30
0.0
 40
3.5
  1
45
 72
     1
 11
26.11
 21
-14.6863632
 31
0.0
100
AcDbText
  0
LINE
  5
5D1
330
1F
100
AcDbEntity
  8
4
  6
LONGDASH_DASH
370
25
 62
2
100
AcDbLine
 10
0.0
 20
0.0
 30
0.0
 11
48.61
 21
0.0
 31
0.0
  0
LINE
  5
5D2
330
1F
100
AcDbEntity
  8
SK4
  6
LONGDASH_DASH
370
25
 62
2
100
AcDbLine
 10
-66.39
 20
0.0
 30
0.0
 11
53.61
 21
0.0
 31
0.0
  0
LINE
  5
5D3
330
1F
100
AcDbEntity
  8
INFTOTAL
  6
CONTINUOUS
370
18
 62
9
100
AcDbLine
 10
-93.929011
 20
-32.677031222
 30
0.0
 11
72.17101100000001
 21
-32.677031222
 31
0.0
  0
LINE
  5
5D4
330
1F
100
AcDbEntity
  8
INFTOTAL
  6
CONTINUOUS
370
18
 62
9
100
AcDbLine
 10
72.17101100000001
 20
-32.677031222
 30
0.0
 11
72.17101100000001
 21
32.677031222
 31
0.0
  0
LINE
  5
5D5
330
1F
100
AcDbEntity
  8
INFTOTAL
  6
CONTINUOUS
370
18
 62
9
100
AcDbLine
 10
72.17101100000001
 20
32.677031222
 30
0.0
 11
-93.92901100000002
 21
32.677031222
 31
0.0
  0
LINE
  5
5D6
330
1F
100
AcDbEntity
  8
INFTOTAL
  6
CONTINUOUS
370
18
 62
9
100
AcDbLine
 10
-93.92901100000002
 20
32.677031222
 30
0.0
 11
-93.92901100000002
 21
-32.677031222
 31
0.0
  0
ARC
  5
5D7
330
1F
100
AcDbEntity
  8
SK6
  6
CONTINUOUS
370
25
 62
5
100
AcDbCircle
 10
97.9813910083765
 20
-33.75801879338785
 30
0.0
 40
2.76048912849221
100
AcDbArc
 50
338.9379403434233
 51
90.44457437511392
  0
LINE
  5
5D8
330
1F
100
AcDbEntity
  8
SK6
  6
CONTINUOUS
370
25
 62
5
100
AcDbLine
 10
97.95997179695983
 20
-30.99761276421281
 30
0.0
 11
97.95997179695983
 21
-32.10067139613463
 31
0.0
  0
ARC
  5
5D9
330
1F
100
AcDbEntity
  8
SK6
  6
CONTINUOUS
370
25
 62
5
100
AcDbCircle
 10
97.97051802936917
 20
-33.7780122856682
 30
0.0
 40
1.677374043771792
100
AcDbArc
 50
243.421470601786
 51
90.36024081226131
  0
ARC
  5
5DA
330
1F
100
AcDbEntity
  8
SK6
  6
CONTINUOUS
370
25
 62
5
100
AcDbCircle
 10
100.4927688968496
 20
-33.34660503215561
 30
0.0
 40
3.800217030022758
100
AcDbArc
 50
210.5483731288539
 51
236.97801693668
  0
LINE
  5
5DB
330
1F
100
AcDbEntity
  8
SK6
  6
CONTINUOUS
370
25
 62
5
100
AcDbLine
 10
98.42179968512487
 20
-36.53294085867535
 30
0.0
 11
102.5637399674267
 21
-36.53294085867535
 31
0.0
  0
ARC
  5
5DC
330
1F
100
AcDbEntity
  8
SK6
  6
CONTINUOUS
370
25
 62
5
100
AcDbCircle
 10
100.4927708387726
 20
-33.3466051337346
 30
0.0
 40
3.800216899582466
100
AcDbArc
 50
303.021982847796
 51
326.3732153033478
  0
LINE
  5
5DD
330
1F
100
AcDbEntity
  8
SK6
  6
CONTINUOUS
370
25
 62
5
100
AcDbLine
 10
103.6570687513572
 20
-35.4510925307709
 30
0.0
 11
100.2997707057546
 21
-35.4510925307709
 31
0.0
  0
LINE
  5
5DE
330
1F
100
AcDbEntity
  8
SK6
  6
CONTINUOUS
370
25
 62
5
100
AcDbLine
 10
100.2997707057546
 20
-35.4510925307709
 30
0.0
 11
104.2196300977199
 21
-34.08969133641693
 31
0.0
  0
ARC
  5
5DF
330
1F
100
AcDbEntity
  8
SK6
  6
CONTINUOUS
370
25
 62
5
100
AcDbCircle
 10
100.4927715615721
 20
-33.3466056448594
 30
0.0
 40
3.800217216614723
100
AcDbArc
 50
348.7238644184695
 51
53.4691051260885
  0
LINE
  5
5E0
330
1F
100
AcDbEntity
  8
SK6
  6
CONTINUOUS
370
25
 62
5
100
AcDbLine
 10
102.7548742453855
 20
-30.29299428429967
 30
0.0
 11
100.5574594788274
 21
-34.75008277507057
 31
0.0
  0
ENDSEC
  0
SECTION
  2
OBJECTS
  0
DICTIONARY
  5
C
330
0
100
AcDbDictionary
281
     1
  3
ACAD_GROUP
350
D
  3
ACAD_LAYOUT
350
1A
  3
ACAD_MATERIAL
350
3B
  3
ACAD_MLEADERSTYLE
350
5E3
  3
ACAD_MLINESTYLE
350
17
  3
ACAD_PLOTSETTINGS
350
19
  3
ACAD_PLOTSTYLENAME
350
E
  3
ACAD_SCALELIST
350
150
  3
ACAD_VISUALSTYLE
350
2A
  3
AcDbVariableDictionary
350
5E1
  0
DICTIONARY
  5
D
102
{ACAD_REACTORS
330
C
102
}
330
C
100
AcDbDictionary
281
     1
  0
DICTIONARY
  5
1A
102
{ACAD_REACTORS
330
C
102
}
330
C
100
AcDbDictionary
281
     1
  3
Layout1
350
1E
  3
Layout2
350
26
  3
Model
350
22
  0
DICTIONARY
  5
3B
102
{ACAD_REACTORS
330
C
102
}
330
C
100
AcDbDictionary
281
     1
  3
ByBlock
350
3D
  3
ByLayer
350
3C
  3
Global
350
3E
  0
DICTIONARY
  5
5E3
102
{ACAD_REACTORS
330
C
102
}
330
C
100
AcDbDictionary
281
     1
  0
DICTIONARY
  5
17
102
{ACAD_REACTORS
330
C
102
}
330
C
100
AcDbDictionary
281
     1
  3
Standard
350
18
  0
DICTIONARY
  5
19
102
{ACAD_REACTORS
330
C
102
}
330
C
100
AcDbDictionary
281
     1
  0
ACDBDICTIONARYWDFLT
  5
E
102
{ACAD_REACTORS
330
C
102
}
330
C
100
AcDbDictionary
281
     1
  3
Normal
350
F
100
AcDbDictionaryWithDefault
340
F
  0
DICTIONARY
  5
150
102
{ACAD_REACTORS
330
C
102
}
330
C
100
AcDbDictionary
281
     1
  3
A0
350
151
  3
A1
350
152
  3
A2
350
153
  3
A3
350
154
  3
A4
350
155
  3
A5
350
156
  3
A6
350
157
  3
A7
350
158
  3
A8
350
159
  3
A9
350
15A
  3
B0
350
15B
  3
B1
350
15C
  3
B2
350
15D
  3
B3
350
15E
  3
B4
350
15F
  3
B5
350
160
  3
B6
350
161
  3
B7
350
162
  3
B8
350
163
  3
B9
350
164
  3
C0
350
165
  3
C1
350
166
  3
C2
350
167
  3
C3
350
168
  3
C4
350
169
  3
C5
350
16A
  3
C6
350
16B
  3
C7
350
16C
  3
C8
350
16D
  3
C9
350
16E
  3
D0
350
16F
  3
D1
350
170
  3
D2
350
171
  0
DICTIONARY
  5
2A
102
{ACAD_REACTORS
330
C
102
}
330
C
100
AcDbDictionary
281
     1
  3
2dWireframe
350
2F
  3
3D Hidden
350
31
  3
3dWireframe
350
30
  3
Basic
350
32
  3
Brighten
350
36
  3
ColorChange
350
3A
  3
Conceptual
350
34
  3
Dim
350
35
  3
Facepattern
350
39
  3
Flat
350
2B
  3
FlatWithEdges
350
2C
  3
Gouraud
350
2D
  3
GouraudWithEdges
350
2E
  3
Linepattern
350
38
  3
Realistic
350
33
  3
Thicken
350
37
  0
DICTIONARY
  5
5E1
102
{ACAD_REACTORS
330
C
102
}
330
C
100
AcDbDictionary
281
     1
  3
CANNOSCALE
350
5E6
  3
DIMASSOC
350
5E7
  3
HIDETEXT
350
5E8
  3
PSOLHEIGHT
350
5E5
  3
PSOLWIDTH
350
5E4
  0
LAYOUT
  5
1E
102
{ACAD_REACTORS
330
1A
102
}
330
1A
100
AcDbPlotSettings
  1

  2
none_device
  4

  6

 40
0.0
 41
0.0
 42
0.0
 43
0.0
 44
0.0
 45
0.0
 46
0.0
 47
0.0
 48
0.0
 49
0.0
140
0.0
141
0.0
142
1.0
143
1.0
 70
   688
 72
     0
 73
     0
 74
     5
  7

 75
    16
147
1.0
148
0.0
149
0.0
100
AcDbLayout
  1
Layout1
 70
     1
 71
     1
 10
0.0
 20
0.0
 11
420.0
 21
297.0
 12
0.0
 22
0.0
 32
0.0
 14
1.000000000000000E+20
 24
1.000000000000000E+20
 34
1.000000000000000E+20
 15
-1.000000000000000E+20
 25
-1.000000000000000E+20
 35
-1.000000000000000E+20
146
0.0
 13
0.0
 23
0.0
 33
0.0
 16
1.0
 26
0.0
 36
0.0
 17
0.0
 27
1.0
 37
0.0
 76
     0
330
1B
  0
LAYOUT
  5
26
102
{ACAD_REACTORS
330
1A
102
}
330
1A
100
AcDbPlotSettings
  1

  2
none_device
  4

  6

 40
0.0
 41
0.0
 42
0.0
 43
0.0
 44
0.0
 45
0.0
 46
0.0
 47
0.0
 48
0.0
 49
0.0
140
0.0
141
0.0
142
1.0
143
1.0
 70
   688
 72
     0
 73
     0
 74
     5
  7

 75
    16
147
1.0
148
0.0
149
0.0
100
AcDbLayout
  1
Layout2
 70
     1
 71
     2
 10
0.0
 20
0.0
 11
0.0
 21
0.0
 12
0.0
 22
0.0
 32
0.0
 14
0.0
 24
0.0
 34
0.0
 15
0.0
 25
0.0
 35
0.0
146
0.0
 13
0.0
 23
0.0
 33
0.0
 16
1.0
 26
0.0
 36
0.0
 17
0.0
 27
1.0
 37
0.0
 76
     0
330
23
  0
LAYOUT
  5
22
102
{ACAD_REACTORS
330
1A
102
}
330
1A
100
AcDbPlotSettings
  1

  2
none_device
  4

  6

 40
0.0
 41
0.0
 42
0.0
 43
0.0
 44
0.0
 45
0.0
 46
0.0
 47
0.0
 48
0.0
 49
0.0
140
0.0
141
0.0
142
1.0
143
1.0
 70
  1712
 72
     0
 73
     0
 74
     0
  7

 75
     0
147
1.0
148
0.0
149
0.0
100
AcDbLayout
  1
Model
 70
     1
 71
     0
 10
0.0
 20
0.0
 11
420.0
 21
297.0
 12
0.0
 22
0.0
 32
0.0
 14
0.0
 24
0.0
 34
0.0
 15
25.0
 25
35.0
 35
0.0
146
0.0
 13
0.0
 23
0.0
 33
0.0
 16
1.0
 26
0.0
 36
0.0
 17
0.0
 27
1.0
 37
0.0
 76
     0
330
1F
331
29
  0
MATERIAL
  5
3D
102
{ACAD_REACTORS
330
3B
102
}
102
{ACAD_XDICTIONARY
360
60B
102
}
330
3B
100
AcDbMaterial
  1
ByBlock
  0
MATERIAL
  5
3C
102
{ACAD_REACTORS
330
3B
102
}
102
{ACAD_XDICTIONARY
360
609
102
}
330
3B
100
AcDbMaterial
  1
ByLayer
  0
MATERIAL
  5
3E
102
{ACAD_REACTORS
330
3B
102
}
102
{ACAD_XDICTIONARY
360
60D
102
}
330
3B
100
AcDbMaterial
  1
Global
  0
MLINESTYLE
  5
18
102
{ACAD_REACTORS
330
17
102
}
330
17
100
AcDbMlineStyle
  2
Standard
 70
     0
  3

 62
   256
 51
90.0
 52
90.0
 71
     2
 49
0.5
 62
   256
  6
BYLAYER
 49
-0.5
 62
   256
  6
BYLAYER
  0
ACDBPLACEHOLDER
  5
F
102
{ACAD_REACTORS
330
E
102
}
330
E
  0
SCALE
  5
151
102
{ACAD_REACTORS
330
150
102
}
330
150
100
AcDbScale
 70
     0
300
1:1
140
1.0
141
1.0
290
     1
  0
SCALE
  5
152
102
{ACAD_REACTORS
330
150
102
}
330
150
100
AcDbScale
 70
     0
300
1:2
140
1.0
141
2.0
290
     0
  0
SCALE
  5
153
102
{ACAD_REACTORS
330
150
102
}
330
150
100
AcDbScale
 70
     0
300
1:4
140
1.0
141
4.0
290
     0
  0
SCALE
  5
154
102
{ACAD_REACTORS
330
150
102
}
330
150
100
AcDbScale
 70
     0
300
1:5
140
1.0
141
5.0
290
     0
  0
SCALE
  5
155
102
{ACAD_REACTORS
330
150
102
}
330
150
100
AcDbScale
 70
     0
300
1:8
140
1.0
141
8.0
290
     0
  0
SCALE
  5
156
102
{ACAD_REACTORS
330
150
102
}
330
150
100
AcDbScale
 70
     0
300
1:10
140
1.0
141
10.0
290
     0
  0
SCALE
  5
157
102
{ACAD_REACTORS
330
150
102
}
330
150
100
AcDbScale
 70
     0
300
1:16
140
1.0
141
16.0
290
     0
  0
SCALE
  5
158
102
{ACAD_REACTORS
330
150
102
}
330
150
100
AcDbScale
 70
     0
300
1:20
140
1.0
141
20.0
290
     0
  0
SCALE
  5
159
102
{ACAD_REACTORS
330
150
102
}
330
150
100
AcDbScale
 70
     0
300
1:30
140
1.0
141
30.0
290
     0
  0
SCALE
  5
15A
102
{ACAD_REACTORS
330
150
102
}
330
150
100
AcDbScale
 70
     0
300
1:40
140
1.0
141
40.0
290
     0
  0
SCALE
  5
15B
102
{ACAD_REACTORS
330
150
102
}
330
150
100
AcDbScale
 70
     0
300
1:50
140
1.0
141
50.0
290
     0
  0
SCALE
  5
15C
102
{ACAD_REACTORS
330
150
102
}
330
150
100
AcDbScale
 70
     0
300
1:100
140
1.0
141
100.0
290
     0
  0
SCALE
  5
15D
102
{ACAD_REACTORS
330
150
102
}
330
150
100
AcDbScale
 70
     0
300
2:1
140
2.0
141
1.0
290
     0
  0
SCALE
  5
15E
102
{ACAD_REACTORS
330
150
102
}
330
150
100
AcDbScale
 70
     0
300
4:1
140
4.0
141
1.0
290
     0
  0
SCALE
  5
15F
102
{ACAD_REACTORS
330
150
102
}
330
150
100
AcDbScale
 70
     0
300
8:1
140
8.0
141
1.0
290
     0
  0
SCALE
  5
160
102
{ACAD_REACTORS
330
150
102
}
330
150
100
AcDbScale
 70
     0
300
10:1
140
10.0
141
1.0
290
     0
  0
SCALE
  5
161
102
{ACAD_REACTORS
330
150
102
}
330
150
100
AcDbScale
 70
     0
300
100:1
140
100.0
141
1.0
290
     0
  0
SCALE
  5
162
102
{ACAD_REACTORS
330
150
102
}
330
150
100
AcDbScale
 70
     0
300
1/128" = 1'-0"
140
0.0078125
141
12.0
290
     0
  0
SCALE
  5
163
102
{ACAD_REACTORS
330
150
102
}
330
150
100
AcDbScale
 70
     0
300
1/64" = 1'-0"
140
0.015625
141
12.0
290
     0
  0
SCALE
  5
164
102
{ACAD_REACTORS
330
150
102
}
330
150
100
AcDbScale
 70
     0
300
1/32" = 1'-0"
140
0.03125
141
12.0
290
     0
  0
SCALE
  5
165
102
{ACAD_REACTORS
330
150
102
}
330
150
100
AcDbScale
 70
     0
300
1/16" = 1'-0"
140
0.0625
141
12.0
290
     0
  0
SCALE
  5
166
102
{ACAD_REACTORS
330
150
102
}
330
150
100
AcDbScale
 70
     0
300
3/32" = 1'-0"
140
0.09375
141
12.0
290
     0
  0
SCALE
  5
167
102
{ACAD_REACTORS
330
150
102
}
330
150
100
AcDbScale
 70
     0
300
1/8" = 1'-0"
140
0.125
141
12.0
290
     0
  0
SCALE
  5
168
102
{ACAD_REACTORS
330
150
102
}
330
150
100
AcDbScale
 70
     0
300
3/16" = 1'-0"
140
0.1875
141
12.0
290
     0
  0
SCALE
  5
169
102
{ACAD_REACTORS
330
150
102
}
330
150
100
AcDbScale
 70
     0
300
1/4" = 1'-0"
140
0.25
141
12.0
290
     0
  0
SCALE
  5
16A
102
{ACAD_REACTORS
330
150
102
}
330
150
100
AcDbScale
 70
     0
300
3/8" = 1'-0"
140
0.375
141
12.0
290
     0
  0
SCALE
  5
16B
102
{ACAD_REACTORS
330
150
102
}
330
150
100
AcDbScale
 70
     0
300
1/2" = 1'-0"
140
0.5
141
12.0
290
     0
  0
SCALE
  5
16C
102
{ACAD_REACTORS
330
150
102
}
330
150
100
AcDbScale
 70
     0
300
3/4" = 1'-0"
140
0.75
141
12.0
290
     0
  0
SCALE
  5
16D
102
{ACAD_REACTORS
330
150
102
}
330
150
100
AcDbScale
 70
     0
300
1" = 1'-0"
140
1.0
141
12.0
290
     0
  0
SCALE
  5
16E
102
{ACAD_REACTORS
330
150
102
}
330
150
100
AcDbScale
 70
     0
300
1-1/2" = 1'-0"
140
1.5
141
12.0
290
     0
  0
SCALE
  5
16F
102
{ACAD_REACTORS
330
150
102
}
330
150
100
AcDbScale
 70
     0
300
3" = 1'-0"
140
3.0
141
12.0
290
     0
  0
SCALE
  5
170
102
{ACAD_REACTORS
330
150
102
}
330
150
100
AcDbScale
 70
     0
300
6" = 1'-0"
140
6.0
141
12.0
290
     0
  0
SCALE
  5
171
102
{ACAD_REACTORS
330
150
102
}
330
150
100
AcDbScale
 70
     0
300
1'-0" = 1'-0"
140
12.0
141
12.0
290
     0
  0
VISUALSTYLE
  5
2F
102
{ACAD_REACTORS
330
2A
102
}
102
{ACAD_XDICTIONARY
360
5F1
102
}
330
2A
100
AcDbVisualStyle
  2
2dWireframe
 70
     4
 71
     0
 72
     2
 73
     0
 90
        0
 40
-0.6
 41
-30.0
 62
     5
 63
     7
 74
     1
 91
        4
 64
     7
 65
   257
 75
     1
175
     1
 42
1.0
 92
        0
 66
   257
 43
1.0
 76
     1
 77
     6
 78
     2
 67
     7
 79
     5
170
     0
171
     0
290
     0
174
     0
 93
        1
 44
0.0
173
     0
291
     0
 45
0.0
1001
ACAD
1000
AcDbSavedByObjectVersion
1070
     0
  0
VISUALSTYLE
  5
31
102
{ACAD_REACTORS
330
2A
102
}
102
{ACAD_XDICTIONARY
360
5F5
102
}
330
2A
100
AcDbVisualStyle
  2
3D Hidden
 70
     6
 71
     1
 72
     2
 73
     2
 90
        0
 40
-0.6
 41
-30.0
 62
     5
 63
     7
 74
     2
 91
        2
 64
     7
 65
   257
 75
     2
175
     1
 42
40.0
 92
        0
 66
   257
 43
1.0
 76
     1
 77
     6
 78
     2
 67
     7
 79
     3
170
     0
171
     0
290
     0
174
     0
 93
        1
 44
0.0
173
     0
291
     0
 45
0.0
1001
ACAD
1000
AcDbSavedByObjectVersion
1070
     0
  0
VISUALSTYLE
  5
30
102
{ACAD_REACTORS
330
2A
102
}
102
{ACAD_XDICTIONARY
360
5F3
102
}
330
2A
100
AcDbVisualStyle
  2
3dWireframe
 70
     5
 71
     0
 72
     2
 73
     0
 90
        0
 40
-0.6
 41
-30.0
 62
     5
 63
     7
 74
     1
 91
        4
 64
     7
 65
   257
 75
     1
175
     1
 42
1.0
 92
        0
 66
   257
 43
1.0
 76
     1
 77
     6
 78
     2
 67
     7
 79
     5
170
     0
171
     0
290
     0
174
     0
 93
        1
 44
0.0
173
     0
291
     0
 45
0.0
1001
ACAD
1000
AcDbSavedByObjectVersion
1070
     0
  0
VISUALSTYLE
  5
32
102
{ACAD_REACTORS
330
2A
102
}
102
{ACAD_XDICTIONARY
360
5F7
102
}
330
2A
100
AcDbVisualStyle
  2
Basic
 70
     7
 71
     1
 72
     0
 73
     1
 90
        0
 40
-0.6
 41
-30.0
 62
     5
 63
     7
 74
     0
 91
        4
 64
     7
 65
   257
 75
     1
175
     1
 42
1.0
 92
        8
 66
     7
 43
1.0
 76
     1
 77
     6
 78
     2
 67
     7
 79
     5
170
     0
171
     0
290
     0
174
     0
 93
        1
 44
0.0
173
     0
291
     1
 45
0.0
1001
ACAD
1000
AcDbSavedByObjectVersion
1070
     0
  0
VISUALSTYLE
  5
36
102
{ACAD_REACTORS
330
2A
102
}
102
{ACAD_XDICTIONARY
360
5FF
102
}
330
2A
100
AcDbVisualStyle
  2
Brighten
 70
    12
 71
     2
 72
     2
 73
     0
 90
        0
 40
-0.6
 41
-30.0
 62
     5
 63
     7
 74
     1
 91
        4
 64
     7
 65
   257
 75
     1
175
     1
 42
1.0
 92
        8
 66
     7
 43
1.0
 76
     1
 77
     6
 78
     2
 67
     7
 79
     5
170
     0
171
     0
290
     0
174
     0
 93
        1
 44
50.0
173
     0
291
     1
 45
0.0
1001
ACAD
1000
AcDbSavedByObjectVersion
1070
     0
  0
VISUALSTYLE
  5
3A
102
{ACAD_REACTORS
330
2A
102
}
102
{ACAD_XDICTIONARY
360
607
102
}
330
2A
100
AcDbVisualStyle
  2
ColorChange
 70
    16
 71
     2
 72
     2
 73
     3
 90
        0
 40
-0.6
 41
-30.0
 62
     5
 63
     8
 74
     1
 91
        4
 64
     7
 65
   257
 75
     1
175
     1
 42
1.0
 92
        8
 66
     8
 43
1.0
 76
     1
 77
     6
 78
     2
 67
     7
 79
     5
170
     0
171
     0
290
     0
174
     0
 93
        1
 44
0.0
173
     0
291
     1
 45
0.0
1001
ACAD
1000
AcDbSavedByObjectVersion
1070
     0
  0
VISUALSTYLE
  5
34
102
{ACAD_REACTORS
330
2A
102
}
102
{ACAD_XDICTIONARY
360
5FB
102
}
330
2A
100
AcDbVisualStyle
  2
Conceptual
 70
     9
 71
     3
 72
     2
 73
     0
 90
        0
 40
-0.6
 41
-30.0
 62
     5
 63
     7
 74
     2
 91
        2
 64
     7
 65
   257
 75
     1
175
     1
 42
40.0
 92
        8
 66
     7
 43
1.0
 76
     1
 77
     6
 78
     2
 67
     7
 79
     3
170
     0
171
     0
290
     0
174
     0
 93
        1
 44
0.0
173
     0
291
     0
 45
0.0
1001
ACAD
1000
AcDbSavedByObjectVersion
1070
     0
  0
VISUALSTYLE
  5
35
102
{ACAD_REACTORS
330
2A
102
}
102
{ACAD_XDICTIONARY
360
5FD
102
}
330
2A
100
AcDbVisualStyle
  2
Dim
 70
    11
 71
     2
 72
     2
 73
     0
 90
        0
 40
-0.6
 41
-30.0
 62
     5
 63
     7
 74
     1
 91
        4
 64
     7
 65
   257
 75
     1
175
     1
 42
1.0
 92
        8
 66
     7
 43
1.0
 76
     1
 77
     6
 78
     2
 67
     7
 79
     5
170
     0
171
     0
290
     0
174
     0
 93
        1
 44
-50.0
173
     0
291
     1
 45
0.0
1001
ACAD
1000
AcDbSavedByObjectVersion
1070
     0
  0
VISUALSTYLE
  5
39
102
{ACAD_REACTORS
330
2A
102
}
102
{ACAD_XDICTIONARY
360
605
102
}
330
2A
100
AcDbVisualStyle
  2
Facepattern
 70
    15
 71
     2
 72
     2
 73
     0
 90
        0
 40
-0.6
 41
-30.0
 62
     5
 63
     7
 74
     1
 91
        4
 64
     7
 65
   257
 75
     1
175
     1
 42
1.0
 92
        8
 66
     7
 43
1.0
 76
     1
 77
     6
 78
     2
 67
     7
 79
     5
170
     0
171
     0
290
     0
174
     0
 93
        1
 44
0.0
173
     0
291
     1
 45
0.0
1001
ACAD
1000
AcDbSavedByObjectVersion
1070
     0
  0
VISUALSTYLE
  5
2B
102
{ACAD_REACTORS
330
2A
102
}
102
{ACAD_XDICTIONARY
360
5E9
102
}
330
2A
100
AcDbVisualStyle
  2
Flat
 70
     0
 71
     2
 72
     1
 73
     1
 90
        2
 40
-0.6
 41
30.0
 62
     5
 63
     7
 74
     0
 91
        4
 64
     7
 65
   257
 75
     1
175
     1
 42
1.0
 92
        8
 66
     7
 43
1.0
 76
     1
 77
     6
 78
     2
 67
     7
 79
     5
170
     0
171
     0
290
     0
174
     0
 93
       13
 44
0.0
173
     0
291
     1
 45
0.0
1001
ACAD
1000
AcDbSavedByObjectVersion
1070
     0
  0
VISUALSTYLE
  5
2C
102
{ACAD_REACTORS
330
2A
102
}
102
{ACAD_XDICTIONARY
360
5EB
102
}
330
2A
100
AcDbVisualStyle
  2
FlatWithEdges
 70
     1
 71
     2
 72
     1
 73
     1
 90
        2
 40
-0.6
 41
30.0
 62
     5
 63
     7
 74
     1
 91
        4
 64
     7
 65
   257
 75
     1
175
     1
 42
1.0
 92
        0
 66
   257
 43
1.0
 76
     1
 77
     6
 78
     2
 67
     7
 79
     5
170
     0
171
     0
290
     0
174
     0
 93
       13
 44
0.0
173
     0
291
     1
 45
0.0
1001
ACAD
1000
AcDbSavedByObjectVersion
1070
     0
  0
VISUALSTYLE
  5
2D
102
{ACAD_REACTORS
330
2A
102
}
102
{ACAD_XDICTIONARY
360
5ED
102
}
330
2A
100
AcDbVisualStyle
  2
Gouraud
 70
     2
 71
     2
 72
     2
 73
     1
 90
        2
 40
-0.6
 41
30.0
 62
     5
 63
     7
 74
     0
 91
        4
 64
     7
 65
   257
 75
     1
175
     1
 42
1.0
 92
        0
 66
     7
 43
1.0
 76
     1
 77
     6
 78
     2
 67
     7
 79
     5
170
     0
171
     0
290
     0
174
     0
 93
       13
 44
0.0
173
     0
291
     1
 45
0.0
1001
ACAD
1000
AcDbSavedByObjectVersion
1070
     0
  0
VISUALSTYLE
  5
2E
102
{ACAD_REACTORS
330
2A
102
}
102
{ACAD_XDICTIONARY
360
5EF
102
}
330
2A
100
AcDbVisualStyle
  2
GouraudWithEdges
 70
     3
 71
     2
 72
     2
 73
     1
 90
        2
 40
-0.6
 41
30.0
 62
     5
 63
     7
 74
     1
 91
        4
 64
     7
 65
   257
 75
     1
175
     1
 42
1.0
 92
        0
 66
   257
 43
1.0
 76
     1
 77
     6
 78
     2
 67
     7
 79
     5
170
     0
171
     0
290
     0
174
     0
 93
       13
 44
0.0
173
     0
291
     1
 45
0.0
1001
ACAD
1000
AcDbSavedByObjectVersion
1070
     0
  0
VISUALSTYLE
  5
38
102
{ACAD_REACTORS
330
2A
102
}
102
{ACAD_XDICTIONARY
360
603
102
}
330
2A
100
AcDbVisualStyle
  2
Linepattern
 70
    14
 71
     2
 72
     2
 73
     0
 90
        0
 40
-0.6
 41
-30.0
 62
     5
 63
     7
 74
     1
 91
        4
 64
     7
 65
   257
 75
     7
175
     7
 42
1.0
 92
        8
 66
     7
 43
1.0
 76
     1
 77
     6
 78
     2
 67
     7
 79
     5
170
     0
171
     0
290
     0
174
     0
 93
        1
 44
0.0
173
     0
291
     1
 45
0.0
1001
ACAD
1000
AcDbSavedByObjectVersion
1070
     0
  0
VISUALSTYLE
  5
33
102
{ACAD_REACTORS
330
2A
102
}
102
{ACAD_XDICTIONARY
360
5F9
102
}
330
2A
100
AcDbVisualStyle
  2
Realistic
 70
     8
 71
     2
 72
     2
 73
     0
 90
        0
 40
-0.6
 41
-30.0
 62
     5
 63
     7
 74
     1
 91
        0
 64
     7
 65
   257
 75
     1
175
     1
 42
1.0
 92
        8
 66
     8
 43
1.0
 76
     1
 77
     6
 78
     2
 67
     7
 79
     5
170
     0
171
     0
290
     0
174
     0
 93
       13
 44
0.0
173
     0
291
     0
 45
0.0
1001
ACAD
1000
AcDbSavedByObjectVersion
1070
     0
  0
VISUALSTYLE
  5
37
102
{ACAD_REACTORS
330
2A
102
}
102
{ACAD_XDICTIONARY
360
601
102
}
330
2A
100
AcDbVisualStyle
  2
Thicken
 70
    13
 71
     2
 72
     2
 73
     0
 90
        0
 40
-0.6
 41
-30.0
 62
     5
 63
     7
 74
     1
 91
        4
 64
     7
 65
   257
 75
     1
175
     1
 42
1.0
 92
       12
 66
     7
 43
1.0
 76
     1
 77
     6
 78
     2
 67
     7
 79
     5
170
     0
171
     0
290
     0
174
     0
 93
        1
 44
0.0
173
     0
291
     1
 45
0.0
1001
ACAD
1000
AcDbSavedByObjectVersion
1070
     0
  0
DICTIONARYVAR
  5
5E6
102
{ACAD_REACTORS
330
5E1
102
}
330
5E1
100
DictionaryVariables
280
     0
  1
1:1
  0
DICTIONARYVAR
  5
5E7
102
{ACAD_REACTORS
330
5E1
102
}
330
5E1
100
DictionaryVariables
280
     0
  1
2
  0
DICTIONARYVAR
  5
5E8
102
{ACAD_REACTORS
330
5E1
102
}
330
5E1
100
DictionaryVariables
280
     0
  1
1
  0
DICTIONARYVAR
  5
5E5
102
{ACAD_REACTORS
330
5E1
102
}
330
5E1
100
DictionaryVariables
280
     0
  1
80.000000
  0
DICTIONARYVAR
  5
5E4
102
{ACAD_REACTORS
330
5E1
102
}
330
5E1
100
DictionaryVariables
280
     0
  1
5.000000
  0
DICTIONARY
  5
60B
330
3D
100
AcDbDictionary
280
     1
281
     1
  3
ACAD_XREC_ROUNDTRIP
360
60C
  0
DICTIONARY
  5
609
330
3C
100
AcDbDictionary
280
     1
281
     1
  3
ACAD_XREC_ROUNDTRIP
360
60A
  0
DICTIONARY
  5
60D
330
3E
100
AcDbDictionary
280
     1
281
     1
  3
ACAD_XREC_ROUNDTRIP
360
60E
  0
DICTIONARY
  5
5F1
330
2F
100
AcDbDictionary
280
     1
281
     1
  3
ACAD_XREC_ROUNDTRIP
360
5F2
  0
DICTIONARY
  5
5F5
330
31
100
AcDbDictionary
280
     1
281
     1
  3
ACAD_XREC_ROUNDTRIP
360
5F6
  0
DICTIONARY
  5
5F3
330
30
100
AcDbDictionary
280
     1
281
     1
  3
ACAD_XREC_ROUNDTRIP
360
5F4
  0
DICTIONARY
  5
5F7
330
32
100
AcDbDictionary
280
     1
281
     1
  3
ACAD_XREC_ROUNDTRIP
360
5F8
  0
DICTIONARY
  5
5FF
330
36
100
AcDbDictionary
280
     1
281
     1
  3
ACAD_XREC_ROUNDTRIP
360
600
  0
DICTIONARY
  5
607
330
3A
100
AcDbDictionary
280
     1
281
     1
  3
ACAD_XREC_ROUNDTRIP
360
608
  0
DICTIONARY
  5
5FB
330
34
100
AcDbDictionary
280
     1
281
     1
  3
ACAD_XREC_ROUNDTRIP
360
5FC
  0
DICTIONARY
  5
5FD
330
35
100
AcDbDictionary
280
     1
281
     1
  3
ACAD_XREC_ROUNDTRIP
360
5FE
  0
DICTIONARY
  5
605
330
39
100
AcDbDictionary
280
     1
281
     1
  3
ACAD_XREC_ROUNDTRIP
360
606
  0
DICTIONARY
  5
5E9
330
2B
100
AcDbDictionary
280
     1
281
     1
  3
ACAD_XREC_ROUNDTRIP
360
5EA
  0
DICTIONARY
  5
5EB
330
2C
100
AcDbDictionary
280
     1
281
     1
  3
ACAD_XREC_ROUNDTRIP
360
5EC
  0
DICTIONARY
  5
5ED
330
2D
100
AcDbDictionary
280
     1
281
     1
  3
ACAD_XREC_ROUNDTRIP
360
5EE
  0
DICTIONARY
  5
5EF
330
2E
100
AcDbDictionary
280
     1
281
     1
  3
ACAD_XREC_ROUNDTRIP
360
5F0
  0
DICTIONARY
  5
603
330
38
100
AcDbDictionary
280
     1
281
     1
  3
ACAD_XREC_ROUNDTRIP
360
604
  0
DICTIONARY
  5
5F9
330
33
100
AcDbDictionary
280
     1
281
     1
  3
ACAD_XREC_ROUNDTRIP
360
5FA
  0
DICTIONARY
  5
601
330
37
100
AcDbDictionary
280
     1
281
     1
  3
ACAD_XREC_ROUNDTRIP
360
602
  0
XRECORD
  5
60C
102
{ACAD_REACTORS
330
60B
102
}
330
60B
100
AcDbXrecord
280
     1
102
MATERIAL
148
0.0
149
0.0
149
0.0
 93
        0
 94
      127
282
     0
 72
     1
 77
     1
171
     1
175
     1
179
     1
273
     0
  0
XRECORD
  5
60A
102
{ACAD_REACTORS
330
609
102
}
330
609
100
AcDbXrecord
280
     1
102
MATERIAL
148
0.0
149
0.0
149
0.0
 93
        0
 94
      127
282
     0
 72
     1
 77
     1
171
     1
175
     1
179
     1
273
     0
  0
XRECORD
  5
60E
102
{ACAD_REACTORS
330
60D
102
}
330
60D
100
AcDbXrecord
280
     1
102
MATERIAL
148
0.0
149
0.0
149
0.0
 93
        0
 94
      127
282
     0
 72
     1
 77
     1
171
     1
175
     1
179
     1
273
     0
  0
XRECORD
  5
5F2
102
{ACAD_REACTORS
330
5F1
102
}
330
5F1
100
AcDbXrecord
280
     1
102
RTVSPropertyOp0
 70
     1
102
RTVSPropertyOp1
 70
     1
102
RTVSPropertyOp2
 70
     1
102
RTVSPropertyOp3
 70
     1
102
RTVSPropertyOp4
 70
     1
102
RTVSPropertyOp5
 70
     1
102
RTVSPropertyOp6
 70
     1
102
RTVSPropertyOp7
 70
     1
102
RTVSPropertyOp8
 70
     1
102
RTVSPropertyOp9
 70
     1
102
RTVSPropertyOp10
 70
     1
102
RTVSPropertyOp11
 70
     1
102
RTVSPropertyOp12
 70
     1
102
RTVSPropertyOp13
 70
     1
102
RTVSPropertyOp14
 70
     1
102
RTVSPropertyOp15
 70
     1
102
RTVSPropertyOp16
 70
     1
102
RTVSPropertyOp17
 70
     1
102
RTVSPropertyOp18
 70
     1
102
RTVSPropertyOp19
 70
     1
102
RTVSPropertyOp20
 70
     1
102
RTVSPropertyOp21
 70
     1
102
RTVSPropertyOp22
 70
     1
102
RTVSPropertyOp23
 70
     1
102
RTVSPropertyOp24
 70
     1
102
RTVSPropertyOp25
 70
     1
102
RTVSPropertyOp26
 70
     1
102
RTVSPropertyOp27
 70
     1
  0
XRECORD
  5
5F6
102
{ACAD_REACTORS
330
5F5
102
}
330
5F5
100
AcDbXrecord
280
     1
102
RTVSPropertyOp0
 70
     1
102
RTVSPropertyOp1
 70
     1
102
RTVSPropertyOp2
 70
     1
102
RTVSPropertyOp3
 70
     1
102
RTVSPropertyOp4
 70
     1
102
RTVSPropertyOp5
 70
     1
102
RTVSPropertyOp6
 70
     1
102
RTVSPropertyOp7
 70
     1
102
RTVSPropertyOp8
 70
     1
102
RTVSPropertyOp9
 70
     1
102
RTVSPropertyOp10
 70
     1
102
RTVSPropertyOp11
 70
     1
102
RTVSPropertyOp12
 70
     1
102
RTVSPropertyOp13
 70
     1
102
RTVSPropertyOp14
 70
     1
102
RTVSPropertyOp15
 70
     1
102
RTVSPropertyOp16
 70
     1
102
RTVSPropertyOp17
 70
     1
102
RTVSPropertyOp18
 70
     1
102
RTVSPropertyOp19
 70
     1
102
RTVSPropertyOp20
 70
     1
102
RTVSPropertyOp21
 70
     1
102
RTVSPropertyOp22
 70
     1
102
RTVSPropertyOp23
 70
     1
102
RTVSPropertyOp24
 70
     1
102
RTVSPropertyOp25
 70
     1
102
RTVSPropertyOp26
 70
     1
102
RTVSPropertyOp27
 70
     1
  0
XRECORD
  5
5F4
102
{ACAD_REACTORS
330
5F3
102
}
330
5F3
100
AcDbXrecord
280
     1
102
RTVSPropertyOp0
 70
     1
102
RTVSPropertyOp1
 70
     1
102
RTVSPropertyOp2
 70
     1
102
RTVSPropertyOp3
 70
     1
102
RTVSPropertyOp4
 70
     1
102
RTVSPropertyOp5
 70
     1
102
RTVSPropertyOp6
 70
     1
102
RTVSPropertyOp7
 70
     1
102
RTVSPropertyOp8
 70
     1
102
RTVSPropertyOp9
 70
     1
102
RTVSPropertyOp10
 70
     1
102
RTVSPropertyOp11
 70
     1
102
RTVSPropertyOp12
 70
     1
102
RTVSPropertyOp13
 70
     1
102
RTVSPropertyOp14
 70
     1
102
RTVSPropertyOp15
 70
     1
102
RTVSPropertyOp16
 70
     1
102
RTVSPropertyOp17
 70
     1
102
RTVSPropertyOp18
 70
     1
102
RTVSPropertyOp19
 70
     1
102
RTVSPropertyOp20
 70
     1
102
RTVSPropertyOp21
 70
     1
102
RTVSPropertyOp22
 70
     1
102
RTVSPropertyOp23
 70
     1
102
RTVSPropertyOp24
 70
     1
102
RTVSPropertyOp25
 70
     1
102
RTVSPropertyOp26
 70
     1
102
RTVSPropertyOp27
 70
     1
  0
XRECORD
  5
5F8
102
{ACAD_REACTORS
330
5F7
102
}
330
5F7
100
AcDbXrecord
280
     1
102
RTVSPropertyOp0
 70
     1
102
RTVSPropertyOp1
 70
     1
102
RTVSPropertyOp2
 70
     1
102
RTVSPropertyOp3
 70
     1
102
RTVSPropertyOp4
 70
     1
102
RTVSPropertyOp5
 70
     1
102
RTVSPropertyOp6
 70
     1
102
RTVSPropertyOp7
 70
     1
102
RTVSPropertyOp8
 70
     1
102
RTVSPropertyOp9
 70
     1
102
RTVSPropertyOp10
 70
     1
102
RTVSPropertyOp11
 70
     1
102
RTVSPropertyOp12
 70
     1
102
RTVSPropertyOp13
 70
     1
102
RTVSPropertyOp14
 70
     1
102
RTVSPropertyOp15
 70
     1
102
RTVSPropertyOp16
 70
     1
102
RTVSPropertyOp17
 70
     1
102
RTVSPropertyOp18
 70
     1
102
RTVSPropertyOp19
 70
     1
102
RTVSPropertyOp20
 70
     1
102
RTVSPropertyOp21
 70
     1
102
RTVSPropertyOp22
 70
     1
102
RTVSPropertyOp23
 70
     1
102
RTVSPropertyOp24
 70
     1
102
RTVSPropertyOp25
 70
     1
102
RTVSPropertyOp26
 70
     1
102
RTVSPropertyOp27
 70
     1
  0
XRECORD
  5
600
102
{ACAD_REACTORS
330
5FF
102
}
330
5FF
100
AcDbXrecord
280
     1
102
RTVSPropertyOp0
 70
     1
102
RTVSPropertyOp1
 70
     1
102
RTVSPropertyOp2
 70
     1
102
RTVSPropertyOp3
 70
     1
102
RTVSPropertyOp4
 70
     1
102
RTVSPropertyOp5
 70
     1
102
RTVSPropertyOp6
 70
     1
102
RTVSPropertyOp7
 70
     1
102
RTVSPropertyOp8
 70
     1
102
RTVSPropertyOp9
 70
     1
102
RTVSPropertyOp10
 70
     1
102
RTVSPropertyOp11
 70
     1
102
RTVSPropertyOp12
 70
     1
102
RTVSPropertyOp13
 70
     1
102
RTVSPropertyOp14
 70
     1
102
RTVSPropertyOp15
 70
     1
102
RTVSPropertyOp16
 70
     1
102
RTVSPropertyOp17
 70
     1
102
RTVSPropertyOp18
 70
     1
102
RTVSPropertyOp19
 70
     1
102
RTVSPropertyOp20
 70
     1
102
RTVSPropertyOp21
 70
     1
102
RTVSPropertyOp22
 70
     1
102
RTVSPropertyOp23
 70
     1
102
RTVSPropertyOp24
 70
     1
102
RTVSPropertyOp25
 70
     1
102
RTVSPropertyOp26
 70
     1
102
RTVSPropertyOp27
 70
     1
  0
XRECORD
  5
608
102
{ACAD_REACTORS
330
607
102
}
330
607
100
AcDbXrecord
280
     1
102
RTVSPropertyOp0
 70
     1
102
RTVSPropertyOp1
 70
     1
102
RTVSPropertyOp2
 70
     1
102
RTVSPropertyOp3
 70
     1
102
RTVSPropertyOp4
 70
     1
102
RTVSPropertyOp5
 70
     1
102
RTVSPropertyOp6
 70
     1
102
RTVSPropertyOp7
 70
     1
102
RTVSPropertyOp8
 70
     1
102
RTVSPropertyOp9
 70
     1
102
RTVSPropertyOp10
 70
     1
102
RTVSPropertyOp11
 70
     1
102
RTVSPropertyOp12
 70
     1
102
RTVSPropertyOp13
 70
     1
102
RTVSPropertyOp14
 70
     1
102
RTVSPropertyOp15
 70
     1
102
RTVSPropertyOp16
 70
     1
102
RTVSPropertyOp17
 70
     1
102
RTVSPropertyOp18
 70
     1
102
RTVSPropertyOp19
 70
     1
102
RTVSPropertyOp20
 70
     1
102
RTVSPropertyOp21
 70
     1
102
RTVSPropertyOp22
 70
     1
102
RTVSPropertyOp23
 70
     1
102
RTVSPropertyOp24
 70
     1
102
RTVSPropertyOp25
 70
     1
102
RTVSPropertyOp26
 70
     1
102
RTVSPropertyOp27
 70
     1
  0
XRECORD
  5
5FC
102
{ACAD_REACTORS
330
5FB
102
}
330
5FB
100
AcDbXrecord
280
     1
102
RTVSPropertyOp0
 70
     1
102
RTVSPropertyOp1
 70
     1
102
RTVSPropertyOp2
 70
     1
102
RTVSPropertyOp3
 70
     1
102
RTVSPropertyOp4
 70
     1
102
RTVSPropertyOp5
 70
     1
102
RTVSPropertyOp6
 70
     1
102
RTVSPropertyOp7
 70
     1
102
RTVSPropertyOp8
 70
     1
102
RTVSPropertyOp9
 70
     1
102
RTVSPropertyOp10
 70
     1
102
RTVSPropertyOp11
 70
     1
102
RTVSPropertyOp12
 70
     1
102
RTVSPropertyOp13
 70
     1
102
RTVSPropertyOp14
 70
     1
102
RTVSPropertyOp15
 70
     1
102
RTVSPropertyOp16
 70
     1
102
RTVSPropertyOp17
 70
     1
102
RTVSPropertyOp18
 70
     1
102
RTVSPropertyOp19
 70
     1
102
RTVSPropertyOp20
 70
     1
102
RTVSPropertyOp21
 70
     1
102
RTVSPropertyOp22
 70
     1
102
RTVSPropertyOp23
 70
     1
102
RTVSPropertyOp24
 70
     1
102
RTVSPropertyOp25
 70
     1
102
RTVSPropertyOp26
 70
     1
102
RTVSPropertyOp27
 70
     1
  0
XRECORD
  5
5FE
102
{ACAD_REACTORS
330
5FD
102
}
330
5FD
100
AcDbXrecord
280
     1
102
RTVSPropertyOp0
 70
     1
102
RTVSPropertyOp1
 70
     1
102
RTVSPropertyOp2
 70
     1
102
RTVSPropertyOp3
 70
     1
102
RTVSPropertyOp4
 70
     1
102
RTVSPropertyOp5
 70
     1
102
RTVSPropertyOp6
 70
     1
102
RTVSPropertyOp7
 70
     1
102
RTVSPropertyOp8
 70
     1
102
RTVSPropertyOp9
 70
     1
102
RTVSPropertyOp10
 70
     1
102
RTVSPropertyOp11
 70
     1
102
RTVSPropertyOp12
 70
     1
102
RTVSPropertyOp13
 70
     1
102
RTVSPropertyOp14
 70
     1
102
RTVSPropertyOp15
 70
     1
102
RTVSPropertyOp16
 70
     1
102
RTVSPropertyOp17
 70
     1
102
RTVSPropertyOp18
 70
     1
102
RTVSPropertyOp19
 70
     1
102
RTVSPropertyOp20
 70
     1
102
RTVSPropertyOp21
 70
     1
102
RTVSPropertyOp22
 70
     1
102
RTVSPropertyOp23
 70
     1
102
RTVSPropertyOp24
 70
     1
102
RTVSPropertyOp25
 70
     1
102
RTVSPropertyOp26
 70
     1
102
RTVSPropertyOp27
 70
     1
  0
XRECORD
  5
606
102
{ACAD_REACTORS
330
605
102
}
330
605
100
AcDbXrecord
280
     1
102
RTVSPropertyOp0
 70
     1
102
RTVSPropertyOp1
 70
     1
102
RTVSPropertyOp2
 70
     1
102
RTVSPropertyOp3
 70
     1
102
RTVSPropertyOp4
 70
     1
102
RTVSPropertyOp5
 70
     1
102
RTVSPropertyOp6
 70
     1
102
RTVSPropertyOp7
 70
     1
102
RTVSPropertyOp8
 70
     1
102
RTVSPropertyOp9
 70
     1
102
RTVSPropertyOp10
 70
     1
102
RTVSPropertyOp11
 70
     1
102
RTVSPropertyOp12
 70
     1
102
RTVSPropertyOp13
 70
     1
102
RTVSPropertyOp14
 70
     1
102
RTVSPropertyOp15
 70
     1
102
RTVSPropertyOp16
 70
     1
102
RTVSPropertyOp17
 70
     1
102
RTVSPropertyOp18
 70
     1
102
RTVSPropertyOp19
 70
     1
102
RTVSPropertyOp20
 70
     1
102
RTVSPropertyOp21
 70
     1
102
RTVSPropertyOp22
 70
     1
102
RTVSPropertyOp23
 70
     1
102
RTVSPropertyOp24
 70
     1
102
RTVSPropertyOp25
 70
     1
102
RTVSPropertyOp26
 70
     1
102
RTVSPropertyOp27
 70
     1
  0
XRECORD
  5
5EA
102
{ACAD_REACTORS
330
5E9
102
}
330
5E9
100
AcDbXrecord
280
     1
102
RTVSPropertyOp0
 70
     1
102
RTVSPropertyOp1
 70
     1
102
RTVSPropertyOp2
 70
     1
102
RTVSPropertyOp3
 70
     1
102
RTVSPropertyOp4
 70
     1
102
RTVSPropertyOp5
 70
     1
102
RTVSPropertyOp6
 70
     1
102
RTVSPropertyOp7
 70
     1
102
RTVSPropertyOp8
 70
     1
102
RTVSPropertyOp9
 70
     1
102
RTVSPropertyOp10
 70
     1
102
RTVSPropertyOp11
 70
     1
102
RTVSPropertyOp12
 70
     1
102
RTVSPropertyOp13
 70
     1
102
RTVSPropertyOp14
 70
     1
102
RTVSPropertyOp15
 70
     1
102
RTVSPropertyOp16
 70
     1
102
RTVSPropertyOp17
 70
     1
102
RTVSPropertyOp18
 70
     1
102
RTVSPropertyOp19
 70
     1
102
RTVSPropertyOp20
 70
     1
102
RTVSPropertyOp21
 70
     1
102
RTVSPropertyOp22
 70
     1
102
RTVSPropertyOp23
 70
     1
102
RTVSPropertyOp24
 70
     1
102
RTVSPropertyOp25
 70
     1
102
RTVSPropertyOp26
 70
     1
102
RTVSPropertyOp27
 70
     1
  0
XRECORD
  5
5EC
102
{ACAD_REACTORS
330
5EB
102
}
330
5EB
100
AcDbXrecord
280
     1
102
RTVSPropertyOp0
 70
     1
102
RTVSPropertyOp1
 70
     1
102
RTVSPropertyOp2
 70
     1
102
RTVSPropertyOp3
 70
     1
102
RTVSPropertyOp4
 70
     1
102
RTVSPropertyOp5
 70
     1
102
RTVSPropertyOp6
 70
     1
102
RTVSPropertyOp7
 70
     1
102
RTVSPropertyOp8
 70
     1
102
RTVSPropertyOp9
 70
     1
102
RTVSPropertyOp10
 70
     1
102
RTVSPropertyOp11
 70
     1
102
RTVSPropertyOp12
 70
     1
102
RTVSPropertyOp13
 70
     1
102
RTVSPropertyOp14
 70
     1
102
RTVSPropertyOp15
 70
     1
102
RTVSPropertyOp16
 70
     1
102
RTVSPropertyOp17
 70
     1
102
RTVSPropertyOp18
 70
     1
102
RTVSPropertyOp19
 70
     1
102
RTVSPropertyOp20
 70
     1
102
RTVSPropertyOp21
 70
     1
102
RTVSPropertyOp22
 70
     1
102
RTVSPropertyOp23
 70
     1
102
RTVSPropertyOp24
 70
     1
102
RTVSPropertyOp25
 70
     1
102
RTVSPropertyOp26
 70
     1
102
RTVSPropertyOp27
 70
     1
  0
XRECORD
  5
5EE
102
{ACAD_REACTORS
330
5ED
102
}
330
5ED
100
AcDbXrecord
280
     1
102
RTVSPropertyOp0
 70
     1
102
RTVSPropertyOp1
 70
     1
102
RTVSPropertyOp2
 70
     1
102
RTVSPropertyOp3
 70
     1
102
RTVSPropertyOp4
 70
     1
102
RTVSPropertyOp5
 70
     1
102
RTVSPropertyOp6
 70
     1
102
RTVSPropertyOp7
 70
     1
102
RTVSPropertyOp8
 70
     1
102
RTVSPropertyOp9
 70
     1
102
RTVSPropertyOp10
 70
     1
102
RTVSPropertyOp11
 70
     1
102
RTVSPropertyOp12
 70
     1
102
RTVSPropertyOp13
 70
     1
102
RTVSPropertyOp14
 70
     1
102
RTVSPropertyOp15
 70
     1
102
RTVSPropertyOp16
 70
     1
102
RTVSPropertyOp17
 70
     1
102
RTVSPropertyOp18
 70
     1
102
RTVSPropertyOp19
 70
     1
102
RTVSPropertyOp20
 70
     1
102
RTVSPropertyOp21
 70
     1
102
RTVSPropertyOp22
 70
     1
102
RTVSPropertyOp23
 70
     1
102
RTVSPropertyOp24
 70
     1
102
RTVSPropertyOp25
 70
     1
102
RTVSPropertyOp26
 70
     1
102
RTVSPropertyOp27
 70
     1
  0
XRECORD
  5
5F0
102
{ACAD_REACTORS
330
5EF
102
}
330
5EF
100
AcDbXrecord
280
     1
102
RTVSPropertyOp0
 70
     1
102
RTVSPropertyOp1
 70
     1
102
RTVSPropertyOp2
 70
     1
102
RTVSPropertyOp3
 70
     1
102
RTVSPropertyOp4
 70
     1
102
RTVSPropertyOp5
 70
     1
102
RTVSPropertyOp6
 70
     1
102
RTVSPropertyOp7
 70
     1
102
RTVSPropertyOp8
 70
     1
102
RTVSPropertyOp9
 70
     1
102
RTVSPropertyOp10
 70
     1
102
RTVSPropertyOp11
 70
     1
102
RTVSPropertyOp12
 70
     1
102
RTVSPropertyOp13
 70
     1
102
RTVSPropertyOp14
 70
     1
102
RTVSPropertyOp15
 70
     1
102
RTVSPropertyOp16
 70
     1
102
RTVSPropertyOp17
 70
     1
102
RTVSPropertyOp18
 70
     1
102
RTVSPropertyOp19
 70
     1
102
RTVSPropertyOp20
 70
     1
102
RTVSPropertyOp21
 70
     1
102
RTVSPropertyOp22
 70
     1
102
RTVSPropertyOp23
 70
     1
102
RTVSPropertyOp24
 70
     1
102
RTVSPropertyOp25
 70
     1
102
RTVSPropertyOp26
 70
     1
102
RTVSPropertyOp27
 70
     1
  0
XRECORD
  5
604
102
{ACAD_REACTORS
330
603
102
}
330
603
100
AcDbXrecord
280
     1
102
RTVSPropertyOp0
 70
     1
102
RTVSPropertyOp1
 70
     1
102
RTVSPropertyOp2
 70
     1
102
RTVSPropertyOp3
 70
     1
102
RTVSPropertyOp4
 70
     1
102
RTVSPropertyOp5
 70
     1
102
RTVSPropertyOp6
 70
     1
102
RTVSPropertyOp7
 70
     1
102
RTVSPropertyOp8
 70
     1
102
RTVSPropertyOp9
 70
     1
102
RTVSPropertyOp10
 70
     1
102
RTVSPropertyOp11
 70
     1
102
RTVSPropertyOp12
 70
     1
102
RTVSPropertyOp13
 70
     1
102
RTVSPropertyOp14
 70
     1
102
RTVSPropertyOp15
 70
     1
102
RTVSPropertyOp16
 70
     1
102
RTVSPropertyOp17
 70
     1
102
RTVSPropertyOp18
 70
     1
102
RTVSPropertyOp19
 70
     1
102
RTVSPropertyOp20
 70
     1
102
RTVSPropertyOp21
 70
     1
102
RTVSPropertyOp22
 70
     1
102
RTVSPropertyOp23
 70
     1
102
RTVSPropertyOp24
 70
     1
102
RTVSPropertyOp25
 70
     1
102
RTVSPropertyOp26
 70
     1
102
RTVSPropertyOp27
 70
     1
  0
XRECORD
  5
5FA
102
{ACAD_REACTORS
330
5F9
102
}
330
5F9
100
AcDbXrecord
280
     1
102
RTVSPropertyOp0
 70
     1
102
RTVSPropertyOp1
 70
     1
102
RTVSPropertyOp2
 70
     1
102
RTVSPropertyOp3
 70
     1
102
RTVSPropertyOp4
 70
     1
102
RTVSPropertyOp5
 70
     1
102
RTVSPropertyOp6
 70
     1
102
RTVSPropertyOp7
 70
     1
102
RTVSPropertyOp8
 70
     1
102
RTVSPropertyOp9
 70
     1
102
RTVSPropertyOp10
 70
     1
102
RTVSPropertyOp11
 70
     1
102
RTVSPropertyOp12
 70
     1
102
RTVSPropertyOp13
 70
     1
102
RTVSPropertyOp14
 70
     1
102
RTVSPropertyOp15
 70
     1
102
RTVSPropertyOp16
 70
     1
102
RTVSPropertyOp17
 70
     1
102
RTVSPropertyOp18
 70
     1
102
RTVSPropertyOp19
 70
     1
102
RTVSPropertyOp20
 70
     1
102
RTVSPropertyOp21
 70
     1
102
RTVSPropertyOp22
 70
     1
102
RTVSPropertyOp23
 70
     1
102
RTVSPropertyOp24
 70
     1
102
RTVSPropertyOp25
 70
     1
102
RTVSPropertyOp26
 70
     1
102
RTVSPropertyOp27
 70
     1
  0
XRECORD
  5
602
102
{ACAD_REACTORS
330
601
102
}
330
601
100
AcDbXrecord
280
     1
102
RTVSPropertyOp0
 70
     1
102
RTVSPropertyOp1
 70
     1
102
RTVSPropertyOp2
 70
     1
102
RTVSPropertyOp3
 70
     1
102
RTVSPropertyOp4
 70
     1
102
RTVSPropertyOp5
 70
     1
102
RTVSPropertyOp6
 70
     1
102
RTVSPropertyOp7
 70
     1
102
RTVSPropertyOp8
 70
     1
102
RTVSPropertyOp9
 70
     1
102
RTVSPropertyOp10
 70
     1
102
RTVSPropertyOp11
 70
     1
102
RTVSPropertyOp12
 70
     1
102
RTVSPropertyOp13
 70
     1
102
RTVSPropertyOp14
 70
     1
102
RTVSPropertyOp15
 70
     1
102
RTVSPropertyOp16
 70
     1
102
RTVSPropertyOp17
 70
     1
102
RTVSPropertyOp18
 70
     1
102
RTVSPropertyOp19
 70
     1
102
RTVSPropertyOp20
 70
     1
102
RTVSPropertyOp21
 70
     1
102
RTVSPropertyOp22
 70
     1
102
RTVSPropertyOp23
 70
     1
102
RTVSPropertyOp24
 70
     1
102
RTVSPropertyOp25
 70
     1
102
RTVSPropertyOp26
 70
     1
102
RTVSPropertyOp27
 70
     1
  0
ENDSEC
  0
EOF
