  0
SECTION
  2
HEADER
  9
$ACADVER
  1
AC1015
  9
$ACADMAINTVER
 70
     6
  9
$DWGCODEPAGE
  3
ANSI_1252
  9
$INSBASE
 10
0.0
 20
0.0
 30
0.0
  9
$EXTMIN
 10
0.0
 20
0.0
 30
0.0
  9
$EXTMAX
 10
25.0
 20
35.0
 30
0.0
  9
$LIMMIN
 10
0.0
 20
0.0
  9
$LIMMAX
 10
420.0
 20
297.0
  9
$ORTHOMODE
 70
     0
  9
$REGENMODE
 70
     1
  9
$FILLMODE
 70
     1
  9
$QTEXTMODE
 70
     0
  9
$MIRRTEXT
 70
     1
  9
$LTSCALE
 40
4.25
  9
$ATTMODE
 70
     1
  9
$TEXTSIZE
 40
2.5
  9
$TRACEWID
 40
1.0
  9
$TEXTSTYLE
  7
Standard
  9
$CLAYER
  8
0
  9
$CELTYPE
  6
ByLayer
  9
$CECOLOR
 62
   256
  9
$CELTSCALE
 40
1.0
  9
$DISPSILH
 70
     0
  9
$DIMSCALE
 40
1.0
  9
$DIMASZ
 40
2.5
  9
$DIMEXO
 40
0.625
  9
$DIMDLI
 40
3.75
  9
$DIMRND
 40
0.0
  9
$DIMDLE
 40
0.0
  9
$DIMEXE
 40
1.25
  9
$DIMTP
 40
0.0
  9
$DIMTM
 40
0.0
  9
$DIMTXT
 40
2.5
  9
$DIMCEN
 40
2.5
  9
$DIMTSZ
 40
0.0
  9
$DIMTOL
 70
     0
  9
$DIMLIM
 70
     0
  9
$DIMTIH
 70
     0
  9
$DIMTOH
 70
     0
  9
$DIMSE1
 70
     0
  9
$DIMSE2
 70
     0
  9
$DIMTAD
 70
     1
  9
$DIMZIN
 70
     8
  9
$DIMBLK
  1

  9
$DIMASO
 70
     1
  9
$DIMSHO
 70
     1
  9
$DIMPOST
  1

  9
$DIMAPOST
  1

  9
$DIMALT
 70
     0
  9
$DIMALTD
 70
     3
  9
$DIMALTF
 40
0.03937007874016
  9
$DIMLFAC
 40
1.0
  9
$DIMTOFL
 70
     1
  9
$DIMTVP
 40
0.0
  9
$DIMTIX
 70
     0
  9
$DIMSOXD
 70
     0
  9
$DIMSAH
 70
     0
  9
$DIMBLK1
  1

  9
$DIMBLK2
  1

  9
$DIMSTYLE
  2
ISO-25
  9
$DIMCLRD
 70
     0
  9
$DIMCLRE
 70
     0
  9
$DIMCLRT
 70
     0
  9
$DIMTFAC
 40
1.0
  9
$DIMGAP
 40
0.625
  9
$DIMJUST
 70
     0
  9
$DIMSD1
 70
     0
  9
$DIMSD2
 70
     0
  9
$DIMTOLJ
 70
     0
  9
$DIMTZIN
 70
     8
  9
$DIMALTZ
 70
     0
  9
$DIMALTTZ
 70
     0
  9
$DIMUPT
 70
     0
  9
$DIMDEC
 70
     2
  9
$DIMTDEC
 70
     2
  9
$DIMALTU
 70
     2
  9
$DIMALTTD
 70
     3
  9
$DIMTXSTY
  7
Standard
  9
$DIMAUNIT
 70
     0
  9
$DIMADEC
 70
     0
  9
$DIMALTRND
 40
0.0
  9
$DIMAZIN
 70
     0
  9
$DIMDSEP
 70
    44
  9
$DIMATFIT
 70
     3
  9
$DIMFRAC
 70
     0
  9
$DIMLDRBLK
  1

  9
$DIMLUNIT
 70
     2
  9
$DIMLWD
 70
    -2
  9
$DIMLWE
 70
    -2
  9
$DIMTMOVE
 70
     0
  9
$LUNITS
 70
     2
  9
$LUPREC
 70
     4
  9
$SKETCHINC
 40
1.0
  9
$FILLETRAD
 40
10.0
  9
$AUNITS
 70
     0
  9
$AUPREC
 70
     0
  9
$MENU
  1
.
  9
$ELEVATION
 40
0.0
  9
$PELEVATION
 40
0.0
  9
$THICKNESS
 40
0.0
  9
$LIMCHECK
 70
     0
  9
$CHAMFERA
 40
10.0
  9
$CHAMFERB
 40
10.0
  9
$CHAMFERC
 40
20.0
  9
$CHAMFERD
 40
0.0
  9
$SKPOLY
 70
     0
  9
$TDCREATE
 40
2457248.666666667
  9
$TDUCREATE
 40
2457248.583333333
  9
$TDUPDATE
 40
2457248.670138889
  9
$TDUUPDATE
 40
2457248.586805556
  9
$TDINDWG
 40
0.0000000116
  9
$TDUSRTIMER
 40
0.0000000116
  9
$USRTIMER
 70
     1
  9
$ANGBASE
 50
0.0
  9
$ANGDIR
 70
     0
  9
$PDMODE
 70
     0
  9
$PDSIZE
 40
0.0
  9
$PLINEWID
 40
0.0
  9
$SPLFRAME
 70
     0
  9
$SPLINETYPE
 70
     6
  9
$SPLINESEGS
 70
     8
  9
$HANDSEED
  5
60D
  9
$SURFTAB1
 70
     6
  9
$SURFTAB2
 70
     6
  9
$SURFTYPE
 70
     6
  9
$SURFU
 70
     6
  9
$SURFV
 70
     6
  9
$UCSBASE
  2

  9
$UCSNAME
  2

  9
$UCSORG
 10
0.0
 20
0.0
 30
0.0
  9
$UCSXDIR
 10
1.0
 20
0.0
 30
0.0
  9
$UCSYDIR
 10
0.0
 20
1.0
 30
0.0
  9
$UCSORTHOREF
  2

  9
$UCSORTHOVIEW
 70
     0
  9
$UCSORGTOP
 10
0.0
 20
0.0
 30
0.0
  9
$UCSORGBOTTOM
 10
0.0
 20
0.0
 30
0.0
  9
$UCSORGLEFT
 10
0.0
 20
0.0
 30
0.0
  9
$UCSORGRIGHT
 10
0.0
 20
0.0
 30
0.0
  9
$UCSORGFRONT
 10
0.0
 20
0.0
 30
0.0
  9
$UCSORGBACK
 10
0.0
 20
0.0
 30
0.0
  9
$PUCSBASE
  2

  9
$PUCSNAME
  2

  9
$PUCSORG
 10
0.0
 20
0.0
 30
0.0
  9
$PUCSXDIR
 10
1.0
 20
0.0
 30
0.0
  9
$PUCSYDIR
 10
0.0
 20
1.0
 30
0.0
  9
$PUCSORTHOREF
  2

  9
$PUCSORTHOVIEW
 70
     0
  9
$PUCSORGTOP
 10
0.0
 20
0.0
 30
0.0
  9
$PUCSORGBOTTOM
 10
0.0
 20
0.0
 30
0.0
  9
$PUCSORGLEFT
 10
0.0
 20
0.0
 30
0.0
  9
$PUCSORGRIGHT
 10
0.0
 20
0.0
 30
0.0
  9
$PUCSORGFRONT
 10
0.0
 20
0.0
 30
0.0
  9
$PUCSORGBACK
 10
0.0
 20
0.0
 30
0.0
  9
$USERI1
 70
     0
  9
$USERI2
 70
     0
  9
$USERI3
 70
     0
  9
$USERI4
 70
     0
  9
$USERI5
 70
     0
  9
$USERR1
 40
0.0
  9
$USERR2
 40
0.0
  9
$USERR3
 40
0.0
  9
$USERR4
 40
0.0
  9
$USERR5
 40
0.0
  9
$WORLDVIEW
 70
     1
  9
$SHADEDGE
 70
     3
  9
$SHADEDIF
 70
    70
  9
$TILEMODE
 70
     1
  9
$MAXACTVP
 70
    64
  9
$PINSBASE
 10
0.0
 20
0.0
 30
0.0
  9
$PLIMCHECK
 70
     0
  9
$PEXTMIN
 10
1.000000000000000E+20
 20
1.000000000000000E+20
 30
1.000000000000000E+20
  9
$PEXTMAX
 10
-1.000000000000000E+20
 20
-1.000000000000000E+20
 30
-1.000000000000000E+20
  9
$PLIMMIN
 10
0.0
 20
0.0
  9
$PLIMMAX
 10
420.0
 20
297.0
  9
$UNITMODE
 70
     0
  9
$VISRETAIN
 70
     1
  9
$PLINEGEN
 70
     0
  9
$PSLTSCALE
 70
     1
  9
$TREEDEPTH
 70
  3020
  9
$CMLSTYLE
  2
Standard
  9
$CMLJUST
 70
     0
  9
$CMLSCALE
 40
20.0
  9
$PROXYGRAPHICS
 70
     1
  9
$MEASUREMENT
 70
     1
  9
$CELWEIGHT
370
    -1
  9
$ENDCAPS
280
     0
  9
$JOINSTYLE
280
     0
  9
$LWDISPLAY
290
     0
  9
$INSUNITS
 70
     4
  9
$HYPERLINKBASE
  1

  9
$STYLESHEET
  1

  9
$XEDIT
290
     1
  9
$CEPSNTYPE
380
     0
  9
$PSTYLEMODE
290
     1
  9
$FINGERPRINTGUID
  2
{C3344B7D-C3FA-4DAF-8D6F-F6FF94E52737}
  9
$VERSIONGUID
  2
{FAEB1C32-E019-11D5-929B-00C0DF256EC4}
  9
$EXTNAMES
290
     1
  9
$PSVPSCALE
 40
0.0
  9
$OLESTARTUP
290
     0
  0
ENDSEC
  0
SECTION
  2
CLASSES
  0
CLASS
  1
ACDBDICTIONARYWDFLT
  2
AcDbDictionaryWithDefault
  3
ObjectDBX Classes
 90
        0
280
     0
281
     0
  0
CLASS
  1
VISUALSTYLE
  2
AcDbVisualStyle
  3
ObjectDBX Classes
 90
     4095
280
     0
281
     0
  0
CLASS
  1
MATERIAL
  2
AcDbMaterial
  3
ObjectDBX Classes
 90
     1153
280
     0
281
     0
  0
CLASS
  1
SCALE
  2
AcDbScale
  3
ObjectDBX Classes
 90
     1153
280
     0
281
     0
  0
CLASS
  1
DICTIONARYVAR
  2
AcDbDictionaryVar
  3
ObjectDBX Classes
 90
        0
280
     0
281
     0
  0
CLASS
  1
ACDBPLACEHOLDER
  2
AcDbPlaceHolder
  3
ObjectDBX Classes
 90
        0
280
     0
281
     0
  0
CLASS
  1
LAYOUT
  2
AcDbLayout
  3
ObjectDBX Classes
 90
        0
280
     0
281
     0
  0
ENDSEC
  0
SECTION
  2
TABLES
  0
TABLE
  2
VPORT
  5
8
330
0
100
AcDbSymbolTable
 70
     1
  0
VPORT
  5
29
330
8
100
AcDbSymbolTableRecord
100
AcDbViewportTableRecord
  2
*Active
 70
     0
 10
0.0
 20
0.0
 11
1.0
 21
1.0
 12
11.26
 22
4.5
 13
0.0
 23
0.0
 14
10.0
 24
10.0
 15
10.0
 25
10.0
 16
0.0
 26
0.0
 36
1.0
 17
0.0
 27
0.0
 37
0.0
 40
9.0
 41
2.503333333333333
 42
50.0
 43
0.0
 44
0.0
 50
0.0
 51
0.0
 71
     0
 72
   100
 73
     1
 74
     3
 75
     0
 76
     0
 77
     0
 78
     0
281
     0
 65
     1
110
0.0
120
0.0
130
0.0
111
1.0
121
0.0
131
0.0
112
0.0
122
1.0
132
0.0
 79
     0
146
0.0
  0
ENDTAB
  0
TABLE
  2
LTYPE
  5
5
330
0
100
AcDbSymbolTable
 70
     7
  0
LTYPE
  5
14
330
5
100
AcDbSymbolTableRecord
100
AcDbLinetypeTableRecord
  2
ByBlock
 70
     0
  3

 72
    65
 73
     0
 40
0.0
  0
LTYPE
  5
15
330
5
100
AcDbSymbolTableRecord
100
AcDbLinetypeTableRecord
  2
ByLayer
 70
     0
  3

 72
    65
 73
     0
 40
0.0
  0
LTYPE
  5
16
330
5
100
AcDbSymbolTableRecord
100
AcDbLinetypeTableRecord
  2
Continuous
 70
     0
  3
Solid line
 72
    65
 73
     0
 40
0.0
  0
LTYPE
  5
101
330
5
100
AcDbSymbolTableRecord
100
AcDbLinetypeTableRecord
  2
SK1
 70
     0
  3
THICK
 72
    65
 73
     0
 40
0.0
  0
LTYPE
  5
108
330
5
100
AcDbSymbolTableRecord
100
AcDbLinetypeTableRecord
  2
NOCUT
 70
     0
  3
THICK
 72
    65
 73
     0
 40
0.0
  0
LTYPE
  5
10D
330
5
100
AcDbSymbolTableRecord
100
AcDbLinetypeTableRecord
  2
SK2
 70
     0
  3
THIN
 72
    65
 73
     0
 40
0.0
  0
LTYPE
  5
1B9
330
5
100
AcDbSymbolTableRecord
100
AcDbLinetypeTableRecord
  2
L2
 70
     0
  3
THIN
 72
    65
 73
     0
 40
0.0
  0
LTYPE
  5
315
330
5
100
AcDbSymbolTableRecord
100
AcDbLinetypeTableRecord
  2
LONGDASH_DASH
 70
     0
  3
THIN_DASHDOT
 72
    65
 73
     4
 40
0.85
 49
0.4
 74
     0
 49
-0.2
 74
     0
 49
0.05
 74
     0
 49
-0.2
 74
     0
  0
LTYPE
  5
31B
330
5
100
AcDbSymbolTableRecord
100
AcDbLinetypeTableRecord
  2
INFTOTAL
 70
     0
  3
THIN
 72
    65
 73
     0
 40
0.0
  0
ENDTAB
  0
TABLE
  2
LAYER
  5
2
330
0
100
AcDbSymbolTable
 70
    11
  0
LAYER
  5
10
330
2
100
AcDbSymbolTableRecord
100
AcDbLayerTableRecord
  2
0
 70
     0
 62
     7
  6
Continuous
370
    -3
390
F
  0
LAYER
  5
44
330
2
100
AcDbSymbolTableRecord
100
AcDbLayerTableRecord
  2
1
 70
     0
 62
4
  6
CONTINUOUS
370
50
370
    -3
390
F
  0
LAYER
  5
100
330
2
100
AcDbSymbolTableRecord
100
AcDbLayerTableRecord
  2
SK1
 70
     0
 62
4
  6
CONTINUOUS
370
50
370
    -3
390
F
  0
LAYER
  5
107
330
2
100
AcDbSymbolTableRecord
100
AcDbLayerTableRecord
  2
NOCUT
 70
     0
 62
7
  6
CONTINUOUS
370
25
370
    -3
390
F
  0
LAYER
  5
10C
330
2
100
AcDbSymbolTableRecord
100
AcDbLayerTableRecord
  2
SK2
 70
     0
 62
7
  6
CONTINUOUS
370
25
370
    -3
390
F
  0
LAYER
  5
1B8
330
2
100
AcDbSymbolTableRecord
100
AcDbLayerTableRecord
  2
2
 70
     0
 62
7
  6
CONTINUOUS
370
25
370
    -3
390
F
  0
LAYER
  5
203
330
2
100
AcDbSymbolTableRecord
100
AcDbLayerTableRecord
  2
CUT
 70
     0
 62
1
  6
CONTINUOUS
370
25
370
    -3
390
F
  0
LAYER
  5
316
330
2
100
AcDbSymbolTableRecord
100
AcDbLayerTableRecord
  2
4
 70
     0
 62
2
  6
LONGDASH_DASH
370
25
370
    -3
390
F
  0
LAYER
  5
318
330
2
100
AcDbSymbolTableRecord
100
AcDbLayerTableRecord
  2
SK4
 70
     0
 62
2
  6
LONGDASH_DASH
370
25
370
    -3
390
F
  0
LAYER
  5
31A
330
2
100
AcDbSymbolTableRecord
100
AcDbLayerTableRecord
  2
INFTOTAL
 70
     0
 62
9
  6
CONTINUOUS
370
18
370
    -3
390
F
  0
LAYER
  5
320
330
2
100
AcDbSymbolTableRecord
100
AcDbLayerTableRecord
  2
SK6
 70
     0
 62
5
  6
CONTINUOUS
370
25
370
    -3
390
F
  0
ENDTAB
  0
TABLE
  2
STYLE
  5
3
330
0
100
AcDbSymbolTable
 70
     1
  0
STYLE
  5
11
330
3
100
AcDbSymbolTableRecord
100
AcDbTextStyleTableRecord
  2
Standard
 70
     0
 40
0.0
 41
1.0
 50
0.0
 71
     0
 42
2.5
  3
Monospac821 BT
  4

  0
ENDTAB
  0
TABLE
  2
VIEW
  5
6
330
0
100
AcDbSymbolTable
 70
     0
  0
ENDTAB
  0
TABLE
  2
UCS
  5
7
330
0
100
AcDbSymbolTable
 70
     0
  0
ENDTAB
  0
TABLE
  2
APPID
  5
9
330
0
100
AcDbSymbolTable
 70
     2
  0
APPID
  5
12
330
9
100
AcDbSymbolTableRecord
100
AcDbRegAppTableRecord
  2
ACAD
 70
     0
  0
APPID
  5
3F
330
9
100
AcDbSymbolTableRecord
100
AcDbRegAppTableRecord
  2
ccLab
 70
     0
  0
ENDTAB
  0
TABLE
  2
DIMSTYLE
  5
A
330
0
100
AcDbSymbolTable
 70
     1
100
AcDbDimStyleTable
  0
DIMSTYLE
105
27
330
A
100
AcDbSymbolTableRecord
100
AcDbDimStyleTableRecord
  2
ISO-25
 70
     0
 41
2.5
 42
0.625
 43
3.75
 44
1.25
 73
     0
 74
     0
 77
     1
 78
     8
140
2.5
141
2.5
143
0.03937007874016
147
0.625
171
     3
172
     1
271
     2
272
     2
274
     3
278
    44
283
     0
284
     8
340
11
  0
ENDTAB
  0
TABLE
  2
BLOCK_RECORD
  5
1
330
0
100
AcDbSymbolTable
 70
     2
  0
BLOCK_RECORD
  5
1F
330
1
100
AcDbSymbolTableRecord
100
AcDbBlockTableRecord
  2
*Model_Space
340
22
  0
BLOCK_RECORD
  5
1B
330
1
100
AcDbSymbolTableRecord
100
AcDbBlockTableRecord
  2
*Paper_Space
340
1E
  0
BLOCK_RECORD
  5
23
330
1
100
AcDbSymbolTableRecord
100
AcDbBlockTableRecord
  2
*Paper_Space0
340
26
  0
ENDTAB
  0
ENDSEC
  0
SECTION
  2
BLOCKS
  0
BLOCK
  5
20
330
1F
100
AcDbEntity
  8
0
100
AcDbBlockBegin
  2
*Model_Space
 70
     0
 10
0.0
 20
0.0
 30
0.0
  3
*Model_Space
  1

  0
ENDBLK
  5
21
330
1F
100
AcDbEntity
  8
0
100
AcDbBlockEnd
  0
BLOCK
  5
1C
330
1B
100
AcDbEntity
 67
     1
  8
0
100
AcDbBlockBegin
  2
*Paper_Space
 70
     0
 10
0.0
 20
0.0
 30
0.0
  3
*Paper_Space
  1

  0
ENDBLK
  5
1D
330
1B
100
AcDbEntity
 67
     1
  8
0
100
AcDbBlockEnd
  0
BLOCK
  5
24
330
23
100
AcDbEntity
  8
0
100
AcDbBlockBegin
  2
*Paper_Space0
 70
     0
 10
0.0
 20
0.0
 30
0.0
  3
*Paper_Space0
  1

  0
ENDBLK
  5
25
330
23
100
AcDbEntity
  8
0
100
AcDbBlockEnd
  0
ENDSEC
  0
SECTION
  2
ENTITIES
  0
LINE
  5
32A
330
1F
100
AcDbEntity
  8
1
  6
CONTINUOUS
370
50
 62
4
100
AcDbLine
 10
54.669998
 20
0.0
 30
0.0
 11
54.669239
 21
0.088951
 31
0.0
  0
LINE
  5
32B
330
1F
100
AcDbEntity
  8
1
  6
CONTINUOUS
370
50
 62
4
100
AcDbLine
 10
54.669998
 20
4.503331999999999
 30
0.0
 11
54.669239
 21
4.547808
 31
0.0
  0
LINE
  5
32C
330
1F
100
AcDbEntity
  8
1
  6
CONTINUOUS
370
50
 62
4
100
AcDbLine
 10
54.669998
 20
-4.503331999999999
 30
0.0
 11
54.669239
 21
-4.458857
 31
0.0
  0
LINE
  5
32D
330
1F
100
AcDbEntity
  8
1
  6
CONTINUOUS
370
50
 62
4
100
AcDbLine
 10
54.669239
 20
0.088951
 30
0.0
 11
54.666965
 21
0.177712
 31
0.0
  0
LINE
  5
32E
330
1F
100
AcDbEntity
  8
1
  6
CONTINUOUS
370
50
 62
4
100
AcDbLine
 10
54.666965
 20
0.177712
 30
0.0
 11
54.663185
 21
0.26632
 31
0.0
  0
LINE
  5
32F
330
1F
100
AcDbEntity
  8
1
  6
CONTINUOUS
370
50
 62
4
100
AcDbLine
 10
54.669239
 20
-4.458857
 30
0.0
 11
54.666965
 21
-4.414476
 31
0.0
  0
LINE
  5
330
330
1F
100
AcDbEntity
  8
1
  6
CONTINUOUS
370
50
 62
4
100
AcDbLine
 10
54.669239
 20
4.547808
 30
0.0
 11
54.666965
 21
4.592188
 31
0.0
  0
LINE
  5
331
330
1F
100
AcDbEntity
  8
1
  6
CONTINUOUS
370
50
 62
4
100
AcDbLine
 10
54.663185
 20
0.26632
 30
0.0
 11
54.657909
 21
0.354814
 31
0.0
  0
LINE
  5
332
330
1F
100
AcDbEntity
  8
1
  6
CONTINUOUS
370
50
 62
4
100
AcDbLine
 10
54.657909
 20
0.354814
 30
0.0
 11
54.651146
 21
0.443234
 31
0.0
  0
LINE
  5
333
330
1F
100
AcDbEntity
  8
1
  6
CONTINUOUS
370
50
 62
4
100
AcDbLine
 10
54.666965
 20
4.592188
 30
0.0
 11
54.663185
 21
4.636492
 31
0.0
  0
LINE
  5
334
330
1F
100
AcDbEntity
  8
1
  6
CONTINUOUS
370
50
 62
4
100
AcDbLine
 10
54.666965
 20
-4.414476
 30
0.0
 11
54.663185
 21
-4.370172999999999
 31
0.0
  0
LINE
  5
335
330
1F
100
AcDbEntity
  8
1
  6
CONTINUOUS
370
50
 62
4
100
AcDbLine
 10
54.651146
 20
0.443234
 30
0.0
 11
54.642895
 21
0.531617
 31
0.0
  0
LINE
  5
336
330
1F
100
AcDbEntity
  8
1
  6
CONTINUOUS
370
50
 62
4
100
AcDbLine
 10
54.642895
 20
0.531617
 30
0.0
 11
54.633167
 21
0.62
 31
0.0
  0
LINE
  5
337
330
1F
100
AcDbEntity
  8
1
  6
CONTINUOUS
370
50
 62
4
100
AcDbLine
 10
54.663185
 20
-4.370172999999999
 30
0.0
 11
54.657909
 21
-4.325925
 31
0.0
  0
LINE
  5
338
330
1F
100
AcDbEntity
  8
1
  6
CONTINUOUS
370
50
 62
4
100
AcDbLine
 10
54.663185
 20
4.636492
 30
0.0
 11
54.657909
 21
4.680739
 31
0.0
  0
LINE
  5
339
330
1F
100
AcDbEntity
  8
1
  6
CONTINUOUS
370
50
 62
4
100
AcDbLine
 10
54.657909
 20
-4.325925
 30
0.0
 11
54.651146
 21
-4.281715
 31
0.0
  0
LINE
  5
33A
330
1F
100
AcDbEntity
  8
1
  6
CONTINUOUS
370
50
 62
4
100
AcDbLine
 10
54.657909
 20
4.680739
 30
0.0
 11
54.651146
 21
4.724949
 31
0.0
  0
LINE
  5
33B
330
1F
100
AcDbEntity
  8
1
  6
CONTINUOUS
370
50
 62
4
100
AcDbLine
 10
54.651146
 20
-4.281715
 30
0.0
 11
54.642895
 21
-4.237524
 31
0.0
  0
LINE
  5
33C
330
1F
100
AcDbEntity
  8
1
  6
CONTINUOUS
370
50
 62
4
100
AcDbLine
 10
54.651146
 20
4.724949
 30
0.0
 11
54.642895
 21
4.76914
 31
0.0
  0
LINE
  5
33D
330
1F
100
AcDbEntity
  8
1
  6
CONTINUOUS
370
50
 62
4
100
AcDbLine
 10
54.642895
 20
-4.237524
 30
0.0
 11
54.633167
 21
-4.193332
 31
0.0
  0
LINE
  5
33E
330
1F
100
AcDbEntity
  8
1
  6
CONTINUOUS
370
50
 62
4
100
AcDbLine
 10
54.642895
 20
4.76914
 30
0.0
 11
54.633167
 21
4.813332
 31
0.0
  0
LINE
  5
33F
330
1F
100
AcDbEntity
  8
1
  6
CONTINUOUS
370
50
 62
4
100
AcDbLine
 10
3.731482
 20
-1.539406
 30
0.0
 11
3.596128
 21
-1.399723
 31
0.0
  0
LINE
  5
340
330
1F
100
AcDbEntity
  8
1
  6
CONTINUOUS
370
50
 62
4
100
AcDbLine
 10
3.731482
 20
-1.539406
 30
0.0
 11
3.596128
 21
-1.399723
 31
0.0
  0
LINE
  5
341
330
1F
100
AcDbEntity
  8
1
  6
CONTINUOUS
370
50
 62
4
100
AcDbLine
 10
54.669998
 20
5.2
 30
0.0
 11
53.669998
 21
6.199999999999999
 31
0.0
  0
LINE
  5
342
330
1F
100
AcDbEntity
  8
1
  6
CONTINUOUS
370
50
 62
4
100
AcDbLine
 10
3.874625
 20
-1.674881
 30
0.0
 11
3.731482
 21
-1.539406
 31
0.0
  0
LINE
  5
343
330
1F
100
AcDbEntity
  8
1
  6
CONTINUOUS
370
50
 62
4
100
AcDbLine
 10
3.874625
 20
-1.674881
 30
0.0
 11
3.731482
 21
-1.539406
 31
0.0
  0
LINE
  5
344
330
1F
100
AcDbEntity
  8
1
  6
CONTINUOUS
370
50
 62
4
100
AcDbLine
 10
4.024446999999999
 20
-1.806259
 30
0.0
 11
3.874625
 21
-1.674881
 31
0.0
  0
LINE
  5
345
330
1F
100
AcDbEntity
  8
1
  6
CONTINUOUS
370
50
 62
4
100
AcDbLine
 10
4.024446999999999
 20
-1.806259
 30
0.0
 11
3.874625
 21
-1.674881
 31
0.0
  0
LINE
  5
346
330
1F
100
AcDbEntity
  8
1
  6
CONTINUOUS
370
50
 62
4
100
AcDbLine
 10
54.633167
 20
4.813332
 30
0.0
 11
54.505363
 21
4.924778
 31
0.0
  0
LINE
  5
347
330
1F
100
AcDbEntity
  8
1
  6
CONTINUOUS
370
50
 62
4
100
AcDbLine
 10
54.505363
 20
4.924778
 30
0.0
 11
54.374493
 21
5.038864999999999
 31
0.0
  0
LINE
  5
348
330
1F
100
AcDbEntity
  8
1
  6
CONTINUOUS
370
50
 62
4
100
AcDbLine
 10
54.374493
 20
5.038864999999999
 30
0.0
 11
54.240437
 21
5.155688
 31
0.0
  0
LINE
  5
349
330
1F
100
AcDbEntity
  8
1
  6
CONTINUOUS
370
50
 62
4
100
AcDbLine
 10
54.240437
 20
5.155688
 30
0.0
 11
54.103085
 21
5.275348999999999
 31
0.0
  0
LINE
  5
34A
330
1F
100
AcDbEntity
  8
1
  6
CONTINUOUS
370
50
 62
4
100
AcDbLine
 10
54.103085
 20
5.275348999999999
 30
0.0
 11
53.962315
 21
5.397953999999999
 31
0.0
  0
LINE
  5
34B
330
1F
100
AcDbEntity
  8
1
  6
CONTINUOUS
370
50
 62
4
100
AcDbLine
 10
53.962315
 20
5.397953999999999
 30
0.0
 11
53.817997
 21
5.523612
 31
0.0
  0
LINE
  5
34C
330
1F
100
AcDbEntity
  8
1
  6
CONTINUOUS
370
50
 62
4
100
AcDbLine
 10
53.817997
 20
5.523612
 30
0.0
 11
53.669998
 21
5.652443
 31
0.0
  0
LINE
  5
34D
330
1F
100
AcDbEntity
  8
1
  6
CONTINUOUS
370
50
 62
4
100
AcDbLine
 10
4.179917
 20
-1.933577
 30
0.0
 11
4.024446999999999
 21
-1.806259
 31
0.0
  0
LINE
  5
34E
330
1F
100
AcDbEntity
  8
1
  6
CONTINUOUS
370
50
 62
4
100
AcDbLine
 10
4.179917
 20
-1.933577
 30
0.0
 11
4.024446999999999
 21
-1.806259
 31
0.0
  0
LINE
  5
34F
330
1F
100
AcDbEntity
  8
1
  6
CONTINUOUS
370
50
 62
4
100
AcDbLine
 10
3.731482
 20
-5.485107
 30
0.0
 11
3.596128
 21
-5.377776
 31
0.0
  0
LINE
  5
350
330
1F
100
AcDbEntity
  8
1
  6
CONTINUOUS
370
50
 62
4
100
AcDbLine
 10
3.731482
 20
-5.485107
 30
0.0
 11
3.596048
 21
-5.377815
 31
0.0
  0
LINE
  5
351
330
1F
100
AcDbEntity
  8
1
  6
CONTINUOUS
370
50
 62
4
100
AcDbLine
 10
4.340006
 20
-2.056872
 30
0.0
 11
4.179917
 21
-1.933577
 31
0.0
  0
LINE
  5
352
330
1F
100
AcDbEntity
  8
1
  6
CONTINUOUS
370
50
 62
4
100
AcDbLine
 10
4.340006
 20
-2.056872
 30
0.0
 11
4.179917
 21
-1.933577
 31
0.0
  0
LINE
  5
353
330
1F
100
AcDbEntity
  8
1
  6
CONTINUOUS
370
50
 62
4
100
AcDbLine
 10
3.874625
 20
-5.593019
 30
0.0
 11
3.731482
 21
-5.485107
 31
0.0
  0
LINE
  5
354
330
1F
100
AcDbEntity
  8
1
  6
CONTINUOUS
370
50
 62
4
100
AcDbLine
 10
3.874625
 20
-5.593019
 30
0.0
 11
3.731482
 21
-5.485107
 31
0.0
  0
LINE
  5
355
330
1F
100
AcDbEntity
  8
1
  6
CONTINUOUS
370
50
 62
4
100
AcDbLine
 10
4.503683
 20
-2.176181
 30
0.0
 11
4.340006
 21
-2.056872
 31
0.0
  0
LINE
  5
356
330
1F
100
AcDbEntity
  8
1
  6
CONTINUOUS
370
50
 62
4
100
AcDbLine
 10
4.503683
 20
-2.176181
 30
0.0
 11
4.340006
 21
-2.056872
 31
0.0
  0
LINE
  5
357
330
1F
100
AcDbEntity
  8
1
  6
CONTINUOUS
370
50
 62
4
100
AcDbLine
 10
4.024446999999999
 20
-5.701353999999999
 30
0.0
 11
3.874625
 21
-5.593019
 31
0.0
  0
LINE
  5
358
330
1F
100
AcDbEntity
  8
1
  6
CONTINUOUS
370
50
 62
4
100
AcDbLine
 10
4.024446999999999
 20
-5.701353999999999
 30
0.0
 11
3.874625
 21
-5.593019
 31
0.0
  0
LINE
  5
359
330
1F
100
AcDbEntity
  8
1
  6
CONTINUOUS
370
50
 62
4
100
AcDbLine
 10
4.179917
 20
-5.809914
 30
0.0
 11
4.024446999999999
 21
-5.701353999999999
 31
0.0
  0
LINE
  5
35A
330
1F
100
AcDbEntity
  8
1
  6
CONTINUOUS
370
50
 62
4
100
AcDbLine
 10
4.179917
 20
-5.809914
 30
0.0
 11
4.024446999999999
 21
-5.701353999999999
 31
0.0
  0
LINE
  5
35B
330
1F
100
AcDbEntity
  8
1
  6
CONTINUOUS
370
50
 62
4
100
AcDbLine
 10
4.67
 20
-2.291438
 30
0.0
 11
4.503683
 21
-2.176181
 31
0.0
  0
LINE
  5
35C
330
1F
100
AcDbEntity
  8
1
  6
CONTINUOUS
370
50
 62
4
100
AcDbLine
 10
4.67
 20
-2.291438
 30
0.0
 11
4.503683
 21
-2.176181
 31
0.0
  0
LINE
  5
35D
330
1F
100
AcDbEntity
  8
1
  6
CONTINUOUS
370
50
 62
4
100
AcDbLine
 10
4.340006
 20
-5.918502999999999
 30
0.0
 11
4.179917
 21
-5.809914
 31
0.0
  0
LINE
  5
35E
330
1F
100
AcDbEntity
  8
1
  6
CONTINUOUS
370
50
 62
4
100
AcDbLine
 10
4.340006
 20
-5.918502999999999
 30
0.0
 11
4.179917
 21
-5.809914
 31
0.0
  0
LINE
  5
35F
330
1F
100
AcDbEntity
  8
1
  6
CONTINUOUS
370
50
 62
4
100
AcDbLine
 10
4.503683
 20
-6.026924
 30
0.0
 11
4.340006
 21
-5.918502999999999
 31
0.0
  0
LINE
  5
360
330
1F
100
AcDbEntity
  8
1
  6
CONTINUOUS
370
50
 62
4
100
AcDbLine
 10
4.503683
 20
-6.026924
 30
0.0
 11
4.340006
 21
-5.918502999999999
 31
0.0
  0
LINE
  5
361
330
1F
100
AcDbEntity
  8
1
  6
CONTINUOUS
370
50
 62
4
100
AcDbLine
 10
4.67
 20
-6.134906
 30
0.0
 11
4.503683
 21
-6.026924
 31
0.0
  0
LINE
  5
362
330
1F
100
AcDbEntity
  8
1
  6
CONTINUOUS
370
50
 62
4
100
AcDbLine
 10
4.67
 20
-6.134906
 30
0.0
 11
4.503683
 21
-6.026924
 31
0.0
  0
LINE
  5
363
330
1F
100
AcDbEntity
  8
1
  6
CONTINUOUS
370
50
 62
4
100
AcDbLine
 10
4.67
 20
-6.199999999999999
 30
0.0
 11
3.596128
 21
-5.58
 31
0.0
  0
LINE
  5
364
330
1F
100
AcDbEntity
  8
1
  6
CONTINUOUS
370
50
 62
4
100
AcDbLine
 10
4.67
 20
-6.199999999999999
 30
0.0
 11
3.596128
 21
-5.58
 31
0.0
  0
LINE
  5
365
330
1F
100
AcDbEntity
  8
1
  6
CONTINUOUS
370
50
 62
4
100
AcDbLine
 10
2.593487
 20
5.58
 30
0.0
 11
1.0
 21
6.5
 31
0.0
  0
LINE
  5
366
330
1F
100
AcDbEntity
  8
1
  6
CONTINUOUS
370
50
 62
4
100
AcDbLine
 10
3.742665
 20
-4.566217
 30
0.0
 11
3.596128
 21
-4.492499
 31
0.0
  0
LINE
  5
367
330
1F
100
AcDbEntity
  8
1
  6
CONTINUOUS
370
50
 62
4
100
AcDbLine
 10
3.742665
 20
-4.566217
 30
0.0
 11
3.596128
 21
-4.492499
 31
0.0
  0
LINE
  5
368
330
1F
100
AcDbEntity
  8
1
  6
CONTINUOUS
370
50
 62
4
100
AcDbLine
 10
3.891407
 20
-4.641031
 30
0.0
 11
3.742665
 21
-4.566217
 31
0.0
  0
LINE
  5
369
330
1F
100
AcDbEntity
  8
1
  6
CONTINUOUS
370
50
 62
4
100
AcDbLine
 10
3.891407
 20
-4.641031
 30
0.0
 11
3.742665
 21
-4.566217
 31
0.0
  0
LINE
  5
36A
330
1F
100
AcDbEntity
  8
1
  6
CONTINUOUS
370
50
 62
4
100
AcDbLine
 10
4.042405
 20
-4.716966
 30
0.0
 11
3.891407
 21
-4.641031
 31
0.0
  0
LINE
  5
36B
330
1F
100
AcDbEntity
  8
1
  6
CONTINUOUS
370
50
 62
4
100
AcDbLine
 10
4.042405
 20
-4.716966
 30
0.0
 11
3.891407
 21
-4.641031
 31
0.0
  0
LINE
  5
36C
330
1F
100
AcDbEntity
  8
1
  6
CONTINUOUS
370
50
 62
4
100
AcDbLine
 10
4.19571
 20
-4.794048
 30
0.0
 11
4.042405
 21
-4.716966
 31
0.0
  0
LINE
  5
36D
330
1F
100
AcDbEntity
  8
1
  6
CONTINUOUS
370
50
 62
4
100
AcDbLine
 10
4.19571
 20
-4.794048
 30
0.0
 11
4.042405
 21
-4.716966
 31
0.0
  0
LINE
  5
36E
330
1F
100
AcDbEntity
  8
1
  6
CONTINUOUS
370
50
 62
4
100
AcDbLine
 10
4.351374
 20
-4.872303
 30
0.0
 11
4.19571
 21
-4.794048
 31
0.0
  0
LINE
  5
36F
330
1F
100
AcDbEntity
  8
1
  6
CONTINUOUS
370
50
 62
4
100
AcDbLine
 10
4.351374
 20
-4.872303
 30
0.0
 11
4.19571
 21
-4.794048
 31
0.0
  0
LINE
  5
370
330
1F
100
AcDbEntity
  8
1
  6
CONTINUOUS
370
50
 62
4
100
AcDbLine
 10
4.509452
 20
-4.951759
 30
0.0
 11
4.351374
 21
-4.872303
 31
0.0
  0
LINE
  5
371
330
1F
100
AcDbEntity
  8
1
  6
CONTINUOUS
370
50
 62
4
100
AcDbLine
 10
4.509452
 20
-4.951759
 30
0.0
 11
4.351374
 21
-4.872303
 31
0.0
  0
LINE
  5
372
330
1F
100
AcDbEntity
  8
1
  6
CONTINUOUS
370
50
 62
4
100
AcDbLine
 10
4.67
 20
-5.032443
 30
0.0
 11
4.509452
 21
-4.951759
 31
0.0
  0
LINE
  5
373
330
1F
100
AcDbEntity
  8
1
  6
CONTINUOUS
370
50
 62
4
100
AcDbLine
 10
4.67
 20
-5.032443
 30
0.0
 11
4.509452
 21
-4.951759
 31
0.0
  0
LINE
  5
374
330
1F
100
AcDbEntity
  8
1
  6
CONTINUOUS
370
50
 62
4
100
AcDbLine
 10
3.731482
 20
3.945702
 30
0.0
 11
3.596128
 21
3.978053
 31
0.0
  0
LINE
  5
375
330
1F
100
AcDbEntity
  8
1
  6
CONTINUOUS
370
50
 62
4
100
AcDbLine
 10
3.731482
 20
3.945702
 30
0.0
 11
3.596128
 21
3.978053
 31
0.0
  0
LINE
  5
376
330
1F
100
AcDbEntity
  8
1
  6
CONTINUOUS
370
50
 62
4
100
AcDbLine
 10
3.874625
 20
3.918139
 30
0.0
 11
3.731482
 21
3.945702
 31
0.0
  0
LINE
  5
377
330
1F
100
AcDbEntity
  8
1
  6
CONTINUOUS
370
50
 62
4
100
AcDbLine
 10
3.874625
 20
3.918139
 30
0.0
 11
3.731482
 21
3.945702
 31
0.0
  0
LINE
  5
378
330
1F
100
AcDbEntity
  8
1
  6
CONTINUOUS
370
50
 62
4
100
AcDbLine
 10
4.024446999999999
 20
3.895095
 30
0.0
 11
3.874625
 21
3.918139
 31
0.0
  0
LINE
  5
379
330
1F
100
AcDbEntity
  8
1
  6
CONTINUOUS
370
50
 62
4
100
AcDbLine
 10
4.024446999999999
 20
3.895095
 30
0.0
 11
3.874625
 21
3.918139
 31
0.0
  0
LINE
  5
37A
330
1F
100
AcDbEntity
  8
1
  6
CONTINUOUS
370
50
 62
4
100
AcDbLine
 10
4.179917
 20
3.876337
 30
0.0
 11
4.024446999999999
 21
3.895095
 31
0.0
  0
LINE
  5
37B
330
1F
100
AcDbEntity
  8
1
  6
CONTINUOUS
370
50
 62
4
100
AcDbLine
 10
4.179917
 20
3.876337
 30
0.0
 11
4.024446999999999
 21
3.895095
 31
0.0
  0
LINE
  5
37C
330
1F
100
AcDbEntity
  8
1
  6
CONTINUOUS
370
50
 62
4
100
AcDbLine
 10
4.340006
 20
3.861631
 30
0.0
 11
4.179917
 21
3.876337
 31
0.0
  0
LINE
  5
37D
330
1F
100
AcDbEntity
  8
1
  6
CONTINUOUS
370
50
 62
4
100
AcDbLine
 10
4.340006
 20
3.861631
 30
0.0
 11
4.179917
 21
3.876337
 31
0.0
  0
LINE
  5
37E
330
1F
100
AcDbEntity
  8
1
  6
CONTINUOUS
370
50
 62
4
100
AcDbLine
 10
4.503683
 20
3.850743
 30
0.0
 11
4.340006
 21
3.861631
 31
0.0
  0
LINE
  5
37F
330
1F
100
AcDbEntity
  8
1
  6
CONTINUOUS
370
50
 62
4
100
AcDbLine
 10
4.503683
 20
3.850743
 30
0.0
 11
4.340006
 21
3.861631
 31
0.0
  0
LINE
  5
380
330
1F
100
AcDbEntity
  8
1
  6
CONTINUOUS
370
50
 62
4
100
AcDbLine
 10
4.67
 20
3.843468
 30
0.0
 11
4.503683
 21
3.850743
 31
0.0
  0
LINE
  5
381
330
1F
100
AcDbEntity
  8
1
  6
CONTINUOUS
370
50
 62
4
100
AcDbLine
 10
4.67
 20
3.843468
 30
0.0
 11
4.503683
 21
3.850743
 31
0.0
  0
LINE
  5
382
330
1F
100
AcDbEntity
  8
1
  6
CONTINUOUS
370
50
 62
4
100
AcDbLine
 10
0.0
 20
-6.5
 30
0.0
 11
1.0
 21
-6.5
 31
0.0
  0
LINE
  5
383
330
1F
100
AcDbEntity
  8
1
  6
CONTINUOUS
370
50
 62
4
100
AcDbLine
 10
4.67
 20
-6.199999999999999
 30
0.0
 11
53.669998
 21
-6.199999999999999
 31
0.0
  0
LINE
  5
384
330
1F
100
AcDbEntity
  8
1
  6
CONTINUOUS
370
50
 62
4
100
AcDbLine
 10
4.67
 20
-6.134906
 30
0.0
 11
53.669998
 21
-6.134906
 31
0.0
  0
LINE
  5
385
330
1F
100
AcDbEntity
  8
1
  6
CONTINUOUS
370
50
 62
4
100
AcDbLine
 10
2.593487
 20
-5.58
 30
0.0
 11
3.596128
 21
-5.58
 31
0.0
  0
LINE
  5
386
330
1F
100
AcDbEntity
  8
1
  6
CONTINUOUS
370
50
 62
4
100
AcDbLine
 10
4.67
 20
-5.032443
 30
0.0
 11
53.669998
 21
-5.032443
 31
0.0
  0
LINE
  5
387
330
1F
100
AcDbEntity
  8
1
  6
CONTINUOUS
370
50
 62
4
100
AcDbLine
 10
3.596128
 20
-4.503331999999999
 30
0.0
 11
3.617675
 21
-4.503331999999999
 31
0.0
  0
LINE
  5
388
330
1F
100
AcDbEntity
  8
1
  6
CONTINUOUS
370
50
 62
4
100
AcDbLine
 10
4.67
 20
-2.291438
 30
0.0
 11
53.669998
 21
-2.291438
 31
0.0
  0
LINE
  5
389
330
1F
100
AcDbEntity
  8
1
  6
CONTINUOUS
370
50
 62
4
100
AcDbLine
 10
3.596128
 20
0.0
 30
0.0
 11
54.669998
 21
0.0
 31
0.0
  0
LINE
  5
38A
330
1F
100
AcDbEntity
  8
1
  6
CONTINUOUS
370
50
 62
4
100
AcDbLine
 10
3.596128
 20
0.62
 30
0.0
 11
54.633167
 21
0.62
 31
0.0
  0
LINE
  5
38B
330
1F
100
AcDbEntity
  8
1
  6
CONTINUOUS
370
50
 62
4
100
AcDbLine
 10
4.67
 20
3.843468
 30
0.0
 11
53.669998
 21
3.843468
 31
0.0
  0
LINE
  5
38C
330
1F
100
AcDbEntity
  8
1
  6
CONTINUOUS
370
50
 62
4
100
AcDbLine
 10
3.596128
 20
4.503331999999999
 30
0.0
 11
54.669998
 21
4.503331999999999
 31
0.0
  0
LINE
  5
38D
330
1F
100
AcDbEntity
  8
1
  6
CONTINUOUS
370
50
 62
4
100
AcDbLine
 10
3.596128
 20
4.813332
 30
0.0
 11
54.633167
 21
4.813332
 31
0.0
  0
LINE
  5
38E
330
1F
100
AcDbEntity
  8
1
  6
CONTINUOUS
370
50
 62
4
100
AcDbLine
 10
2.593487
 20
5.58
 30
0.0
 11
3.596128
 21
5.58
 31
0.0
  0
LINE
  5
38F
330
1F
100
AcDbEntity
  8
1
  6
CONTINUOUS
370
50
 62
4
100
AcDbLine
 10
4.67
 20
5.652443
 30
0.0
 11
53.669998
 21
5.652443
 31
0.0
  0
LINE
  5
390
330
1F
100
AcDbEntity
  8
1
  6
CONTINUOUS
370
50
 62
4
100
AcDbLine
 10
4.67
 20
6.199999999999999
 30
0.0
 11
53.669998
 21
6.199999999999999
 31
0.0
  0
LINE
  5
391
330
1F
100
AcDbEntity
  8
1
  6
CONTINUOUS
370
50
 62
4
100
AcDbLine
 10
0.0
 20
6.5
 30
0.0
 11
1.0
 21
6.5
 31
0.0
  0
LINE
  5
392
330
1F
100
AcDbEntity
  8
1
  6
CONTINUOUS
370
50
 62
4
100
AcDbLine
 10
53.67004
 20
3.843489
 30
0.0
 11
53.778893
 21
3.852015
 31
0.0
  0
LINE
  5
393
330
1F
100
AcDbEntity
  8
1
  6
CONTINUOUS
370
50
 62
4
100
AcDbLine
 10
53.778893
 20
3.852015
 30
0.0
 11
53.88417399999999
 21
3.865023
 31
0.0
  0
LINE
  5
394
330
1F
100
AcDbEntity
  8
1
  6
CONTINUOUS
370
50
 62
4
100
AcDbLine
 10
53.88417399999999
 20
3.865023
 30
0.0
 11
53.985371
 21
3.882648
 31
0.0
  0
LINE
  5
395
330
1F
100
AcDbEntity
  8
1
  6
CONTINUOUS
370
50
 62
4
100
AcDbLine
 10
53.985371
 20
3.882648
 30
0.0
 11
54.08196599999999
 21
3.905013
 31
0.0
  0
LINE
  5
396
330
1F
100
AcDbEntity
  8
1
  6
CONTINUOUS
370
50
 62
4
100
AcDbLine
 10
54.08196599999999
 20
3.905013
 30
0.0
 11
54.173389
 21
3.932223
 31
0.0
  0
LINE
  5
397
330
1F
100
AcDbEntity
  8
1
  6
CONTINUOUS
370
50
 62
4
100
AcDbLine
 10
54.173389
 20
3.932223
 30
0.0
 11
54.259045
 21
3.964413
 31
0.0
  0
LINE
  5
398
330
1F
100
AcDbEntity
  8
1
  6
CONTINUOUS
370
50
 62
4
100
AcDbLine
 10
54.259045
 20
3.964413
 30
0.0
 11
54.338345
 21
4.001722
 31
0.0
  0
LINE
  5
399
330
1F
100
AcDbEntity
  8
1
  6
CONTINUOUS
370
50
 62
4
100
AcDbLine
 10
4.509452
 20
5.571759
 30
0.0
 11
4.67
 21
5.652443
 31
0.0
  0
LINE
  5
39A
330
1F
100
AcDbEntity
  8
1
  6
CONTINUOUS
370
50
 62
4
100
AcDbLine
 10
4.509452
 20
5.571759
 30
0.0
 11
4.67
 21
5.652443
 31
0.0
  0
LINE
  5
39B
330
1F
100
AcDbEntity
  8
1
  6
CONTINUOUS
370
50
 62
4
100
AcDbLine
 10
4.351374
 20
5.492303
 30
0.0
 11
4.509452
 21
5.571759
 31
0.0
  0
LINE
  5
39C
330
1F
100
AcDbEntity
  8
1
  6
CONTINUOUS
370
50
 62
4
100
AcDbLine
 10
4.351374
 20
5.492303
 30
0.0
 11
4.509452
 21
5.571759
 31
0.0
  0
LINE
  5
39D
330
1F
100
AcDbEntity
  8
1
  6
CONTINUOUS
370
50
 62
4
100
AcDbLine
 10
4.19571
 20
5.414048
 30
0.0
 11
4.351374
 21
5.492303
 31
0.0
  0
LINE
  5
39E
330
1F
100
AcDbEntity
  8
1
  6
CONTINUOUS
370
50
 62
4
100
AcDbLine
 10
4.19571
 20
5.414048
 30
0.0
 11
4.351374
 21
5.492303
 31
0.0
  0
LINE
  5
39F
330
1F
100
AcDbEntity
  8
1
  6
CONTINUOUS
370
50
 62
4
100
AcDbLine
 10
4.042405
 20
5.336965999999999
 30
0.0
 11
4.19571
 21
5.414048
 31
0.0
  0
LINE
  5
3A0
330
1F
100
AcDbEntity
  8
1
  6
CONTINUOUS
370
50
 62
4
100
AcDbLine
 10
4.042405
 20
5.336965999999999
 30
0.0
 11
4.19571
 21
5.414048
 31
0.0
  0
LINE
  5
3A1
330
1F
100
AcDbEntity
  8
1
  6
CONTINUOUS
370
50
 62
4
100
AcDbLine
 10
3.891407
 20
5.261031
 30
0.0
 11
4.042405
 21
5.336965999999999
 31
0.0
  0
LINE
  5
3A2
330
1F
100
AcDbEntity
  8
1
  6
CONTINUOUS
370
50
 62
4
100
AcDbLine
 10
3.891407
 20
5.261031
 30
0.0
 11
4.042405
 21
5.336965999999999
 31
0.0
  0
LINE
  5
3A3
330
1F
100
AcDbEntity
  8
1
  6
CONTINUOUS
370
50
 62
4
100
AcDbLine
 10
3.742665
 20
5.186217
 30
0.0
 11
3.891407
 21
5.261031
 31
0.0
  0
LINE
  5
3A4
330
1F
100
AcDbEntity
  8
1
  6
CONTINUOUS
370
50
 62
4
100
AcDbLine
 10
3.742665
 20
5.186217
 30
0.0
 11
3.891407
 21
5.261031
 31
0.0
  0
LINE
  5
3A5
330
1F
100
AcDbEntity
  8
1
  6
CONTINUOUS
370
50
 62
4
100
AcDbLine
 10
3.596128
 20
5.112499
 30
0.0
 11
3.742665
 21
5.186217
 31
0.0
  0
LINE
  5
3A6
330
1F
100
AcDbEntity
  8
1
  6
CONTINUOUS
370
50
 62
4
100
AcDbLine
 10
3.596128
 20
5.112499
 30
0.0
 11
3.742665
 21
5.186217
 31
0.0
  0
LINE
  5
3A7
330
1F
100
AcDbEntity
  8
1
  6
CONTINUOUS
370
50
 62
4
100
AcDbLine
 10
1.0
 20
-6.5
 30
0.0
 11
2.593487
 21
-5.58
 31
0.0
  0
LINE
  5
3A8
330
1F
100
AcDbEntity
  8
1
  6
CONTINUOUS
370
50
 62
4
100
AcDbLine
 10
3.596128
 20
5.58
 30
0.0
 11
4.67
 21
6.199999999999999
 31
0.0
  0
LINE
  5
3A9
330
1F
100
AcDbEntity
  8
1
  6
CONTINUOUS
370
50
 62
4
100
AcDbLine
 10
54.338345
 20
4.001722
 30
0.0
 11
54.410702
 21
4.044287
 31
0.0
  0
LINE
  5
3AA
330
1F
100
AcDbEntity
  8
1
  6
CONTINUOUS
370
50
 62
4
100
AcDbLine
 10
54.410702
 20
4.044287
 30
0.0
 11
54.475525
 21
4.092243
 31
0.0
  0
LINE
  5
3AB
330
1F
100
AcDbEntity
  8
1
  6
CONTINUOUS
370
50
 62
4
100
AcDbLine
 10
53.669998
 20
-5.032443
 30
0.0
 11
53.817997
 21
-4.903613
 31
0.0
  0
LINE
  5
3AC
330
1F
100
AcDbEntity
  8
1
  6
CONTINUOUS
370
50
 62
4
100
AcDbLine
 10
53.817997
 20
-4.903613
 30
0.0
 11
53.962315
 21
-4.777953999999999
 31
0.0
  0
LINE
  5
3AD
330
1F
100
AcDbEntity
  8
1
  6
CONTINUOUS
370
50
 62
4
100
AcDbLine
 10
53.962315
 20
-4.777953999999999
 30
0.0
 11
54.103085
 21
-4.655349
 31
0.0
  0
LINE
  5
3AE
330
1F
100
AcDbEntity
  8
1
  6
CONTINUOUS
370
50
 62
4
100
AcDbLine
 10
54.103085
 20
-4.655349
 30
0.0
 11
54.240437
 21
-4.535687999999999
 31
0.0
  0
LINE
  5
3AF
330
1F
100
AcDbEntity
  8
1
  6
CONTINUOUS
370
50
 62
4
100
AcDbLine
 10
54.240437
 20
-4.535687999999999
 30
0.0
 11
54.374493
 21
-4.418864999999999
 31
0.0
  0
LINE
  5
3B0
330
1F
100
AcDbEntity
  8
1
  6
CONTINUOUS
370
50
 62
4
100
AcDbLine
 10
54.374493
 20
-4.418864999999999
 30
0.0
 11
54.505363
 21
-4.304779
 31
0.0
  0
LINE
  5
3B1
330
1F
100
AcDbEntity
  8
1
  6
CONTINUOUS
370
50
 62
4
100
AcDbLine
 10
54.505363
 20
-4.304779
 30
0.0
 11
54.633167
 21
-4.193332
 31
0.0
  0
LINE
  5
3B2
330
1F
100
AcDbEntity
  8
1
  6
CONTINUOUS
370
50
 62
4
100
AcDbLine
 10
54.475525
 20
4.092243
 30
0.0
 11
54.532196
 21
4.145727
 31
0.0
  0
LINE
  5
3B3
330
1F
100
AcDbEntity
  8
1
  6
CONTINUOUS
370
50
 62
4
100
AcDbLine
 10
53.669998
 20
-6.199999999999999
 30
0.0
 11
54.669998
 21
-5.2
 31
0.0
  0
LINE
  5
3B4
330
1F
100
AcDbEntity
  8
1
  6
CONTINUOUS
370
50
 62
4
100
AcDbLine
 10
53.67004
 20
-6.134943
 30
0.0
 11
53.778893
 21
-6.012363
 31
0.0
  0
LINE
  5
3B5
330
1F
100
AcDbEntity
  8
1
  6
CONTINUOUS
370
50
 62
4
100
AcDbLine
 10
53.778893
 20
-6.012363
 30
0.0
 11
53.88417399999999
 21
-5.890931999999999
 31
0.0
  0
LINE
  5
3B6
330
1F
100
AcDbEntity
  8
1
  6
CONTINUOUS
370
50
 62
4
100
AcDbLine
 10
53.88417399999999
 20
-5.890931999999999
 30
0.0
 11
53.985371
 21
-5.770872
 31
0.0
  0
LINE
  5
3B7
330
1F
100
AcDbEntity
  8
1
  6
CONTINUOUS
370
50
 62
4
100
AcDbLine
 10
53.67004
 20
-2.291453
 30
0.0
 11
53.778893
 21
-2.160348
 31
0.0
  0
LINE
  5
3B8
330
1F
100
AcDbEntity
  8
1
  6
CONTINUOUS
370
50
 62
4
100
AcDbLine
 10
53.985371
 20
-5.770872
 30
0.0
 11
54.08196599999999
 21
-5.652405
 31
0.0
  0
LINE
  5
3B9
330
1F
100
AcDbEntity
  8
1
  6
CONTINUOUS
370
50
 62
4
100
AcDbLine
 10
54.532196
 20
4.145727
 30
0.0
 11
54.580044
 21
4.204924
 31
0.0
  0
LINE
  5
3BA
330
1F
100
AcDbEntity
  8
1
  6
CONTINUOUS
370
50
 62
4
100
AcDbLine
 10
54.08196599999999
 20
-5.652405
 30
0.0
 11
54.173389
 21
-5.535718999999999
 31
0.0
  0
LINE
  5
3BB
330
1F
100
AcDbEntity
  8
1
  6
CONTINUOUS
370
50
 62
4
100
AcDbLine
 10
53.778893
 20
-2.160348
 30
0.0
 11
53.88417399999999
 21
-2.025908
 31
0.0
  0
LINE
  5
3BC
330
1F
100
AcDbEntity
  8
1
  6
CONTINUOUS
370
50
 62
4
100
AcDbLine
 10
54.173389
 20
-5.535718999999999
 30
0.0
 11
54.259045
 21
-5.420978
 31
0.0
  0
LINE
  5
3BD
330
1F
100
AcDbEntity
  8
1
  6
CONTINUOUS
370
50
 62
4
100
AcDbLine
 10
53.88417399999999
 20
-2.025908
 30
0.0
 11
53.985371
 21
-1.888224
 31
0.0
  0
LINE
  5
3BE
330
1F
100
AcDbEntity
  8
1
  6
CONTINUOUS
370
50
 62
4
100
AcDbLine
 10
54.259045
 20
-5.420978
 30
0.0
 11
54.338345
 21
-5.308342
 31
0.0
  0
LINE
  5
3BF
330
1F
100
AcDbEntity
  8
1
  6
CONTINUOUS
370
50
 62
4
100
AcDbLine
 10
53.985371
 20
-1.888224
 30
0.0
 11
54.08196599999999
 21
-1.747392
 31
0.0
  0
LINE
  5
3C0
330
1F
100
AcDbEntity
  8
1
  6
CONTINUOUS
370
50
 62
4
100
AcDbLine
 10
54.338345
 20
-5.308342
 30
0.0
 11
54.410702
 21
-5.197975
 31
0.0
  0
LINE
  5
3C1
330
1F
100
AcDbEntity
  8
1
  6
CONTINUOUS
370
50
 62
4
100
AcDbLine
 10
54.08196599999999
 20
-1.747392
 30
0.0
 11
54.173389
 21
-1.603497
 31
0.0
  0
LINE
  5
3C2
330
1F
100
AcDbEntity
  8
1
  6
CONTINUOUS
370
50
 62
4
100
AcDbLine
 10
54.410702
 20
-5.197975
 30
0.0
 11
54.475525
 21
-5.090038
 31
0.0
  0
LINE
  5
3C3
330
1F
100
AcDbEntity
  8
1
  6
CONTINUOUS
370
50
 62
4
100
AcDbLine
 10
54.580044
 20
4.204924
 30
0.0
 11
54.618408
 21
4.270057
 31
0.0
  0
LINE
  5
3C4
330
1F
100
AcDbEntity
  8
1
  6
CONTINUOUS
370
50
 62
4
100
AcDbLine
 10
54.173389
 20
-1.603497
 30
0.0
 11
54.259045
 21
-1.456564
 31
0.0
  0
LINE
  5
3C5
330
1F
100
AcDbEntity
  8
1
  6
CONTINUOUS
370
50
 62
4
100
AcDbLine
 10
54.475525
 20
-5.090038
 30
0.0
 11
54.532196
 21
-4.984684
 31
0.0
  0
LINE
  5
3C6
330
1F
100
AcDbEntity
  8
1
  6
CONTINUOUS
370
50
 62
4
100
AcDbLine
 10
54.259045
 20
-1.456564
 30
0.0
 11
54.338345
 21
-1.30662
 31
0.0
  0
LINE
  5
3C7
330
1F
100
AcDbEntity
  8
1
  6
CONTINUOUS
370
50
 62
4
100
AcDbLine
 10
54.338345
 20
-1.30662
 30
0.0
 11
54.410702
 21
-1.153688
 31
0.0
  0
LINE
  5
3C8
330
1F
100
AcDbEntity
  8
1
  6
CONTINUOUS
370
50
 62
4
100
AcDbLine
 10
54.532196
 20
-4.984684
 30
0.0
 11
54.580044
 21
-4.882085
 31
0.0
  0
LINE
  5
3C9
330
1F
100
AcDbEntity
  8
1
  6
CONTINUOUS
370
50
 62
4
100
AcDbLine
 10
54.410702
 20
-1.153688
 30
0.0
 11
54.475525
 21
-0.997795
 31
0.0
  0
LINE
  5
3CA
330
1F
100
AcDbEntity
  8
1
  6
CONTINUOUS
370
50
 62
4
100
AcDbLine
 10
54.618408
 20
4.270057
 30
0.0
 11
54.646629
 21
4.341349
 31
0.0
  0
LINE
  5
3CB
330
1F
100
AcDbEntity
  8
1
  6
CONTINUOUS
370
50
 62
4
100
AcDbLine
 10
54.580044
 20
-4.882085
 30
0.0
 11
54.618408
 21
-4.782446
 31
0.0
  0
LINE
  5
3CC
330
1F
100
AcDbEntity
  8
1
  6
CONTINUOUS
370
50
 62
4
100
AcDbLine
 10
54.475525
 20
-0.997795
 30
0.0
 11
54.532196
 21
-0.838957
 31
0.0
  0
LINE
  5
3CD
330
1F
100
AcDbEntity
  8
1
  6
CONTINUOUS
370
50
 62
4
100
AcDbLine
 10
54.532196
 20
-0.838957
 30
0.0
 11
54.580044
 21
-0.677161
 31
0.0
  0
LINE
  5
3CE
330
1F
100
AcDbEntity
  8
1
  6
CONTINUOUS
370
50
 62
4
100
AcDbLine
 10
54.618408
 20
-4.782446
 30
0.0
 11
54.646629
 21
-4.685976
 31
0.0
  0
LINE
  5
3CF
330
1F
100
AcDbEntity
  8
1
  6
CONTINUOUS
370
50
 62
4
100
AcDbLine
 10
54.580044
 20
-0.677161
 30
0.0
 11
54.618408
 21
-0.512389
 31
0.0
  0
LINE
  5
3D0
330
1F
100
AcDbEntity
  8
1
  6
CONTINUOUS
370
50
 62
4
100
AcDbLine
 10
54.646629
 20
4.341349
 30
0.0
 11
54.664047
 21
4.419023
 31
0.0
  0
LINE
  5
3D1
330
1F
100
AcDbEntity
  8
1
  6
CONTINUOUS
370
50
 62
4
100
AcDbLine
 10
54.646629
 20
-4.685976
 30
0.0
 11
54.664047
 21
-4.592879
 31
0.0
  0
LINE
  5
3D2
330
1F
100
AcDbEntity
  8
1
  6
CONTINUOUS
370
50
 62
4
100
AcDbLine
 10
54.618408
 20
-0.512389
 30
0.0
 11
54.646629
 21
-0.344627
 31
0.0
  0
LINE
  5
3D3
330
1F
100
AcDbEntity
  8
1
  6
CONTINUOUS
370
50
 62
4
100
AcDbLine
 10
54.646629
 20
-0.344627
 30
0.0
 11
54.664047
 21
-0.173857
 31
0.0
  0
LINE
  5
3D4
330
1F
100
AcDbEntity
  8
1
  6
CONTINUOUS
370
50
 62
4
100
AcDbLine
 10
54.664047
 20
4.419023
 30
0.0
 11
54.669998
 21
4.503301
 31
0.0
  0
LINE
  5
3D5
330
1F
100
AcDbEntity
  8
1
  6
CONTINUOUS
370
50
 62
4
100
AcDbLine
 10
54.664047
 20
-4.592879
 30
0.0
 11
54.669998
 21
-4.503363999999999
 31
0.0
  0
LINE
  5
3D6
330
1F
100
AcDbEntity
  8
1
  6
CONTINUOUS
370
50
 62
4
100
AcDbLine
 10
54.664047
 20
-0.173857
 30
0.0
 11
54.669998
 21
-0.000063
 31
0.0
  0
LINE
  5
3D7
330
1F
100
AcDbEntity
  8
1
  6
CONTINUOUS
370
50
 62
4
100
AcDbLine
 10
0.0
 20
-6.5
 30
0.0
 11
0.0
 21
6.5
 31
0.0
  0
LINE
  5
3D8
330
1F
100
AcDbEntity
  8
1
  6
CONTINUOUS
370
50
 62
4
100
AcDbLine
 10
1.0
 20
-6.5
 30
0.0
 11
1.0
 21
6.5
 31
0.0
  0
LINE
  5
3D9
330
1F
100
AcDbEntity
  8
1
  6
CONTINUOUS
370
50
 62
4
100
AcDbLine
 10
2.593487
 20
-5.58
 30
0.0
 11
2.593487
 21
5.58
 31
0.0
  0
LINE
  5
3DA
330
1F
100
AcDbEntity
  8
1
  6
CONTINUOUS
370
50
 62
4
100
AcDbLine
 10
3.596128
 20
-5.58
 30
0.0
 11
3.596128
 21
5.58
 31
0.0
  0
LINE
  5
3DB
330
1F
100
AcDbEntity
  8
1
  6
CONTINUOUS
370
50
 62
4
100
AcDbLine
 10
4.67
 20
-6.199999999999999
 30
0.0
 11
4.67
 21
4.503301
 31
0.0
  0
LINE
  5
3DC
330
1F
100
AcDbEntity
  8
1
  6
CONTINUOUS
370
50
 62
4
100
AcDbLine
 10
4.67
 20
4.503331999999999
 30
0.0
 11
4.67
 21
4.813332
 31
0.0
  0
LINE
  5
3DD
330
1F
100
AcDbEntity
  8
1
  6
CONTINUOUS
370
50
 62
4
100
AcDbLine
 10
4.67
 20
4.813332
 30
0.0
 11
4.67
 21
5.652443
 31
0.0
  0
LINE
  5
3DE
330
1F
100
AcDbEntity
  8
1
  6
CONTINUOUS
370
50
 62
4
100
AcDbLine
 10
4.67
 20
5.652443
 30
0.0
 11
4.67
 21
6.199999999999999
 31
0.0
  0
LINE
  5
3DF
330
1F
100
AcDbEntity
  8
1
  6
CONTINUOUS
370
50
 62
4
100
AcDbLine
 10
4.67
 20
5.652443
 30
0.0
 11
4.67
 21
6.199999999999999
 31
0.0
  0
LINE
  5
3E0
330
1F
100
AcDbEntity
  8
1
  6
CONTINUOUS
370
50
 62
4
100
AcDbLine
 10
53.669998
 20
5.652443
 30
0.0
 11
53.669998
 21
6.199999999999999
 31
0.0
  0
LINE
  5
3E1
330
1F
100
AcDbEntity
  8
1
  6
CONTINUOUS
370
50
 62
4
100
AcDbLine
 10
53.669998
 20
0.62
 30
0.0
 11
53.669998
 21
3.843468
 31
0.0
  0
LINE
  5
3E2
330
1F
100
AcDbEntity
  8
1
  6
CONTINUOUS
370
50
 62
4
100
AcDbLine
 10
53.669998
 20
-6.199999999999999
 30
0.0
 11
53.669998
 21
-6.134906
 31
0.0
  0
LINE
  5
3E3
330
1F
100
AcDbEntity
  8
1
  6
CONTINUOUS
370
50
 62
4
100
AcDbLine
 10
53.669998
 20
-5.032443
 30
0.0
 11
53.669998
 21
-2.291438
 31
0.0
  0
LINE
  5
3E4
330
1F
100
AcDbEntity
  8
1
  6
CONTINUOUS
370
50
 62
4
100
AcDbLine
 10
54.669998
 20
-5.2
 30
0.0
 11
54.669998
 21
5.2
 31
0.0
  0
LINE
  5
3E5
330
1F
100
AcDbEntity
  8
SK1
  6
CONTINUOUS
370
50
 62
4
100
AcDbLine
 10
0.0
 20
6.5
 30
0.0
 11
-54.73
 21
6.5
 31
0.0
  0
LINE
  5
3E6
330
1F
100
AcDbEntity
  8
SK1
  6
CONTINUOUS
370
50
 62
4
100
AcDbLine
 10
-54.73
 20
6.5
 30
0.0
 11
-55.33
 21
5.9
 31
0.0
  0
LINE
  5
3E7
330
1F
100
AcDbEntity
  8
SK1
  6
CONTINUOUS
370
50
 62
4
100
AcDbLine
 10
-55.33
 20
5.9
 30
0.0
 11
-55.33
 21
-5.9
 31
0.0
  0
LINE
  5
3E8
330
1F
100
AcDbEntity
  8
SK1
  6
CONTINUOUS
370
50
 62
4
100
AcDbLine
 10
-55.33
 20
-5.9
 30
0.0
 11
-54.73
 21
-6.5
 31
0.0
  0
LINE
  5
3E9
330
1F
100
AcDbEntity
  8
SK1
  6
CONTINUOUS
370
50
 62
4
100
AcDbLine
 10
-54.73
 20
-6.5
 30
0.0
 11
0.0
 21
-6.5
 31
0.0
  0
LINE
  5
3EA
330
1F
100
AcDbEntity
  8
NOCUT
  6
CONTINUOUS
370
25
 62
7
100
AcDbLine
 10
0.0
 20
0.0
 30
0.0
 11
0.0
 21
6.5
 31
0.0
  0
LINE
  5
3EB
330
1F
100
AcDbEntity
  8
NOCUT
  6
CONTINUOUS
370
25
 62
7
100
AcDbLine
 10
0.0
 20
6.5
 30
0.0
 11
1.0
 21
6.5
 31
0.0
  0
LINE
  5
3EC
330
1F
100
AcDbEntity
  8
NOCUT
  6
CONTINUOUS
370
25
 62
7
100
AcDbLine
 10
1.0
 20
0.0
 30
0.0
 11
0.0
 21
0.0
 31
0.0
  0
LINE
  5
3ED
330
1F
100
AcDbEntity
  8
SK2
  6
CONTINUOUS
370
25
 62
7
100
AcDbLine
 10
-65.3300002
 20
-6.500001
 30
0.0
 11
-66.33000000000008
 21
-6.500001
 31
0.0
  0
LINE
  5
3EE
330
1F
100
AcDbEntity
  8
SK2
  6
CONTINUOUS
370
25
 62
7
100
AcDbLine
 10
-55.33
 20
-6.500001
 30
0.0
 11
-65.3299998
 21
-6.500001
 31
0.0
  0
LINE
  5
3EF
330
1F
100
AcDbEntity
  8
SK2
  6
CONTINUOUS
370
25
 62
7
100
AcDbLine
 10
-66.33
 20
6.5
 30
0.0
 11
-55.33
 21
6.5
 31
0.0
  0
LINE
  5
3F0
330
1F
100
AcDbEntity
  8
SK2
  6
CONTINUOUS
370
25
 62
7
100
AcDbLine
 10
-65.33
 20
-24.975
 30
0.0
 11
-65.33
 21
16.5
 31
0.0
  0
LINE
  5
3F1
330
1F
100
AcDbEntity
  8
SK2
  6
CONTINUOUS
370
25
 62
7
100
AcDbLine
 10
-65.33
 20
-6.5
 30
0.0
 11
-64.33
 21
-11.5
 31
0.0
  0
LINE
  5
3F2
330
1F
100
AcDbEntity
  8
SK2
  6
CONTINUOUS
370
25
 62
7
100
AcDbLine
 10
-64.33
 20
-11.5
 30
0.0
 11
-66.33
 21
-11.5
 31
0.0
  0
LINE
  5
3F3
330
1F
100
AcDbEntity
  8
SK2
  6
CONTINUOUS
370
25
 62
7
100
AcDbLine
 10
-66.33
 20
-11.5
 30
0.0
 11
-65.33
 21
-6.5
 31
0.0
  0
LINE
  5
3F4
330
1F
100
AcDbEntity
  8
SK2
  6
CONTINUOUS
370
25
 62
7
100
AcDbLine
 10
-64.53300858899097
 20
-11.5
 30
0.0
 11
-64.36383476483182
 21
-11.33082617584085
 31
0.0
  0
LINE
  5
3F5
330
1F
100
AcDbEntity
  8
SK2
  6
CONTINUOUS
370
25
 62
7
100
AcDbLine
 10
-64.95727265770289
 20
-11.5
 30
0.0
 11
-64.43454544295048
 21
-10.97727278524759
 31
0.0
  0
LINE
  5
3F6
330
1F
100
AcDbEntity
  8
SK2
  6
CONTINUOUS
370
25
 62
7
100
AcDbLine
 10
-65.38153672641482
 20
-11.50000000000001
 30
0.0
 11
-64.50525612106914
 21
-10.62371939465432
 31
0.0
  0
LINE
  5
3F7
330
1F
100
AcDbEntity
  8
SK2
  6
CONTINUOUS
370
25
 62
7
100
AcDbLine
 10
-65.80580079512674
 20
-11.5
 30
0.0
 11
-64.57596679918778
 21
-10.27016600406102
 31
0.0
  0
LINE
  5
3F8
330
1F
100
AcDbEntity
  8
SK2
  6
CONTINUOUS
370
25
 62
7
100
AcDbLine
 10
-66.23006486383866
 20
-11.5
 30
0.0
 11
-64.64667747730644
 21
-9.916612613467763
 31
0.0
  0
LINE
  5
3F9
330
1F
100
AcDbEntity
  8
SK2
  6
CONTINUOUS
370
25
 62
7
100
AcDbLine
 10
-66.24891776686235
 20
-11.09458883431175
 30
0.0
 11
-64.7173881554251
 21
-9.563059222874486
 31
0.0
  0
LINE
  5
3FA
330
1F
100
AcDbEntity
  8
SK2
  6
CONTINUOUS
370
25
 62
7
100
AcDbLine
 10
-66.14285174968437
 20
-10.56425874842184
 30
0.0
 11
-64.78809883354376
 21
-9.209505832281216
 31
0.0
  0
LINE
  5
3FB
330
1F
100
AcDbEntity
  8
SK2
  6
CONTINUOUS
370
25
 62
7
100
AcDbLine
 10
-66.03678573250637
 20
-10.03392866253192
 30
0.0
 11
-64.85880951166241
 21
-8.855952441687947
 31
0.0
  0
LINE
  5
3FC
330
1F
100
AcDbEntity
  8
SK2
  6
CONTINUOUS
370
25
 62
7
100
AcDbLine
 10
-65.9307197153284
 20
-9.503598576642005
 30
0.0
 11
-64.92952018978106
 21
-8.50239905109467
 31
0.0
  0
LINE
  5
3FD
330
1F
100
AcDbEntity
  8
SK2
  6
CONTINUOUS
370
25
 62
7
100
AcDbLine
 10
-65.82465369815041
 20
-8.973268490752105
 30
0.0
 11
-65.00023086789972
 21
-8.148845660501408
 31
0.0
  0
LINE
  5
3FE
330
1F
100
AcDbEntity
  8
SK2
  6
CONTINUOUS
370
25
 62
7
100
AcDbLine
 10
-65.71858768097243
 20
-8.442938404862183
 30
0.0
 11
-65.07094154601837
 21
-7.795292269908124
 31
0.0
  0
LINE
  5
3FF
330
1F
100
AcDbEntity
  8
SK2
  6
CONTINUOUS
370
25
 62
7
100
AcDbLine
 10
-65.61252166379445
 20
-7.912608318972275
 30
0.0
 11
-65.14165222413702
 21
-7.44173887931484
 31
0.0
  0
LINE
  5
400
330
1F
100
AcDbEntity
  8
SK2
  6
CONTINUOUS
370
25
 62
7
100
AcDbLine
 10
-65.50645564661647
 20
-7.38227823308236
 30
0.0
 11
-65.21236290225568
 21
-7.088185488721564
 31
0.0
  0
LINE
  5
401
330
1F
100
AcDbEntity
  8
SK2
  6
CONTINUOUS
370
25
 62
7
100
AcDbLine
 10
-65.40038962943848
 20
-6.851948147192431
 30
0.0
 11
-65.28307358037434
 21
-6.734632098128287
 31
0.0
  0
LINE
  5
402
330
1F
100
AcDbEntity
  8
SK2
  6
CONTINUOUS
370
25
 62
7
100
AcDbLine
 10
-66.30832893525962
 20
-11.39164467629811
 30
0.0
 11
-66.19997361155774
 21
-11.5
 31
0.0
  0
LINE
  5
403
330
1F
100
AcDbEntity
  8
SK2
  6
CONTINUOUS
370
25
 62
7
100
AcDbLine
 10
-66.23761825714097
 20
-11.03809128570484
 30
0.0
 11
-65.7757095428458
 21
-11.5
 31
0.0
  0
LINE
  5
404
330
1F
100
AcDbEntity
  8
SK2
  6
CONTINUOUS
370
25
 62
7
100
AcDbLine
 10
-66.16690757902231
 20
-10.68453789511159
 30
0.0
 11
-65.3514454741339
 21
-11.5
 31
0.0
  0
LINE
  5
405
330
1F
100
AcDbEntity
  8
SK2
  6
CONTINUOUS
370
25
 62
7
100
AcDbLine
 10
-66.09619690090365
 20
-10.33098450451831
 30
0.0
 11
-64.92718140542195
 21
-11.5
 31
0.0
  0
LINE
  5
406
330
1F
100
AcDbEntity
  8
SK2
  6
CONTINUOUS
370
25
 62
7
100
AcDbLine
 10
-66.025486222785
 20
-9.977431113925022
 30
0.0
 11
-64.50291733671003
 21
-11.5
 31
0.0
  0
LINE
  5
407
330
1F
100
AcDbEntity
  8
SK2
  6
CONTINUOUS
370
25
 62
7
100
AcDbLine
 10
-65.95477554466633
 20
-9.623877723331773
 30
0.0
 11
-64.39283668300048
 21
-11.18581658499761
 31
0.0
  0
LINE
  5
408
330
1F
100
AcDbEntity
  8
SK2
  6
CONTINUOUS
370
25
 62
7
100
AcDbLine
 10
-65.88406486654769
 20
-9.270324332738483
 30
0.0
 11
-64.49890270017846
 21
-10.65548649910771
 31
0.0
  0
LINE
  5
409
330
1F
100
AcDbEntity
  8
SK2
  6
CONTINUOUS
370
25
 62
7
100
AcDbLine
 10
-65.81335418842905
 20
-8.916770942145206
 30
0.0
 11
-64.60496871735643
 21
-10.12515641321781
 31
0.0
  0
LINE
  5
40A
330
1F
100
AcDbEntity
  8
SK2
  6
CONTINUOUS
370
25
 62
7
100
AcDbLine
 10
-65.74264351031039
 20
-8.56321755155193
 30
0.0
 11
-64.71103473453441
 21
-9.594826327327908
 31
0.0
  0
LINE
  5
40B
330
1F
100
AcDbEntity
  8
SK2
  6
CONTINUOUS
370
25
 62
7
100
AcDbLine
 10
-65.67193283219174
 20
-8.209664160958667
 30
0.0
 11
-64.81710075171239
 21
-9.064496241438007
 31
0.0
  0
LINE
  5
40C
330
1F
100
AcDbEntity
  8
SK2
  6
CONTINUOUS
370
25
 62
7
100
AcDbLine
 10
-65.60122215407307
 20
-7.856110770365405
 30
0.0
 11
-64.92316676889038
 21
-8.534166155548078
 31
0.0
  0
LINE
  5
40D
330
1F
100
AcDbEntity
  8
SK2
  6
CONTINUOUS
370
25
 62
7
100
AcDbLine
 10
-65.53051147595443
 20
-7.502557379772114
 30
0.0
 11
-65.02923278606836
 21
-8.003836069658178
 31
0.0
  0
LINE
  5
40E
330
1F
100
AcDbEntity
  8
SK2
  6
CONTINUOUS
370
25
 62
7
100
AcDbLine
 10
-65.45980079783577
 20
-7.149003989178865
 30
0.0
 11
-65.13529880324634
 21
-7.473505983768277
 31
0.0
  0
LINE
  5
40F
330
1F
100
AcDbEntity
  8
SK2
  6
CONTINUOUS
370
25
 62
7
100
AcDbLine
 10
-65.38909011971711
 20
-6.795450598585575
 30
0.0
 11
-65.24136482042432
 21
-6.943175897878362
 31
0.0
  0
LINE
  5
410
330
1F
100
AcDbEntity
  8
SK2
  6
CONTINUOUS
370
25
 62
7
100
AcDbLine
 10
-65.33
 20
6.5
 30
0.0
 11
-66.33
 21
11.5
 31
0.0
  0
LINE
  5
411
330
1F
100
AcDbEntity
  8
SK2
  6
CONTINUOUS
370
25
 62
7
100
AcDbLine
 10
-66.33
 20
11.5
 30
0.0
 11
-64.33
 21
11.5
 31
0.0
  0
LINE
  5
412
330
1F
100
AcDbEntity
  8
SK2
  6
CONTINUOUS
370
25
 62
7
100
AcDbLine
 10
-64.33
 20
11.5
 30
0.0
 11
-65.33
 21
6.5
 31
0.0
  0
LINE
  5
413
330
1F
100
AcDbEntity
  8
SK2
  6
CONTINUOUS
370
25
 62
7
100
AcDbLine
 10
-65.37914861350463
 20
6.745743067523165
 30
0.0
 11
-65.25627707974304
 21
6.868614601284747
 31
0.0
  0
LINE
  5
414
330
1F
100
AcDbEntity
  8
SK2
  6
CONTINUOUS
370
25
 62
7
100
AcDbLine
 10
-65.44985929162328
 20
7.099296458116441
 30
0.0
 11
-65.15021106256506
 21
7.398944687174676
 31
0.0
  0
LINE
  5
415
330
1F
100
AcDbEntity
  8
SK2
  6
CONTINUOUS
370
25
 62
7
100
AcDbLine
 10
-65.52056996974194
 20
7.452849848709704
 30
0.0
 11
-65.04414504538708
 21
7.929274773064577
 31
0.0
  0
LINE
  5
416
330
1F
100
AcDbEntity
  8
SK2
  6
CONTINUOUS
370
25
 62
7
100
AcDbLine
 10
-65.5912806478606
 20
7.806403239302966
 30
0.0
 11
-64.93807902820909
 21
8.459604858954492
 31
0.0
  0
LINE
  5
417
330
1F
100
AcDbEntity
  8
SK2
  6
CONTINUOUS
370
25
 62
7
100
AcDbLine
 10
-65.66199132597926
 20
8.159956629896257
 30
0.0
 11
-64.83201301103111
 21
8.989934944844421
 31
0.0
  0
LINE
  5
418
330
1F
100
AcDbEntity
  8
SK2
  6
CONTINUOUS
370
25
 62
7
100
AcDbLine
 10
-65.7327020040979
 20
8.513510020489534
 30
0.0
 11
-64.72594699385313
 21
9.520265030734322
 31
0.0
  0
LINE
  5
419
330
1F
100
AcDbEntity
  8
SK2
  6
CONTINUOUS
370
25
 62
7
100
AcDbLine
 10
-65.80341268221656
 20
8.86706341108281
 30
0.0
 11
-64.61988097667515
 21
10.05059511662424
 31
0.0
  0
LINE
  5
41A
330
1F
100
AcDbEntity
  8
SK2
  6
CONTINUOUS
370
25
 62
7
100
AcDbLine
 10
-65.8741233603352
 20
9.220616801676087
 30
0.0
 11
-64.51381495949717
 21
10.58092520251414
 31
0.0
  0
LINE
  5
41B
330
1F
100
AcDbEntity
  8
SK2
  6
CONTINUOUS
370
25
 62
7
100
AcDbLine
 10
-65.94483403845386
 20
9.574170192269378
 30
0.0
 11
-64.40774894231919
 21
11.11125528840407
 31
0.0
  0
LINE
  5
41C
330
1F
100
AcDbEntity
  8
SK2
  6
CONTINUOUS
370
25
 62
7
100
AcDbLine
 10
-66.01554471657252
 20
9.927723582862626
 30
0.0
 11
-64.44326829943518
 21
11.5
 31
0.0
  0
LINE
  5
41D
330
1F
100
AcDbEntity
  8
SK2
  6
CONTINUOUS
370
25
 62
7
100
AcDbLine
 10
-66.08625539469116
 20
10.28127697345592
 30
0.0
 11
-64.8675323681471
 21
11.5
 31
0.0
  0
LINE
  5
41E
330
1F
100
AcDbEntity
  8
SK2
  6
CONTINUOUS
370
25
 62
7
100
AcDbLine
 10
-66.15696607280984
 20
10.63483036404917
 30
0.0
 11
-65.29179643685902
 21
11.5
 31
0.0
  0
LINE
  5
41F
330
1F
100
AcDbEntity
  8
SK2
  6
CONTINUOUS
370
25
 62
7
100
AcDbLine
 10
-66.22767675092848
 20
10.98838375464247
 30
0.0
 11
-65.71606050557095
 21
11.5
 31
0.0
  0
LINE
  5
420
330
1F
100
AcDbEntity
  8
SK2
  6
CONTINUOUS
370
25
 62
7
100
AcDbLine
 10
-66.29838742904714
 20
11.34193714523575
 30
0.0
 11
-66.14032457428289
 21
11.5
 31
0.0
  0
LINE
  5
421
330
1F
100
AcDbEntity
  8
SK2
  6
CONTINUOUS
370
25
 62
7
100
AcDbLine
 10
-65.3698659099913
 20
6.699329549956545
 30
0.0
 11
-65.30342272667245
 21
6.632886366637692
 31
0.0
  0
LINE
  5
422
330
1F
100
AcDbEntity
  8
SK2
  6
CONTINUOUS
370
25
 62
7
100
AcDbLine
 10
-65.47593192716928
 20
7.229659635846446
 30
0.0
 11
-65.23271204855381
 21
6.986439757230968
 31
0.0
  0
LINE
  5
423
330
1F
100
AcDbEntity
  8
SK2
  6
CONTINUOUS
370
25
 62
7
100
AcDbLine
 10
-65.58199794434726
 20
7.759989721736346
 30
0.0
 11
-65.16200137043515
 21
7.339993147824231
 31
0.0
  0
LINE
  5
424
330
1F
100
AcDbEntity
  8
SK2
  6
CONTINUOUS
370
25
 62
7
100
AcDbLine
 10
-65.68806396152524
 20
8.290319807626268
 30
0.0
 11
-65.09129069231649
 21
7.693546538417515
 31
0.0
  0
LINE
  5
425
330
1F
100
AcDbEntity
  8
SK2
  6
CONTINUOUS
370
25
 62
7
100
AcDbLine
 10
-65.79412997870322
 20
8.820649893516176
 30
0.0
 11
-65.02058001419785
 21
8.047099929010798
 31
0.0
  0
LINE
  5
426
330
1F
100
AcDbEntity
  8
SK2
  6
CONTINUOUS
370
25
 62
7
100
AcDbLine
 10
-65.90019599588122
 20
9.350979979406091
 30
0.0
 11
-64.94986933607917
 21
8.40065331960406
 31
0.0
  0
LINE
  5
427
330
1F
100
AcDbEntity
  8
SK2
  6
CONTINUOUS
370
25
 62
7
100
AcDbLine
 10
-66.0062620130592
 20
9.881310065295992
 30
0.0
 11
-64.87915865796053
 21
8.754206710197323
 31
0.0
  0
LINE
  5
428
330
1F
100
AcDbEntity
  8
SK2
  6
CONTINUOUS
370
25
 62
7
100
AcDbLine
 10
-66.11232803023718
 20
10.4116401511859
 30
0.0
 11
-64.80844797984187
 21
9.107760100790607
 31
0.0
  0
LINE
  5
429
330
1F
100
AcDbEntity
  8
SK2
  6
CONTINUOUS
370
25
 62
7
100
AcDbLine
 10
-66.21839404741516
 20
10.94197023707581
 30
0.0
 11
-64.73773730172321
 21
9.461313491383876
 31
0.0
  0
LINE
  5
42A
330
1F
100
AcDbEntity
  8
SK2
  6
CONTINUOUS
370
25
 62
7
100
AcDbLine
 10
-66.32446006459314
 20
11.47230032296571
 30
0.0
 11
-64.66702662360456
 21
9.814866881977139
 31
0.0
  0
LINE
  5
42B
330
1F
100
AcDbEntity
  8
SK2
  6
CONTINUOUS
370
25
 62
7
100
AcDbLine
 10
-65.92789567291551
 20
11.5
 30
0.0
 11
-64.59631594548591
 21
10.16842027257042
 31
0.0
  0
LINE
  5
42C
330
1F
100
AcDbEntity
  8
SK2
  6
CONTINUOUS
370
25
 62
7
100
AcDbLine
 10
-65.50363160420358
 20
11.49999999999999
 30
0.0
 11
-64.52560526736725
 21
10.52197366316368
 31
0.0
  0
LINE
  5
42D
330
1F
100
AcDbEntity
  8
SK2
  6
CONTINUOUS
370
25
 62
7
100
AcDbLine
 10
-65.07936753549166
 20
11.5
 30
0.0
 11
-64.4548945892486
 21
10.87552705375695
 31
0.0
  0
LINE
  5
42E
330
1F
100
AcDbEntity
  8
SK2
  6
CONTINUOUS
370
25
 62
7
100
AcDbLine
 10
-64.6551034667797
 20
11.5
 30
0.0
 11
-64.38418391112994
 21
11.22908044435023
 31
0.0
  0
TEXT
  5
42F
330
1F
100
AcDbEntity
  8
SK2
  6
CONTINUOUS
370
25
 62
7
100
AcDbText
 10
-66.33
 20
-18.57083333333333
 30
0.0
 40
3.5
  1
13
 50
90.00000000000001
 72
     1
 11
-66.33
 21
-16.2375
 31
0.0
100
AcDbText
  0
CIRCLE
  5
430
330
1F
100
AcDbEntity
  8
SK2
  6
CONTINUOUS
370
25
 62
7
100
AcDbCircle
 10
-67.86125
 20
-22.30125
 30
0.0
 40
1.53125
  0
LINE
  5
431
330
1F
100
AcDbEntity
  8
SK2
  6
CONTINUOUS
370
25
 62
7
100
AcDbLine
 10
-66.33
 20
-23.8325
 30
0.0
 11
-69.3925
 21
-20.77
 31
0.0
  0
LINE
  5
432
330
1F
100
AcDbEntity
  8
SK2
  6
CONTINUOUS
370
25
 62
7
100
AcDbLine
 10
-55.33
 20
6.5
 30
0.0
 11
-55.33
 21
16.50001
 31
0.0
  0
LINE
  5
433
330
1F
100
AcDbEntity
  8
SK2
  6
CONTINUOUS
370
25
 62
7
100
AcDbLine
 10
0.0000000000000001
 20
17.50001
 30
0.0
 11
-0.0000000000000006
 21
6.5
 31
0.0
  0
LINE
  5
434
330
1F
100
AcDbEntity
  8
SK2
  6
CONTINUOUS
370
25
 62
7
100
AcDbLine
 10
-55.33
 20
16.50001
 30
0.0
 11
0.0
 21
16.50001
 31
0.0
  0
LINE
  5
435
330
1F
100
AcDbEntity
  8
SK2
  6
CONTINUOUS
370
25
 62
7
100
AcDbLine
 10
-55.33
 20
16.50001
 30
0.0
 11
-50.33
 21
17.50001
 31
0.0
  0
LINE
  5
436
330
1F
100
AcDbEntity
  8
SK2
  6
CONTINUOUS
370
25
 62
7
100
AcDbLine
 10
-50.33
 20
17.50001
 30
0.0
 11
-50.33
 21
15.50001
 31
0.0
  0
LINE
  5
437
330
1F
100
AcDbEntity
  8
SK2
  6
CONTINUOUS
370
25
 62
7
100
AcDbLine
 10
-50.33
 20
15.50001
 30
0.0
 11
-55.33
 21
16.50001
 31
0.0
  0
LINE
  5
438
330
1F
100
AcDbEntity
  8
SK2
  6
CONTINUOUS
370
25
 62
7
100
AcDbLine
 10
-50.62598726588401
 20
15.5592074531768
 30
0.0
 11
-50.33
 21
15.85519471906082
 31
0.0
  0
LINE
  5
439
330
1F
100
AcDbEntity
  8
SK2
  6
CONTINUOUS
370
25
 62
7
100
AcDbLine
 10
-50.97954065647729
 20
15.62991813129546
 30
0.0
 11
-50.33
 21
16.27945878777275
 31
0.0
  0
LINE
  5
43A
330
1F
100
AcDbEntity
  8
SK2
  6
CONTINUOUS
370
25
 62
7
100
AcDbLine
 10
-51.33309404707056
 20
15.70062880941411
 30
0.0
 11
-50.33
 21
16.70372285648467
 31
0.0
  0
LINE
  5
43B
330
1F
100
AcDbEntity
  8
SK2
  6
CONTINUOUS
370
25
 62
7
100
AcDbLine
 10
-51.68664743766384
 20
15.77133948753277
 30
0.0
 11
-50.33
 21
17.12798692519661
 31
0.0
  0
LINE
  5
43C
330
1F
100
AcDbEntity
  8
SK2
  6
CONTINUOUS
370
25
 62
7
100
AcDbLine
 10
-52.04020082825711
 20
15.84205016565143
 30
0.0
 11
-50.39530124238568
 21
17.48694975152286
 31
0.0
  0
LINE
  5
43D
330
1F
100
AcDbEntity
  8
SK2
  6
CONTINUOUS
370
25
 62
7
100
AcDbLine
 10
-52.3937542188504
 20
15.91276084377008
 30
0.0
 11
-50.9256313282756
 21
17.38088373434488
 31
0.0
  0
LINE
  5
43E
330
1F
100
AcDbEntity
  8
SK2
  6
CONTINUOUS
370
25
 62
7
100
AcDbLine
 10
-52.74730760944366
 20
15.98347152188874
 30
0.0
 11
-51.4559614141655
 21
17.2748177171669
 31
0.0
  0
LINE
  5
43F
330
1F
100
AcDbEntity
  8
SK2
  6
CONTINUOUS
370
25
 62
7
100
AcDbLine
 10
-53.10086100003694
 20
16.05418220000739
 30
0.0
 11
-51.98629150005542
 21
17.16875169998891
 31
0.0
  0
LINE
  5
440
330
1F
100
AcDbEntity
  8
SK2
  6
CONTINUOUS
370
25
 62
7
100
AcDbLine
 10
-53.45441439063022
 20
16.12489287812605
 30
0.0
 11
-52.51662158594534
 21
17.06268568281093
 31
0.0
  0
LINE
  5
441
330
1F
100
AcDbEntity
  8
SK2
  6
CONTINUOUS
370
25
 62
7
100
AcDbLine
 10
-53.80796778122349
 20
16.1956035562447
 30
0.0
 11
-53.04695167183525
 21
16.95661966563294
 31
0.0
  0
LINE
  5
442
330
1F
100
AcDbEntity
  8
SK2
  6
CONTINUOUS
370
25
 62
7
100
AcDbLine
 10
-54.16152117181677
 20
16.26631423436336
 30
0.0
 11
-53.57728175772516
 21
16.85055364845496
 31
0.0
  0
LINE
  5
443
330
1F
100
AcDbEntity
  8
SK2
  6
CONTINUOUS
370
25
 62
7
100
AcDbLine
 10
-54.51507456241004
 20
16.33702491248201
 30
0.0
 11
-54.10761184361508
 21
16.74448763127698
 31
0.0
  0
LINE
  5
444
330
1F
100
AcDbEntity
  8
SK2
  6
CONTINUOUS
370
25
 62
7
100
AcDbLine
 10
-54.86862795300331
 20
16.40773559060067
 30
0.0
 11
-54.63794192950498
 21
16.63842161409899
 31
0.0
  0
LINE
  5
445
330
1F
100
AcDbEntity
  8
SK2
  6
CONTINUOUS
370
25
 62
7
100
AcDbLine
 10
-55.22218134359659
 20
16.47844626871932
 30
0.0
 11
-55.1682720153949
 21
16.53235559692101
 31
0.0
  0
LINE
  5
446
330
1F
100
AcDbEntity
  8
SK2
  6
CONTINUOUS
370
25
 62
7
100
AcDbLine
 10
-55.14744799124643
 20
16.5365204017507
 30
0.0
 11
-55.05617198686967
 21
16.44524439737394
 31
0.0
  0
LINE
  5
447
330
1F
100
AcDbEntity
  8
SK2
  6
CONTINUOUS
370
25
 62
7
100
AcDbLine
 10
-54.79389460065317
 20
16.60723107986936
 30
0.0
 11
-54.52584190097976
 21
16.33917838019595
 31
0.0
  0
LINE
  5
448
330
1F
100
AcDbEntity
  8
SK2
  6
CONTINUOUS
370
25
 62
7
100
AcDbLine
 10
-54.4403412100599
 20
16.67794175798802
 30
0.0
 11
-53.99551181508985
 21
16.23311236301797
 31
0.0
  0
LINE
  5
449
330
1F
100
AcDbEntity
  8
SK2
  6
CONTINUOUS
370
25
 62
7
100
AcDbLine
 10
-54.08678781946661
 20
16.74865243610667
 30
0.0
 11
-53.46518172919993
 21
16.12704634583999
 31
0.0
  0
LINE
  5
44A
330
1F
100
AcDbEntity
  8
SK2
  6
CONTINUOUS
370
25
 62
7
100
AcDbLine
 10
-53.73323442887334
 20
16.81936311422533
 30
0.0
 11
-52.93485164331001
 21
16.02098032866201
 31
0.0
  0
LINE
  5
44B
330
1F
100
AcDbEntity
  8
SK2
  6
CONTINUOUS
370
25
 62
7
100
AcDbLine
 10
-53.37968103828006
 20
16.89007379234398
 30
0.0
 11
-52.4045215574201
 21
15.91491431148403
 31
0.0
  0
LINE
  5
44C
330
1F
100
AcDbEntity
  8
SK2
  6
CONTINUOUS
370
25
 62
7
100
AcDbLine
 10
-53.02612764768678
 20
16.96078447046263
 30
0.0
 11
-51.87419147153019
 21
15.80884829430604
 31
0.0
  0
LINE
  5
44D
330
1F
100
AcDbEntity
  8
SK2
  6
CONTINUOUS
370
25
 62
7
100
AcDbLine
 10
-52.67257425709351
 20
17.03149514858129
 30
0.0
 11
-51.34386138564027
 21
15.70278227712806
 31
0.0
  0
LINE
  5
44E
330
1F
100
AcDbEntity
  8
SK2
  6
CONTINUOUS
370
25
 62
7
100
AcDbLine
 10
-52.31902086650023
 20
17.10220582669995
 30
0.0
 11
-50.81353129975035
 21
15.59671625995007
 31
0.0
  0
LINE
  5
44F
330
1F
100
AcDbEntity
  8
SK2
  6
CONTINUOUS
370
25
 62
7
100
AcDbLine
 10
-51.96546747590696
 20
17.1729165048186
 30
0.0
 11
-50.33
 21
15.53744902891165
 31
0.0
  0
LINE
  5
450
330
1F
100
AcDbEntity
  8
SK2
  6
CONTINUOUS
370
25
 62
7
100
AcDbLine
 10
-51.61191408531368
 20
17.24362718293725
 30
0.0
 11
-50.33
 21
15.96171309762357
 31
0.0
  0
LINE
  5
451
330
1F
100
AcDbEntity
  8
SK2
  6
CONTINUOUS
370
25
 62
7
100
AcDbLine
 10
-51.2583606947204
 20
17.31433786105591
 30
0.0
 11
-50.33
 21
16.38597716633551
 31
0.0
  0
LINE
  5
452
330
1F
100
AcDbEntity
  8
SK2
  6
CONTINUOUS
370
25
 62
7
100
AcDbLine
 10
-50.90480730412713
 20
17.38504853917457
 30
0.0
 11
-50.33
 21
16.81024123504744
 31
0.0
  0
LINE
  5
453
330
1F
100
AcDbEntity
  8
SK2
  6
CONTINUOUS
370
25
 62
7
100
AcDbLine
 10
-50.55125391353385
 20
17.45575921729322
 30
0.0
 11
-50.33
 21
17.23450530375937
 31
0.0
  0
LINE
  5
454
330
1F
100
AcDbEntity
  8
SK2
  6
CONTINUOUS
370
25
 62
7
100
AcDbLine
 10
0.0
 20
16.50001
 30
0.0
 11
-5.0
 21
15.50001
 31
0.0
  0
LINE
  5
455
330
1F
100
AcDbEntity
  8
SK2
  6
CONTINUOUS
370
25
 62
7
100
AcDbLine
 10
-5.0
 20
15.50001
 30
0.0
 11
-5.0
 21
17.50001
 31
0.0
  0
LINE
  5
456
330
1F
100
AcDbEntity
  8
SK2
  6
CONTINUOUS
370
25
 62
7
100
AcDbLine
 10
-5.0
 20
17.50001
 30
0.0
 11
0.0
 21
16.50001
 31
0.0
  0
LINE
  5
457
330
1F
100
AcDbEntity
  8
SK2
  6
CONTINUOUS
370
25
 62
7
100
AcDbLine
 10
-0.0578608497065147
 20
16.4884378300587
 30
0.0
 11
-0.0385738998043432
 21
16.50772477996087
 31
0.0
  0
LINE
  5
458
330
1F
100
AcDbEntity
  8
SK2
  6
CONTINUOUS
370
25
 62
7
100
AcDbLine
 10
-0.5881909355964243
 20
16.38237181288071
 30
0.0
 11
-0.3921272903976162
 21
16.57843545807952
 31
0.0
  0
LINE
  5
459
330
1F
100
AcDbEntity
  8
SK2
  6
CONTINUOUS
370
25
 62
7
100
AcDbLine
 10
-1.118521021486334
 20
16.27630579570273
 30
0.0
 11
-0.7456806809908894
 21
16.64914613619818
 31
0.0
  0
LINE
  5
45A
330
1F
100
AcDbEntity
  8
SK2
  6
CONTINUOUS
370
25
 62
7
100
AcDbLine
 10
-1.648851107376244
 20
16.17023977852475
 30
0.0
 11
-1.099234071584162
 21
16.71985681431683
 31
0.0
  0
LINE
  5
45B
330
1F
100
AcDbEntity
  8
SK2
  6
CONTINUOUS
370
25
 62
7
100
AcDbLine
 10
-2.179181193266153
 20
16.06417376134677
 30
0.0
 11
-1.452787462177435
 21
16.79056749243549
 31
0.0
  0
LINE
  5
45C
330
1F
100
AcDbEntity
  8
SK2
  6
CONTINUOUS
370
25
 62
7
100
AcDbLine
 10
-2.709511279156062
 20
15.95810774416879
 30
0.0
 11
-1.806340852770708
 21
16.86127817055414
 31
0.0
  0
LINE
  5
45D
330
1F
100
AcDbEntity
  8
SK2
  6
CONTINUOUS
370
25
 62
7
100
AcDbLine
 10
-3.239841365045971
 20
15.85204172699081
 30
0.0
 11
-2.159894243363981
 21
16.93198884867279
 31
0.0
  0
LINE
  5
45E
330
1F
100
AcDbEntity
  8
SK2
  6
CONTINUOUS
370
25
 62
7
100
AcDbLine
 10
-3.770171450935881
 20
15.74597570981282
 30
0.0
 11
-2.513447633957254
 21
17.00269952679145
 31
0.0
  0
LINE
  5
45F
330
1F
100
AcDbEntity
  8
SK2
  6
CONTINUOUS
370
25
 62
7
100
AcDbLine
 10
-4.300501536825793
 20
15.63990969263484
 30
0.0
 11
-2.86700102455053
 21
17.0734102049101
 31
0.0
  0
LINE
  5
460
330
1F
100
AcDbEntity
  8
SK2
  6
CONTINUOUS
370
25
 62
7
100
AcDbLine
 10
-4.830831622715703
 20
15.53384367545686
 30
0.0
 11
-3.220554415143803
 21
17.14412088302876
 31
0.0
  0
LINE
  5
461
330
1F
100
AcDbEntity
  8
SK2
  6
CONTINUOUS
370
25
 62
7
100
AcDbLine
 10
-5.0
 20
15.78893936688449
 30
0.0
 11
-3.574107805737075
 21
17.21483156114741
 31
0.0
  0
LINE
  5
462
330
1F
100
AcDbEntity
  8
SK2
  6
CONTINUOUS
370
25
 62
7
100
AcDbLine
 10
-5.0
 20
16.21320343559642
 30
0.0
 11
-3.927661196330348
 21
17.28554223926607
 31
0.0
  0
LINE
  5
463
330
1F
100
AcDbEntity
  8
SK2
  6
CONTINUOUS
370
25
 62
7
100
AcDbLine
 10
-5.0
 20
16.63746750430835
 30
0.0
 11
-4.281214586923621
 21
17.35625291738472
 31
0.0
  0
LINE
  5
464
330
1F
100
AcDbEntity
  8
SK2
  6
CONTINUOUS
370
25
 62
7
100
AcDbLine
 10
-5.0
 20
17.06173157302027
 30
0.0
 11
-4.634767977516894
 21
17.42696359550338
 31
0.0
  0
LINE
  5
465
330
1F
100
AcDbEntity
  8
SK2
  6
CONTINUOUS
370
25
 62
7
100
AcDbLine
 10
-5.0
 20
17.4859956417322
 30
0.0
 11
-4.988321368110167
 21
17.49767427362203
 31
0.0
  0
LINE
  5
466
330
1F
100
AcDbEntity
  8
SK2
  6
CONTINUOUS
370
25
 62
7
100
AcDbLine
 10
-5.0
 20
15.60660171779819
 30
0.0
 11
-4.911173568501511
 21
15.5177752862997
 31
0.0
  0
LINE
  5
467
330
1F
100
AcDbEntity
  8
SK2
  6
CONTINUOUS
370
25
 62
7
100
AcDbLine
 10
-5.0
 20
16.03086578651011
 30
0.0
 11
-4.557620177908238
 21
15.58848596441835
 31
0.0
  0
LINE
  5
468
330
1F
100
AcDbEntity
  8
SK2
  6
CONTINUOUS
370
25
 62
7
100
AcDbLine
 10
-5.0
 20
16.45512985522204
 30
0.0
 11
-4.204066787314965
 21
15.65919664253701
 31
0.0
  0
LINE
  5
469
330
1F
100
AcDbEntity
  8
SK2
  6
CONTINUOUS
370
25
 62
7
100
AcDbLine
 10
-5.0
 20
16.87939392393397
 30
0.0
 11
-3.850513396721692
 21
15.72990732065566
 31
0.0
  0
LINE
  5
46A
330
1F
100
AcDbEntity
  8
SK2
  6
CONTINUOUS
370
25
 62
7
100
AcDbLine
 10
-5.0
 20
17.3036579926459
 30
0.0
 11
-3.496960006128418
 21
15.80061799877432
 31
0.0
  0
LINE
  5
46B
330
1F
100
AcDbEntity
  8
SK2
  6
CONTINUOUS
370
25
 62
7
100
AcDbLine
 10
-4.71510992330272
 20
17.44303198466054
 30
0.0
 11
-3.143406615535145
 21
15.87132867689297
 31
0.0
  0
LINE
  5
46C
330
1F
100
AcDbEntity
  8
SK2
  6
CONTINUOUS
370
25
 62
7
100
AcDbLine
 10
-4.184779837412809
 20
17.33696596748256
 30
0.0
 11
-2.789853224941871
 21
15.94203935501163
 31
0.0
  0
LINE
  5
46D
330
1F
100
AcDbEntity
  8
SK2
  6
CONTINUOUS
370
25
 62
7
100
AcDbLine
 10
-3.654449751522898
 20
17.23089995030458
 30
0.0
 11
-2.436299834348598
 21
16.01275003313028
 31
0.0
  0
LINE
  5
46E
330
1F
100
AcDbEntity
  8
SK2
  6
CONTINUOUS
370
25
 62
7
100
AcDbLine
 10
-3.124119665632989
 20
17.1248339331266
 30
0.0
 11
-2.082746443755325
 21
16.08346071124894
 31
0.0
  0
LINE
  5
46F
330
1F
100
AcDbEntity
  8
SK2
  6
CONTINUOUS
370
25
 62
7
100
AcDbLine
 10
-2.593789579743078
 20
17.01876791594862
 30
0.0
 11
-1.729193053162051
 21
16.15417138936759
 31
0.0
  0
LINE
  5
470
330
1F
100
AcDbEntity
  8
SK2
  6
CONTINUOUS
370
25
 62
7
100
AcDbLine
 10
-2.063459493853168
 20
16.91270189877064
 30
0.0
 11
-1.375639662568778
 21
16.22488206748625
 31
0.0
  0
LINE
  5
471
330
1F
100
AcDbEntity
  8
SK2
  6
CONTINUOUS
370
25
 62
7
100
AcDbLine
 10
-1.533129407963257
 20
16.80663588159265
 30
0.0
 11
-1.022086271975504
 21
16.2955927456049
 31
0.0
  0
LINE
  5
472
330
1F
100
AcDbEntity
  8
SK2
  6
CONTINUOUS
370
25
 62
7
100
AcDbLine
 10
-1.002799322073346
 20
16.70056986441467
 30
0.0
 11
-0.6685328813822305
 21
16.36630342372355
 31
0.0
  0
LINE
  5
473
330
1F
100
AcDbEntity
  8
SK2
  6
CONTINUOUS
370
25
 62
7
100
AcDbLine
 10
-0.4724692361834358
 20
16.59450384723669
 30
0.0
 11
-0.314979490788957
 21
16.43701410184221
 31
0.0
  0
TEXT
  5
474
330
1F
100
AcDbEntity
  8
SK2
  6
CONTINUOUS
370
25
 62
7
100
AcDbText
 10
-34.665
 20
17.50001
 30
0.0
 40
3.5
  1
55.33
 72
     1
 11
-27.665
 21
17.50001
 31
0.0
100
AcDbText
  0
LINE
  5
475
330
1F
100
AcDbEntity
  8
2
  6
CONTINUOUS
370
25
 62
7
100
AcDbLine
 10
0.0
 20
-6.50001
 30
0.0
 11
-0.0000000000000007
 21
-17.50001
 31
0.0
  0
LINE
  5
476
330
1F
100
AcDbEntity
  8
2
  6
CONTINUOUS
370
25
 62
7
100
AcDbLine
 10
1.009999999999999
 20
-17.50001
 30
0.0
 11
1.01
 21
-6.50001
 31
0.0
  0
LINE
  5
477
330
1F
100
AcDbEntity
  8
2
  6
CONTINUOUS
370
25
 62
7
100
AcDbLine
 10
-18.475
 20
-16.50001
 30
0.0
 11
11.01
 21
-16.50001
 31
0.0
  0
LINE
  5
478
330
1F
100
AcDbEntity
  8
2
  6
CONTINUOUS
370
25
 62
7
100
AcDbLine
 10
0.0
 20
-16.50001
 30
0.0
 11
-5.0
 21
-17.50001
 31
0.0
  0
LINE
  5
479
330
1F
100
AcDbEntity
  8
2
  6
CONTINUOUS
370
25
 62
7
100
AcDbLine
 10
-5.0
 20
-17.50001
 30
0.0
 11
-5.0
 21
-15.50001
 31
0.0
  0
LINE
  5
47A
330
1F
100
AcDbEntity
  8
2
  6
CONTINUOUS
370
25
 62
7
100
AcDbLine
 10
-5.0
 20
-15.50001
 30
0.0
 11
0.0
 21
-16.50001
 31
0.0
  0
LINE
  5
47B
330
1F
100
AcDbEntity
  8
2
  6
CONTINUOUS
370
25
 62
7
100
AcDbLine
 10
-0.0788084609650052
 20
-16.515771692193
 30
0.0
 11
-0.0525389739766702
 21
-16.48950220520467
 31
0.0
  0
LINE
  5
47C
330
1F
100
AcDbEntity
  8
2
  6
CONTINUOUS
370
25
 62
7
100
AcDbLine
 10
-0.6091385468549145
 20
-16.62183770937098
 30
0.0
 11
-0.4060923645699431
 21
-16.41879152708601
 31
0.0
  0
LINE
  5
47D
330
1F
100
AcDbEntity
  8
2
  6
CONTINUOUS
370
25
 62
7
100
AcDbLine
 10
-1.139468632744824
 20
-16.72790372654896
 30
0.0
 11
-0.7596457551632161
 21
-16.34808084896736
 31
0.0
  0
LINE
  5
47E
330
1F
100
AcDbEntity
  8
2
  6
CONTINUOUS
370
25
 62
7
100
AcDbLine
 10
-1.669798718634733
 20
-16.83396974372695
 30
0.0
 11
-1.113199145756489
 21
-16.2773701708487
 31
0.0
  0
LINE
  5
47F
330
1F
100
AcDbEntity
  8
2
  6
CONTINUOUS
370
25
 62
7
100
AcDbLine
 10
-2.200128804524642
 20
-16.94003576090493
 30
0.0
 11
-1.466752536349762
 21
-16.20665949273005
 31
0.0
  0
LINE
  5
480
330
1F
100
AcDbEntity
  8
2
  6
CONTINUOUS
370
25
 62
7
100
AcDbLine
 10
-2.730458890414553
 20
-17.04610177808291
 30
0.0
 11
-1.820305926943036
 21
-16.13594881461139
 31
0.0
  0
LINE
  5
481
330
1F
100
AcDbEntity
  8
2
  6
CONTINUOUS
370
25
 62
7
100
AcDbLine
 10
-3.260788976304462
 20
-17.15216779526089
 30
0.0
 11
-2.173859317536309
 21
-16.06523813649274
 31
0.0
  0
LINE
  5
482
330
1F
100
AcDbEntity
  8
2
  6
CONTINUOUS
370
25
 62
7
100
AcDbLine
 10
-3.791119062194373
 20
-17.25823381243887
 30
0.0
 11
-2.527412708129583
 21
-15.99452745837408
 31
0.0
  0
LINE
  5
483
330
1F
100
AcDbEntity
  8
2
  6
CONTINUOUS
370
25
 62
7
100
AcDbLine
 10
-4.321449148084283
 20
-17.36429982961685
 30
0.0
 11
-2.880966098722856
 21
-15.92381678025543
 31
0.0
  0
LINE
  5
484
330
1F
100
AcDbEntity
  8
2
  6
CONTINUOUS
370
25
 62
7
100
AcDbLine
 10
-4.851779233974192
 20
-17.47036584679484
 30
0.0
 11
-3.234519489316129
 21
-15.85310610213677
 31
0.0
  0
LINE
  5
485
330
1F
100
AcDbEntity
  8
2
  6
CONTINUOUS
370
25
 62
7
100
AcDbLine
 10
-5.0
 20
-17.19432254410872
 30
0.0
 11
-3.588072879909402
 21
-15.78239542401812
 31
0.0
  0
LINE
  5
486
330
1F
100
AcDbEntity
  8
2
  6
CONTINUOUS
370
25
 62
7
100
AcDbLine
 10
-5.0
 20
-16.77005847539679
 30
0.0
 11
-3.941626270502675
 21
-15.71168474589946
 31
0.0
  0
LINE
  5
487
330
1F
100
AcDbEntity
  8
2
  6
CONTINUOUS
370
25
 62
7
100
AcDbLine
 10
-5.0
 20
-16.34579440668486
 30
0.0
 11
-4.295179661095948
 21
-15.64097406778081
 31
0.0
  0
LINE
  5
488
330
1F
100
AcDbEntity
  8
2
  6
CONTINUOUS
370
25
 62
7
100
AcDbLine
 10
-5.0
 20
-15.92153033797294
 30
0.0
 11
-4.648733051689221
 21
-15.57026338966216
 31
0.0
  0
LINE
  5
489
330
1F
100
AcDbEntity
  8
2
  6
CONTINUOUS
370
25
 62
7
100
AcDbLine
 10
-5.0
 20
-17.1943225441087
 30
0.0
 11
-4.745260453423917
 21
-17.44906209068478
 31
0.0
  0
LINE
  5
48A
330
1F
100
AcDbEntity
  8
2
  6
CONTINUOUS
370
25
 62
7
100
AcDbLine
 10
-5.0
 20
-16.77005847539678
 30
0.0
 11
-4.391707062830647
 21
-17.37835141256613
 31
0.0
  0
LINE
  5
48B
330
1F
100
AcDbEntity
  8
2
  6
CONTINUOUS
370
25
 62
7
100
AcDbLine
 10
-5.0
 20
-16.34579440668485
 30
0.0
 11
-4.038153672237374
 21
-17.30764073444747
 31
0.0
  0
LINE
  5
48C
330
1F
100
AcDbEntity
  8
2
  6
CONTINUOUS
370
25
 62
7
100
AcDbLine
 10
-5.0
 20
-15.92153033797292
 30
0.0
 11
-3.684600281644097
 21
-17.23693005632882
 31
0.0
  0
LINE
  5
48D
330
1F
100
AcDbEntity
  8
2
  6
CONTINUOUS
370
25
 62
7
100
AcDbLine
 10
-4.996570336576239
 20
-15.50069593268475
 30
0.0
 11
-3.331046891050824
 21
-17.16621937821017
 31
0.0
  0
LINE
  5
48E
330
1F
100
AcDbEntity
  8
2
  6
CONTINUOUS
370
25
 62
7
100
AcDbLine
 10
-4.466240250686332
 20
-15.60676194986273
 30
0.0
 11
-2.977493500457554
 21
-17.09550870009151
 31
0.0
  0
LINE
  5
48F
330
1F
100
AcDbEntity
  8
2
  6
CONTINUOUS
370
25
 62
7
100
AcDbLine
 10
-3.935910164796422
 20
-15.71282796704071
 30
0.0
 11
-2.62394010986428
 21
-17.02479802197286
 31
0.0
  0
LINE
  5
490
330
1F
100
AcDbEntity
  8
2
  6
CONTINUOUS
370
25
 62
7
100
AcDbLine
 10
-3.405580078906511
 20
-15.8188939842187
 30
0.0
 11
-2.270386719271006
 21
-16.9540873438542
 31
0.0
  0
LINE
  5
491
330
1F
100
AcDbEntity
  8
2
  6
CONTINUOUS
370
25
 62
7
100
AcDbLine
 10
-2.875249993016601
 20
-15.92496000139668
 30
0.0
 11
-1.916833328677733
 21
-16.88337666573555
 31
0.0
  0
LINE
  5
492
330
1F
100
AcDbEntity
  8
2
  6
CONTINUOUS
370
25
 62
7
100
AcDbLine
 10
-2.34491990712669
 20
-16.03102601857466
 30
0.0
 11
-1.563279938084459
 21
-16.81266598761689
 31
0.0
  0
LINE
  5
493
330
1F
100
AcDbEntity
  8
2
  6
CONTINUOUS
370
25
 62
7
100
AcDbLine
 10
-1.81458982123678
 20
-16.13709203575264
 30
0.0
 11
-1.209726547491186
 21
-16.74195530949824
 31
0.0
  0
LINE
  5
494
330
1F
100
AcDbEntity
  8
2
  6
CONTINUOUS
370
25
 62
7
100
AcDbLine
 10
-1.284259735346869
 20
-16.24315805293062
 30
0.0
 11
-0.8561731568979123
 21
-16.67124463137958
 31
0.0
  0
LINE
  5
495
330
1F
100
AcDbEntity
  8
2
  6
CONTINUOUS
370
25
 62
7
100
AcDbLine
 10
-0.7539296494569586
 20
-16.34922407010861
 30
0.0
 11
-0.5026197663046388
 21
-16.60053395326093
 31
0.0
  0
LINE
  5
496
330
1F
100
AcDbEntity
  8
2
  6
CONTINUOUS
370
25
 62
7
100
AcDbLine
 10
-0.2235995635670479
 20
-16.45529008728659
 30
0.0
 11
-0.1490663757113651
 21
-16.52982327514227
 31
0.0
  0
LINE
  5
497
330
1F
100
AcDbEntity
  8
2
  6
CONTINUOUS
370
25
 62
7
100
AcDbLine
 10
1.009999999999999
 20
-16.50001
 30
0.0
 11
6.01
 21
-15.50001
 31
0.0
  0
LINE
  5
498
330
1F
100
AcDbEntity
  8
2
  6
CONTINUOUS
370
25
 62
7
100
AcDbLine
 10
6.01
 20
-15.50001
 30
0.0
 11
6.01
 21
-17.50001
 31
0.0
  0
LINE
  5
499
330
1F
100
AcDbEntity
  8
2
  6
CONTINUOUS
370
25
 62
7
100
AcDbLine
 10
6.01
 20
-17.50001
 30
0.0
 11
1.009999999999999
 21
-16.50001
 31
0.0
  0
LINE
  5
49A
330
1F
100
AcDbEntity
  8
2
  6
CONTINUOUS
370
25
 62
7
100
AcDbLine
 10
5.889820338904043
 20
-17.4759740677808
 30
0.0
 11
6.01
 21
-17.35579440668485
 31
0.0
  0
LINE
  5
49B
330
1F
100
AcDbEntity
  8
2
  6
CONTINUOUS
370
25
 62
7
100
AcDbLine
 10
5.53626694831077
 20
-17.40526338966215
 30
0.0
 11
6.01
 21
-16.93153033797292
 31
0.0
  0
LINE
  5
49C
330
1F
100
AcDbEntity
  8
2
  6
CONTINUOUS
370
25
 62
7
100
AcDbLine
 10
5.182713557717498
 20
-17.33455271154349
 30
0.0
 11
6.01
 21
-16.507266269261
 31
0.0
  0
LINE
  5
49D
330
1F
100
AcDbEntity
  8
2
  6
CONTINUOUS
370
25
 62
7
100
AcDbLine
 10
4.829160167124225
 20
-17.26384203342484
 30
0.0
 11
6.01
 21
-16.08300220054907
 31
0.0
  0
LINE
  5
49E
330
1F
100
AcDbEntity
  8
2
  6
CONTINUOUS
370
25
 62
7
100
AcDbLine
 10
4.475606776530948
 20
-17.19313135530619
 30
0.0
 11
6.01
 21
-15.65873813183714
 31
0.0
  0
LINE
  5
49F
330
1F
100
AcDbEntity
  8
2
  6
CONTINUOUS
370
25
 62
7
100
AcDbLine
 10
4.122053385937675
 20
-17.12242067718753
 30
0.0
 11
5.678080078906512
 21
-15.5663939842187
 31
0.0
  0
LINE
  5
4A0
330
1F
100
AcDbEntity
  8
2
  6
CONTINUOUS
370
25
 62
7
100
AcDbLine
 10
3.768499995344402
 20
-17.05170999906888
 30
0.0
 11
5.147749993016604
 21
-15.67246000139668
 31
0.0
  0
LINE
  5
4A1
330
1F
100
AcDbEntity
  8
2
  6
CONTINUOUS
370
25
 62
7
100
AcDbLine
 10
3.414946604751129
 20
-16.98099932095023
 30
0.0
 11
4.617419907126695
 21
-15.77852601857466
 31
0.0
  0
LINE
  5
4A2
330
1F
100
AcDbEntity
  8
2
  6
CONTINUOUS
370
25
 62
7
100
AcDbLine
 10
3.061393214157856
 20
-16.91028864283157
 30
0.0
 11
4.087089821236784
 21
-15.88459203575264
 31
0.0
  0
LINE
  5
4A3
330
1F
100
AcDbEntity
  8
2
  6
CONTINUOUS
370
25
 62
7
100
AcDbLine
 10
2.707839823564582
 20
-16.83957796471292
 30
0.0
 11
3.556759735346875
 21
-15.99065805293062
 31
0.0
  0
LINE
  5
4A4
330
1F
100
AcDbEntity
  8
2
  6
CONTINUOUS
370
25
 62
7
100
AcDbLine
 10
2.354286432971309
 20
-16.76886728659426
 30
0.0
 11
3.026429649456964
 21
-16.0967240701086
 31
0.0
  0
LINE
  5
4A5
330
1F
100
AcDbEntity
  8
2
  6
CONTINUOUS
370
25
 62
7
100
AcDbLine
 10
2.000733042378037
 20
-16.69815660847561
 30
0.0
 11
2.496099563567055
 21
-16.20279008728659
 31
0.0
  0
LINE
  5
4A6
330
1F
100
AcDbEntity
  8
2
  6
CONTINUOUS
370
25
 62
7
100
AcDbLine
 10
1.647179651784763
 20
-16.62744593035695
 30
0.0
 11
1.965769477677145
 21
-16.30885610446457
 31
0.0
  0
LINE
  5
4A7
330
1F
100
AcDbEntity
  8
2
  6
CONTINUOUS
370
25
 62
7
100
AcDbLine
 10
1.29362626119149
 20
-16.5567352522383
 30
0.0
 11
1.435439391787235
 21
-16.41492212164255
 31
0.0
  0
LINE
  5
4A8
330
1F
100
AcDbEntity
  8
2
  6
CONTINUOUS
370
25
 62
7
100
AcDbLine
 10
1.197098859456784
 20
-16.46259022810864
 30
0.0
 11
1.290648289185176
 21
-16.55613965783703
 31
0.0
  0
LINE
  5
4A9
330
1F
100
AcDbEntity
  8
2
  6
CONTINUOUS
370
25
 62
7
100
AcDbLine
 10
1.550652250050057
 20
-16.39187954998999
 30
0.0
 11
1.820978375075087
 21
-16.66220567501502
 31
0.0
  0
LINE
  5
4AA
330
1F
100
AcDbEntity
  8
2
  6
CONTINUOUS
370
25
 62
7
100
AcDbLine
 10
1.904205640643331
 20
-16.32116887187133
 30
0.0
 11
2.351308460964997
 21
-16.768271692193
 31
0.0
  0
LINE
  5
4AB
330
1F
100
AcDbEntity
  8
2
  6
CONTINUOUS
370
25
 62
7
100
AcDbLine
 10
2.257759031236604
 20
-16.25045819375268
 30
0.0
 11
2.881638546854906
 21
-16.87433770937098
 31
0.0
  0
LINE
  5
4AC
330
1F
100
AcDbEntity
  8
2
  6
CONTINUOUS
370
25
 62
7
100
AcDbLine
 10
2.611312421829877
 20
-16.17974751563402
 30
0.0
 11
3.411968632744816
 21
-16.98040372654896
 31
0.0
  0
LINE
  5
4AD
330
1F
100
AcDbEntity
  8
2
  6
CONTINUOUS
370
25
 62
7
100
AcDbLine
 10
2.964865812423151
 20
-16.10903683751537
 30
0.0
 11
3.942298718634728
 21
-17.08646974372694
 31
0.0
  0
LINE
  5
4AE
330
1F
100
AcDbEntity
  8
2
  6
CONTINUOUS
370
25
 62
7
100
AcDbLine
 10
3.318419203016424
 20
-16.03832615939671
 30
0.0
 11
4.472628804524638
 21
-17.19253576090492
 31
0.0
  0
LINE
  5
4AF
330
1F
100
AcDbEntity
  8
2
  6
CONTINUOUS
370
25
 62
7
100
AcDbLine
 10
3.671972593609697
 20
-15.96761548127806
 30
0.0
 11
5.002958890414547
 21
-17.29860177808291
 31
0.0
  0
LINE
  5
4B0
330
1F
100
AcDbEntity
  8
2
  6
CONTINUOUS
370
25
 62
7
100
AcDbLine
 10
4.02552598420297
 20
-15.8969048031594
 30
0.0
 11
5.533288976304457
 21
-17.40466779526089
 31
0.0
  0
LINE
  5
4B1
330
1F
100
AcDbEntity
  8
2
  6
CONTINUOUS
370
25
 62
7
100
AcDbLine
 10
4.379079374796243
 20
-15.82619412504075
 30
0.0
 11
6.01
 21
-17.4571147502445
 31
0.0
  0
LINE
  5
4B2
330
1F
100
AcDbEntity
  8
2
  6
CONTINUOUS
370
25
 62
7
100
AcDbLine
 10
4.732632765389516
 20
-15.75548344692209
 30
0.0
 11
6.01
 21
-17.03285068153258
 31
0.0
  0
LINE
  5
4B3
330
1F
100
AcDbEntity
  8
2
  6
CONTINUOUS
370
25
 62
7
100
AcDbLine
 10
5.08618615598279
 20
-15.68477276880344
 30
0.0
 11
6.01
 21
-16.60858661282065
 31
0.0
  0
LINE
  5
4B4
330
1F
100
AcDbEntity
  8
2
  6
CONTINUOUS
370
25
 62
7
100
AcDbLine
 10
5.439739546576063
 20
-15.61406209068478
 30
0.0
 11
6.01
 21
-16.18432254410872
 31
0.0
  0
LINE
  5
4B5
330
1F
100
AcDbEntity
  8
2
  6
CONTINUOUS
370
25
 62
7
100
AcDbLine
 10
5.793292937169336
 20
-15.54335141256613
 30
0.0
 11
6.01
 21
-15.76005847539679
 31
0.0
  0
TEXT
  5
4B6
330
1F
100
AcDbEntity
  8
2
  6
CONTINUOUS
370
25
 62
7
100
AcDbText
 10
-15.52916666666667
 20
-15.50001
 30
0.0
 40
3.5
  1
1.01
 72
     1
 11
-11.7375
 21
-15.50001
 31
0.0
100
AcDbText
  0
LINE
  5
4B7
330
1F
100
AcDbEntity
  8
NOCUT
  6
CONTINUOUS
370
25
 62
7
100
AcDbLine
 10
1.0
 20
0.0
 30
0.0
 11
54.67
 21
0.0
 31
0.0
  0
LINE
  5
4B8
330
1F
100
AcDbEntity
  8
NOCUT
  6
CONTINUOUS
370
25
 62
7
100
AcDbLine
 10
54.67
 20
0.0
 30
0.0
 11
54.67
 21
5.2
 31
0.0
  0
LINE
  5
4B9
330
1F
100
AcDbEntity
  8
NOCUT
  6
CONTINUOUS
370
25
 62
7
100
AcDbLine
 10
54.67
 20
5.2
 30
0.0
 11
4.670000000000002
 21
5.2
 31
0.0
  0
LINE
  5
4BA
330
1F
100
AcDbEntity
  8
NOCUT
  6
CONTINUOUS
370
25
 62
7
100
AcDbLine
 10
4.670000000000002
 20
5.2
 30
0.0
 11
4.670000000000002
 21
6.2
 31
0.0
  0
LINE
  5
4BB
330
1F
100
AcDbEntity
  8
NOCUT
  6
CONTINUOUS
370
25
 62
7
100
AcDbLine
 10
4.670000000000002
 20
6.2
 30
0.0
 11
3.596128499307297
 21
5.58
 31
0.0
  0
LINE
  5
4BC
330
1F
100
AcDbEntity
  8
NOCUT
  6
CONTINUOUS
370
25
 62
7
100
AcDbLine
 10
3.596128499307297
 20
5.58
 30
0.0
 11
2.593486742963368
 21
5.58
 31
0.0
  0
LINE
  5
4BD
330
1F
100
AcDbEntity
  8
NOCUT
  6
CONTINUOUS
370
25
 62
7
100
AcDbLine
 10
2.593486742963368
 20
5.58
 30
0.0
 11
1.0
 21
6.5
 31
0.0
  0
LINE
  5
4BE
330
1F
100
AcDbEntity
  8
CUT
  6
CONTINUOUS
370
25
 62
1
100
AcDbLine
 10
2.937949192431124
 20
5.2
 30
0.0
 11
4.670000000000002
 21
6.2
 31
0.0
  0
LINE
  5
4BF
330
1F
100
AcDbEntity
  8
CUT
  6
CONTINUOUS
370
25
 62
1
100
AcDbLine
 10
4.670000000000002
 20
6.2
 30
0.0
 11
53.67
 21
6.2
 31
0.0
  0
LINE
  5
4C0
330
1F
100
AcDbEntity
  8
CUT
  6
CONTINUOUS
370
25
 62
1
100
AcDbLine
 10
53.67
 20
6.2
 30
0.0
 11
54.67
 21
5.2
 31
0.0
  0
LINE
  5
4C1
330
1F
100
AcDbEntity
  8
CUT
  6
CONTINUOUS
370
25
 62
1
100
AcDbLine
 10
54.67
 20
5.2
 30
0.0
 11
2.937949192431127
 21
5.2
 31
0.0
  0
LINE
  5
4C2
330
1F
100
AcDbEntity
  8
2
  6
CONTINUOUS
370
25
 62
7
100
AcDbLine
 10
54.67
 20
-6.2
 30
0.0
 11
65.67
 21
-6.2
 31
0.0
  0
LINE
  5
4C3
330
1F
100
AcDbEntity
  8
2
  6
CONTINUOUS
370
25
 62
7
100
AcDbLine
 10
65.67
 20
6.2
 30
0.0
 11
54.67
 21
6.2
 31
0.0
  0
LINE
  5
4C4
330
1F
100
AcDbEntity
  8
2
  6
CONTINUOUS
370
25
 62
7
100
AcDbLine
 10
64.67
 20
31.4125
 30
0.0
 11
64.67
 21
-16.20000000000001
 31
0.0
  0
LINE
  5
4C5
330
1F
100
AcDbEntity
  8
2
  6
CONTINUOUS
370
25
 62
7
100
AcDbLine
 10
64.67
 20
-6.2
 30
0.0
 11
65.67
 21
-11.2
 31
0.0
  0
LINE
  5
4C6
330
1F
100
AcDbEntity
  8
2
  6
CONTINUOUS
370
25
 62
7
100
AcDbLine
 10
65.67
 20
-11.2
 30
0.0
 11
63.67
 21
-11.2
 31
0.0
  0
LINE
  5
4C7
330
1F
100
AcDbEntity
  8
2
  6
CONTINUOUS
370
25
 62
7
100
AcDbLine
 10
63.67
 20
-11.2
 30
0.0
 11
64.67
 21
-6.2
 31
0.0
  0
LINE
  5
4C8
330
1F
100
AcDbEntity
  8
2
  6
CONTINUOUS
370
25
 62
7
100
AcDbLine
 10
65.4285017489816
 20
-11.2
 30
0.0
 11
65.62975029149695
 21
-10.99875145748466
 31
0.0
  0
LINE
  5
4C9
330
1F
100
AcDbEntity
  8
2
  6
CONTINUOUS
370
25
 62
7
100
AcDbLine
 10
65.00423768026965
 20
-11.2
 30
0.0
 11
65.55903961337829
 21
-10.64519806689137
 31
0.0
  0
LINE
  5
4CA
330
1F
100
AcDbEntity
  8
2
  6
CONTINUOUS
370
25
 62
7
100
AcDbLine
 10
64.57997361155775
 20
-11.2
 30
0.0
 11
65.48832893525963
 21
-10.29164467629812
 31
0.0
  0
LINE
  5
4CB
330
1F
100
AcDbEntity
  8
2
  6
CONTINUOUS
370
25
 62
7
100
AcDbLine
 10
64.1557095428458
 20
-11.2
 30
0.0
 11
65.41761825714097
 21
-9.938091285704843
 31
0.0
  0
LINE
  5
4CC
330
1F
100
AcDbEntity
  8
2
  6
CONTINUOUS
370
25
 62
7
100
AcDbLine
 10
63.73144547413388
 20
-11.2
 30
0.0
 11
65.34690757902233
 21
-9.584537895111566
 31
0.0
  0
LINE
  5
4CD
330
1F
100
AcDbEntity
  8
2
  6
CONTINUOUS
370
25
 62
7
100
AcDbLine
 10
63.76070464864452
 20
-10.74647675677743
 30
0.0
 11
65.27619690090366
 21
-9.230984504518304
 31
0.0
  0
LINE
  5
4CE
330
1F
100
AcDbEntity
  8
2
  6
CONTINUOUS
370
25
 62
7
100
AcDbLine
 10
63.86677066582249
 20
-10.21614667088754
 30
0.0
 11
65.20548622278501
 21
-8.877431113925027
 31
0.0
  0
LINE
  5
4CF
330
1F
100
AcDbEntity
  8
2
  6
CONTINUOUS
370
25
 62
7
100
AcDbLine
 10
63.97283668300047
 20
-9.685816584997632
 30
0.0
 11
65.13477554466637
 21
-8.52387772333175
 31
0.0
  0
LINE
  5
4D0
330
1F
100
AcDbEntity
  8
2
  6
CONTINUOUS
370
25
 62
7
100
AcDbLine
 10
64.07890270017845
 20
-9.155486499107738
 30
0.0
 11
65.06406486654771
 21
-8.170324332738474
 31
0.0
  0
LINE
  5
4D1
330
1F
100
AcDbEntity
  8
2
  6
CONTINUOUS
370
25
 62
7
100
AcDbLine
 10
64.18496871735644
 20
-8.625156413217809
 30
0.0
 11
64.99335418842905
 21
-7.816770942145212
 31
0.0
  0
LINE
  5
4D2
330
1F
100
AcDbEntity
  8
2
  6
CONTINUOUS
370
25
 62
7
100
AcDbLine
 10
64.29103473453442
 20
-8.094826327327908
 30
0.0
 11
64.9226435103104
 21
-7.463217551551935
 31
0.0
  0
LINE
  5
4D3
330
1F
100
AcDbEntity
  8
2
  6
CONTINUOUS
370
25
 62
7
100
AcDbLine
 10
64.3971007517124
 20
-7.564496241437993
 30
0.0
 11
64.85193283219174
 21
-7.109664160958673
 31
0.0
  0
LINE
  5
4D4
330
1F
100
AcDbEntity
  8
2
  6
CONTINUOUS
370
25
 62
7
100
AcDbLine
 10
64.50316676889038
 20
-7.034166155548093
 30
0.0
 11
64.78122215407309
 21
-6.756110770365382
 31
0.0
  0
LINE
  5
4D5
330
1F
100
AcDbEntity
  8
2
  6
CONTINUOUS
370
25
 62
7
100
AcDbLine
 10
64.60923278606836
 20
-6.503836069658192
 30
0.0
 11
64.71051147595443
 21
-6.402557379772119
 31
0.0
  0
LINE
  5
4D6
330
1F
100
AcDbEntity
  8
2
  6
CONTINUOUS
370
25
 62
7
100
AcDbLine
 10
63.6931240867132
 20
-11.08437956643407
 30
0.0
 11
63.80874452027913
 21
-11.2
 31
0.0
  0
LINE
  5
4D7
330
1F
100
AcDbEntity
  8
2
  6
CONTINUOUS
370
25
 62
7
100
AcDbLine
 10
63.76383476483185
 20
-10.73082617584078
 30
0.0
 11
64.23300858899107
 21
-11.2
 31
0.0
  0
LINE
  5
4D8
330
1F
100
AcDbEntity
  8
2
  6
CONTINUOUS
370
25
 62
7
100
AcDbLine
 10
63.83454544295051
 20
-10.37727278524751
 30
0.0
 11
64.65727265770299
 21
-11.2
 31
0.0
  0
LINE
  5
4D9
330
1F
100
AcDbEntity
  8
2
  6
CONTINUOUS
370
25
 62
7
100
AcDbLine
 10
63.90525612106916
 20
-10.02371939465424
 30
0.0
 11
65.08153672641492
 21
-11.2
 31
0.0
  0
LINE
  5
4DA
330
1F
100
AcDbEntity
  8
2
  6
CONTINUOUS
370
25
 62
7
100
AcDbLine
 10
63.97596679918781
 20
-9.67016600406096
 30
0.0
 11
65.50580079512683
 21
-11.2
 31
0.0
  0
LINE
  5
4DB
330
1F
100
AcDbEntity
  8
2
  6
CONTINUOUS
370
25
 62
7
100
AcDbLine
 10
64.04667747730646
 20
-9.316612613467676
 30
0.0
 11
65.60498378404031
 21
-10.87491892020154
 31
0.0
  0
LINE
  5
4DC
330
1F
100
AcDbEntity
  8
2
  6
CONTINUOUS
370
25
 62
7
100
AcDbLine
 10
64.11738815542512
 20
-8.963059222874406
 30
0.0
 11
65.49891776686233
 21
-10.34458883431164
 31
0.0
  0
LINE
  5
4DD
330
1F
100
AcDbEntity
  8
2
  6
CONTINUOUS
370
25
 62
7
100
AcDbLine
 10
64.18809883354378
 20
-8.609505832281137
 30
0.0
 11
65.39285174968435
 21
-9.814258748421729
 31
0.0
  0
LINE
  5
4DE
330
1F
100
AcDbEntity
  8
2
  6
CONTINUOUS
370
25
 62
7
100
AcDbLine
 10
64.25880951166242
 20
-8.255952441687853
 30
0.0
 11
65.28678573250637
 21
-9.283928662531821
 31
0.0
  0
LINE
  5
4DF
330
1F
100
AcDbEntity
  8
2
  6
CONTINUOUS
370
25
 62
7
100
AcDbLine
 10
64.32952018978108
 20
-7.902399051094577
 30
0.0
 11
65.1807197153284
 21
-8.753598576641906
 31
0.0
  0
LINE
  5
4E0
330
1F
100
AcDbEntity
  8
2
  6
CONTINUOUS
370
25
 62
7
100
AcDbLine
 10
64.40023086789974
 20
-7.5488456605013
 30
0.0
 11
65.0746536981504
 21
-8.223268490751977
 31
0.0
  0
LINE
  5
4E1
330
1F
100
AcDbEntity
  8
2
  6
CONTINUOUS
370
25
 62
7
100
AcDbLine
 10
64.4709415460184
 20
-7.19529226990803
 30
0.0
 11
64.96858768097242
 21
-7.692938404862069
 31
0.0
  0
LINE
  5
4E2
330
1F
100
AcDbEntity
  8
2
  6
CONTINUOUS
370
25
 62
7
100
AcDbLine
 10
64.54165222413705
 20
-6.841738879314754
 30
0.0
 11
64.86252166379444
 21
-7.162608318972154
 31
0.0
  0
LINE
  5
4E3
330
1F
100
AcDbEntity
  8
2
  6
CONTINUOUS
370
25
 62
7
100
AcDbLine
 10
64.6123629022557
 20
-6.488185488721484
 30
0.0
 11
64.75645564661646
 21
-6.632278233082246
 31
0.0
  0
LINE
  5
4E4
330
1F
100
AcDbEntity
  8
2
  6
CONTINUOUS
370
25
 62
7
100
AcDbLine
 10
64.67
 20
6.2
 30
0.0
 11
63.67
 21
11.2
 31
0.0
  0
LINE
  5
4E5
330
1F
100
AcDbEntity
  8
2
  6
CONTINUOUS
370
25
 62
7
100
AcDbLine
 10
63.67
 20
11.2
 30
0.0
 11
65.67
 21
11.2
 31
0.0
  0
LINE
  5
4E6
330
1F
100
AcDbEntity
  8
2
  6
CONTINUOUS
370
25
 62
7
100
AcDbLine
 10
65.67
 20
11.2
 30
0.0
 11
64.67
 21
6.2
 31
0.0
  0
LINE
  5
4E7
330
1F
100
AcDbEntity
  8
2
  6
CONTINUOUS
370
25
 62
7
100
AcDbLine
 10
64.65413340479112
 20
6.279332976044365
 30
0.0
 11
64.69379989281332
 21
6.318999464066557
 31
0.0
  0
LINE
  5
4E8
330
1F
100
AcDbEntity
  8
2
  6
CONTINUOUS
370
25
 62
7
100
AcDbLine
 10
64.58342272667248
 20
6.632886366637656
 30
0.0
 11
64.7998659099913
 21
6.849329549956472
 31
0.0
  0
LINE
  5
4E9
330
1F
100
AcDbEntity
  8
2
  6
CONTINUOUS
370
25
 62
7
100
AcDbLine
 10
64.51271204855381
 20
6.986439757230904
 30
0.0
 11
64.90593192716929
 21
7.379659635846387
 31
0.0
  0
LINE
  5
4EA
330
1F
100
AcDbEntity
  8
2
  6
CONTINUOUS
370
25
 62
7
100
AcDbLine
 10
64.44200137043516
 20
7.339993147824202
 30
0.0
 11
65.01199794434727
 21
7.909989721736295
 31
0.0
  0
LINE
  5
4EB
330
1F
100
AcDbEntity
  8
2
  6
CONTINUOUS
370
25
 62
7
100
AcDbLine
 10
64.3712906923165
 20
7.693546538417458
 30
0.0
 11
65.11806396152525
 21
8.440319807626203
 31
0.0
  0
LINE
  5
4EC
330
1F
100
AcDbEntity
  8
2
  6
CONTINUOUS
370
25
 62
7
100
AcDbLine
 10
64.30058001419785
 20
8.047099929010734
 30
0.0
 11
65.22412997870323
 21
8.970649893516104
 31
0.0
  0
LINE
  5
4ED
330
1F
100
AcDbEntity
  8
2
  6
CONTINUOUS
370
25
 62
7
100
AcDbLine
 10
64.2298693360792
 20
8.400653319604011
 30
0.0
 11
65.33019599588121
 21
9.500979979406004
 31
0.0
  0
LINE
  5
4EE
330
1F
100
AcDbEntity
  8
2
  6
CONTINUOUS
370
25
 62
7
100
AcDbLine
 10
64.15915865796055
 20
8.75420671019728
 30
0.0
 11
65.43626201305919
 21
10.03131006529591
 31
0.0
  0
LINE
  5
4EF
330
1F
100
AcDbEntity
  8
2
  6
CONTINUOUS
370
25
 62
7
100
AcDbLine
 10
64.08844797984189
 20
9.10776010079055
 30
0.0
 11
65.54232803023717
 21
10.56164015118582
 31
0.0
  0
LINE
  5
4F0
330
1F
100
AcDbEntity
  8
2
  6
CONTINUOUS
370
25
 62
7
100
AcDbLine
 10
64.01773730172324
 20
9.461313491383827
 30
0.0
 11
65.64839404741515
 21
11.09197023707572
 31
0.0
  0
LINE
  5
4F1
330
1F
100
AcDbEntity
  8
2
  6
CONTINUOUS
370
25
 62
7
100
AcDbLine
 10
63.94702662360459
 20
9.814866881977096
 30
0.0
 11
65.3321597416275
 21
11.2
 31
0.0
  0
LINE
  5
4F2
330
1F
100
AcDbEntity
  8
2
  6
CONTINUOUS
370
25
 62
7
100
AcDbLine
 10
63.87631594548592
 20
10.16842027257036
 30
0.0
 11
64.90789567291557
 21
11.2
 31
0.0
  0
LINE
  5
4F3
330
1F
100
AcDbEntity
  8
2
  6
CONTINUOUS
370
25
 62
7
100
AcDbLine
 10
63.80560526736727
 20
10.52197366316363
 30
0.0
 11
64.48363160420364
 21
11.2
 31
0.0
  0
LINE
  5
4F4
330
1F
100
AcDbEntity
  8
2
  6
CONTINUOUS
370
25
 62
7
100
AcDbLine
 10
63.73489458924862
 20
10.87552705375691
 30
0.0
 11
64.05936753549172
 21
11.2
 31
0.0
  0
LINE
  5
4F5
330
1F
100
AcDbEntity
  8
2
  6
CONTINUOUS
370
25
 62
7
100
AcDbLine
 10
64.56840911409901
 20
6.707954429504937
 30
0.0
 11
64.73772725726734
 21
6.538636286336612
 31
0.0
  0
LINE
  5
4F6
330
1F
100
AcDbEntity
  8
2
  6
CONTINUOUS
370
25
 62
7
100
AcDbLine
 10
64.46234309692105
 20
7.238284515394824
 30
0.0
 11
64.80843793538598
 21
6.892189676929888
 31
0.0
  0
LINE
  5
4F7
330
1F
100
AcDbEntity
  8
2
  6
CONTINUOUS
370
25
 62
7
100
AcDbLine
 10
64.35627707974305
 20
7.768614601284753
 30
0.0
 11
64.87914861350464
 21
7.245743067523165
 31
0.0
  0
LINE
  5
4F8
330
1F
100
AcDbEntity
  8
2
  6
CONTINUOUS
370
25
 62
7
100
AcDbLine
 10
64.25021106256509
 20
8.29894468717464
 30
0.0
 11
64.94985929162328
 21
7.599296458116441
 31
0.0
  0
LINE
  5
4F9
330
1F
100
AcDbEntity
  8
2
  6
CONTINUOUS
370
25
 62
7
100
AcDbLine
 10
64.14414504538709
 20
8.829274773064569
 30
0.0
 11
65.02056996974194
 21
7.952849848709718
 31
0.0
  0
LINE
  5
4FA
330
1F
100
AcDbEntity
  8
2
  6
CONTINUOUS
370
25
 62
7
100
AcDbLine
 10
64.03807902820911
 20
9.359604858954484
 30
0.0
 11
65.0912806478606
 21
8.30640323930298
 31
0.0
  0
LINE
  5
4FB
330
1F
100
AcDbEntity
  8
2
  6
CONTINUOUS
370
25
 62
7
100
AcDbLine
 10
63.93201301103113
 20
9.889934944844384
 30
0.0
 11
65.16199132597926
 21
8.659956629896243
 31
0.0
  0
LINE
  5
4FC
330
1F
100
AcDbEntity
  8
2
  6
CONTINUOUS
370
25
 62
7
100
AcDbLine
 10
63.82594699385314
 20
10.42026503073431
 30
0.0
 11
65.23270200409792
 21
9.01351002048952
 31
0.0
  0
LINE
  5
4FD
330
1F
100
AcDbEntity
  8
2
  6
CONTINUOUS
370
25
 62
7
100
AcDbLine
 10
63.71988097667516
 20
10.95059511662423
 30
0.0
 11
65.30341268221656
 21
9.36706341108281
 31
0.0
  0
LINE
  5
4FE
330
1F
100
AcDbEntity
  8
2
  6
CONTINUOUS
370
25
 62
7
100
AcDbLine
 10
63.8947401620113
 20
11.2
 30
0.0
 11
65.37412336033522
 21
9.720616801676073
 31
0.0
  0
LINE
  5
4FF
330
1F
100
AcDbEntity
  8
2
  6
CONTINUOUS
370
25
 62
7
100
AcDbLine
 10
64.31900423072324
 20
11.2
 30
0.0
 11
65.44483403845388
 21
10.07417019226935
 31
0.0
  0
LINE
  5
500
330
1F
100
AcDbEntity
  8
2
  6
CONTINUOUS
370
25
 62
7
100
AcDbLine
 10
64.74326829943516
 20
11.2
 30
0.0
 11
65.51554471657252
 21
10.42772358286264
 31
0.0
  0
LINE
  5
501
330
1F
100
AcDbEntity
  8
2
  6
CONTINUOUS
370
25
 62
7
100
AcDbLine
 10
65.16753236814709
 20
11.2
 30
0.0
 11
65.5862553946912
 21
10.7812769734559
 31
0.0
  0
LINE
  5
502
330
1F
100
AcDbEntity
  8
2
  6
CONTINUOUS
370
25
 62
7
100
AcDbLine
 10
65.59179643685903
 20
11.2
 30
0.0
 11
65.65696607280984
 21
11.13483036404919
 31
0.0
  0
TEXT
  5
503
330
1F
100
AcDbEntity
  8
2
  6
CONTINUOUS
370
25
 62
7
100
AcDbText
 10
63.67
 20
18.13958333333333
 30
0.0
 40
3.5
  1
12.4
 50
90.00000000000001
 72
     1
 11
63.67
 21
22.80625
 31
0.0
100
AcDbText
  0
CIRCLE
  5
504
330
1F
100
AcDbEntity
  8
2
  6
CONTINUOUS
370
25
 62
7
100
AcDbCircle
 10
62.13875
 20
13.435
 30
0.0
 40
1.53125
  0
LINE
  5
505
330
1F
100
AcDbEntity
  8
2
  6
CONTINUOUS
370
25
 62
7
100
AcDbLine
 10
63.67
 20
11.90375
 30
0.0
 11
60.6075
 21
14.96625
 31
0.0
  0
LINE
  5
506
330
1F
100
AcDbEntity
  8
SK2
  6
CONTINUOUS
370
25
 62
7
100
AcDbLine
 10
-55.33
 20
0.0
 30
0.0
 11
-55.33
 21
23.50001
 31
0.0
  0
LINE
  5
507
330
1F
100
AcDbEntity
  8
SK2
  6
CONTINUOUS
370
25
 62
7
100
AcDbLine
 10
54.67
 20
24.50001
 30
0.0
 11
54.67
 21
6.199999999999999
 31
0.0
  0
LINE
  5
508
330
1F
100
AcDbEntity
  8
SK2
  6
CONTINUOUS
370
25
 62
7
100
AcDbLine
 10
-55.33
 20
23.50001
 30
0.0
 11
54.67
 21
23.50001
 31
0.0
  0
LINE
  5
509
330
1F
100
AcDbEntity
  8
SK2
  6
CONTINUOUS
370
25
 62
7
100
AcDbLine
 10
-55.33
 20
23.50001
 30
0.0
 11
-50.33
 21
24.50001
 31
0.0
  0
LINE
  5
50A
330
1F
100
AcDbEntity
  8
SK2
  6
CONTINUOUS
370
25
 62
7
100
AcDbLine
 10
-50.33
 20
24.50001
 30
0.0
 11
-50.33
 21
22.50001
 31
0.0
  0
LINE
  5
50B
330
1F
100
AcDbEntity
  8
SK2
  6
CONTINUOUS
370
25
 62
7
100
AcDbLine
 10
-50.33
 20
22.50001
 30
0.0
 11
-55.33
 21
23.50001
 31
0.0
  0
LINE
  5
50C
330
1F
100
AcDbEntity
  8
SK2
  6
CONTINUOUS
370
25
 62
7
100
AcDbLine
 10
-50.44950818204308
 20
22.52391163640862
 30
0.0
 11
-50.33
 21
22.6434198184517
 31
0.0
  0
LINE
  5
50D
330
1F
100
AcDbEntity
  8
SK2
  6
CONTINUOUS
370
25
 62
7
100
AcDbLine
 10
-50.80306157263637
 20
22.59462231452727
 30
0.0
 11
-50.33
 21
23.06768388716364
 31
0.0
  0
LINE
  5
50E
330
1F
100
AcDbEntity
  8
SK2
  6
CONTINUOUS
370
25
 62
7
100
AcDbLine
 10
-51.15661496322963
 20
22.66533299264593
 30
0.0
 11
-50.33
 21
23.49194795587556
 31
0.0
  0
LINE
  5
50F
330
1F
100
AcDbEntity
  8
SK2
  6
CONTINUOUS
370
25
 62
7
100
AcDbLine
 10
-51.51016835382291
 20
22.73604367076458
 30
0.0
 11
-50.33
 21
23.91621202458749
 31
0.0
  0
LINE
  5
510
330
1F
100
AcDbEntity
  8
SK2
  6
CONTINUOUS
370
25
 62
7
100
AcDbLine
 10
-51.86372174441619
 20
22.80675434888324
 30
0.0
 11
-50.33
 21
24.34047609329943
 31
0.0
  0
LINE
  5
511
330
1F
100
AcDbEntity
  8
SK2
  6
CONTINUOUS
370
25
 62
7
100
AcDbLine
 10
-52.21727513500946
 20
22.87746502700189
 30
0.0
 11
-50.6609127025142
 21
24.43382745949715
 31
0.0
  0
LINE
  5
512
330
1F
100
AcDbEntity
  8
SK2
  6
CONTINUOUS
370
25
 62
7
100
AcDbLine
 10
-52.57082852560274
 20
22.94817570512055
 30
0.0
 11
-51.19124278840411
 21
24.32776144231917
 31
0.0
  0
LINE
  5
513
330
1F
100
AcDbEntity
  8
SK2
  6
CONTINUOUS
370
25
 62
7
100
AcDbLine
 10
-52.92438191619601
 20
23.01888638323921
 30
0.0
 11
-51.72157287429403
 21
24.22169542514118
 31
0.0
  0
LINE
  5
514
330
1F
100
AcDbEntity
  8
SK2
  6
CONTINUOUS
370
25
 62
7
100
AcDbLine
 10
-53.2779353067893
 20
23.08959706135786
 30
0.0
 11
-52.25190296018395
 21
24.1156294079632
 31
0.0
  0
LINE
  5
515
330
1F
100
AcDbEntity
  8
SK2
  6
CONTINUOUS
370
25
 62
7
100
AcDbLine
 10
-53.63148869738257
 20
23.16030773947652
 30
0.0
 11
-52.78223304607387
 21
24.00956339078522
 31
0.0
  0
LINE
  5
516
330
1F
100
AcDbEntity
  8
SK2
  6
CONTINUOUS
370
25
 62
7
100
AcDbLine
 10
-53.98504208797584
 20
23.23101841759517
 30
0.0
 11
-53.31256313196377
 21
23.90349737360724
 31
0.0
  0
LINE
  5
517
330
1F
100
AcDbEntity
  8
SK2
  6
CONTINUOUS
370
25
 62
7
100
AcDbLine
 10
-54.33859547856912
 20
23.30172909571383
 30
0.0
 11
-53.84289321785369
 21
23.79743135642926
 31
0.0
  0
LINE
  5
518
330
1F
100
AcDbEntity
  8
SK2
  6
CONTINUOUS
370
25
 62
7
100
AcDbLine
 10
-54.69214886916239
 20
23.37243977383249
 30
0.0
 11
-54.37322330374361
 21
23.69136533925128
 31
0.0
  0
LINE
  5
519
330
1F
100
AcDbEntity
  8
SK2
  6
CONTINUOUS
370
25
 62
7
100
AcDbLine
 10
-55.04570225975566
 20
23.44315045195114
 30
0.0
 11
-54.90355338963351
 21
23.5852993220733
 31
0.0
  0
LINE
  5
51A
330
1F
100
AcDbEntity
  8
SK2
  6
CONTINUOUS
370
25
 62
7
100
AcDbLine
 10
-55.32452229799876
 20
23.50110554040024
 30
0.0
 11
-55.32178344699815
 21
23.49836668939963
 31
0.0
  0
LINE
  5
51B
330
1F
100
AcDbEntity
  8
SK2
  6
CONTINUOUS
370
25
 62
7
100
AcDbLine
 10
-54.97096890740549
 20
23.5718162185189
 30
0.0
 11
-54.79145336110824
 21
23.39230067222165
 31
0.0
  0
LINE
  5
51C
330
1F
100
AcDbEntity
  8
SK2
  6
CONTINUOUS
370
25
 62
7
100
AcDbLine
 10
-54.61741551681222
 20
23.64252689663756
 30
0.0
 11
-54.26112327521832
 21
23.28623465504367
 31
0.0
  0
LINE
  5
51D
330
1F
100
AcDbEntity
  8
SK2
  6
CONTINUOUS
370
25
 62
7
100
AcDbLine
 10
-54.26386212621893
 20
23.71323757475621
 30
0.0
 11
-53.73079318932841
 21
23.18016863786568
 31
0.0
  0
LINE
  5
51E
330
1F
100
AcDbEntity
  8
SK2
  6
CONTINUOUS
370
25
 62
7
100
AcDbLine
 10
-53.91030873562566
 20
23.78394825287486
 30
0.0
 11
-53.20046310343849
 21
23.0741026206877
 31
0.0
  0
LINE
  5
51F
330
1F
100
AcDbEntity
  8
SK2
  6
CONTINUOUS
370
25
 62
7
100
AcDbLine
 10
-53.55675534503237
 20
23.85465893099351
 30
0.0
 11
-52.67013301754858
 21
22.96803660350972
 31
0.0
  0
LINE
  5
520
330
1F
100
AcDbEntity
  8
SK2
  6
CONTINUOUS
370
25
 62
7
100
AcDbLine
 10
-53.20320195443911
 20
23.92536960911218
 30
0.0
 11
-52.13980293165866
 21
22.86197058633173
 31
0.0
  0
LINE
  5
521
330
1F
100
AcDbEntity
  8
SK2
  6
CONTINUOUS
370
25
 62
7
100
AcDbLine
 10
-52.84964856384583
 20
23.99608028723082
 30
0.0
 11
-51.60947284576875
 21
22.75590456915375
 31
0.0
  0
LINE
  5
522
330
1F
100
AcDbEntity
  8
SK2
  6
CONTINUOUS
370
25
 62
7
100
AcDbLine
 10
-52.49609517325255
 20
24.06679096534948
 30
0.0
 11
-51.07914275987883
 21
22.64983855197577
 31
0.0
  0
LINE
  5
523
330
1F
100
AcDbEntity
  8
SK2
  6
CONTINUOUS
370
25
 62
7
100
AcDbLine
 10
-52.14254178265928
 20
24.13750164346814
 30
0.0
 11
-50.54881267398893
 21
22.54377253479779
 31
0.0
  0
LINE
  5
524
330
1F
100
AcDbEntity
  8
SK2
  6
CONTINUOUS
370
25
 62
7
100
AcDbLine
 10
-51.788988392066
 20
24.2082123215868
 30
0.0
 11
-50.33
 21
22.74922392952079
 31
0.0
  0
LINE
  5
525
330
1F
100
AcDbEntity
  8
SK2
  6
CONTINUOUS
370
25
 62
7
100
AcDbLine
 10
-51.43543500147273
 20
24.27892299970545
 30
0.0
 11
-50.33
 21
23.17348799823272
 31
0.0
  0
LINE
  5
526
330
1F
100
AcDbEntity
  8
SK2
  6
CONTINUOUS
370
25
 62
7
100
AcDbLine
 10
-51.08188161087944
 20
24.3496336778241
 30
0.0
 11
-50.33
 21
23.59775206694465
 31
0.0
  0
LINE
  5
527
330
1F
100
AcDbEntity
  8
SK2
  6
CONTINUOUS
370
25
 62
7
100
AcDbLine
 10
-50.72832822028617
 20
24.42034435594276
 30
0.0
 11
-50.33
 21
24.02201613565659
 31
0.0
  0
LINE
  5
528
330
1F
100
AcDbEntity
  8
SK2
  6
CONTINUOUS
370
25
 62
7
100
AcDbLine
 10
-50.3747748296929
 20
24.49105503406141
 30
0.0
 11
-50.33
 21
24.44628020436852
 31
0.0
  0
LINE
  5
529
330
1F
100
AcDbEntity
  8
SK2
  6
CONTINUOUS
370
25
 62
7
100
AcDbLine
 10
54.67
 20
23.50001
 30
0.0
 11
49.67
 21
22.50001
 31
0.0
  0
LINE
  5
52A
330
1F
100
AcDbEntity
  8
SK2
  6
CONTINUOUS
370
25
 62
7
100
AcDbLine
 10
49.67
 20
22.50001
 30
0.0
 11
49.67
 21
24.50001
 31
0.0
  0
LINE
  5
52B
330
1F
100
AcDbEntity
  8
SK2
  6
CONTINUOUS
370
25
 62
7
100
AcDbLine
 10
49.67
 20
24.50001
 30
0.0
 11
54.67
 21
23.50001
 31
0.0
  0
LINE
  5
52C
330
1F
100
AcDbEntity
  8
SK2
  6
CONTINUOUS
370
25
 62
7
100
AcDbLine
 10
54.36711353288806
 20
23.43943270657761
 30
0.0
 11
54.46807568859204
 21
23.54039486228159
 31
0.0
  0
LINE
  5
52D
330
1F
100
AcDbEntity
  8
SK2
  6
CONTINUOUS
370
25
 62
7
100
AcDbLine
 10
53.83678344699815
 20
23.33336668939963
 30
0.0
 11
54.11452229799877
 21
23.61110554040025
 31
0.0
  0
LINE
  5
52E
330
1F
100
AcDbEntity
  8
SK2
  6
CONTINUOUS
370
25
 62
7
100
AcDbLine
 10
53.30645336110823
 20
23.22730067222165
 30
0.0
 11
53.76096890740548
 21
23.6818162185189
 31
0.0
  0
LINE
  5
52F
330
1F
100
AcDbEntity
  8
SK2
  6
CONTINUOUS
370
25
 62
7
100
AcDbLine
 10
52.77612327521831
 20
23.12123465504365
 30
0.0
 11
53.40741551681222
 21
23.75252689663757
 31
0.0
  0
LINE
  5
530
330
1F
100
AcDbEntity
  8
SK2
  6
CONTINUOUS
370
25
 62
7
100
AcDbLine
 10
52.2457931893284
 20
23.01516863786568
 30
0.0
 11
53.05386212621894
 21
23.82323757475621
 31
0.0
  0
LINE
  5
531
330
1F
100
AcDbEntity
  8
SK2
  6
CONTINUOUS
370
25
 62
7
100
AcDbLine
 10
51.71546310343849
 20
22.9091026206877
 30
0.0
 11
52.70030873562566
 21
23.89394825287487
 31
0.0
  0
LINE
  5
532
330
1F
100
AcDbEntity
  8
SK2
  6
CONTINUOUS
370
25
 62
7
100
AcDbLine
 10
51.18513301754857
 20
22.80303660350971
 30
0.0
 11
52.34675534503238
 21
23.96465893099352
 31
0.0
  0
LINE
  5
533
330
1F
100
AcDbEntity
  8
SK2
  6
CONTINUOUS
370
25
 62
7
100
AcDbLine
 10
50.65480293165866
 20
22.69697058633173
 30
0.0
 11
51.99320195443912
 21
24.03536960911218
 31
0.0
  0
LINE
  5
534
330
1F
100
AcDbEntity
  8
SK2
  6
CONTINUOUS
370
25
 62
7
100
AcDbLine
 10
50.12447284576874
 20
22.59090456915374
 30
0.0
 11
51.63964856384584
 21
24.10608028723084
 31
0.0
  0
LINE
  5
535
330
1F
100
AcDbEntity
  8
SK2
  6
CONTINUOUS
370
25
 62
7
100
AcDbLine
 10
49.67
 20
22.56069579209693
 30
0.0
 11
51.28609517325255
 21
24.17679096534949
 31
0.0
  0
LINE
  5
536
330
1F
100
AcDbEntity
  8
SK2
  6
CONTINUOUS
370
25
 62
7
100
AcDbLine
 10
49.67
 20
22.98495986080886
 30
0.0
 11
50.93254178265929
 21
24.24750164346815
 31
0.0
  0
LINE
  5
537
330
1F
100
AcDbEntity
  8
SK2
  6
CONTINUOUS
370
25
 62
7
100
AcDbLine
 10
49.67
 20
23.4092239295208
 30
0.0
 11
50.57898839206601
 21
24.3182123215868
 31
0.0
  0
LINE
  5
538
330
1F
100
AcDbEntity
  8
SK2
  6
CONTINUOUS
370
25
 62
7
100
AcDbLine
 10
49.67
 20
23.83348799823273
 30
0.0
 11
50.22543500147273
 21
24.38892299970546
 31
0.0
  0
LINE
  5
539
330
1F
100
AcDbEntity
  8
SK2
  6
CONTINUOUS
370
25
 62
7
100
AcDbLine
 10
49.67
 20
24.25775206694466
 30
0.0
 11
49.87188161087946
 21
24.45963367782411
 31
0.0
  0
LINE
  5
53A
330
1F
100
AcDbEntity
  8
SK2
  6
CONTINUOUS
370
25
 62
7
100
AcDbLine
 10
49.67
 20
22.87915574973977
 30
0.0
 11
49.98595479144981
 21
22.56320095828996
 31
0.0
  0
LINE
  5
53B
330
1F
100
AcDbEntity
  8
SK2
  6
CONTINUOUS
370
25
 62
7
100
AcDbLine
 10
49.67
 20
23.30341981845171
 30
0.0
 11
50.33950818204309
 21
22.63391163640863
 31
0.0
  0
LINE
  5
53C
330
1F
100
AcDbEntity
  8
SK2
  6
CONTINUOUS
370
25
 62
7
100
AcDbLine
 10
49.67
 20
23.72768388716363
 30
0.0
 11
50.69306157263636
 21
22.70462231452728
 31
0.0
  0
LINE
  5
53D
330
1F
100
AcDbEntity
  8
SK2
  6
CONTINUOUS
370
25
 62
7
100
AcDbLine
 10
49.67
 20
24.15194795587556
 30
0.0
 11
51.04661496322964
 21
22.77533299264594
 31
0.0
  0
LINE
  5
53E
330
1F
100
AcDbEntity
  8
SK2
  6
CONTINUOUS
370
25
 62
7
100
AcDbLine
 10
49.76525253073438
 20
24.48095949385312
 30
0.0
 11
51.40016835382292
 21
22.84604367076459
 31
0.0
  0
LINE
  5
53F
330
1F
100
AcDbEntity
  8
SK2
  6
CONTINUOUS
370
25
 62
7
100
AcDbLine
 10
50.2955826166243
 20
24.37489347667514
 30
0.0
 11
51.7537217444162
 21
22.91675434888325
 31
0.0
  0
LINE
  5
540
330
1F
100
AcDbEntity
  8
SK2
  6
CONTINUOUS
370
25
 62
7
100
AcDbLine
 10
50.82591270251422
 20
24.26882745949715
 30
0.0
 11
52.10727513500948
 21
22.9874650270019
 31
0.0
  0
LINE
  5
541
330
1F
100
AcDbEntity
  8
SK2
  6
CONTINUOUS
370
25
 62
7
100
AcDbLine
 10
51.35624278840412
 20
24.16276144231917
 30
0.0
 11
52.46082852560274
 21
23.05817570512055
 31
0.0
  0
LINE
  5
542
330
1F
100
AcDbEntity
  8
SK2
  6
CONTINUOUS
370
25
 62
7
100
AcDbLine
 10
51.88657287429404
 20
24.05669542514119
 30
0.0
 11
52.81438191619603
 21
23.12888638323921
 31
0.0
  0
LINE
  5
543
330
1F
100
AcDbEntity
  8
SK2
  6
CONTINUOUS
370
25
 62
7
100
AcDbLine
 10
52.41690296018396
 20
23.95062940796321
 30
0.0
 11
53.1679353067893
 21
23.19959706135786
 31
0.0
  0
LINE
  5
544
330
1F
100
AcDbEntity
  8
SK2
  6
CONTINUOUS
370
25
 62
7
100
AcDbLine
 10
52.94723304607386
 20
23.84456339078523
 30
0.0
 11
53.52148869738257
 21
23.27030773947652
 31
0.0
  0
LINE
  5
545
330
1F
100
AcDbEntity
  8
SK2
  6
CONTINUOUS
370
25
 62
7
100
AcDbLine
 10
53.47756313196378
 20
23.73849737360725
 30
0.0
 11
53.87504208797586
 21
23.34101841759517
 31
0.0
  0
LINE
  5
546
330
1F
100
AcDbEntity
  8
SK2
  6
CONTINUOUS
370
25
 62
7
100
AcDbLine
 10
54.0078932178537
 20
23.63243135642926
 30
0.0
 11
54.22859547856913
 21
23.41172909571383
 31
0.0
  0
LINE
  5
547
330
1F
100
AcDbEntity
  8
SK2
  6
CONTINUOUS
370
25
 62
7
100
AcDbLine
 10
54.53822330374362
 20
23.52636533925127
 30
0.0
 11
54.58214886916242
 21
23.48243977383247
 31
0.0
  0
TEXT
  5
548
330
1F
100
AcDbEntity
  8
SK2
  6
CONTINUOUS
370
25
 62
7
100
AcDbText
 10
-3.538333333333332
 20
24.50001
 30
0.0
 40
3.5
  1
110
 72
     1
 11
-0.3299999999999983
 21
24.50001
 31
0.0
100
AcDbText
  0
LINE
  5
549
330
1F
100
AcDbEntity
  8
2
  6
CONTINUOUS
370
25
 62
7
100
AcDbLine
 10
-0.0000000000000004
 20
0.0
 30
0.0
 11
0.0000000000000007
 21
17.50001
 31
0.0
  0
LINE
  5
54A
330
1F
100
AcDbEntity
  8
2
  6
CONTINUOUS
370
25
 62
7
100
AcDbLine
 10
54.67
 20
17.50001
 30
0.0
 11
54.67
 21
6.199999999999999
 31
0.0
  0
LINE
  5
54B
330
1F
100
AcDbEntity
  8
2
  6
CONTINUOUS
370
25
 62
7
100
AcDbLine
 10
0.0
 20
16.50001
 30
0.0
 11
54.67
 21
16.50001
 31
0.0
  0
LINE
  5
54C
330
1F
100
AcDbEntity
  8
2
  6
CONTINUOUS
370
25
 62
7
100
AcDbLine
 10
0.0
 20
16.50001
 30
0.0
 11
5.0
 21
17.50001
 31
0.0
  0
LINE
  5
54D
330
1F
100
AcDbEntity
  8
2
  6
CONTINUOUS
370
25
 62
7
100
AcDbLine
 10
5.0
 20
17.50001
 30
0.0
 11
5.0
 21
15.50001
 31
0.0
  0
LINE
  5
54E
330
1F
100
AcDbEntity
  8
2
  6
CONTINUOUS
370
25
 62
7
100
AcDbLine
 10
5.0
 20
15.50001
 30
0.0
 11
0.0
 21
16.50001
 31
0.0
  0
LINE
  5
54F
330
1F
100
AcDbEntity
  8
2
  6
CONTINUOUS
370
25
 62
7
100
AcDbLine
 10
4.91117356850149
 20
15.5177752862997
 30
0.0
 11
5.0
 21
15.60660171779821
 31
0.0
  0
LINE
  5
550
330
1F
100
AcDbEntity
  8
2
  6
CONTINUOUS
370
25
 62
7
100
AcDbLine
 10
4.557620177908217
 20
15.58848596441836
 30
0.0
 11
5.0
 21
16.03086578651014
 31
0.0
  0
LINE
  5
551
330
1F
100
AcDbEntity
  8
2
  6
CONTINUOUS
370
25
 62
7
100
AcDbLine
 10
4.204066787314943
 20
15.65919664253701
 30
0.0
 11
5.0
 21
16.45512985522207
 31
0.0
  0
LINE
  5
552
330
1F
100
AcDbEntity
  8
2
  6
CONTINUOUS
370
25
 62
7
100
AcDbLine
 10
3.85051339672167
 20
15.72990732065567
 30
0.0
 11
5.0
 21
16.879393923934
 31
0.0
  0
LINE
  5
553
330
1F
100
AcDbEntity
  8
2
  6
CONTINUOUS
370
25
 62
7
100
AcDbLine
 10
3.496960006128397
 20
15.80061799877432
 30
0.0
 11
5.0
 21
17.30365799264592
 31
0.0
  0
LINE
  5
554
330
1F
100
AcDbEntity
  8
2
  6
CONTINUOUS
370
25
 62
7
100
AcDbLine
 10
3.143406615535124
 20
15.87132867689298
 30
0.0
 11
4.715109923302686
 21
17.44303198466054
 31
0.0
  0
LINE
  5
555
330
1F
100
AcDbEntity
  8
2
  6
CONTINUOUS
370
25
 62
7
100
AcDbLine
 10
2.789853224941851
 20
15.94203935501163
 30
0.0
 11
4.184779837412777
 21
17.33696596748256
 31
0.0
  0
LINE
  5
556
330
1F
100
AcDbEntity
  8
2
  6
CONTINUOUS
370
25
 62
7
100
AcDbLine
 10
2.436299834348578
 20
16.01275003313028
 30
0.0
 11
3.654449751522868
 21
17.23089995030457
 31
0.0
  0
LINE
  5
557
330
1F
100
AcDbEntity
  8
2
  6
CONTINUOUS
370
25
 62
7
100
AcDbLine
 10
2.082746443755305
 20
16.08346071124894
 30
0.0
 11
3.124119665632958
 21
17.12483393312659
 31
0.0
  0
LINE
  5
558
330
1F
100
AcDbEntity
  8
2
  6
CONTINUOUS
370
25
 62
7
100
AcDbLine
 10
1.72919305316203
 20
16.15417138936759
 30
0.0
 11
2.593789579743046
 21
17.01876791594861
 31
0.0
  0
LINE
  5
559
330
1F
100
AcDbEntity
  8
2
  6
CONTINUOUS
370
25
 62
7
100
AcDbLine
 10
1.375639662568757
 20
16.22488206748625
 30
0.0
 11
2.063459493853136
 21
16.91270189877063
 31
0.0
  0
LINE
  5
55A
330
1F
100
AcDbEntity
  8
2
  6
CONTINUOUS
370
25
 62
7
100
AcDbLine
 10
1.022086271975484
 20
16.2955927456049
 30
0.0
 11
1.533129407963226
 21
16.80663588159264
 31
0.0
  0
LINE
  5
55B
330
1F
100
AcDbEntity
  8
2
  6
CONTINUOUS
370
25
 62
7
100
AcDbLine
 10
0.6685328813822107
 20
16.36630342372356
 30
0.0
 11
1.002799322073316
 21
16.70056986441466
 31
0.0
  0
LINE
  5
55C
330
1F
100
AcDbEntity
  8
2
  6
CONTINUOUS
370
25
 62
7
100
AcDbLine
 10
0.314979490788936
 20
16.43701410184221
 30
0.0
 11
0.4724692361834041
 21
16.59450384723668
 31
0.0
  0
LINE
  5
55D
330
1F
100
AcDbEntity
  8
2
  6
CONTINUOUS
370
25
 62
7
100
AcDbLine
 10
0.0385738998043254
 20
16.50772477996086
 30
0.0
 11
0.0578608497064882
 21
16.4884378300587
 31
0.0
  0
LINE
  5
55E
330
1F
100
AcDbEntity
  8
2
  6
CONTINUOUS
370
25
 62
7
100
AcDbLine
 10
0.3921272903975987
 20
16.57843545807952
 30
0.0
 11
0.5881909355963983
 21
16.38237181288072
 31
0.0
  0
LINE
  5
55F
330
1F
100
AcDbEntity
  8
2
  6
CONTINUOUS
370
25
 62
7
100
AcDbLine
 10
0.7456806809908719
 20
16.64914613619817
 30
0.0
 11
1.118521021486308
 21
16.27630579570274
 31
0.0
  0
LINE
  5
560
330
1F
100
AcDbEntity
  8
2
  6
CONTINUOUS
370
25
 62
7
100
AcDbLine
 10
1.099234071584145
 20
16.71985681431683
 30
0.0
 11
1.648851107376219
 21
16.17023977852476
 31
0.0
  0
LINE
  5
561
330
1F
100
AcDbEntity
  8
2
  6
CONTINUOUS
370
25
 62
7
100
AcDbLine
 10
1.452787462177418
 20
16.79056749243548
 30
0.0
 11
2.179181193266128
 21
16.06417376134677
 31
0.0
  0
LINE
  5
562
330
1F
100
AcDbEntity
  8
2
  6
CONTINUOUS
370
25
 62
7
100
AcDbLine
 10
1.806340852770691
 20
16.86127817055414
 30
0.0
 11
2.709511279156038
 21
15.95810774416879
 31
0.0
  0
LINE
  5
563
330
1F
100
AcDbEntity
  8
2
  6
CONTINUOUS
370
25
 62
7
100
AcDbLine
 10
2.159894243363965
 20
16.93198884867279
 30
0.0
 11
3.239841365045948
 21
15.85204172699081
 31
0.0
  0
LINE
  5
564
330
1F
100
AcDbEntity
  8
2
  6
CONTINUOUS
370
25
 62
7
100
AcDbLine
 10
2.513447633957238
 20
17.00269952679145
 30
0.0
 11
3.770171450935858
 21
15.74597570981283
 31
0.0
  0
LINE
  5
565
330
1F
100
AcDbEntity
  8
2
  6
CONTINUOUS
370
25
 62
7
100
AcDbLine
 10
2.867001024550511
 20
17.0734102049101
 30
0.0
 11
4.300501536825768
 21
15.63990969263484
 31
0.0
  0
LINE
  5
566
330
1F
100
AcDbEntity
  8
2
  6
CONTINUOUS
370
25
 62
7
100
AcDbLine
 10
3.220554415143784
 20
17.14412088302876
 30
0.0
 11
4.830831622715678
 21
15.53384367545686
 31
0.0
  0
LINE
  5
567
330
1F
100
AcDbEntity
  8
2
  6
CONTINUOUS
370
25
 62
7
100
AcDbLine
 10
3.574107805737058
 20
17.21483156114741
 30
0.0
 11
5.0
 21
15.78893936688447
 31
0.0
  0
LINE
  5
568
330
1F
100
AcDbEntity
  8
2
  6
CONTINUOUS
370
25
 62
7
100
AcDbLine
 10
3.92766119633033
 20
17.28554223926606
 30
0.0
 11
5.0
 21
16.2132034355964
 31
0.0
  0
LINE
  5
569
330
1F
100
AcDbEntity
  8
2
  6
CONTINUOUS
370
25
 62
7
100
AcDbLine
 10
4.281214586923603
 20
17.35625291738472
 30
0.0
 11
5.0
 21
16.63746750430833
 31
0.0
  0
LINE
  5
56A
330
1F
100
AcDbEntity
  8
2
  6
CONTINUOUS
370
25
 62
7
100
AcDbLine
 10
4.634767977516879
 20
17.42696359550338
 30
0.0
 11
5.0
 21
17.06173157302025
 31
0.0
  0
LINE
  5
56B
330
1F
100
AcDbEntity
  8
2
  6
CONTINUOUS
370
25
 62
7
100
AcDbLine
 10
4.988321368110152
 20
17.49767427362203
 30
0.0
 11
5.0
 21
17.48599564173218
 31
0.0
  0
LINE
  5
56C
330
1F
100
AcDbEntity
  8
2
  6
CONTINUOUS
370
25
 62
7
100
AcDbLine
 10
54.67
 20
16.50001
 30
0.0
 11
49.67
 21
15.50001
 31
0.0
  0
LINE
  5
56D
330
1F
100
AcDbEntity
  8
2
  6
CONTINUOUS
370
25
 62
7
100
AcDbLine
 10
49.67
 20
15.50001
 30
0.0
 11
49.67
 21
17.50001
 31
0.0
  0
LINE
  5
56E
330
1F
100
AcDbEntity
  8
2
  6
CONTINUOUS
370
25
 62
7
100
AcDbLine
 10
49.67
 20
17.50001
 30
0.0
 11
54.67
 21
16.50001
 31
0.0
  0
LINE
  5
56F
330
1F
100
AcDbEntity
  8
2
  6
CONTINUOUS
370
25
 62
7
100
AcDbLine
 10
54.63183215864962
 20
16.49237643172992
 30
0.0
 11
54.64455477243308
 21
16.50509904551338
 31
0.0
  0
LINE
  5
570
330
1F
100
AcDbEntity
  8
2
  6
CONTINUOUS
370
25
 62
7
100
AcDbLine
 10
54.10150207275971
 20
16.38631041455194
 30
0.0
 11
54.2910013818398
 21
16.57580972363203
 31
0.0
  0
LINE
  5
571
330
1F
100
AcDbEntity
  8
2
  6
CONTINUOUS
370
25
 62
7
100
AcDbLine
 10
53.57117198686979
 20
16.28024439737396
 30
0.0
 11
53.93744799124652
 21
16.64652040175069
 31
0.0
  0
LINE
  5
572
330
1F
100
AcDbEntity
  8
2
  6
CONTINUOUS
370
25
 62
7
100
AcDbLine
 10
53.04084190097988
 20
16.17417838019598
 30
0.0
 11
53.58389460065324
 21
16.71723107986934
 31
0.0
  0
LINE
  5
573
330
1F
100
AcDbEntity
  8
2
  6
CONTINUOUS
370
25
 62
7
100
AcDbLine
 10
52.51051181508996
 20
16.068112363018
 30
0.0
 11
53.23034121005998
 21
16.78794175798801
 31
0.0
  0
LINE
  5
574
330
1F
100
AcDbEntity
  8
2
  6
CONTINUOUS
370
25
 62
7
100
AcDbLine
 10
51.98018172920005
 20
15.96204634584002
 30
0.0
 11
52.87678781946669
 21
16.85865243610666
 31
0.0
  0
LINE
  5
575
330
1F
100
AcDbEntity
  8
2
  6
CONTINUOUS
370
25
 62
7
100
AcDbLine
 10
51.44985164331013
 20
15.85598032866203
 30
0.0
 11
52.52323442887342
 21
16.92936311422532
 31
0.0
  0
LINE
  5
576
330
1F
100
AcDbEntity
  8
2
  6
CONTINUOUS
370
25
 62
7
100
AcDbLine
 10
50.91952155742022
 20
15.74991431148405
 30
0.0
 11
52.16968103828014
 21
17.00007379234397
 31
0.0
  0
LINE
  5
577
330
1F
100
AcDbEntity
  8
2
  6
CONTINUOUS
370
25
 62
7
100
AcDbLine
 10
50.38919147153031
 20
15.64384829430607
 30
0.0
 11
51.81612764768687
 21
17.07078447046263
 31
0.0
  0
LINE
  5
578
330
1F
100
AcDbEntity
  8
2
  6
CONTINUOUS
370
25
 62
7
100
AcDbLine
 10
49.85886138564039
 20
15.53778227712808
 30
0.0
 11
51.46257425709359
 21
17.14149514858128
 31
0.0
  0
LINE
  5
579
330
1F
100
AcDbEntity
  8
2
  6
CONTINUOUS
370
25
 62
7
100
AcDbLine
 10
49.67
 20
15.77318496019963
 30
0.0
 11
51.10902086650031
 21
17.21220582669994
 31
0.0
  0
LINE
  5
57A
330
1F
100
AcDbEntity
  8
2
  6
CONTINUOUS
370
25
 62
7
100
AcDbLine
 10
49.67
 20
16.19744902891156
 30
0.0
 11
50.75546747590704
 21
17.28291650481859
 31
0.0
  0
LINE
  5
57B
330
1F
100
AcDbEntity
  8
2
  6
CONTINUOUS
370
25
 62
7
100
AcDbLine
 10
49.67
 20
16.62171309762348
 30
0.0
 11
50.40191408531376
 21
17.35362718293725
 31
0.0
  0
LINE
  5
57C
330
1F
100
AcDbEntity
  8
2
  6
CONTINUOUS
370
25
 62
7
100
AcDbLine
 10
49.67
 20
17.04597716633542
 30
0.0
 11
50.04836069472049
 21
17.4243378610559
 31
0.0
  0
LINE
  5
57D
330
1F
100
AcDbEntity
  8
2
  6
CONTINUOUS
370
25
 62
7
100
AcDbLine
 10
49.67
 20
17.47024123504735
 30
0.0
 11
49.69480730412721
 21
17.49504853917456
 31
0.0
  0
LINE
  5
57E
330
1F
100
AcDbEntity
  8
2
  6
CONTINUOUS
370
25
 62
7
100
AcDbLine
 10
49.67
 20
15.66666658163699
 30
0.0
 11
49.8088804846975
 21
15.52778609693949
 31
0.0
  0
LINE
  5
57F
330
1F
100
AcDbEntity
  8
2
  6
CONTINUOUS
370
25
 62
7
100
AcDbLine
 10
49.67
 20
16.09093065034892
 30
0.0
 11
50.16243387529077
 21
15.59849677505815
 31
0.0
  0
LINE
  5
580
330
1F
100
AcDbEntity
  8
2
  6
CONTINUOUS
370
25
 62
7
100
AcDbLine
 10
49.67
 20
16.51519471906086
 30
0.0
 11
50.51598726588405
 21
15.66920745317681
 31
0.0
  0
LINE
  5
581
330
1F
100
AcDbEntity
  8
2
  6
CONTINUOUS
370
25
 62
7
100
AcDbLine
 10
49.67
 20
16.93945878777278
 30
0.0
 11
50.86954065647732
 21
15.73991813129546
 31
0.0
  0
LINE
  5
582
330
1F
100
AcDbEntity
  8
2
  6
CONTINUOUS
370
25
 62
7
100
AcDbLine
 10
49.67
 20
17.36372285648471
 30
0.0
 11
51.2230940470706
 21
15.81062880941412
 31
0.0
  0
LINE
  5
583
330
1F
100
AcDbEntity
  8
2
  6
CONTINUOUS
370
25
 62
7
100
AcDbLine
 10
50.0299711564958
 20
17.42801576870085
 30
0.0
 11
51.57664743766388
 21
15.88133948753277
 31
0.0
  0
LINE
  5
584
330
1F
100
AcDbEntity
  8
2
  6
CONTINUOUS
370
25
 62
7
100
AcDbLine
 10
50.56030124238571
 20
17.32194975152287
 30
0.0
 11
51.93020082825715
 21
15.95205016565142
 31
0.0
  0
LINE
  5
585
330
1F
100
AcDbEntity
  8
2
  6
CONTINUOUS
370
25
 62
7
100
AcDbLine
 10
51.09063132827563
 20
17.21588373434488
 30
0.0
 11
52.28375421885043
 21
16.02276084377008
 31
0.0
  0
LINE
  5
586
330
1F
100
AcDbEntity
  8
2
  6
CONTINUOUS
370
25
 62
7
100
AcDbLine
 10
51.62096141416555
 20
17.10981771716689
 30
0.0
 11
52.6373076094437
 21
16.09347152188874
 31
0.0
  0
LINE
  5
587
330
1F
100
AcDbEntity
  8
2
  6
CONTINUOUS
370
25
 62
7
100
AcDbLine
 10
52.15129150005546
 20
17.00375169998891
 30
0.0
 11
52.99086100003699
 21
16.16418220000739
 31
0.0
  0
LINE
  5
588
330
1F
100
AcDbEntity
  8
2
  6
CONTINUOUS
370
25
 62
7
100
AcDbLine
 10
52.68162158594536
 20
16.89768568281093
 30
0.0
 11
53.34441439063026
 21
16.23489287812604
 31
0.0
  0
LINE
  5
589
330
1F
100
AcDbEntity
  8
2
  6
CONTINUOUS
370
25
 62
7
100
AcDbLine
 10
53.21195167183529
 20
16.79161966563294
 30
0.0
 11
53.69796778122353
 21
16.30560355624471
 31
0.0
  0
LINE
  5
58A
330
1F
100
AcDbEntity
  8
2
  6
CONTINUOUS
370
25
 62
7
100
AcDbLine
 10
53.74228175772519
 20
16.68555364845496
 30
0.0
 11
54.05152117181679
 21
16.37631423436336
 31
0.0
  0
LINE
  5
58B
330
1F
100
AcDbEntity
  8
2
  6
CONTINUOUS
370
25
 62
7
100
AcDbLine
 10
54.27261184361511
 20
16.57948763127698
 30
0.0
 11
54.40507456241009
 21
16.44702491248201
 31
0.0
  0
TEXT
  5
58C
330
1F
100
AcDbEntity
  8
2
  6
CONTINUOUS
370
25
 62
7
100
AcDbText
 10
20.335
 20
17.50001
 30
0.0
 40
3.5
  1
54.67
 72
     1
 11
27.335
 21
17.50001
 31
0.0
100
AcDbText
  0
LINE
  5
58D
330
1F
100
AcDbEntity
  8
2
  6
CONTINUOUS
370
25
 62
7
100
AcDbLine
 10
4.67
 20
-6.199999999999999
 30
0.0
 11
4.669999999999999
 21
-17.50001
 31
0.0
  0
LINE
  5
58E
330
1F
100
AcDbEntity
  8
2
  6
CONTINUOUS
370
25
 62
7
100
AcDbLine
 10
54.67
 20
-17.50001
 30
0.0
 11
54.67
 21
-6.199999999999999
 31
0.0
  0
LINE
  5
58F
330
1F
100
AcDbEntity
  8
2
  6
CONTINUOUS
370
25
 62
7
100
AcDbLine
 10
4.669999999999999
 20
-16.50001
 30
0.0
 11
54.67
 21
-16.50001
 31
0.0
  0
LINE
  5
590
330
1F
100
AcDbEntity
  8
2
  6
CONTINUOUS
370
25
 62
7
100
AcDbLine
 10
4.669999999999999
 20
-16.50001
 30
0.0
 11
9.669999999999998
 21
-15.50001
 31
0.0
  0
LINE
  5
591
330
1F
100
AcDbEntity
  8
2
  6
CONTINUOUS
370
25
 62
7
100
AcDbLine
 10
9.669999999999998
 20
-15.50001
 30
0.0
 11
9.669999999999998
 21
-17.50001
 31
0.0
  0
LINE
  5
592
330
1F
100
AcDbEntity
  8
2
  6
CONTINUOUS
370
25
 62
7
100
AcDbLine
 10
9.669999999999998
 20
-17.50001
 30
0.0
 11
4.669999999999999
 21
-16.50001
 31
0.0
  0
LINE
  5
593
330
1F
100
AcDbEntity
  8
2
  6
CONTINUOUS
370
25
 62
7
100
AcDbLine
 10
9.417839823564561
 20
-17.44957796471292
 30
0.0
 11
9.669999999999998
 21
-17.19741778827748
 31
0.0
  0
LINE
  5
594
330
1F
100
AcDbEntity
  8
2
  6
CONTINUOUS
370
25
 62
7
100
AcDbLine
 10
9.064286432971288
 20
-17.37886728659426
 30
0.0
 11
9.669999999999998
 21
-16.77315371956555
 31
0.0
  0
LINE
  5
595
330
1F
100
AcDbEntity
  8
2
  6
CONTINUOUS
370
25
 62
7
100
AcDbLine
 10
8.710733042378015
 20
-17.30815660847561
 30
0.0
 11
9.669999999999998
 21
-16.34888965085362
 31
0.0
  0
LINE
  5
596
330
1F
100
AcDbEntity
  8
2
  6
CONTINUOUS
370
25
 62
7
100
AcDbLine
 10
8.357179651784744
 20
-17.23744593035695
 30
0.0
 11
9.669999999999998
 21
-15.9246255821417
 31
0.0
  0
LINE
  5
597
330
1F
100
AcDbEntity
  8
2
  6
CONTINUOUS
370
25
 62
7
100
AcDbLine
 10
8.00362626119147
 20
-17.1667352522383
 30
0.0
 11
9.669999999999998
 21
-15.50036151342977
 31
0.0
  0
LINE
  5
598
330
1F
100
AcDbEntity
  8
2
  6
CONTINUOUS
370
25
 62
7
100
AcDbLine
 10
7.650072870598197
 20
-17.09602457411964
 30
0.0
 11
9.140109305897298
 21
-15.60598813882054
 31
0.0
  0
LINE
  5
599
330
1F
100
AcDbEntity
  8
2
  6
CONTINUOUS
370
25
 62
7
100
AcDbLine
 10
7.296519480004926
 20
-17.02531389600098
 30
0.0
 11
8.60977922000739
 21
-15.71205415599852
 31
0.0
  0
LINE
  5
59A
330
1F
100
AcDbEntity
  8
2
  6
CONTINUOUS
370
25
 62
7
100
AcDbLine
 10
6.942966089411652
 20
-16.95460321788233
 30
0.0
 11
8.07944913411748
 21
-15.8181201731765
 31
0.0
  0
LINE
  5
59B
330
1F
100
AcDbEntity
  8
2
  6
CONTINUOUS
370
25
 62
7
100
AcDbLine
 10
6.589412698818379
 20
-16.88389253976368
 30
0.0
 11
7.54911904822757
 21
-15.92418619035449
 31
0.0
  0
LINE
  5
59C
330
1F
100
AcDbEntity
  8
2
  6
CONTINUOUS
370
25
 62
7
100
AcDbLine
 10
6.235859308225102
 20
-16.81318186164502
 30
0.0
 11
7.018788962337655
 21
-16.03025220753247
 31
0.0
  0
LINE
  5
59D
330
1F
100
AcDbEntity
  8
2
  6
CONTINUOUS
370
25
 62
7
100
AcDbLine
 10
5.882305917631829
 20
-16.74247118352637
 30
0.0
 11
6.488458876447745
 21
-16.13631822471045
 31
0.0
  0
LINE
  5
59E
330
1F
100
AcDbEntity
  8
2
  6
CONTINUOUS
370
25
 62
7
100
AcDbLine
 10
5.528752527038557
 20
-16.67176050540771
 30
0.0
 11
5.958128790557836
 21
-16.24238424188843
 31
0.0
  0
LINE
  5
59F
330
1F
100
AcDbEntity
  8
2
  6
CONTINUOUS
370
25
 62
7
100
AcDbLine
 10
5.175199136445284
 20
-16.60104982728906
 30
0.0
 11
5.427798704667926
 21
-16.34845025906641
 31
0.0
  0
LINE
  5
5A0
330
1F
100
AcDbEntity
  8
2
  6
CONTINUOUS
370
25
 62
7
100
AcDbLine
 10
4.821645745852011
 20
-16.5303391491704
 30
0.0
 11
4.897468618778015
 21
-16.4545162762444
 31
0.0
  0
LINE
  5
5A1
330
1F
100
AcDbEntity
  8
2
  6
CONTINUOUS
370
25
 62
7
100
AcDbLine
 10
4.725118344117313
 20
-16.48898633117654
 30
0.0
 11
4.75267751617597
 21
-16.51654550323519
 31
0.0
  0
LINE
  5
5A2
330
1F
100
AcDbEntity
  8
2
  6
CONTINUOUS
370
25
 62
7
100
AcDbLine
 10
5.078671734710587
 20
-16.41827565305788
 30
0.0
 11
5.28300760206588
 21
-16.62261152041318
 31
0.0
  0
LINE
  5
5A3
330
1F
100
AcDbEntity
  8
2
  6
CONTINUOUS
370
25
 62
7
100
AcDbLine
 10
5.43222512530386
 20
-16.34756497493923
 30
0.0
 11
5.813337687955791
 21
-16.72867753759116
 31
0.0
  0
LINE
  5
5A4
330
1F
100
AcDbEntity
  8
2
  6
CONTINUOUS
370
25
 62
7
100
AcDbLine
 10
5.785778515897134
 20
-16.27685429682057
 30
0.0
 11
6.343667773845701
 21
-16.83474355476914
 31
0.0
  0
LINE
  5
5A5
330
1F
100
AcDbEntity
  8
2
  6
CONTINUOUS
370
25
 62
7
100
AcDbLine
 10
6.139331906490406
 20
-16.20614361870192
 30
0.0
 11
6.87399785973561
 21
-16.94080957194712
 31
0.0
  0
LINE
  5
5A6
330
1F
100
AcDbEntity
  8
2
  6
CONTINUOUS
370
25
 62
7
100
AcDbLine
 10
6.492885297083681
 20
-16.13543294058326
 30
0.0
 11
7.404327945625523
 21
-17.04687558912511
 31
0.0
  0
LINE
  5
5A7
330
1F
100
AcDbEntity
  8
2
  6
CONTINUOUS
370
25
 62
7
100
AcDbLine
 10
6.846438687676954
 20
-16.06472226246461
 30
0.0
 11
7.934658031515433
 21
-17.15294160630309
 31
0.0
  0
LINE
  5
5A8
330
1F
100
AcDbEntity
  8
2
  6
CONTINUOUS
370
25
 62
7
100
AcDbLine
 10
7.199992078270228
 20
-15.99401158434596
 30
0.0
 11
8.464988117405344
 21
-17.25900762348107
 31
0.0
  0
LINE
  5
5A9
330
1F
100
AcDbEntity
  8
2
  6
CONTINUOUS
370
25
 62
7
100
AcDbLine
 10
7.553545468863501
 20
-15.9233009062273
 30
0.0
 11
8.995318203295254
 21
-17.36507364065905
 31
0.0
  0
LINE
  5
5AA
330
1F
100
AcDbEntity
  8
2
  6
CONTINUOUS
370
25
 62
7
100
AcDbLine
 10
7.907098859456773
 20
-15.85259022810865
 30
0.0
 11
9.525648289185161
 21
-17.47113965783704
 31
0.0
  0
LINE
  5
5AB
330
1F
100
AcDbEntity
  8
2
  6
CONTINUOUS
370
25
 62
7
100
AcDbLine
 10
8.260652250050045
 20
-15.78187954998999
 30
0.0
 11
9.669999999999998
 21
-17.19122729993994
 31
0.0
  0
LINE
  5
5AC
330
1F
100
AcDbEntity
  8
2
  6
CONTINUOUS
370
25
 62
7
100
AcDbLine
 10
8.61420564064332
 20
-15.71116887187133
 30
0.0
 11
9.669999999999998
 21
-16.76696323122801
 31
0.0
  0
LINE
  5
5AD
330
1F
100
AcDbEntity
  8
2
  6
CONTINUOUS
370
25
 62
7
100
AcDbLine
 10
8.967759031236593
 20
-15.64045819375268
 30
0.0
 11
9.669999999999998
 21
-16.34269916251609
 31
0.0
  0
LINE
  5
5AE
330
1F
100
AcDbEntity
  8
2
  6
CONTINUOUS
370
25
 62
7
100
AcDbLine
 10
9.321312421829866
 20
-15.56974751563403
 30
0.0
 11
9.669999999999998
 21
-15.91843509380416
 31
0.0
  0
LINE
  5
5AF
330
1F
100
AcDbEntity
  8
2
  6
CONTINUOUS
370
25
 62
7
100
AcDbLine
 10
54.67
 20
-16.50001
 30
0.0
 11
49.67
 21
-17.50001
 31
0.0
  0
LINE
  5
5B0
330
1F
100
AcDbEntity
  8
2
  6
CONTINUOUS
370
25
 62
7
100
AcDbLine
 10
49.67
 20
-17.50001
 30
0.0
 11
49.67
 21
-15.50001
 31
0.0
  0
LINE
  5
5B1
330
1F
100
AcDbEntity
  8
2
  6
CONTINUOUS
370
25
 62
7
100
AcDbLine
 10
49.67
 20
-15.50001
 30
0.0
 11
54.67
 21
-16.50001
 31
0.0
  0
LINE
  5
5B2
330
1F
100
AcDbEntity
  8
2
  6
CONTINUOUS
370
25
 62
7
100
AcDbLine
 10
54.51611045923647
 20
-16.5307879081527
 30
0.0
 11
54.56740697282432
 21
-16.47949139456486
 31
0.0
  0
LINE
  5
5B3
330
1F
100
AcDbEntity
  8
2
  6
CONTINUOUS
370
25
 62
7
100
AcDbLine
 10
53.98578037334656
 20
-16.63685392533068
 30
0.0
 11
54.21385358223102
 21
-16.40878071644622
 31
0.0
  0
LINE
  5
5B4
330
1F
100
AcDbEntity
  8
2
  6
CONTINUOUS
370
25
 62
7
100
AcDbLine
 10
53.45545028745666
 20
-16.74291994250866
 30
0.0
 11
53.86030019163776
 21
-16.33807003832756
 31
0.0
  0
LINE
  5
5B5
330
1F
100
AcDbEntity
  8
2
  6
CONTINUOUS
370
25
 62
7
100
AcDbLine
 10
52.92512020156673
 20
-16.84898595968665
 30
0.0
 11
53.50674680104449
 21
-16.26735936020889
 31
0.0
  0
LINE
  5
5B6
330
1F
100
AcDbEntity
  8
2
  6
CONTINUOUS
370
25
 62
7
100
AcDbLine
 10
52.39479011567682
 20
-16.95505197686463
 30
0.0
 11
53.15319341045121
 21
-16.19664868209024
 31
0.0
  0
LINE
  5
5B7
330
1F
100
AcDbEntity
  8
2
  6
CONTINUOUS
370
25
 62
7
100
AcDbLine
 10
51.8644600297869
 20
-17.06111799404262
 30
0.0
 11
52.79964001985793
 21
-16.12593800397158
 31
0.0
  0
LINE
  5
5B8
330
1F
100
AcDbEntity
  8
2
  6
CONTINUOUS
370
25
 62
7
100
AcDbLine
 10
51.33412994389698
 20
-17.1671840112206
 30
0.0
 11
52.44608662926465
 21
-16.05522732585293
 31
0.0
  0
LINE
  5
5B9
330
1F
100
AcDbEntity
  8
2
  6
CONTINUOUS
370
25
 62
7
100
AcDbLine
 10
50.80379985800708
 20
-17.27325002839858
 30
0.0
 11
52.09253323867138
 21
-15.98451664773428
 31
0.0
  0
LINE
  5
5BA
330
1F
100
AcDbEntity
  8
2
  6
CONTINUOUS
370
25
 62
7
100
AcDbLine
 10
50.27346977211716
 20
-17.37931604557657
 30
0.0
 11
51.7389798480781
 21
-15.91380596961562
 31
0.0
  0
LINE
  5
5BB
330
1F
100
AcDbEntity
  8
2
  6
CONTINUOUS
370
25
 62
7
100
AcDbLine
 10
49.74313968622724
 20
-17.48538206275455
 30
0.0
 11
51.38542645748483
 21
-15.84309529149697
 31
0.0
  0
LINE
  5
5BC
330
1F
100
AcDbEntity
  8
2
  6
CONTINUOUS
370
25
 62
7
100
AcDbLine
 10
49.67
 20
-17.13425768026987
 30
0.0
 11
51.03187306689156
 21
-15.77238461337831
 31
0.0
  0
LINE
  5
5BD
330
1F
100
AcDbEntity
  8
2
  6
CONTINUOUS
370
25
 62
7
100
AcDbLine
 10
49.67
 20
-16.70999361155793
 30
0.0
 11
50.67831967629828
 21
-15.70167393525966
 31
0.0
  0
LINE
  5
5BE
330
1F
100
AcDbEntity
  8
2
  6
CONTINUOUS
370
25
 62
7
100
AcDbLine
 10
49.67
 20
-16.285729542846
 30
0.0
 11
50.324766285705
 21
-15.630963257141
 31
0.0
  0
LINE
  5
5BF
330
1F
100
AcDbEntity
  8
2
  6
CONTINUOUS
370
25
 62
7
100
AcDbLine
 10
49.67
 20
-15.86146547413406
 30
0.0
 11
49.97121289511172
 21
-15.56025257902235
 31
0.0
  0
LINE
  5
5C0
330
1F
100
AcDbEntity
  8
2
  6
CONTINUOUS
370
25
 62
7
100
AcDbLine
 10
49.67
 20
-17.42593077789343
 30
0.0
 11
49.73173268508882
 21
-17.48766346298224
 31
0.0
  0
LINE
  5
5C1
330
1F
100
AcDbEntity
  8
2
  6
CONTINUOUS
370
25
 62
7
100
AcDbLine
 10
49.67
 20
-17.0016667091815
 30
0.0
 11
50.08528607568208
 21
-17.41695278486358
 31
0.0
  0
LINE
  5
5C2
330
1F
100
AcDbEntity
  8
2
  6
CONTINUOUS
370
25
 62
7
100
AcDbLine
 10
49.67
 20
-16.57740264046956
 30
0.0
 11
50.43883946627537
 21
-17.34624210674492
 31
0.0
  0
LINE
  5
5C3
330
1F
100
AcDbEntity
  8
2
  6
CONTINUOUS
370
25
 62
7
100
AcDbLine
 10
49.67
 20
-16.15313857175763
 30
0.0
 11
50.79239285686864
 21
-17.27553142862627
 31
0.0
  0
LINE
  5
5C4
330
1F
100
AcDbEntity
  8
2
  6
CONTINUOUS
370
25
 62
7
100
AcDbLine
 10
49.67
 20
-15.7288745030457
 30
0.0
 11
51.14594624746191
 21
-17.20482075050761
 31
0.0
  0
LINE
  5
5C5
330
1F
100
AcDbEntity
  8
2
  6
CONTINUOUS
370
25
 62
7
100
AcDbLine
 10
49.91424945708279
 20
-15.54885989141656
 30
0.0
 11
51.49949963805519
 21
-17.13411007238896
 31
0.0
  0
LINE
  5
5C6
330
1F
100
AcDbEntity
  8
2
  6
CONTINUOUS
370
25
 62
7
100
AcDbLine
 10
50.44457954297271
 20
-15.65492590859454
 30
0.0
 11
51.85305302864847
 21
-17.0633993942703
 31
0.0
  0
LINE
  5
5C7
330
1F
100
AcDbEntity
  8
2
  6
CONTINUOUS
370
25
 62
7
100
AcDbLine
 10
50.97490962886263
 20
-15.76099192577252
 30
0.0
 11
52.20660641924175
 21
-16.99268871615165
 31
0.0
  0
LINE
  5
5C8
330
1F
100
AcDbEntity
  8
2
  6
CONTINUOUS
370
25
 62
7
100
AcDbLine
 10
51.50523971475254
 20
-15.86705794295051
 30
0.0
 11
52.56015980983502
 21
-16.92197803803299
 31
0.0
  0
LINE
  5
5C9
330
1F
100
AcDbEntity
  8
2
  6
CONTINUOUS
370
25
 62
7
100
AcDbLine
 10
52.03556980064245
 20
-15.97312396012849
 30
0.0
 11
52.9137132004283
 21
-16.85126735991434
 31
0.0
  0
LINE
  5
5CA
330
1F
100
AcDbEntity
  8
2
  6
CONTINUOUS
370
25
 62
7
100
AcDbLine
 10
52.56589988653237
 20
-16.07918997730648
 30
0.0
 11
53.26726659102157
 21
-16.78055668179568
 31
0.0
  0
LINE
  5
5CB
330
1F
100
AcDbEntity
  8
2
  6
CONTINUOUS
370
25
 62
7
100
AcDbLine
 10
53.09622997242229
 20
-16.18525599448446
 30
0.0
 11
53.62081998161485
 21
-16.70984600367702
 31
0.0
  0
LINE
  5
5CC
330
1F
100
AcDbEntity
  8
2
  6
CONTINUOUS
370
25
 62
7
100
AcDbLine
 10
53.62656005831219
 20
-16.29132201166244
 30
0.0
 11
53.97437337220813
 21
-16.63913532555838
 31
0.0
  0
LINE
  5
5CD
330
1F
100
AcDbEntity
  8
2
  6
CONTINUOUS
370
25
 62
7
100
AcDbLine
 10
54.15689014420211
 20
-16.39738802884042
 30
0.0
 11
54.3279267628014
 21
-16.56842464743972
 31
0.0
  0
TEXT
  5
5CE
330
1F
100
AcDbEntity
  8
2
  6
CONTINUOUS
370
25
 62
7
100
AcDbText
 10
27.045
 20
-15.50001
 30
0.0
 40
3.5
  1
50
 72
     1
 11
29.67
 21
-15.50001
 31
0.0
100
AcDbText
  0
LINE
  5
5CF
330
1F
100
AcDbEntity
  8
4
  6
LONGDASH_DASH
370
25
 62
2
100
AcDbLine
 10
0.0
 20
0.0
 30
0.0
 11
54.67
 21
0.0
 31
0.0
  0
LINE
  5
5D0
330
1F
100
AcDbEntity
  8
SK4
  6
LONGDASH_DASH
370
25
 62
2
100
AcDbLine
 10
-60.33
 20
0.0
 30
0.0
 11
59.67
 21
0.0
 31
0.0
  0
LINE
  5
5D1
330
1F
100
AcDbEntity
  8
INFTOTAL
  6
CONTINUOUS
370
18
 62
9
100
AcDbLine
 10
-87.263011
 20
-33.550011
 30
0.0
 11
78.83701099999999
 21
-33.550011
 31
0.0
  0
LINE
  5
5D2
330
1F
100
AcDbEntity
  8
INFTOTAL
  6
CONTINUOUS
370
18
 62
9
100
AcDbLine
 10
78.83701099999999
 20
-33.550011
 30
0.0
 11
78.83701099999999
 21
33.550011
 31
0.0
  0
LINE
  5
5D3
330
1F
100
AcDbEntity
  8
INFTOTAL
  6
CONTINUOUS
370
18
 62
9
100
AcDbLine
 10
78.83701099999999
 20
33.550011
 30
0.0
 11
-87.263011
 21
33.550011
 31
0.0
  0
LINE
  5
5D4
330
1F
100
AcDbEntity
  8
INFTOTAL
  6
CONTINUOUS
370
18
 62
9
100
AcDbLine
 10
-87.263011
 20
33.550011
 30
0.0
 11
-87.263011
 21
-33.550011
 31
0.0
  0
ARC
  5
5D5
330
1F
100
AcDbEntity
  8
SK6
  6
CONTINUOUS
370
25
 62
5
100
AcDbCircle
 10
110.1013910083765
 20
-35.34525475338786
 30
0.0
 40
2.760489128492197
100
AcDbArc
 50
338.9379403434232
 51
90.44457437511392
  0
LINE
  5
5D6
330
1F
100
AcDbEntity
  8
SK6
  6
CONTINUOUS
370
25
 62
5
100
AcDbLine
 10
110.0799717969598
 20
-32.58484872421281
 30
0.0
 11
110.0799717969598
 21
-33.68790735613463
 31
0.0
  0
ARC
  5
5D7
330
1F
100
AcDbEntity
  8
SK6
  6
CONTINUOUS
370
25
 62
5
100
AcDbCircle
 10
110.0905180293692
 20
-35.36524824566821
 30
0.0
 40
1.677374043771779
100
AcDbArc
 50
243.4214706017868
 51
90.36024081226083
  0
ARC
  5
5D8
330
1F
100
AcDbEntity
  8
SK6
  6
CONTINUOUS
370
25
 62
5
100
AcDbCircle
 10
112.6127688968496
 20
-34.93384099215561
 30
0.0
 40
3.800217030022746
100
AcDbArc
 50
210.548373128854
 51
236.9780169366799
  0
LINE
  5
5D9
330
1F
100
AcDbEntity
  8
SK6
  6
CONTINUOUS
370
25
 62
5
100
AcDbLine
 10
110.5417996851249
 20
-38.12017681867535
 30
0.0
 11
114.6837399674267
 21
-38.12017681867535
 31
0.0
  0
ARC
  5
5DA
330
1F
100
AcDbEntity
  8
SK6
  6
CONTINUOUS
370
25
 62
5
100
AcDbCircle
 10
112.6127708387726
 20
-34.9338410937346
 30
0.0
 40
3.800216899582466
100
AcDbArc
 50
303.021982847796
 51
326.3732153033478
  0
LINE
  5
5DB
330
1F
100
AcDbEntity
  8
SK6
  6
CONTINUOUS
370
25
 62
5
100
AcDbLine
 10
115.7770687513572
 20
-37.0383284907709
 30
0.0
 11
112.4197707057546
 21
-37.0383284907709
 31
0.0
  0
LINE
  5
5DC
330
1F
100
AcDbEntity
  8
SK6
  6
CONTINUOUS
370
25
 62
5
100
AcDbLine
 10
112.4197707057546
 20
-37.0383284907709
 30
0.0
 11
116.3396300977199
 21
-35.67692729641693
 31
0.0
  0
ARC
  5
5DD
330
1F
100
AcDbEntity
  8
SK6
  6
CONTINUOUS
370
25
 62
5
100
AcDbCircle
 10
112.6127715615721
 20
-34.9338416048594
 30
0.0
 40
3.800217216614737
100
AcDbArc
 50
348.7238644184696
 51
53.46910512608813
  0
LINE
  5
5DE
330
1F
100
AcDbEntity
  8
SK6
  6
CONTINUOUS
370
25
 62
5
100
AcDbLine
 10
114.8748742453855
 20
-31.88023024429967
 30
0.0
 11
112.6774594788274
 21
-36.33731873507057
 31
0.0
  0
ENDSEC
  0
SECTION
  2
OBJECTS
  0
DICTIONARY
  5
C
330
0
100
AcDbDictionary
281
     1
  3
ACAD_GROUP
350
D
  3
ACAD_LAYOUT
350
1A
  3
ACAD_MATERIAL
350
3B
  3
ACAD_MLEADERSTYLE
350
5E1
  3
ACAD_MLINESTYLE
350
17
  3
ACAD_PLOTSETTINGS
350
19
  3
ACAD_PLOTSTYLENAME
350
E
  3
ACAD_SCALELIST
350
150
  3
ACAD_VISUALSTYLE
350
2A
  3
AcDbVariableDictionary
350
5DF
  0
DICTIONARY
  5
D
102
{ACAD_REACTORS
330
C
102
}
330
C
100
AcDbDictionary
281
     1
  0
DICTIONARY
  5
1A
102
{ACAD_REACTORS
330
C
102
}
330
C
100
AcDbDictionary
281
     1
  3
Layout1
350
1E
  3
Layout2
350
26
  3
Model
350
22
  0
DICTIONARY
  5
3B
102
{ACAD_REACTORS
330
C
102
}
330
C
100
AcDbDictionary
281
     1
  3
ByBlock
350
3D
  3
ByLayer
350
3C
  3
Global
350
3E
  0
DICTIONARY
  5
5E1
102
{ACAD_REACTORS
330
C
102
}
330
C
100
AcDbDictionary
281
     1
  0
DICTIONARY
  5
17
102
{ACAD_REACTORS
330
C
102
}
330
C
100
AcDbDictionary
281
     1
  3
Standard
350
18
  0
DICTIONARY
  5
19
102
{ACAD_REACTORS
330
C
102
}
330
C
100
AcDbDictionary
281
     1
  0
ACDBDICTIONARYWDFLT
  5
E
102
{ACAD_REACTORS
330
C
102
}
330
C
100
AcDbDictionary
281
     1
  3
Normal
350
F
100
AcDbDictionaryWithDefault
340
F
  0
DICTIONARY
  5
150
102
{ACAD_REACTORS
330
C
102
}
330
C
100
AcDbDictionary
281
     1
  3
A0
350
151
  3
A1
350
152
  3
A2
350
153
  3
A3
350
154
  3
A4
350
155
  3
A5
350
156
  3
A6
350
157
  3
A7
350
158
  3
A8
350
159
  3
A9
350
15A
  3
B0
350
15B
  3
B1
350
15C
  3
B2
350
15D
  3
B3
350
15E
  3
B4
350
15F
  3
B5
350
160
  3
B6
350
161
  3
B7
350
162
  3
B8
350
163
  3
B9
350
164
  3
C0
350
165
  3
C1
350
166
  3
C2
350
167
  3
C3
350
168
  3
C4
350
169
  3
C5
350
16A
  3
C6
350
16B
  3
C7
350
16C
  3
C8
350
16D
  3
C9
350
16E
  3
D0
350
16F
  3
D1
350
170
  3
D2
350
171
  0
DICTIONARY
  5
2A
102
{ACAD_REACTORS
330
C
102
}
330
C
100
AcDbDictionary
281
     1
  3
2dWireframe
350
2F
  3
3D Hidden
350
31
  3
3dWireframe
350
30
  3
Basic
350
32
  3
Brighten
350
36
  3
ColorChange
350
3A
  3
Conceptual
350
34
  3
Dim
350
35
  3
Facepattern
350
39
  3
Flat
350
2B
  3
FlatWithEdges
350
2C
  3
Gouraud
350
2D
  3
GouraudWithEdges
350
2E
  3
Linepattern
350
38
  3
Realistic
350
33
  3
Thicken
350
37
  0
DICTIONARY
  5
5DF
102
{ACAD_REACTORS
330
C
102
}
330
C
100
AcDbDictionary
281
     1
  3
CANNOSCALE
350
5E4
  3
DIMASSOC
350
5E5
  3
HIDETEXT
350
5E6
  3
PSOLHEIGHT
350
5E3
  3
PSOLWIDTH
350
5E2
  0
LAYOUT
  5
1E
102
{ACAD_REACTORS
330
1A
102
}
330
1A
100
AcDbPlotSettings
  1

  2
none_device
  4

  6

 40
0.0
 41
0.0
 42
0.0
 43
0.0
 44
0.0
 45
0.0
 46
0.0
 47
0.0
 48
0.0
 49
0.0
140
0.0
141
0.0
142
1.0
143
1.0
 70
   688
 72
     0
 73
     0
 74
     5
  7

 75
    16
147
1.0
148
0.0
149
0.0
100
AcDbLayout
  1
Layout1
 70
     1
 71
     1
 10
0.0
 20
0.0
 11
420.0
 21
297.0
 12
0.0
 22
0.0
 32
0.0
 14
1.000000000000000E+20
 24
1.000000000000000E+20
 34
1.000000000000000E+20
 15
-1.000000000000000E+20
 25
-1.000000000000000E+20
 35
-1.000000000000000E+20
146
0.0
 13
0.0
 23
0.0
 33
0.0
 16
1.0
 26
0.0
 36
0.0
 17
0.0
 27
1.0
 37
0.0
 76
     0
330
1B
  0
LAYOUT
  5
26
102
{ACAD_REACTORS
330
1A
102
}
330
1A
100
AcDbPlotSettings
  1

  2
none_device
  4

  6

 40
0.0
 41
0.0
 42
0.0
 43
0.0
 44
0.0
 45
0.0
 46
0.0
 47
0.0
 48
0.0
 49
0.0
140
0.0
141
0.0
142
1.0
143
1.0
 70
   688
 72
     0
 73
     0
 74
     5
  7

 75
    16
147
1.0
148
0.0
149
0.0
100
AcDbLayout
  1
Layout2
 70
     1
 71
     2
 10
0.0
 20
0.0
 11
0.0
 21
0.0
 12
0.0
 22
0.0
 32
0.0
 14
0.0
 24
0.0
 34
0.0
 15
0.0
 25
0.0
 35
0.0
146
0.0
 13
0.0
 23
0.0
 33
0.0
 16
1.0
 26
0.0
 36
0.0
 17
0.0
 27
1.0
 37
0.0
 76
     0
330
23
  0
LAYOUT
  5
22
102
{ACAD_REACTORS
330
1A
102
}
330
1A
100
AcDbPlotSettings
  1

  2
none_device
  4

  6

 40
0.0
 41
0.0
 42
0.0
 43
0.0
 44
0.0
 45
0.0
 46
0.0
 47
0.0
 48
0.0
 49
0.0
140
0.0
141
0.0
142
1.0
143
1.0
 70
  1712
 72
     0
 73
     0
 74
     0
  7

 75
     0
147
1.0
148
0.0
149
0.0
100
AcDbLayout
  1
Model
 70
     1
 71
     0
 10
0.0
 20
0.0
 11
420.0
 21
297.0
 12
0.0
 22
0.0
 32
0.0
 14
0.0
 24
0.0
 34
0.0
 15
25.0
 25
35.0
 35
0.0
146
0.0
 13
0.0
 23
0.0
 33
0.0
 16
1.0
 26
0.0
 36
0.0
 17
0.0
 27
1.0
 37
0.0
 76
     0
330
1F
331
29
  0
MATERIAL
  5
3D
102
{ACAD_REACTORS
330
3B
102
}
102
{ACAD_XDICTIONARY
360
609
102
}
330
3B
100
AcDbMaterial
  1
ByBlock
  0
MATERIAL
  5
3C
102
{ACAD_REACTORS
330
3B
102
}
102
{ACAD_XDICTIONARY
360
607
102
}
330
3B
100
AcDbMaterial
  1
ByLayer
  0
MATERIAL
  5
3E
102
{ACAD_REACTORS
330
3B
102
}
102
{ACAD_XDICTIONARY
360
60B
102
}
330
3B
100
AcDbMaterial
  1
Global
  0
MLINESTYLE
  5
18
102
{ACAD_REACTORS
330
17
102
}
330
17
100
AcDbMlineStyle
  2
Standard
 70
     0
  3

 62
   256
 51
90.0
 52
90.0
 71
     2
 49
0.5
 62
   256
  6
BYLAYER
 49
-0.5
 62
   256
  6
BYLAYER
  0
ACDBPLACEHOLDER
  5
F
102
{ACAD_REACTORS
330
E
102
}
330
E
  0
SCALE
  5
151
102
{ACAD_REACTORS
330
150
102
}
330
150
100
AcDbScale
 70
     0
300
1:1
140
1.0
141
1.0
290
     1
  0
SCALE
  5
152
102
{ACAD_REACTORS
330
150
102
}
330
150
100
AcDbScale
 70
     0
300
1:2
140
1.0
141
2.0
290
     0
  0
SCALE
  5
153
102
{ACAD_REACTORS
330
150
102
}
330
150
100
AcDbScale
 70
     0
300
1:4
140
1.0
141
4.0
290
     0
  0
SCALE
  5
154
102
{ACAD_REACTORS
330
150
102
}
330
150
100
AcDbScale
 70
     0
300
1:5
140
1.0
141
5.0
290
     0
  0
SCALE
  5
155
102
{ACAD_REACTORS
330
150
102
}
330
150
100
AcDbScale
 70
     0
300
1:8
140
1.0
141
8.0
290
     0
  0
SCALE
  5
156
102
{ACAD_REACTORS
330
150
102
}
330
150
100
AcDbScale
 70
     0
300
1:10
140
1.0
141
10.0
290
     0
  0
SCALE
  5
157
102
{ACAD_REACTORS
330
150
102
}
330
150
100
AcDbScale
 70
     0
300
1:16
140
1.0
141
16.0
290
     0
  0
SCALE
  5
158
102
{ACAD_REACTORS
330
150
102
}
330
150
100
AcDbScale
 70
     0
300
1:20
140
1.0
141
20.0
290
     0
  0
SCALE
  5
159
102
{ACAD_REACTORS
330
150
102
}
330
150
100
AcDbScale
 70
     0
300
1:30
140
1.0
141
30.0
290
     0
  0
SCALE
  5
15A
102
{ACAD_REACTORS
330
150
102
}
330
150
100
AcDbScale
 70
     0
300
1:40
140
1.0
141
40.0
290
     0
  0
SCALE
  5
15B
102
{ACAD_REACTORS
330
150
102
}
330
150
100
AcDbScale
 70
     0
300
1:50
140
1.0
141
50.0
290
     0
  0
SCALE
  5
15C
102
{ACAD_REACTORS
330
150
102
}
330
150
100
AcDbScale
 70
     0
300
1:100
140
1.0
141
100.0
290
     0
  0
SCALE
  5
15D
102
{ACAD_REACTORS
330
150
102
}
330
150
100
AcDbScale
 70
     0
300
2:1
140
2.0
141
1.0
290
     0
  0
SCALE
  5
15E
102
{ACAD_REACTORS
330
150
102
}
330
150
100
AcDbScale
 70
     0
300
4:1
140
4.0
141
1.0
290
     0
  0
SCALE
  5
15F
102
{ACAD_REACTORS
330
150
102
}
330
150
100
AcDbScale
 70
     0
300
8:1
140
8.0
141
1.0
290
     0
  0
SCALE
  5
160
102
{ACAD_REACTORS
330
150
102
}
330
150
100
AcDbScale
 70
     0
300
10:1
140
10.0
141
1.0
290
     0
  0
SCALE
  5
161
102
{ACAD_REACTORS
330
150
102
}
330
150
100
AcDbScale
 70
     0
300
100:1
140
100.0
141
1.0
290
     0
  0
SCALE
  5
162
102
{ACAD_REACTORS
330
150
102
}
330
150
100
AcDbScale
 70
     0
300
1/128" = 1'-0"
140
0.0078125
141
12.0
290
     0
  0
SCALE
  5
163
102
{ACAD_REACTORS
330
150
102
}
330
150
100
AcDbScale
 70
     0
300
1/64" = 1'-0"
140
0.015625
141
12.0
290
     0
  0
SCALE
  5
164
102
{ACAD_REACTORS
330
150
102
}
330
150
100
AcDbScale
 70
     0
300
1/32" = 1'-0"
140
0.03125
141
12.0
290
     0
  0
SCALE
  5
165
102
{ACAD_REACTORS
330
150
102
}
330
150
100
AcDbScale
 70
     0
300
1/16" = 1'-0"
140
0.0625
141
12.0
290
     0
  0
SCALE
  5
166
102
{ACAD_REACTORS
330
150
102
}
330
150
100
AcDbScale
 70
     0
300
3/32" = 1'-0"
140
0.09375
141
12.0
290
     0
  0
SCALE
  5
167
102
{ACAD_REACTORS
330
150
102
}
330
150
100
AcDbScale
 70
     0
300
1/8" = 1'-0"
140
0.125
141
12.0
290
     0
  0
SCALE
  5
168
102
{ACAD_REACTORS
330
150
102
}
330
150
100
AcDbScale
 70
     0
300
3/16" = 1'-0"
140
0.1875
141
12.0
290
     0
  0
SCALE
  5
169
102
{ACAD_REACTORS
330
150
102
}
330
150
100
AcDbScale
 70
     0
300
1/4" = 1'-0"
140
0.25
141
12.0
290
     0
  0
SCALE
  5
16A
102
{ACAD_REACTORS
330
150
102
}
330
150
100
AcDbScale
 70
     0
300
3/8" = 1'-0"
140
0.375
141
12.0
290
     0
  0
SCALE
  5
16B
102
{ACAD_REACTORS
330
150
102
}
330
150
100
AcDbScale
 70
     0
300
1/2" = 1'-0"
140
0.5
141
12.0
290
     0
  0
SCALE
  5
16C
102
{ACAD_REACTORS
330
150
102
}
330
150
100
AcDbScale
 70
     0
300
3/4" = 1'-0"
140
0.75
141
12.0
290
     0
  0
SCALE
  5
16D
102
{ACAD_REACTORS
330
150
102
}
330
150
100
AcDbScale
 70
     0
300
1" = 1'-0"
140
1.0
141
12.0
290
     0
  0
SCALE
  5
16E
102
{ACAD_REACTORS
330
150
102
}
330
150
100
AcDbScale
 70
     0
300
1-1/2" = 1'-0"
140
1.5
141
12.0
290
     0
  0
SCALE
  5
16F
102
{ACAD_REACTORS
330
150
102
}
330
150
100
AcDbScale
 70
     0
300
3" = 1'-0"
140
3.0
141
12.0
290
     0
  0
SCALE
  5
170
102
{ACAD_REACTORS
330
150
102
}
330
150
100
AcDbScale
 70
     0
300
6" = 1'-0"
140
6.0
141
12.0
290
     0
  0
SCALE
  5
171
102
{ACAD_REACTORS
330
150
102
}
330
150
100
AcDbScale
 70
     0
300
1'-0" = 1'-0"
140
12.0
141
12.0
290
     0
  0
VISUALSTYLE
  5
2F
102
{ACAD_REACTORS
330
2A
102
}
102
{ACAD_XDICTIONARY
360
5EF
102
}
330
2A
100
AcDbVisualStyle
  2
2dWireframe
 70
     4
 71
     0
 72
     2
 73
     0
 90
        0
 40
-0.6
 41
-30.0
 62
     5
 63
     7
 74
     1
 91
        4
 64
     7
 65
   257
 75
     1
175
     1
 42
1.0
 92
        0
 66
   257
 43
1.0
 76
     1
 77
     6
 78
     2
 67
     7
 79
     5
170
     0
171
     0
290
     0
174
     0
 93
        1
 44
0.0
173
     0
291
     0
 45
0.0
1001
ACAD
1000
AcDbSavedByObjectVersion
1070
     0
  0
VISUALSTYLE
  5
31
102
{ACAD_REACTORS
330
2A
102
}
102
{ACAD_XDICTIONARY
360
5F3
102
}
330
2A
100
AcDbVisualStyle
  2
3D Hidden
 70
     6
 71
     1
 72
     2
 73
     2
 90
        0
 40
-0.6
 41
-30.0
 62
     5
 63
     7
 74
     2
 91
        2
 64
     7
 65
   257
 75
     2
175
     1
 42
40.0
 92
        0
 66
   257
 43
1.0
 76
     1
 77
     6
 78
     2
 67
     7
 79
     3
170
     0
171
     0
290
     0
174
     0
 93
        1
 44
0.0
173
     0
291
     0
 45
0.0
1001
ACAD
1000
AcDbSavedByObjectVersion
1070
     0
  0
VISUALSTYLE
  5
30
102
{ACAD_REACTORS
330
2A
102
}
102
{ACAD_XDICTIONARY
360
5F1
102
}
330
2A
100
AcDbVisualStyle
  2
3dWireframe
 70
     5
 71
     0
 72
     2
 73
     0
 90
        0
 40
-0.6
 41
-30.0
 62
     5
 63
     7
 74
     1
 91
        4
 64
     7
 65
   257
 75
     1
175
     1
 42
1.0
 92
        0
 66
   257
 43
1.0
 76
     1
 77
     6
 78
     2
 67
     7
 79
     5
170
     0
171
     0
290
     0
174
     0
 93
        1
 44
0.0
173
     0
291
     0
 45
0.0
1001
ACAD
1000
AcDbSavedByObjectVersion
1070
     0
  0
VISUALSTYLE
  5
32
102
{ACAD_REACTORS
330
2A
102
}
102
{ACAD_XDICTIONARY
360
5F5
102
}
330
2A
100
AcDbVisualStyle
  2
Basic
 70
     7
 71
     1
 72
     0
 73
     1
 90
        0
 40
-0.6
 41
-30.0
 62
     5
 63
     7
 74
     0
 91
        4
 64
     7
 65
   257
 75
     1
175
     1
 42
1.0
 92
        8
 66
     7
 43
1.0
 76
     1
 77
     6
 78
     2
 67
     7
 79
     5
170
     0
171
     0
290
     0
174
     0
 93
        1
 44
0.0
173
     0
291
     1
 45
0.0
1001
ACAD
1000
AcDbSavedByObjectVersion
1070
     0
  0
VISUALSTYLE
  5
36
102
{ACAD_REACTORS
330
2A
102
}
102
{ACAD_XDICTIONARY
360
5FD
102
}
330
2A
100
AcDbVisualStyle
  2
Brighten
 70
    12
 71
     2
 72
     2
 73
     0
 90
        0
 40
-0.6
 41
-30.0
 62
     5
 63
     7
 74
     1
 91
        4
 64
     7
 65
   257
 75
     1
175
     1
 42
1.0
 92
        8
 66
     7
 43
1.0
 76
     1
 77
     6
 78
     2
 67
     7
 79
     5
170
     0
171
     0
290
     0
174
     0
 93
        1
 44
50.0
173
     0
291
     1
 45
0.0
1001
ACAD
1000
AcDbSavedByObjectVersion
1070
     0
  0
VISUALSTYLE
  5
3A
102
{ACAD_REACTORS
330
2A
102
}
102
{ACAD_XDICTIONARY
360
605
102
}
330
2A
100
AcDbVisualStyle
  2
ColorChange
 70
    16
 71
     2
 72
     2
 73
     3
 90
        0
 40
-0.6
 41
-30.0
 62
     5
 63
     8
 74
     1
 91
        4
 64
     7
 65
   257
 75
     1
175
     1
 42
1.0
 92
        8
 66
     8
 43
1.0
 76
     1
 77
     6
 78
     2
 67
     7
 79
     5
170
     0
171
     0
290
     0
174
     0
 93
        1
 44
0.0
173
     0
291
     1
 45
0.0
1001
ACAD
1000
AcDbSavedByObjectVersion
1070
     0
  0
VISUALSTYLE
  5
34
102
{ACAD_REACTORS
330
2A
102
}
102
{ACAD_XDICTIONARY
360
5F9
102
}
330
2A
100
AcDbVisualStyle
  2
Conceptual
 70
     9
 71
     3
 72
     2
 73
     0
 90
        0
 40
-0.6
 41
-30.0
 62
     5
 63
     7
 74
     2
 91
        2
 64
     7
 65
   257
 75
     1
175
     1
 42
40.0
 92
        8
 66
     7
 43
1.0
 76
     1
 77
     6
 78
     2
 67
     7
 79
     3
170
     0
171
     0
290
     0
174
     0
 93
        1
 44
0.0
173
     0
291
     0
 45
0.0
1001
ACAD
1000
AcDbSavedByObjectVersion
1070
     0
  0
VISUALSTYLE
  5
35
102
{ACAD_REACTORS
330
2A
102
}
102
{ACAD_XDICTIONARY
360
5FB
102
}
330
2A
100
AcDbVisualStyle
  2
Dim
 70
    11
 71
     2
 72
     2
 73
     0
 90
        0
 40
-0.6
 41
-30.0
 62
     5
 63
     7
 74
     1
 91
        4
 64
     7
 65
   257
 75
     1
175
     1
 42
1.0
 92
        8
 66
     7
 43
1.0
 76
     1
 77
     6
 78
     2
 67
     7
 79
     5
170
     0
171
     0
290
     0
174
     0
 93
        1
 44
-50.0
173
     0
291
     1
 45
0.0
1001
ACAD
1000
AcDbSavedByObjectVersion
1070
     0
  0
VISUALSTYLE
  5
39
102
{ACAD_REACTORS
330
2A
102
}
102
{ACAD_XDICTIONARY
360
603
102
}
330
2A
100
AcDbVisualStyle
  2
Facepattern
 70
    15
 71
     2
 72
     2
 73
     0
 90
        0
 40
-0.6
 41
-30.0
 62
     5
 63
     7
 74
     1
 91
        4
 64
     7
 65
   257
 75
     1
175
     1
 42
1.0
 92
        8
 66
     7
 43
1.0
 76
     1
 77
     6
 78
     2
 67
     7
 79
     5
170
     0
171
     0
290
     0
174
     0
 93
        1
 44
0.0
173
     0
291
     1
 45
0.0
1001
ACAD
1000
AcDbSavedByObjectVersion
1070
     0
  0
VISUALSTYLE
  5
2B
102
{ACAD_REACTORS
330
2A
102
}
102
{ACAD_XDICTIONARY
360
5E7
102
}
330
2A
100
AcDbVisualStyle
  2
Flat
 70
     0
 71
     2
 72
     1
 73
     1
 90
        2
 40
-0.6
 41
30.0
 62
     5
 63
     7
 74
     0
 91
        4
 64
     7
 65
   257
 75
     1
175
     1
 42
1.0
 92
        8
 66
     7
 43
1.0
 76
     1
 77
     6
 78
     2
 67
     7
 79
     5
170
     0
171
     0
290
     0
174
     0
 93
       13
 44
0.0
173
     0
291
     1
 45
0.0
1001
ACAD
1000
AcDbSavedByObjectVersion
1070
     0
  0
VISUALSTYLE
  5
2C
102
{ACAD_REACTORS
330
2A
102
}
102
{ACAD_XDICTIONARY
360
5E9
102
}
330
2A
100
AcDbVisualStyle
  2
FlatWithEdges
 70
     1
 71
     2
 72
     1
 73
     1
 90
        2
 40
-0.6
 41
30.0
 62
     5
 63
     7
 74
     1
 91
        4
 64
     7
 65
   257
 75
     1
175
     1
 42
1.0
 92
        0
 66
   257
 43
1.0
 76
     1
 77
     6
 78
     2
 67
     7
 79
     5
170
     0
171
     0
290
     0
174
     0
 93
       13
 44
0.0
173
     0
291
     1
 45
0.0
1001
ACAD
1000
AcDbSavedByObjectVersion
1070
     0
  0
VISUALSTYLE
  5
2D
102
{ACAD_REACTORS
330
2A
102
}
102
{ACAD_XDICTIONARY
360
5EB
102
}
330
2A
100
AcDbVisualStyle
  2
Gouraud
 70
     2
 71
     2
 72
     2
 73
     1
 90
        2
 40
-0.6
 41
30.0
 62
     5
 63
     7
 74
     0
 91
        4
 64
     7
 65
   257
 75
     1
175
     1
 42
1.0
 92
        0
 66
     7
 43
1.0
 76
     1
 77
     6
 78
     2
 67
     7
 79
     5
170
     0
171
     0
290
     0
174
     0
 93
       13
 44
0.0
173
     0
291
     1
 45
0.0
1001
ACAD
1000
AcDbSavedByObjectVersion
1070
     0
  0
VISUALSTYLE
  5
2E
102
{ACAD_REACTORS
330
2A
102
}
102
{ACAD_XDICTIONARY
360
5ED
102
}
330
2A
100
AcDbVisualStyle
  2
GouraudWithEdges
 70
     3
 71
     2
 72
     2
 73
     1
 90
        2
 40
-0.6
 41
30.0
 62
     5
 63
     7
 74
     1
 91
        4
 64
     7
 65
   257
 75
     1
175
     1
 42
1.0
 92
        0
 66
   257
 43
1.0
 76
     1
 77
     6
 78
     2
 67
     7
 79
     5
170
     0
171
     0
290
     0
174
     0
 93
       13
 44
0.0
173
     0
291
     1
 45
0.0
1001
ACAD
1000
AcDbSavedByObjectVersion
1070
     0
  0
VISUALSTYLE
  5
38
102
{ACAD_REACTORS
330
2A
102
}
102
{ACAD_XDICTIONARY
360
601
102
}
330
2A
100
AcDbVisualStyle
  2
Linepattern
 70
    14
 71
     2
 72
     2
 73
     0
 90
        0
 40
-0.6
 41
-30.0
 62
     5
 63
     7
 74
     1
 91
        4
 64
     7
 65
   257
 75
     7
175
     7
 42
1.0
 92
        8
 66
     7
 43
1.0
 76
     1
 77
     6
 78
     2
 67
     7
 79
     5
170
     0
171
     0
290
     0
174
     0
 93
        1
 44
0.0
173
     0
291
     1
 45
0.0
1001
ACAD
1000
AcDbSavedByObjectVersion
1070
     0
  0
VISUALSTYLE
  5
33
102
{ACAD_REACTORS
330
2A
102
}
102
{ACAD_XDICTIONARY
360
5F7
102
}
330
2A
100
AcDbVisualStyle
  2
Realistic
 70
     8
 71
     2
 72
     2
 73
     0
 90
        0
 40
-0.6
 41
-30.0
 62
     5
 63
     7
 74
     1
 91
        0
 64
     7
 65
   257
 75
     1
175
     1
 42
1.0
 92
        8
 66
     8
 43
1.0
 76
     1
 77
     6
 78
     2
 67
     7
 79
     5
170
     0
171
     0
290
     0
174
     0
 93
       13
 44
0.0
173
     0
291
     0
 45
0.0
1001
ACAD
1000
AcDbSavedByObjectVersion
1070
     0
  0
VISUALSTYLE
  5
37
102
{ACAD_REACTORS
330
2A
102
}
102
{ACAD_XDICTIONARY
360
5FF
102
}
330
2A
100
AcDbVisualStyle
  2
Thicken
 70
    13
 71
     2
 72
     2
 73
     0
 90
        0
 40
-0.6
 41
-30.0
 62
     5
 63
     7
 74
     1
 91
        4
 64
     7
 65
   257
 75
     1
175
     1
 42
1.0
 92
       12
 66
     7
 43
1.0
 76
     1
 77
     6
 78
     2
 67
     7
 79
     5
170
     0
171
     0
290
     0
174
     0
 93
        1
 44
0.0
173
     0
291
     1
 45
0.0
1001
ACAD
1000
AcDbSavedByObjectVersion
1070
     0
  0
DICTIONARYVAR
  5
5E4
102
{ACAD_REACTORS
330
5DF
102
}
330
5DF
100
DictionaryVariables
280
     0
  1
1:1
  0
DICTIONARYVAR
  5
5E5
102
{ACAD_REACTORS
330
5DF
102
}
330
5DF
100
DictionaryVariables
280
     0
  1
2
  0
DICTIONARYVAR
  5
5E6
102
{ACAD_REACTORS
330
5DF
102
}
330
5DF
100
DictionaryVariables
280
     0
  1
1
  0
DICTIONARYVAR
  5
5E3
102
{ACAD_REACTORS
330
5DF
102
}
330
5DF
100
DictionaryVariables
280
     0
  1
80.000000
  0
DICTIONARYVAR
  5
5E2
102
{ACAD_REACTORS
330
5DF
102
}
330
5DF
100
DictionaryVariables
280
     0
  1
5.000000
  0
DICTIONARY
  5
609
330
3D
100
AcDbDictionary
280
     1
281
     1
  3
ACAD_XREC_ROUNDTRIP
360
60A
  0
DICTIONARY
  5
607
330
3C
100
AcDbDictionary
280
     1
281
     1
  3
ACAD_XREC_ROUNDTRIP
360
608
  0
DICTIONARY
  5
60B
330
3E
100
AcDbDictionary
280
     1
281
     1
  3
ACAD_XREC_ROUNDTRIP
360
60C
  0
DICTIONARY
  5
5EF
330
2F
100
AcDbDictionary
280
     1
281
     1
  3
ACAD_XREC_ROUNDTRIP
360
5F0
  0
DICTIONARY
  5
5F3
330
31
100
AcDbDictionary
280
     1
281
     1
  3
ACAD_XREC_ROUNDTRIP
360
5F4
  0
DICTIONARY
  5
5F1
330
30
100
AcDbDictionary
280
     1
281
     1
  3
ACAD_XREC_ROUNDTRIP
360
5F2
  0
DICTIONARY
  5
5F5
330
32
100
AcDbDictionary
280
     1
281
     1
  3
ACAD_XREC_ROUNDTRIP
360
5F6
  0
DICTIONARY
  5
5FD
330
36
100
AcDbDictionary
280
     1
281
     1
  3
ACAD_XREC_ROUNDTRIP
360
5FE
  0
DICTIONARY
  5
605
330
3A
100
AcDbDictionary
280
     1
281
     1
  3
ACAD_XREC_ROUNDTRIP
360
606
  0
DICTIONARY
  5
5F9
330
34
100
AcDbDictionary
280
     1
281
     1
  3
ACAD_XREC_ROUNDTRIP
360
5FA
  0
DICTIONARY
  5
5FB
330
35
100
AcDbDictionary
280
     1
281
     1
  3
ACAD_XREC_ROUNDTRIP
360
5FC
  0
DICTIONARY
  5
603
330
39
100
AcDbDictionary
280
     1
281
     1
  3
ACAD_XREC_ROUNDTRIP
360
604
  0
DICTIONARY
  5
5E7
330
2B
100
AcDbDictionary
280
     1
281
     1
  3
ACAD_XREC_ROUNDTRIP
360
5E8
  0
DICTIONARY
  5
5E9
330
2C
100
AcDbDictionary
280
     1
281
     1
  3
ACAD_XREC_ROUNDTRIP
360
5EA
  0
DICTIONARY
  5
5EB
330
2D
100
AcDbDictionary
280
     1
281
     1
  3
ACAD_XREC_ROUNDTRIP
360
5EC
  0
DICTIONARY
  5
5ED
330
2E
100
AcDbDictionary
280
     1
281
     1
  3
ACAD_XREC_ROUNDTRIP
360
5EE
  0
DICTIONARY
  5
601
330
38
100
AcDbDictionary
280
     1
281
     1
  3
ACAD_XREC_ROUNDTRIP
360
602
  0
DICTIONARY
  5
5F7
330
33
100
AcDbDictionary
280
     1
281
     1
  3
ACAD_XREC_ROUNDTRIP
360
5F8
  0
DICTIONARY
  5
5FF
330
37
100
AcDbDictionary
280
     1
281
     1
  3
ACAD_XREC_ROUNDTRIP
360
600
  0
XRECORD
  5
60A
102
{ACAD_REACTORS
330
609
102
}
330
609
100
AcDbXrecord
280
     1
102
MATERIAL
148
0.0
149
0.0
149
0.0
 93
        0
 94
      127
282
     0
 72
     1
 77
     1
171
     1
175
     1
179
     1
273
     0
  0
XRECORD
  5
608
102
{ACAD_REACTORS
330
607
102
}
330
607
100
AcDbXrecord
280
     1
102
MATERIAL
148
0.0
149
0.0
149
0.0
 93
        0
 94
      127
282
     0
 72
     1
 77
     1
171
     1
175
     1
179
     1
273
     0
  0
XRECORD
  5
60C
102
{ACAD_REACTORS
330
60B
102
}
330
60B
100
AcDbXrecord
280
     1
102
MATERIAL
148
0.0
149
0.0
149
0.0
 93
        0
 94
      127
282
     0
 72
     1
 77
     1
171
     1
175
     1
179
     1
273
     0
  0
XRECORD
  5
5F0
102
{ACAD_REACTORS
330
5EF
102
}
330
5EF
100
AcDbXrecord
280
     1
102
RTVSPropertyOp0
 70
     1
102
RTVSPropertyOp1
 70
     1
102
RTVSPropertyOp2
 70
     1
102
RTVSPropertyOp3
 70
     1
102
RTVSPropertyOp4
 70
     1
102
RTVSPropertyOp5
 70
     1
102
RTVSPropertyOp6
 70
     1
102
RTVSPropertyOp7
 70
     1
102
RTVSPropertyOp8
 70
     1
102
RTVSPropertyOp9
 70
     1
102
RTVSPropertyOp10
 70
     1
102
RTVSPropertyOp11
 70
     1
102
RTVSPropertyOp12
 70
     1
102
RTVSPropertyOp13
 70
     1
102
RTVSPropertyOp14
 70
     1
102
RTVSPropertyOp15
 70
     1
102
RTVSPropertyOp16
 70
     1
102
RTVSPropertyOp17
 70
     1
102
RTVSPropertyOp18
 70
     1
102
RTVSPropertyOp19
 70
     1
102
RTVSPropertyOp20
 70
     1
102
RTVSPropertyOp21
 70
     1
102
RTVSPropertyOp22
 70
     1
102
RTVSPropertyOp23
 70
     1
102
RTVSPropertyOp24
 70
     1
102
RTVSPropertyOp25
 70
     1
102
RTVSPropertyOp26
 70
     1
102
RTVSPropertyOp27
 70
     1
  0
XRECORD
  5
5F4
102
{ACAD_REACTORS
330
5F3
102
}
330
5F3
100
AcDbXrecord
280
     1
102
RTVSPropertyOp0
 70
     1
102
RTVSPropertyOp1
 70
     1
102
RTVSPropertyOp2
 70
     1
102
RTVSPropertyOp3
 70
     1
102
RTVSPropertyOp4
 70
     1
102
RTVSPropertyOp5
 70
     1
102
RTVSPropertyOp6
 70
     1
102
RTVSPropertyOp7
 70
     1
102
RTVSPropertyOp8
 70
     1
102
RTVSPropertyOp9
 70
     1
102
RTVSPropertyOp10
 70
     1
102
RTVSPropertyOp11
 70
     1
102
RTVSPropertyOp12
 70
     1
102
RTVSPropertyOp13
 70
     1
102
RTVSPropertyOp14
 70
     1
102
RTVSPropertyOp15
 70
     1
102
RTVSPropertyOp16
 70
     1
102
RTVSPropertyOp17
 70
     1
102
RTVSPropertyOp18
 70
     1
102
RTVSPropertyOp19
 70
     1
102
RTVSPropertyOp20
 70
     1
102
RTVSPropertyOp21
 70
     1
102
RTVSPropertyOp22
 70
     1
102
RTVSPropertyOp23
 70
     1
102
RTVSPropertyOp24
 70
     1
102
RTVSPropertyOp25
 70
     1
102
RTVSPropertyOp26
 70
     1
102
RTVSPropertyOp27
 70
     1
  0
XRECORD
  5
5F2
102
{ACAD_REACTORS
330
5F1
102
}
330
5F1
100
AcDbXrecord
280
     1
102
RTVSPropertyOp0
 70
     1
102
RTVSPropertyOp1
 70
     1
102
RTVSPropertyOp2
 70
     1
102
RTVSPropertyOp3
 70
     1
102
RTVSPropertyOp4
 70
     1
102
RTVSPropertyOp5
 70
     1
102
RTVSPropertyOp6
 70
     1
102
RTVSPropertyOp7
 70
     1
102
RTVSPropertyOp8
 70
     1
102
RTVSPropertyOp9
 70
     1
102
RTVSPropertyOp10
 70
     1
102
RTVSPropertyOp11
 70
     1
102
RTVSPropertyOp12
 70
     1
102
RTVSPropertyOp13
 70
     1
102
RTVSPropertyOp14
 70
     1
102
RTVSPropertyOp15
 70
     1
102
RTVSPropertyOp16
 70
     1
102
RTVSPropertyOp17
 70
     1
102
RTVSPropertyOp18
 70
     1
102
RTVSPropertyOp19
 70
     1
102
RTVSPropertyOp20
 70
     1
102
RTVSPropertyOp21
 70
     1
102
RTVSPropertyOp22
 70
     1
102
RTVSPropertyOp23
 70
     1
102
RTVSPropertyOp24
 70
     1
102
RTVSPropertyOp25
 70
     1
102
RTVSPropertyOp26
 70
     1
102
RTVSPropertyOp27
 70
     1
  0
XRECORD
  5
5F6
102
{ACAD_REACTORS
330
5F5
102
}
330
5F5
100
AcDbXrecord
280
     1
102
RTVSPropertyOp0
 70
     1
102
RTVSPropertyOp1
 70
     1
102
RTVSPropertyOp2
 70
     1
102
RTVSPropertyOp3
 70
     1
102
RTVSPropertyOp4
 70
     1
102
RTVSPropertyOp5
 70
     1
102
RTVSPropertyOp6
 70
     1
102
RTVSPropertyOp7
 70
     1
102
RTVSPropertyOp8
 70
     1
102
RTVSPropertyOp9
 70
     1
102
RTVSPropertyOp10
 70
     1
102
RTVSPropertyOp11
 70
     1
102
RTVSPropertyOp12
 70
     1
102
RTVSPropertyOp13
 70
     1
102
RTVSPropertyOp14
 70
     1
102
RTVSPropertyOp15
 70
     1
102
RTVSPropertyOp16
 70
     1
102
RTVSPropertyOp17
 70
     1
102
RTVSPropertyOp18
 70
     1
102
RTVSPropertyOp19
 70
     1
102
RTVSPropertyOp20
 70
     1
102
RTVSPropertyOp21
 70
     1
102
RTVSPropertyOp22
 70
     1
102
RTVSPropertyOp23
 70
     1
102
RTVSPropertyOp24
 70
     1
102
RTVSPropertyOp25
 70
     1
102
RTVSPropertyOp26
 70
     1
102
RTVSPropertyOp27
 70
     1
  0
XRECORD
  5
5FE
102
{ACAD_REACTORS
330
5FD
102
}
330
5FD
100
AcDbXrecord
280
     1
102
RTVSPropertyOp0
 70
     1
102
RTVSPropertyOp1
 70
     1
102
RTVSPropertyOp2
 70
     1
102
RTVSPropertyOp3
 70
     1
102
RTVSPropertyOp4
 70
     1
102
RTVSPropertyOp5
 70
     1
102
RTVSPropertyOp6
 70
     1
102
RTVSPropertyOp7
 70
     1
102
RTVSPropertyOp8
 70
     1
102
RTVSPropertyOp9
 70
     1
102
RTVSPropertyOp10
 70
     1
102
RTVSPropertyOp11
 70
     1
102
RTVSPropertyOp12
 70
     1
102
RTVSPropertyOp13
 70
     1
102
RTVSPropertyOp14
 70
     1
102
RTVSPropertyOp15
 70
     1
102
RTVSPropertyOp16
 70
     1
102
RTVSPropertyOp17
 70
     1
102
RTVSPropertyOp18
 70
     1
102
RTVSPropertyOp19
 70
     1
102
RTVSPropertyOp20
 70
     1
102
RTVSPropertyOp21
 70
     1
102
RTVSPropertyOp22
 70
     1
102
RTVSPropertyOp23
 70
     1
102
RTVSPropertyOp24
 70
     1
102
RTVSPropertyOp25
 70
     1
102
RTVSPropertyOp26
 70
     1
102
RTVSPropertyOp27
 70
     1
  0
XRECORD
  5
606
102
{ACAD_REACTORS
330
605
102
}
330
605
100
AcDbXrecord
280
     1
102
RTVSPropertyOp0
 70
     1
102
RTVSPropertyOp1
 70
     1
102
RTVSPropertyOp2
 70
     1
102
RTVSPropertyOp3
 70
     1
102
RTVSPropertyOp4
 70
     1
102
RTVSPropertyOp5
 70
     1
102
RTVSPropertyOp6
 70
     1
102
RTVSPropertyOp7
 70
     1
102
RTVSPropertyOp8
 70
     1
102
RTVSPropertyOp9
 70
     1
102
RTVSPropertyOp10
 70
     1
102
RTVSPropertyOp11
 70
     1
102
RTVSPropertyOp12
 70
     1
102
RTVSPropertyOp13
 70
     1
102
RTVSPropertyOp14
 70
     1
102
RTVSPropertyOp15
 70
     1
102
RTVSPropertyOp16
 70
     1
102
RTVSPropertyOp17
 70
     1
102
RTVSPropertyOp18
 70
     1
102
RTVSPropertyOp19
 70
     1
102
RTVSPropertyOp20
 70
     1
102
RTVSPropertyOp21
 70
     1
102
RTVSPropertyOp22
 70
     1
102
RTVSPropertyOp23
 70
     1
102
RTVSPropertyOp24
 70
     1
102
RTVSPropertyOp25
 70
     1
102
RTVSPropertyOp26
 70
     1
102
RTVSPropertyOp27
 70
     1
  0
XRECORD
  5
5FA
102
{ACAD_REACTORS
330
5F9
102
}
330
5F9
100
AcDbXrecord
280
     1
102
RTVSPropertyOp0
 70
     1
102
RTVSPropertyOp1
 70
     1
102
RTVSPropertyOp2
 70
     1
102
RTVSPropertyOp3
 70
     1
102
RTVSPropertyOp4
 70
     1
102
RTVSPropertyOp5
 70
     1
102
RTVSPropertyOp6
 70
     1
102
RTVSPropertyOp7
 70
     1
102
RTVSPropertyOp8
 70
     1
102
RTVSPropertyOp9
 70
     1
102
RTVSPropertyOp10
 70
     1
102
RTVSPropertyOp11
 70
     1
102
RTVSPropertyOp12
 70
     1
102
RTVSPropertyOp13
 70
     1
102
RTVSPropertyOp14
 70
     1
102
RTVSPropertyOp15
 70
     1
102
RTVSPropertyOp16
 70
     1
102
RTVSPropertyOp17
 70
     1
102
RTVSPropertyOp18
 70
     1
102
RTVSPropertyOp19
 70
     1
102
RTVSPropertyOp20
 70
     1
102
RTVSPropertyOp21
 70
     1
102
RTVSPropertyOp22
 70
     1
102
RTVSPropertyOp23
 70
     1
102
RTVSPropertyOp24
 70
     1
102
RTVSPropertyOp25
 70
     1
102
RTVSPropertyOp26
 70
     1
102
RTVSPropertyOp27
 70
     1
  0
XRECORD
  5
5FC
102
{ACAD_REACTORS
330
5FB
102
}
330
5FB
100
AcDbXrecord
280
     1
102
RTVSPropertyOp0
 70
     1
102
RTVSPropertyOp1
 70
     1
102
RTVSPropertyOp2
 70
     1
102
RTVSPropertyOp3
 70
     1
102
RTVSPropertyOp4
 70
     1
102
RTVSPropertyOp5
 70
     1
102
RTVSPropertyOp6
 70
     1
102
RTVSPropertyOp7
 70
     1
102
RTVSPropertyOp8
 70
     1
102
RTVSPropertyOp9
 70
     1
102
RTVSPropertyOp10
 70
     1
102
RTVSPropertyOp11
 70
     1
102
RTVSPropertyOp12
 70
     1
102
RTVSPropertyOp13
 70
     1
102
RTVSPropertyOp14
 70
     1
102
RTVSPropertyOp15
 70
     1
102
RTVSPropertyOp16
 70
     1
102
RTVSPropertyOp17
 70
     1
102
RTVSPropertyOp18
 70
     1
102
RTVSPropertyOp19
 70
     1
102
RTVSPropertyOp20
 70
     1
102
RTVSPropertyOp21
 70
     1
102
RTVSPropertyOp22
 70
     1
102
RTVSPropertyOp23
 70
     1
102
RTVSPropertyOp24
 70
     1
102
RTVSPropertyOp25
 70
     1
102
RTVSPropertyOp26
 70
     1
102
RTVSPropertyOp27
 70
     1
  0
XRECORD
  5
604
102
{ACAD_REACTORS
330
603
102
}
330
603
100
AcDbXrecord
280
     1
102
RTVSPropertyOp0
 70
     1
102
RTVSPropertyOp1
 70
     1
102
RTVSPropertyOp2
 70
     1
102
RTVSPropertyOp3
 70
     1
102
RTVSPropertyOp4
 70
     1
102
RTVSPropertyOp5
 70
     1
102
RTVSPropertyOp6
 70
     1
102
RTVSPropertyOp7
 70
     1
102
RTVSPropertyOp8
 70
     1
102
RTVSPropertyOp9
 70
     1
102
RTVSPropertyOp10
 70
     1
102
RTVSPropertyOp11
 70
     1
102
RTVSPropertyOp12
 70
     1
102
RTVSPropertyOp13
 70
     1
102
RTVSPropertyOp14
 70
     1
102
RTVSPropertyOp15
 70
     1
102
RTVSPropertyOp16
 70
     1
102
RTVSPropertyOp17
 70
     1
102
RTVSPropertyOp18
 70
     1
102
RTVSPropertyOp19
 70
     1
102
RTVSPropertyOp20
 70
     1
102
RTVSPropertyOp21
 70
     1
102
RTVSPropertyOp22
 70
     1
102
RTVSPropertyOp23
 70
     1
102
RTVSPropertyOp24
 70
     1
102
RTVSPropertyOp25
 70
     1
102
RTVSPropertyOp26
 70
     1
102
RTVSPropertyOp27
 70
     1
  0
XRECORD
  5
5E8
102
{ACAD_REACTORS
330
5E7
102
}
330
5E7
100
AcDbXrecord
280
     1
102
RTVSPropertyOp0
 70
     1
102
RTVSPropertyOp1
 70
     1
102
RTVSPropertyOp2
 70
     1
102
RTVSPropertyOp3
 70
     1
102
RTVSPropertyOp4
 70
     1
102
RTVSPropertyOp5
 70
     1
102
RTVSPropertyOp6
 70
     1
102
RTVSPropertyOp7
 70
     1
102
RTVSPropertyOp8
 70
     1
102
RTVSPropertyOp9
 70
     1
102
RTVSPropertyOp10
 70
     1
102
RTVSPropertyOp11
 70
     1
102
RTVSPropertyOp12
 70
     1
102
RTVSPropertyOp13
 70
     1
102
RTVSPropertyOp14
 70
     1
102
RTVSPropertyOp15
 70
     1
102
RTVSPropertyOp16
 70
     1
102
RTVSPropertyOp17
 70
     1
102
RTVSPropertyOp18
 70
     1
102
RTVSPropertyOp19
 70
     1
102
RTVSPropertyOp20
 70
     1
102
RTVSPropertyOp21
 70
     1
102
RTVSPropertyOp22
 70
     1
102
RTVSPropertyOp23
 70
     1
102
RTVSPropertyOp24
 70
     1
102
RTVSPropertyOp25
 70
     1
102
RTVSPropertyOp26
 70
     1
102
RTVSPropertyOp27
 70
     1
  0
XRECORD
  5
5EA
102
{ACAD_REACTORS
330
5E9
102
}
330
5E9
100
AcDbXrecord
280
     1
102
RTVSPropertyOp0
 70
     1
102
RTVSPropertyOp1
 70
     1
102
RTVSPropertyOp2
 70
     1
102
RTVSPropertyOp3
 70
     1
102
RTVSPropertyOp4
 70
     1
102
RTVSPropertyOp5
 70
     1
102
RTVSPropertyOp6
 70
     1
102
RTVSPropertyOp7
 70
     1
102
RTVSPropertyOp8
 70
     1
102
RTVSPropertyOp9
 70
     1
102
RTVSPropertyOp10
 70
     1
102
RTVSPropertyOp11
 70
     1
102
RTVSPropertyOp12
 70
     1
102
RTVSPropertyOp13
 70
     1
102
RTVSPropertyOp14
 70
     1
102
RTVSPropertyOp15
 70
     1
102
RTVSPropertyOp16
 70
     1
102
RTVSPropertyOp17
 70
     1
102
RTVSPropertyOp18
 70
     1
102
RTVSPropertyOp19
 70
     1
102
RTVSPropertyOp20
 70
     1
102
RTVSPropertyOp21
 70
     1
102
RTVSPropertyOp22
 70
     1
102
RTVSPropertyOp23
 70
     1
102
RTVSPropertyOp24
 70
     1
102
RTVSPropertyOp25
 70
     1
102
RTVSPropertyOp26
 70
     1
102
RTVSPropertyOp27
 70
     1
  0
XRECORD
  5
5EC
102
{ACAD_REACTORS
330
5EB
102
}
330
5EB
100
AcDbXrecord
280
     1
102
RTVSPropertyOp0
 70
     1
102
RTVSPropertyOp1
 70
     1
102
RTVSPropertyOp2
 70
     1
102
RTVSPropertyOp3
 70
     1
102
RTVSPropertyOp4
 70
     1
102
RTVSPropertyOp5
 70
     1
102
RTVSPropertyOp6
 70
     1
102
RTVSPropertyOp7
 70
     1
102
RTVSPropertyOp8
 70
     1
102
RTVSPropertyOp9
 70
     1
102
RTVSPropertyOp10
 70
     1
102
RTVSPropertyOp11
 70
     1
102
RTVSPropertyOp12
 70
     1
102
RTVSPropertyOp13
 70
     1
102
RTVSPropertyOp14
 70
     1
102
RTVSPropertyOp15
 70
     1
102
RTVSPropertyOp16
 70
     1
102
RTVSPropertyOp17
 70
     1
102
RTVSPropertyOp18
 70
     1
102
RTVSPropertyOp19
 70
     1
102
RTVSPropertyOp20
 70
     1
102
RTVSPropertyOp21
 70
     1
102
RTVSPropertyOp22
 70
     1
102
RTVSPropertyOp23
 70
     1
102
RTVSPropertyOp24
 70
     1
102
RTVSPropertyOp25
 70
     1
102
RTVSPropertyOp26
 70
     1
102
RTVSPropertyOp27
 70
     1
  0
XRECORD
  5
5EE
102
{ACAD_REACTORS
330
5ED
102
}
330
5ED
100
AcDbXrecord
280
     1
102
RTVSPropertyOp0
 70
     1
102
RTVSPropertyOp1
 70
     1
102
RTVSPropertyOp2
 70
     1
102
RTVSPropertyOp3
 70
     1
102
RTVSPropertyOp4
 70
     1
102
RTVSPropertyOp5
 70
     1
102
RTVSPropertyOp6
 70
     1
102
RTVSPropertyOp7
 70
     1
102
RTVSPropertyOp8
 70
     1
102
RTVSPropertyOp9
 70
     1
102
RTVSPropertyOp10
 70
     1
102
RTVSPropertyOp11
 70
     1
102
RTVSPropertyOp12
 70
     1
102
RTVSPropertyOp13
 70
     1
102
RTVSPropertyOp14
 70
     1
102
RTVSPropertyOp15
 70
     1
102
RTVSPropertyOp16
 70
     1
102
RTVSPropertyOp17
 70
     1
102
RTVSPropertyOp18
 70
     1
102
RTVSPropertyOp19
 70
     1
102
RTVSPropertyOp20
 70
     1
102
RTVSPropertyOp21
 70
     1
102
RTVSPropertyOp22
 70
     1
102
RTVSPropertyOp23
 70
     1
102
RTVSPropertyOp24
 70
     1
102
RTVSPropertyOp25
 70
     1
102
RTVSPropertyOp26
 70
     1
102
RTVSPropertyOp27
 70
     1
  0
XRECORD
  5
602
102
{ACAD_REACTORS
330
601
102
}
330
601
100
AcDbXrecord
280
     1
102
RTVSPropertyOp0
 70
     1
102
RTVSPropertyOp1
 70
     1
102
RTVSPropertyOp2
 70
     1
102
RTVSPropertyOp3
 70
     1
102
RTVSPropertyOp4
 70
     1
102
RTVSPropertyOp5
 70
     1
102
RTVSPropertyOp6
 70
     1
102
RTVSPropertyOp7
 70
     1
102
RTVSPropertyOp8
 70
     1
102
RTVSPropertyOp9
 70
     1
102
RTVSPropertyOp10
 70
     1
102
RTVSPropertyOp11
 70
     1
102
RTVSPropertyOp12
 70
     1
102
RTVSPropertyOp13
 70
     1
102
RTVSPropertyOp14
 70
     1
102
RTVSPropertyOp15
 70
     1
102
RTVSPropertyOp16
 70
     1
102
RTVSPropertyOp17
 70
     1
102
RTVSPropertyOp18
 70
     1
102
RTVSPropertyOp19
 70
     1
102
RTVSPropertyOp20
 70
     1
102
RTVSPropertyOp21
 70
     1
102
RTVSPropertyOp22
 70
     1
102
RTVSPropertyOp23
 70
     1
102
RTVSPropertyOp24
 70
     1
102
RTVSPropertyOp25
 70
     1
102
RTVSPropertyOp26
 70
     1
102
RTVSPropertyOp27
 70
     1
  0
XRECORD
  5
5F8
102
{ACAD_REACTORS
330
5F7
102
}
330
5F7
100
AcDbXrecord
280
     1
102
RTVSPropertyOp0
 70
     1
102
RTVSPropertyOp1
 70
     1
102
RTVSPropertyOp2
 70
     1
102
RTVSPropertyOp3
 70
     1
102
RTVSPropertyOp4
 70
     1
102
RTVSPropertyOp5
 70
     1
102
RTVSPropertyOp6
 70
     1
102
RTVSPropertyOp7
 70
     1
102
RTVSPropertyOp8
 70
     1
102
RTVSPropertyOp9
 70
     1
102
RTVSPropertyOp10
 70
     1
102
RTVSPropertyOp11
 70
     1
102
RTVSPropertyOp12
 70
     1
102
RTVSPropertyOp13
 70
     1
102
RTVSPropertyOp14
 70
     1
102
RTVSPropertyOp15
 70
     1
102
RTVSPropertyOp16
 70
     1
102
RTVSPropertyOp17
 70
     1
102
RTVSPropertyOp18
 70
     1
102
RTVSPropertyOp19
 70
     1
102
RTVSPropertyOp20
 70
     1
102
RTVSPropertyOp21
 70
     1
102
RTVSPropertyOp22
 70
     1
102
RTVSPropertyOp23
 70
     1
102
RTVSPropertyOp24
 70
     1
102
RTVSPropertyOp25
 70
     1
102
RTVSPropertyOp26
 70
     1
102
RTVSPropertyOp27
 70
     1
  0
XRECORD
  5
600
102
{ACAD_REACTORS
330
5FF
102
}
330
5FF
100
AcDbXrecord
280
     1
102
RTVSPropertyOp0
 70
     1
102
RTVSPropertyOp1
 70
     1
102
RTVSPropertyOp2
 70
     1
102
RTVSPropertyOp3
 70
     1
102
RTVSPropertyOp4
 70
     1
102
RTVSPropertyOp5
 70
     1
102
RTVSPropertyOp6
 70
     1
102
RTVSPropertyOp7
 70
     1
102
RTVSPropertyOp8
 70
     1
102
RTVSPropertyOp9
 70
     1
102
RTVSPropertyOp10
 70
     1
102
RTVSPropertyOp11
 70
     1
102
RTVSPropertyOp12
 70
     1
102
RTVSPropertyOp13
 70
     1
102
RTVSPropertyOp14
 70
     1
102
RTVSPropertyOp15
 70
     1
102
RTVSPropertyOp16
 70
     1
102
RTVSPropertyOp17
 70
     1
102
RTVSPropertyOp18
 70
     1
102
RTVSPropertyOp19
 70
     1
102
RTVSPropertyOp20
 70
     1
102
RTVSPropertyOp21
 70
     1
102
RTVSPropertyOp22
 70
     1
102
RTVSPropertyOp23
 70
     1
102
RTVSPropertyOp24
 70
     1
102
RTVSPropertyOp25
 70
     1
102
RTVSPropertyOp26
 70
     1
102
RTVSPropertyOp27
 70
     1
  0
ENDSEC
  0
EOF
