ISO-10303-21;
HEADER;
FILE_DESCRIPTION(('no description'),'unknown implementation level');
FILE_NAME('3041820.stp','  ',('CIM GmbH Aachen'),('CADClick - KiM GmbH - www.kimweb.de'),'unknown preprocess','ACIS','unknown authorization');
FILE_SCHEMA(('automotive_design'));
ENDSEC;
DATA;
#1=MECHANICAL_DESIGN_GEOMETRIC_PRESENTATION_REPRESENTATION(' ',(#14,#15,#16,#17,#18,#19,#20,#21,#22,#23,#24,#25,#26,#27,#28,#29,#30,#31,#32,#33,#34,#35,#36,#37,#38,#39,#40,#41,#42,#43,#44,#45,#46,#47,#48,#49,#50,#51,#52,#53,#54,#55,#56,#57,#58,#59,#60,#61),#10);
#2=PRODUCT_DEFINITION_CONTEXT('',#62,'design');
#3=APPLICATION_PROTOCOL_DEFINITION('INTERNATIONAL STANDARD','automotive_design',1994,#62);
#4=PRODUCT_CATEGORY_RELATIONSHIP('NONE','NONE',#63,#64);
#5=SHAPE_DEFINITION_REPRESENTATION(#65,#66);
#6=PRODUCT_DEFINITION_CONTEXT('',#67,'design');
#7=APPLICATION_PROTOCOL_DEFINITION('INTERNATIONAL STANDARD','automotive_design',1994,#67);
#8=PRODUCT_CATEGORY_RELATIONSHIP('NONE','NONE',#68,#69);
#9=SHAPE_DEFINITION_REPRESENTATION(#70,#71);
#10= (GEOMETRIC_REPRESENTATION_CONTEXT(3)GLOBAL_UNCERTAINTY_ASSIGNED_CONTEXT((#74))GLOBAL_UNIT_ASSIGNED_CONTEXT((#76,#77,#78))REPRESENTATION_CONTEXT('NONE','WORKSPACE'));
#14=STYLED_ITEM('',(#80),#81);
#15=STYLED_ITEM('',(#82),#83);
#16=STYLED_ITEM('',(#84),#85);
#17=STYLED_ITEM('',(#86),#87);
#18=STYLED_ITEM('',(#88),#89);
#19=STYLED_ITEM('',(#90),#91);
#20=STYLED_ITEM('',(#92),#93);
#21=STYLED_ITEM('',(#94),#95);
#22=STYLED_ITEM('',(#96),#97);
#23=STYLED_ITEM('',(#98),#99);
#24=STYLED_ITEM('',(#100),#101);
#25=STYLED_ITEM('',(#102),#103);
#26=STYLED_ITEM('',(#104),#105);
#27=STYLED_ITEM('',(#106),#107);
#28=STYLED_ITEM('',(#108),#109);
#29=STYLED_ITEM('',(#110),#111);
#30=STYLED_ITEM('',(#112),#113);
#31=STYLED_ITEM('',(#114),#115);
#32=STYLED_ITEM('',(#116),#117);
#33=STYLED_ITEM('',(#118),#119);
#34=STYLED_ITEM('',(#120),#121);
#35=STYLED_ITEM('',(#122),#123);
#36=STYLED_ITEM('',(#124),#125);
#37=STYLED_ITEM('',(#126),#127);
#38=STYLED_ITEM('',(#128),#129);
#39=STYLED_ITEM('',(#130),#131);
#40=STYLED_ITEM('',(#132),#133);
#41=STYLED_ITEM('',(#134),#135);
#42=STYLED_ITEM('',(#136),#137);
#43=STYLED_ITEM('',(#138),#139);
#44=STYLED_ITEM('',(#140),#141);
#45=STYLED_ITEM('',(#142),#143);
#46=STYLED_ITEM('',(#144),#145);
#47=STYLED_ITEM('',(#146),#147);
#48=STYLED_ITEM('',(#148),#149);
#49=STYLED_ITEM('',(#150),#151);
#50=STYLED_ITEM('',(#152),#153);
#51=STYLED_ITEM('',(#154),#155);
#52=STYLED_ITEM('',(#156),#157);
#53=STYLED_ITEM('',(#158),#159);
#54=STYLED_ITEM('',(#160),#161);
#55=STYLED_ITEM('',(#162),#163);
#56=STYLED_ITEM('',(#164),#165);
#57=STYLED_ITEM('',(#166),#167);
#58=STYLED_ITEM('',(#168),#169);
#59=STYLED_ITEM('',(#170),#171);
#60=STYLED_ITEM('',(#172),#173);
#61=STYLED_ITEM('',(#174),#175);
#62=APPLICATION_CONTEXT(' ');
#63=PRODUCT_CATEGORY('part','NONE');
#64=PRODUCT_RELATED_PRODUCT_CATEGORY('detail',' ',(#176));
#65=PRODUCT_DEFINITION_SHAPE('NONE','NONE',#177);
#66=ADVANCED_BREP_SHAPE_REPRESENTATION('1',(#143,#178),#10);
#67=APPLICATION_CONTEXT(' ');
#68=PRODUCT_CATEGORY('part','NONE');
#69=PRODUCT_RELATED_PRODUCT_CATEGORY('detail',' ',(#179));
#70=PRODUCT_DEFINITION_SHAPE('NONE','NONE',#180);
#71=ADVANCED_BREP_SHAPE_REPRESENTATION('2',(#97,#181),#10);
#74=UNCERTAINTY_MEASURE_WITH_UNIT(LENGTH_MEASURE(1.0E-006),#76,'','');
#76= (CONVERSION_BASED_UNIT('MILLIMETRE',#184)LENGTH_UNIT()NAMED_UNIT(#187));
#77= (NAMED_UNIT(#189)PLANE_ANGLE_UNIT()SI_UNIT($,.RADIAN.));
#78= (NAMED_UNIT(#189)SOLID_ANGLE_UNIT()SI_UNIT($,.STERADIAN.));
#80=PRESENTATION_STYLE_ASSIGNMENT((#195));
#81=EDGE_CURVE('',#155,#159,#196,.T.);
#82=PRESENTATION_STYLE_ASSIGNMENT((#197));
#83=ADVANCED_FACE('',(#198),#199,.T.);
#84=PRESENTATION_STYLE_ASSIGNMENT((#200));
#85=ADVANCED_FACE('',(#201),#202,.T.);
#86=PRESENTATION_STYLE_ASSIGNMENT((#203));
#87=EDGE_CURVE('',#133,#131,#204,.T.);
#88=PRESENTATION_STYLE_ASSIGNMENT((#205));
#89=EDGE_CURVE('',#153,#107,#206,.T.);
#90=PRESENTATION_STYLE_ASSIGNMENT((#207));
#91=VERTEX_POINT('',#208);
#92=PRESENTATION_STYLE_ASSIGNMENT((#209));
#93=EDGE_CURVE('',#139,#153,#210,.T.);
#94=PRESENTATION_STYLE_ASSIGNMENT((#211));
#95=EDGE_CURVE('',#107,#125,#212,.T.);
#96=PRESENTATION_STYLE_ASSIGNMENT((#213));
#97=MANIFOLD_SOLID_BREP('2',#214);
#98=PRESENTATION_STYLE_ASSIGNMENT((#215));
#99=VERTEX_POINT('',#216);
#100=PRESENTATION_STYLE_ASSIGNMENT((#217));
#101=EDGE_CURVE('',#163,#99,#218,.T.);
#102=PRESENTATION_STYLE_ASSIGNMENT((#219));
#103=ADVANCED_FACE('',(#220),#221,.T.);
#104=PRESENTATION_STYLE_ASSIGNMENT((#222));
#105=EDGE_CURVE('',#151,#99,#223,.T.);
#106=PRESENTATION_STYLE_ASSIGNMENT((#224));
#107=VERTEX_POINT('',#225);
#108=PRESENTATION_STYLE_ASSIGNMENT((#226));
#109=EDGE_CURVE('',#133,#153,#227,.T.);
#110=PRESENTATION_STYLE_ASSIGNMENT((#228));
#111=ADVANCED_FACE('',(#229),#230,.T.);
#112=PRESENTATION_STYLE_ASSIGNMENT((#231));
#113=EDGE_CURVE('',#91,#117,#232,.T.);
#114=PRESENTATION_STYLE_ASSIGNMENT((#233));
#115=EDGE_CURVE('',#117,#161,#234,.T.);
#116=PRESENTATION_STYLE_ASSIGNMENT((#235));
#117=VERTEX_POINT('',#236);
#118=PRESENTATION_STYLE_ASSIGNMENT((#237));
#119=ADVANCED_FACE('',(#238),#239,.T.);
#120=PRESENTATION_STYLE_ASSIGNMENT((#240));
#121=ADVANCED_FACE('',(#241),#242,.T.);
#122=PRESENTATION_STYLE_ASSIGNMENT((#243));
#123=EDGE_CURVE('',#161,#155,#244,.T.);
#124=PRESENTATION_STYLE_ASSIGNMENT((#245));
#125=VERTEX_POINT('',#246);
#126=PRESENTATION_STYLE_ASSIGNMENT((#247));
#127=EDGE_CURVE('',#125,#131,#248,.T.);
#128=PRESENTATION_STYLE_ASSIGNMENT((#249));
#129=EDGE_CURVE('',#131,#133,#250,.T.);
#130=PRESENTATION_STYLE_ASSIGNMENT((#251));
#131=VERTEX_POINT('',#252);
#132=PRESENTATION_STYLE_ASSIGNMENT((#253));
#133=VERTEX_POINT('',#254);
#134=PRESENTATION_STYLE_ASSIGNMENT((#255));
#135=EDGE_CURVE('',#125,#139,#256,.T.);
#136=PRESENTATION_STYLE_ASSIGNMENT((#257));
#137=EDGE_CURVE('',#107,#139,#258,.T.);
#138=PRESENTATION_STYLE_ASSIGNMENT((#259));
#139=VERTEX_POINT('',#260);
#140=PRESENTATION_STYLE_ASSIGNMENT((#261));
#141=EDGE_CURVE('',#159,#155,#262,.T.);
#142=PRESENTATION_STYLE_ASSIGNMENT((#263));
#143=MANIFOLD_SOLID_BREP('1',#264);
#144=PRESENTATION_STYLE_ASSIGNMENT((#265));
#145=ADVANCED_FACE('',(#266),#267,.T.);
#146=PRESENTATION_STYLE_ASSIGNMENT((#268));
#147=EDGE_CURVE('',#163,#91,#269,.T.);
#148=PRESENTATION_STYLE_ASSIGNMENT((#270));
#149=EDGE_CURVE('',#161,#163,#271,.T.);
#150=PRESENTATION_STYLE_ASSIGNMENT((#272));
#151=VERTEX_POINT('',#273);
#152=PRESENTATION_STYLE_ASSIGNMENT((#274));
#153=VERTEX_POINT('',#275);
#154=PRESENTATION_STYLE_ASSIGNMENT((#276));
#155=VERTEX_POINT('',#277);
#156=PRESENTATION_STYLE_ASSIGNMENT((#278));
#157=ADVANCED_FACE('',(#279),#280,.T.);
#158=PRESENTATION_STYLE_ASSIGNMENT((#281));
#159=VERTEX_POINT('',#282);
#160=PRESENTATION_STYLE_ASSIGNMENT((#283));
#161=VERTEX_POINT('',#284);
#162=PRESENTATION_STYLE_ASSIGNMENT((#285));
#163=VERTEX_POINT('',#286);
#164=PRESENTATION_STYLE_ASSIGNMENT((#287));
#165=EDGE_CURVE('',#99,#151,#288,.T.);
#166=PRESENTATION_STYLE_ASSIGNMENT((#289));
#167=ADVANCED_FACE('',(#290),#291,.T.);
#168=PRESENTATION_STYLE_ASSIGNMENT((#292));
#169=ADVANCED_FACE('',(#293),#294,.T.);
#170=PRESENTATION_STYLE_ASSIGNMENT((#295));
#171=EDGE_CURVE('',#151,#117,#296,.T.);
#172=PRESENTATION_STYLE_ASSIGNMENT((#297));
#173=ADVANCED_FACE('',(#298),#299,.T.);
#174=PRESENTATION_STYLE_ASSIGNMENT((#300));
#175=EDGE_CURVE('',#159,#91,#301,.T.);
#176=PRODUCT('1','1','PART-1-DESC',(#302));
#177=PRODUCT_DEFINITION('NONE','NONE',#303,#2);
#178=AXIS2_PLACEMENT_3D('',#304,#305,#306);
#179=PRODUCT('2','2','PART-2-DESC',(#307));
#180=PRODUCT_DEFINITION('NONE','NONE',#308,#6);
#181=AXIS2_PLACEMENT_3D('',#309,#310,#311);
#184=LENGTH_MEASURE_WITH_UNIT(LENGTH_MEASURE(1.0),#312);
#187=DIMENSIONAL_EXPONENTS(1.0,0.0,0.0,0.0,0.0,0.0,0.0);
#189=DIMENSIONAL_EXPONENTS(0.0,0.0,0.0,0.0,0.0,0.0,0.0);
#195=CURVE_STYLE('',#313,POSITIVE_LENGTH_MEASURE(1.0E-006),#314);
#196=CIRCLE('',#315,5.4);
#197=SURFACE_STYLE_USAGE(.BOTH.,#316);
#198=FACE_OUTER_BOUND('',#317,.T.);
#199=SPHERICAL_SURFACE('',#318,5.99999999999999);
#200=SURFACE_STYLE_USAGE(.BOTH.,#319);
#201=FACE_OUTER_BOUND('',#320,.T.);
#202=CYLINDRICAL_SURFACE('',#321,6.0);
#203=CURVE_STYLE('',#322,POSITIVE_LENGTH_MEASURE(1.0E-006),#323);
#204=CIRCLE('',#324,6.0);
#205=CURVE_STYLE('',#325,POSITIVE_LENGTH_MEASURE(1.0E-006),#326);
#206=CIRCLE('',#327,6.0);
#207=POINT_STYLE(' ',#328,POSITIVE_LENGTH_MEASURE(1.0E-006),#329);
#208=CARTESIAN_POINT('',(0.0,6.0,-0.600000000000001));
#209=CURVE_STYLE('',#330,POSITIVE_LENGTH_MEASURE(1.0E-006),#331);
#210=CIRCLE('',#332,6.0);
#211=CURVE_STYLE('',#333,POSITIVE_LENGTH_MEASURE(1.0E-006),#334);
#212=CIRCLE('',#335,6.0);
#213=SURFACE_STYLE_USAGE(.BOTH.,#336);
#214=CLOSED_SHELL('',(#157,#83,#169,#111,#145));
#215=POINT_STYLE(' ',#337,POSITIVE_LENGTH_MEASURE(1.0E-006),#338);
#216=CARTESIAN_POINT('',(-6.0,0.0,-62.0));
#217=CURVE_STYLE('',#339,POSITIVE_LENGTH_MEASURE(1.0E-006),#340);
#218=LINE('',#341,#342);
#219=SURFACE_STYLE_USAGE(.BOTH.,#343);
#220=FACE_OUTER_BOUND('',#344,.T.);
#221=PLANE('',#345);
#222=CURVE_STYLE('',#346,POSITIVE_LENGTH_MEASURE(1.0E-006),#347);
#223=CIRCLE('',#348,6.0);
#224=POINT_STYLE(' ',#349,POSITIVE_LENGTH_MEASURE(1.0E-006),#350);
#225=CARTESIAN_POINT('',(-1.74027029774831E-030,-6.0,-74.0));
#226=CURVE_STYLE('',#351,POSITIVE_LENGTH_MEASURE(1.0E-006),#352);
#227=LINE('',#353,#354);
#228=SURFACE_STYLE_USAGE(.BOTH.,#355);
#229=FACE_OUTER_BOUND('',#356,.T.);
#230=PLANE('',#357);
#231=CURVE_STYLE('',#358,POSITIVE_LENGTH_MEASURE(1.0E-006),#359);
#232=CIRCLE('',#360,6.0);
#233=CURVE_STYLE('',#361,POSITIVE_LENGTH_MEASURE(1.0E-006),#362);
#234=CIRCLE('',#363,6.0);
#235=POINT_STYLE(' ',#364,POSITIVE_LENGTH_MEASURE(1.0E-006),#365);
#236=CARTESIAN_POINT('',(6.0,7.34763812293426E-016,-0.600000000000001));
#237=SURFACE_STYLE_USAGE(.BOTH.,#366);
#238=FACE_OUTER_BOUND('',#367,.T.);
#239=CYLINDRICAL_SURFACE('',#368,6.0);
#240=SURFACE_STYLE_USAGE(.BOTH.,#369);
#241=FACE_OUTER_BOUND('',#370,.T.);
#242=CONICAL_SURFACE('',#371,5.7,0.785398163397447);
#243=CURVE_STYLE('',#372,POSITIVE_LENGTH_MEASURE(1.0E-006),#373);
#244=LINE('',#374,#375);
#245=POINT_STYLE(' ',#376,POSITIVE_LENGTH_MEASURE(1.0E-006),#377);
#246=CARTESIAN_POINT('',(-3.0,-5.19615242270663,-74.0));
#247=CURVE_STYLE('',#378,POSITIVE_LENGTH_MEASURE(1.0E-006),#379);
#248=LINE('',#380,#381);
#249=CURVE_STYLE('',#382,POSITIVE_LENGTH_MEASURE(1.0E-006),#383);
#250=CIRCLE('',#384,6.0);
#251=POINT_STYLE(' ',#385,POSITIVE_LENGTH_MEASURE(1.0E-006),#386);
#252=CARTESIAN_POINT('',(-3.0,-5.19615242270663,-62.0));
#253=POINT_STYLE(' ',#387,POSITIVE_LENGTH_MEASURE(1.0E-006),#388);
#254=CARTESIAN_POINT('',(3.0,5.19615242270663,-62.0));
#255=CURVE_STYLE('',#389,POSITIVE_LENGTH_MEASURE(1.0E-006),#390);
#256=CIRCLE('',#391,6.0);
#257=CURVE_STYLE('',#392,POSITIVE_LENGTH_MEASURE(1.0E-006),#393);
#258=CIRCLE('',#394,5.99999999999999);
#259=POINT_STYLE(' ',#395,POSITIVE_LENGTH_MEASURE(1.0E-006),#396);
#260=CARTESIAN_POINT('',(-1.74027029774831E-030,6.0,-74.0));
#261=CURVE_STYLE('',#397,POSITIVE_LENGTH_MEASURE(1.0E-006),#398);
#262=CIRCLE('',#399,5.4);
#263=SURFACE_STYLE_USAGE(.BOTH.,#400);
#264=CLOSED_SHELL('',(#85,#121,#103,#173,#119,#167));
#265=SURFACE_STYLE_USAGE(.BOTH.,#401);
#266=FACE_OUTER_BOUND('',#402,.T.);
#267=CYLINDRICAL_SURFACE('',#403,6.0);
#268=CURVE_STYLE('',#404,POSITIVE_LENGTH_MEASURE(1.0E-006),#405);
#269=CIRCLE('',#406,6.0);
#270=CURVE_STYLE('',#407,POSITIVE_LENGTH_MEASURE(1.0E-006),#408);
#271=CIRCLE('',#409,6.0);
#272=POINT_STYLE(' ',#410,POSITIVE_LENGTH_MEASURE(1.0E-006),#411);
#273=CARTESIAN_POINT('',(6.0,7.34763812293426E-016,-62.0));
#274=POINT_STYLE(' ',#412,POSITIVE_LENGTH_MEASURE(1.0E-006),#413);
#275=CARTESIAN_POINT('',(3.0,5.19615242270663,-74.0));
#276=POINT_STYLE(' ',#414,POSITIVE_LENGTH_MEASURE(1.0E-006),#415);
#277=CARTESIAN_POINT('',(6.61287431064084E-016,-5.4,0.0));
#278=SURFACE_STYLE_USAGE(.BOTH.,#416);
#279=FACE_OUTER_BOUND('',#417,.T.);
#280=CYLINDRICAL_SURFACE('',#418,6.0);
#281=POINT_STYLE(' ',#419,POSITIVE_LENGTH_MEASURE(1.0E-006),#420);
#282=CARTESIAN_POINT('',(0.0,5.4,0.0));
#283=POINT_STYLE(' ',#421,POSITIVE_LENGTH_MEASURE(1.0E-006),#422);
#284=CARTESIAN_POINT('',(7.34763812293426E-016,-6.0,-0.600000000000001));
#285=POINT_STYLE(' ',#423,POSITIVE_LENGTH_MEASURE(1.0E-006),#424);
#286=CARTESIAN_POINT('',(-6.0,-7.34763812293426E-016,-0.600000000000001));
#287=CURVE_STYLE('',#425,POSITIVE_LENGTH_MEASURE(1.0E-006),#426);
#288=CIRCLE('',#427,6.0);
#289=SURFACE_STYLE_USAGE(.BOTH.,#428);
#290=FACE_OUTER_BOUND('',#429,.T.);
#291=PLANE('',#430);
#292=SURFACE_STYLE_USAGE(.BOTH.,#431);
#293=FACE_OUTER_BOUND('',#432,.T.);
#294=SPHERICAL_SURFACE('',#433,5.99999999999999);
#295=CURVE_STYLE('',#434,POSITIVE_LENGTH_MEASURE(1.0E-006),#435);
#296=LINE('',#436,#437);
#297=SURFACE_STYLE_USAGE(.BOTH.,#438);
#298=FACE_OUTER_BOUND('',#439,.T.);
#299=CONICAL_SURFACE('',#440,5.7,0.785398163397447);
#300=CURVE_STYLE('',#441,POSITIVE_LENGTH_MEASURE(1.0E-006),#442);
#301=LINE('',#443,#444);
#302=PRODUCT_CONTEXT('',#62,'mechanical');
#303=PRODUCT_DEFINITION_FORMATION_WITH_SPECIFIED_SOURCE(' ','NONE',#176,.NOT_KNOWN.);
#304=CARTESIAN_POINT('',(0.0,0.0,0.0));
#305=DIRECTION('',(0.0,0.0,1.0));
#306=DIRECTION('',(1.0,0.0,0.0));
#307=PRODUCT_CONTEXT('',#67,'mechanical');
#308=PRODUCT_DEFINITION_FORMATION_WITH_SPECIFIED_SOURCE(' ','NONE',#179,.NOT_KNOWN.);
#309=CARTESIAN_POINT('',(0.0,0.0,0.0));
#310=DIRECTION('',(0.0,0.0,1.0));
#311=DIRECTION('',(1.0,0.0,0.0));
#312= (NAMED_UNIT(#187)LENGTH_UNIT()SI_UNIT(.MILLI.,.METRE.));
#313=DRAUGHTING_PRE_DEFINED_CURVE_FONT('continuous');
#314=COLOUR_RGB('',0.498039215803146,0.498039215803146,0.498039215803146);
#315=AXIS2_PLACEMENT_3D('',#446,#447,#448);
#316=SURFACE_SIDE_STYLE('',(#449));
#317=EDGE_LOOP('',(#450,#451,#452));
#318=AXIS2_PLACEMENT_3D('',#453,#454,#455);
#319=SURFACE_SIDE_STYLE('',(#456));
#320=EDGE_LOOP('',(#457,#458,#459,#460,#461));
#321=AXIS2_PLACEMENT_3D('',#462,#463,#464);
#322=DRAUGHTING_PRE_DEFINED_CURVE_FONT('continuous');
#323=COLOUR_RGB('',0.800000011920929,0.800000011920929,0.800000011920929);
#324=AXIS2_PLACEMENT_3D('',#465,#466,#467);
#325=DRAUGHTING_PRE_DEFINED_CURVE_FONT('continuous');
#326=COLOUR_RGB('',0.800000011920929,0.800000011920929,0.800000011920929);
#327=AXIS2_PLACEMENT_3D('',#468,#469,#470);
#328=PRE_DEFINED_MARKER('');
#329=COLOUR_RGB('',0.498039215803146,0.498039215803146,0.498039215803146);
#330=DRAUGHTING_PRE_DEFINED_CURVE_FONT('continuous');
#331=COLOUR_RGB('',0.800000011920929,0.800000011920929,0.800000011920929);
#332=AXIS2_PLACEMENT_3D('',#471,#472,#473);
#333=DRAUGHTING_PRE_DEFINED_CURVE_FONT('continuous');
#334=COLOUR_RGB('',0.800000011920929,0.800000011920929,0.800000011920929);
#335=AXIS2_PLACEMENT_3D('',#474,#475,#476);
#336=SURFACE_SIDE_STYLE('',(#477));
#337=PRE_DEFINED_MARKER('');
#338=COLOUR_RGB('',0.498039215803146,0.498039215803146,0.498039215803146);
#339=DRAUGHTING_PRE_DEFINED_CURVE_FONT('continuous');
#340=COLOUR_RGB('',0.498039215803146,0.498039215803146,0.498039215803146);
#341=CARTESIAN_POINT('',(-6.0,-7.34763812293426E-016,-53.5));
#342=VECTOR('',#478,1.0);
#343=SURFACE_SIDE_STYLE('',(#479));
#344=EDGE_LOOP('',(#480,#481));
#345=AXIS2_PLACEMENT_3D('',#482,#483,#484);
#346=DRAUGHTING_PRE_DEFINED_CURVE_FONT('continuous');
#347=COLOUR_RGB('',0.498039215803146,0.498039215803146,0.498039215803146);
#348=AXIS2_PLACEMENT_3D('',#485,#486,#487);
#349=PRE_DEFINED_MARKER('');
#350=COLOUR_RGB('',0.800000011920929,0.800000011920929,0.800000011920929);
#351=DRAUGHTING_PRE_DEFINED_CURVE_FONT('continuous');
#352=COLOUR_RGB('',0.800000011920929,0.800000011920929,0.800000011920929);
#353=CARTESIAN_POINT('',(3.0,5.19615242270663,-68.0));
#354=VECTOR('',#488,1.0);
#355=SURFACE_SIDE_STYLE('',(#489));
#356=EDGE_LOOP('',(#490,#491));
#357=AXIS2_PLACEMENT_3D('',#492,#493,#494);
#358=DRAUGHTING_PRE_DEFINED_CURVE_FONT('continuous');
#359=COLOUR_RGB('',0.498039215803146,0.498039215803146,0.498039215803146);
#360=AXIS2_PLACEMENT_3D('',#495,#496,#497);
#361=DRAUGHTING_PRE_DEFINED_CURVE_FONT('continuous');
#362=COLOUR_RGB('',0.498039215803146,0.498039215803146,0.498039215803146);
#363=AXIS2_PLACEMENT_3D('',#498,#499,#500);
#364=PRE_DEFINED_MARKER('');
#365=COLOUR_RGB('',0.498039215803146,0.498039215803146,0.498039215803146);
#366=SURFACE_SIDE_STYLE('',(#501));
#367=EDGE_LOOP('',(#502,#503,#504,#505,#506));
#368=AXIS2_PLACEMENT_3D('',#507,#508,#509);
#369=SURFACE_SIDE_STYLE('',(#510));
#370=EDGE_LOOP('',(#511,#512,#513,#514,#515));
#371=AXIS2_PLACEMENT_3D('',#516,#517,#518);
#372=DRAUGHTING_PRE_DEFINED_CURVE_FONT('continuous');
#373=COLOUR_RGB('',0.498039215803146,0.498039215803146,0.498039215803146);
#374=CARTESIAN_POINT('',(6.98025621678755E-016,-5.7,-0.300000000000004));
#375=VECTOR('',#519,1.0);
#376=PRE_DEFINED_MARKER('');
#377=COLOUR_RGB('',0.800000011920929,0.800000011920929,0.800000011920929);
#378=DRAUGHTING_PRE_DEFINED_CURVE_FONT('continuous');
#379=COLOUR_RGB('',0.800000011920929,0.800000011920929,0.800000011920929);
#380=CARTESIAN_POINT('',(-3.0,-5.19615242270663,-68.0));
#381=VECTOR('',#520,1.0);
#382=DRAUGHTING_PRE_DEFINED_CURVE_FONT('continuous');
#383=COLOUR_RGB('',0.800000011920929,0.800000011920929,0.800000011920929);
#384=AXIS2_PLACEMENT_3D('',#521,#522,#523);
#385=PRE_DEFINED_MARKER('');
#386=COLOUR_RGB('',0.800000011920929,0.800000011920929,0.800000011920929);
#387=PRE_DEFINED_MARKER('');
#388=COLOUR_RGB('',0.800000011920929,0.800000011920929,0.800000011920929);
#389=DRAUGHTING_PRE_DEFINED_CURVE_FONT('continuous');
#390=COLOUR_RGB('',0.800000011920929,0.800000011920929,0.800000011920929);
#391=AXIS2_PLACEMENT_3D('',#524,#525,#526);
#392=DRAUGHTING_PRE_DEFINED_CURVE_FONT('continuous');
#393=COLOUR_RGB('',0.800000011920929,0.800000011920929,0.800000011920929);
#394=AXIS2_PLACEMENT_3D('',#527,#528,#529);
#395=PRE_DEFINED_MARKER('');
#396=COLOUR_RGB('',0.800000011920929,0.800000011920929,0.800000011920929);
#397=DRAUGHTING_PRE_DEFINED_CURVE_FONT('continuous');
#398=COLOUR_RGB('',0.498039215803146,0.498039215803146,0.498039215803146);
#399=AXIS2_PLACEMENT_3D('',#530,#531,#532);
#400=SURFACE_SIDE_STYLE('',(#533));
#401=SURFACE_SIDE_STYLE('',(#534));
#402=EDGE_LOOP('',(#535,#536,#537,#538,#539));
#403=AXIS2_PLACEMENT_3D('',#540,#541,#542);
#404=DRAUGHTING_PRE_DEFINED_CURVE_FONT('continuous');
#405=COLOUR_RGB('',0.498039215803146,0.498039215803146,0.498039215803146);
#406=AXIS2_PLACEMENT_3D('',#543,#544,#545);
#407=DRAUGHTING_PRE_DEFINED_CURVE_FONT('continuous');
#408=COLOUR_RGB('',0.498039215803146,0.498039215803146,0.498039215803146);
#409=AXIS2_PLACEMENT_3D('',#546,#547,#548);
#410=PRE_DEFINED_MARKER('');
#411=COLOUR_RGB('',0.498039215803146,0.498039215803146,0.498039215803146);
#412=PRE_DEFINED_MARKER('');
#413=COLOUR_RGB('',0.800000011920929,0.800000011920929,0.800000011920929);
#414=PRE_DEFINED_MARKER('');
#415=COLOUR_RGB('',0.498039215803146,0.498039215803146,0.498039215803146);
#416=SURFACE_SIDE_STYLE('',(#549));
#417=EDGE_LOOP('',(#550,#551,#552,#553,#554));
#418=AXIS2_PLACEMENT_3D('',#555,#556,#557);
#419=PRE_DEFINED_MARKER('');
#420=COLOUR_RGB('',0.498039215803146,0.498039215803146,0.498039215803146);
#421=PRE_DEFINED_MARKER('');
#422=COLOUR_RGB('',0.498039215803146,0.498039215803146,0.498039215803146);
#423=PRE_DEFINED_MARKER('');
#424=COLOUR_RGB('',0.498039215803146,0.498039215803146,0.498039215803146);
#425=DRAUGHTING_PRE_DEFINED_CURVE_FONT('continuous');
#426=COLOUR_RGB('',0.498039215803146,0.498039215803146,0.498039215803146);
#427=AXIS2_PLACEMENT_3D('',#558,#559,#560);
#428=SURFACE_SIDE_STYLE('',(#561));
#429=EDGE_LOOP('',(#562,#563));
#430=AXIS2_PLACEMENT_3D('',#564,#565,#566);
#431=SURFACE_SIDE_STYLE('',(#567));
#432=EDGE_LOOP('',(#568,#569,#570));
#433=AXIS2_PLACEMENT_3D('',#571,#572,#573);
#434=DRAUGHTING_PRE_DEFINED_CURVE_FONT('continuous');
#435=COLOUR_RGB('',0.498039215803146,0.498039215803146,0.498039215803146);
#436=CARTESIAN_POINT('',(6.0,7.34763812293426E-016,-53.5));
#437=VECTOR('',#574,1.0);
#438=SURFACE_SIDE_STYLE('',(#575));
#439=EDGE_LOOP('',(#576,#577,#578,#579,#580));
#440=AXIS2_PLACEMENT_3D('',#581,#582,#583);
#441=DRAUGHTING_PRE_DEFINED_CURVE_FONT('continuous');
#442=COLOUR_RGB('',0.498039215803146,0.498039215803146,0.498039215803146);
#443=CARTESIAN_POINT('',(-6.98025621678755E-016,5.7,-0.300000000000004));
#444=VECTOR('',#584,1.0);
#446=CARTESIAN_POINT('',(0.0,0.0,0.0));
#447=DIRECTION('',(0.0,0.0,-1.0));
#448=DIRECTION('',(0.0,1.0,0.0));
#449=SURFACE_STYLE_FILL_AREA(#585);
#450=ORIENTED_EDGE('',*,*,#137,.F.);
#451=ORIENTED_EDGE('',*,*,#95,.T.);
#452=ORIENTED_EDGE('',*,*,#135,.T.);
#453=CARTESIAN_POINT('',(0.0,0.0,-74.0));
#454=DIRECTION('',(0.0,1.0,0.0));
#455=DIRECTION('',(0.0,0.0,-1.0));
#456=SURFACE_STYLE_FILL_AREA(#586);
#457=ORIENTED_EDGE('',*,*,#101,.F.);
#458=ORIENTED_EDGE('',*,*,#147,.T.);
#459=ORIENTED_EDGE('',*,*,#113,.T.);
#460=ORIENTED_EDGE('',*,*,#171,.F.);
#461=ORIENTED_EDGE('',*,*,#165,.F.);
#462=CARTESIAN_POINT('',(0.0,0.0,-53.5));
#463=DIRECTION('',(-0.0,-0.0,1.0));
#464=DIRECTION('',(-1.0,0.0,0.0));
#465=CARTESIAN_POINT('',(0.0,0.0,-62.0));
#466=DIRECTION('',(0.0,0.0,-1.0));
#467=DIRECTION('',(0.5,0.866025403784439,0.0));
#468=CARTESIAN_POINT('',(0.0,0.0,-74.0));
#469=DIRECTION('',(0.0,0.0,-1.0));
#470=DIRECTION('',(0.5,0.866025403784439,0.0));
#471=CARTESIAN_POINT('',(0.0,0.0,-74.0));
#472=DIRECTION('',(0.0,0.0,-1.0));
#473=DIRECTION('',(0.5,0.866025403784439,0.0));
#474=CARTESIAN_POINT('',(0.0,0.0,-74.0));
#475=DIRECTION('',(0.0,0.0,-1.0));
#476=DIRECTION('',(0.5,0.866025403784439,0.0));
#477=SURFACE_STYLE_FILL_AREA(#587);
#478=DIRECTION('',(0.0,0.0,-1.0));
#479=SURFACE_STYLE_FILL_AREA(#588);
#480=ORIENTED_EDGE('',*,*,#141,.F.);
#481=ORIENTED_EDGE('',*,*,#81,.F.);
#482=CARTESIAN_POINT('',(0.0,2.7,0.0));
#483=DIRECTION('',(-0.0,0.0,1.0));
#484=DIRECTION('',(0.0,-1.0,0.0));
#485=CARTESIAN_POINT('',(0.0,0.0,-62.0));
#486=DIRECTION('',(0.0,0.0,-1.0));
#487=DIRECTION('',(-1.0,0.0,0.0));
#488=DIRECTION('',(0.0,0.0,-1.0));
#489=SURFACE_STYLE_FILL_AREA(#589);
#490=ORIENTED_EDGE('',*,*,#87,.F.);
#491=ORIENTED_EDGE('',*,*,#129,.F.);
#492=CARTESIAN_POINT('',(1.5,2.59807621135332,-62.0));
#493=DIRECTION('',(0.0,0.0,1.0));
#494=DIRECTION('',(-0.5,-0.866025403784439,0.0));
#495=CARTESIAN_POINT('',(0.0,0.0,-0.600000000000001));
#496=DIRECTION('',(0.0,0.0,-1.0));
#497=DIRECTION('',(0.0,1.0,0.0));
#498=CARTESIAN_POINT('',(0.0,0.0,-0.600000000000001));
#499=DIRECTION('',(0.0,0.0,-1.0));
#500=DIRECTION('',(0.0,1.0,0.0));
#501=SURFACE_STYLE_FILL_AREA(#590);
#502=ORIENTED_EDGE('',*,*,#101,.T.);
#503=ORIENTED_EDGE('',*,*,#105,.F.);
#504=ORIENTED_EDGE('',*,*,#171,.T.);
#505=ORIENTED_EDGE('',*,*,#115,.T.);
#506=ORIENTED_EDGE('',*,*,#149,.T.);
#507=CARTESIAN_POINT('',(0.0,0.0,-53.5));
#508=DIRECTION('',(-0.0,-0.0,1.0));
#509=DIRECTION('',(-1.0,0.0,0.0));
#510=SURFACE_STYLE_FILL_AREA(#591);
#511=ORIENTED_EDGE('',*,*,#175,.F.);
#512=ORIENTED_EDGE('',*,*,#141,.T.);
#513=ORIENTED_EDGE('',*,*,#123,.F.);
#514=ORIENTED_EDGE('',*,*,#115,.F.);
#515=ORIENTED_EDGE('',*,*,#113,.F.);
#516=CARTESIAN_POINT('',(0.0,0.0,-0.300000000000004));
#517=DIRECTION('',(0.0,-0.0,-1.0));
#518=DIRECTION('',(0.0,1.0,0.0));
#519=DIRECTION('',(-8.65927457071934E-017,0.707106781186546,0.707106781186549));
#520=DIRECTION('',(-0.0,-0.0,1.0));
#521=CARTESIAN_POINT('',(0.0,0.0,-62.0));
#522=DIRECTION('',(0.0,0.0,-1.0));
#523=DIRECTION('',(0.5,0.866025403784439,0.0));
#524=CARTESIAN_POINT('',(0.0,0.0,-74.0));
#525=DIRECTION('',(0.0,0.0,-1.0));
#526=DIRECTION('',(0.5,0.866025403784439,0.0));
#527=CARTESIAN_POINT('',(0.0,0.0,-74.0));
#528=DIRECTION('',(1.0,0.0,1.22460635382238E-016));
#529=DIRECTION('',(-1.22460635382238E-016,0.0,1.0));
#530=CARTESIAN_POINT('',(0.0,0.0,0.0));
#531=DIRECTION('',(0.0,0.0,-1.0));
#532=DIRECTION('',(0.0,1.0,0.0));
#533=SURFACE_STYLE_FILL_AREA(#592);
#534=SURFACE_STYLE_FILL_AREA(#593);
#535=ORIENTED_EDGE('',*,*,#109,.T.);
#536=ORIENTED_EDGE('',*,*,#93,.F.);
#537=ORIENTED_EDGE('',*,*,#135,.F.);
#538=ORIENTED_EDGE('',*,*,#127,.T.);
#539=ORIENTED_EDGE('',*,*,#129,.T.);
#540=CARTESIAN_POINT('',(0.0,0.0,-68.0));
#541=DIRECTION('',(-0.0,-0.0,1.0));
#542=DIRECTION('',(0.5,0.866025403784439,0.0));
#543=CARTESIAN_POINT('',(0.0,0.0,-0.600000000000001));
#544=DIRECTION('',(0.0,0.0,-1.0));
#545=DIRECTION('',(0.0,1.0,0.0));
#546=CARTESIAN_POINT('',(0.0,0.0,-0.600000000000001));
#547=DIRECTION('',(0.0,0.0,-1.0));
#548=DIRECTION('',(0.0,1.0,0.0));
#549=SURFACE_STYLE_FILL_AREA(#594);
#550=ORIENTED_EDGE('',*,*,#109,.F.);
#551=ORIENTED_EDGE('',*,*,#87,.T.);
#552=ORIENTED_EDGE('',*,*,#127,.F.);
#553=ORIENTED_EDGE('',*,*,#95,.F.);
#554=ORIENTED_EDGE('',*,*,#89,.F.);
#555=CARTESIAN_POINT('',(0.0,0.0,-68.0));
#556=DIRECTION('',(-0.0,-0.0,1.0));
#557=DIRECTION('',(0.5,0.866025403784439,0.0));
#558=CARTESIAN_POINT('',(0.0,0.0,-62.0));
#559=DIRECTION('',(0.0,0.0,-1.0));
#560=DIRECTION('',(-1.0,0.0,0.0));
#561=SURFACE_STYLE_FILL_AREA(#595);
#562=ORIENTED_EDGE('',*,*,#165,.T.);
#563=ORIENTED_EDGE('',*,*,#105,.T.);
#564=CARTESIAN_POINT('',(-3.0,0.0,-62.0));
#565=DIRECTION('',(0.0,0.0,-1.0));
#566=DIRECTION('',(-1.0,0.0,0.0));
#567=SURFACE_STYLE_FILL_AREA(#596);
#568=ORIENTED_EDGE('',*,*,#137,.T.);
#569=ORIENTED_EDGE('',*,*,#93,.T.);
#570=ORIENTED_EDGE('',*,*,#89,.T.);
#571=CARTESIAN_POINT('',(0.0,0.0,-74.0));
#572=DIRECTION('',(0.0,1.0,0.0));
#573=DIRECTION('',(0.0,0.0,-1.0));
#574=DIRECTION('',(-0.0,-0.0,1.0));
#575=SURFACE_STYLE_FILL_AREA(#597);
#576=ORIENTED_EDGE('',*,*,#175,.T.);
#577=ORIENTED_EDGE('',*,*,#147,.F.);
#578=ORIENTED_EDGE('',*,*,#149,.F.);
#579=ORIENTED_EDGE('',*,*,#123,.T.);
#580=ORIENTED_EDGE('',*,*,#81,.T.);
#581=CARTESIAN_POINT('',(0.0,0.0,-0.300000000000004));
#582=DIRECTION('',(0.0,-0.0,-1.0));
#583=DIRECTION('',(0.0,1.0,0.0));
#584=DIRECTION('',(-8.65927457071934E-017,0.707106781186546,-0.707106781186549));
#585=FILL_AREA_STYLE('',(#598));
#586=FILL_AREA_STYLE('',(#599));
#587=FILL_AREA_STYLE('',(#600));
#588=FILL_AREA_STYLE('',(#601));
#589=FILL_AREA_STYLE('',(#602));
#590=FILL_AREA_STYLE('',(#603));
#591=FILL_AREA_STYLE('',(#604));
#592=FILL_AREA_STYLE('',(#605));
#593=FILL_AREA_STYLE('',(#606));
#594=FILL_AREA_STYLE('',(#607));
#595=FILL_AREA_STYLE('',(#608));
#596=FILL_AREA_STYLE('',(#609));
#597=FILL_AREA_STYLE('',(#610));
#598=FILL_AREA_STYLE_COLOUR('',#611);
#599=FILL_AREA_STYLE_COLOUR('',#612);
#600=FILL_AREA_STYLE_COLOUR('',#613);
#601=FILL_AREA_STYLE_COLOUR('',#614);
#602=FILL_AREA_STYLE_COLOUR('',#615);
#603=FILL_AREA_STYLE_COLOUR('',#616);
#604=FILL_AREA_STYLE_COLOUR('',#617);
#605=FILL_AREA_STYLE_COLOUR('',#618);
#606=FILL_AREA_STYLE_COLOUR('',#619);
#607=FILL_AREA_STYLE_COLOUR('',#620);
#608=FILL_AREA_STYLE_COLOUR('',#621);
#609=FILL_AREA_STYLE_COLOUR('',#622);
#610=FILL_AREA_STYLE_COLOUR('',#623);
#611=COLOUR_RGB('',0.800000011920929,0.800000011920929,0.800000011920929);
#612=COLOUR_RGB('',0.498039215803146,0.498039215803146,0.498039215803146);
#613=COLOUR_RGB('',0.800000011920929,0.800000011920929,0.800000011920929);
#614=COLOUR_RGB('',0.498039215803146,0.498039215803146,0.498039215803146);
#615=COLOUR_RGB('',0.800000011920929,0.800000011920929,0.800000011920929);
#616=COLOUR_RGB('',0.498039215803146,0.498039215803146,0.498039215803146);
#617=COLOUR_RGB('',0.498039215803146,0.498039215803146,0.498039215803146);
#618=COLOUR_RGB('',0.498039215803146,0.498039215803146,0.498039215803146);
#619=COLOUR_RGB('',0.800000011920929,0.800000011920929,0.800000011920929);
#620=COLOUR_RGB('',0.800000011920929,0.800000011920929,0.800000011920929);
#621=COLOUR_RGB('',0.498039215803146,0.498039215803146,0.498039215803146);
#622=COLOUR_RGB('',0.800000011920929,0.800000011920929,0.800000011920929);
#623=COLOUR_RGB('',0.498039215803146,0.498039215803146,0.498039215803146);
#624=AXIS2_PLACEMENT_3D('PCS',#625,#626,#627);
#625=CARTESIAN_POINT('',(0.0,0.0,0.0));
#626=DIRECTION('',(0.0,0.0,1.0));
#627=DIRECTION('',(1.0,0.0,0.0));
#628=AXIS2_PLACEMENT_3D('MCS',#629,#630,#631);
#629=CARTESIAN_POINT('',(0.0,0.0,-45.0));
#630=DIRECTION('',(0.0,0.0,1.0));
#631=DIRECTION('',(1.0,0.0,0.0));
#632=AXIS2_PLACEMENT_3D('CIP',#633,#634,#635);
#633=CARTESIAN_POINT('',(0.0,0.0,-80.0));
#634=DIRECTION('',(0.0,0.0,1.0));
#635=DIRECTION('',(1.0,0.0,0.0));
#636=CONSTRUCTIVE_GEOMETRY_REPRESENTATION_RELATIONSHIP('coordinate systems',$,#66,#637);
#637=CONSTRUCTIVE_GEOMETRY_REPRESENTATION('coordinate systems',(#624,#628,#632),#10);
ENDSEC;
END-ISO-10303-21;
