ISO-10303-21;
HEADER;
FILE_DESCRIPTION(('no description'),'unknown implementation level');
FILE_NAME('3106640.stp','  ',('CIM GmbH Aachen'),('CADClick - KiM GmbH - www.kimweb.de'),'unknown preprocess','ACIS','unknown authorization');
FILE_SCHEMA(('automotive_design'));
ENDSEC;
DATA;
#1=MECHANICAL_DESIGN_GEOMETRIC_PRESENTATION_REPRESENTATION(' ',(#14,#15,#16,#17,#18,#19,#20,#21,#22,#23,#24,#25,#26,#27,#28,#29,#30,#31,#32,#33,#34,#35,#36,#37,#38,#39,#40,#41,#42,#43,#44,#45,#46,#47,#48,#49,#50,#51,#52,#53,#54,#55,#56,#57,#58,#59,#60,#61),#10);
#2=PRODUCT_DEFINITION_CONTEXT('',#62,'design');
#3=APPLICATION_PROTOCOL_DEFINITION('INTERNATIONAL STANDARD','automotive_design',1994,#62);
#4=PRODUCT_CATEGORY_RELATIONSHIP('NONE','NONE',#63,#64);
#5=SHAPE_DEFINITION_REPRESENTATION(#65,#66);
#6=PRODUCT_DEFINITION_CONTEXT('',#67,'design');
#7=APPLICATION_PROTOCOL_DEFINITION('INTERNATIONAL STANDARD','automotive_design',1994,#67);
#8=PRODUCT_CATEGORY_RELATIONSHIP('NONE','NONE',#68,#69);
#9=SHAPE_DEFINITION_REPRESENTATION(#70,#71);
#10= (GEOMETRIC_REPRESENTATION_CONTEXT(3)GLOBAL_UNCERTAINTY_ASSIGNED_CONTEXT((#74))GLOBAL_UNIT_ASSIGNED_CONTEXT((#76,#77,#78))REPRESENTATION_CONTEXT('NONE','WORKSPACE'));
#14=STYLED_ITEM('',(#80),#81);
#15=STYLED_ITEM('',(#82),#83);
#16=STYLED_ITEM('',(#84),#85);
#17=STYLED_ITEM('',(#86),#87);
#18=STYLED_ITEM('',(#88),#89);
#19=STYLED_ITEM('',(#90),#91);
#20=STYLED_ITEM('',(#92),#93);
#21=STYLED_ITEM('',(#94),#95);
#22=STYLED_ITEM('',(#96),#97);
#23=STYLED_ITEM('',(#98),#99);
#24=STYLED_ITEM('',(#100),#101);
#25=STYLED_ITEM('',(#102),#103);
#26=STYLED_ITEM('',(#104),#105);
#27=STYLED_ITEM('',(#106),#107);
#28=STYLED_ITEM('',(#108),#109);
#29=STYLED_ITEM('',(#110),#111);
#30=STYLED_ITEM('',(#112),#113);
#31=STYLED_ITEM('',(#114),#115);
#32=STYLED_ITEM('',(#116),#117);
#33=STYLED_ITEM('',(#118),#119);
#34=STYLED_ITEM('',(#120),#121);
#35=STYLED_ITEM('',(#122),#123);
#36=STYLED_ITEM('',(#124),#125);
#37=STYLED_ITEM('',(#126),#127);
#38=STYLED_ITEM('',(#128),#129);
#39=STYLED_ITEM('',(#130),#131);
#40=STYLED_ITEM('',(#132),#133);
#41=STYLED_ITEM('',(#134),#135);
#42=STYLED_ITEM('',(#136),#137);
#43=STYLED_ITEM('',(#138),#139);
#44=STYLED_ITEM('',(#140),#141);
#45=STYLED_ITEM('',(#142),#143);
#46=STYLED_ITEM('',(#144),#145);
#47=STYLED_ITEM('',(#146),#147);
#48=STYLED_ITEM('',(#148),#149);
#49=STYLED_ITEM('',(#150),#151);
#50=STYLED_ITEM('',(#152),#153);
#51=STYLED_ITEM('',(#154),#155);
#52=STYLED_ITEM('',(#156),#157);
#53=STYLED_ITEM('',(#158),#159);
#54=STYLED_ITEM('',(#160),#161);
#55=STYLED_ITEM('',(#162),#163);
#56=STYLED_ITEM('',(#164),#165);
#57=STYLED_ITEM('',(#166),#167);
#58=STYLED_ITEM('',(#168),#169);
#59=STYLED_ITEM('',(#170),#171);
#60=STYLED_ITEM('',(#172),#173);
#61=STYLED_ITEM('',(#174),#175);
#62=APPLICATION_CONTEXT(' ');
#63=PRODUCT_CATEGORY('part','NONE');
#64=PRODUCT_RELATED_PRODUCT_CATEGORY('detail',' ',(#176));
#65=PRODUCT_DEFINITION_SHAPE('NONE','NONE',#177);
#66=ADVANCED_BREP_SHAPE_REPRESENTATION('1',(#113,#178),#10);
#67=APPLICATION_CONTEXT(' ');
#68=PRODUCT_CATEGORY('part','NONE');
#69=PRODUCT_RELATED_PRODUCT_CATEGORY('detail',' ',(#179));
#70=PRODUCT_DEFINITION_SHAPE('NONE','NONE',#180);
#71=ADVANCED_BREP_SHAPE_REPRESENTATION('2',(#147,#181),#10);
#74=UNCERTAINTY_MEASURE_WITH_UNIT(LENGTH_MEASURE(1.0E-006),#76,'','');
#76= (CONVERSION_BASED_UNIT('MILLIMETRE',#184)LENGTH_UNIT()NAMED_UNIT(#187));
#77= (NAMED_UNIT(#189)PLANE_ANGLE_UNIT()SI_UNIT($,.RADIAN.));
#78= (NAMED_UNIT(#189)SOLID_ANGLE_UNIT()SI_UNIT($,.STERADIAN.));
#80=PRESENTATION_STYLE_ASSIGNMENT((#195));
#81=ADVANCED_FACE('',(#196),#197,.T.);
#82=PRESENTATION_STYLE_ASSIGNMENT((#198));
#83=VERTEX_POINT('',#199);
#84=PRESENTATION_STYLE_ASSIGNMENT((#200));
#85=VERTEX_POINT('',#201);
#86=PRESENTATION_STYLE_ASSIGNMENT((#202));
#87=EDGE_CURVE('',#159,#161,#203,.T.);
#88=PRESENTATION_STYLE_ASSIGNMENT((#204));
#89=ADVANCED_FACE('',(#205),#206,.T.);
#90=PRESENTATION_STYLE_ASSIGNMENT((#207));
#91=EDGE_CURVE('',#161,#85,#208,.T.);
#92=PRESENTATION_STYLE_ASSIGNMENT((#209));
#93=VERTEX_POINT('',#210);
#94=PRESENTATION_STYLE_ASSIGNMENT((#211));
#95=EDGE_CURVE('',#83,#85,#212,.T.);
#96=PRESENTATION_STYLE_ASSIGNMENT((#213));
#97=ADVANCED_FACE('',(#214),#215,.T.);
#98=PRESENTATION_STYLE_ASSIGNMENT((#216));
#99=ADVANCED_FACE('',(#217),#218,.T.);
#100=PRESENTATION_STYLE_ASSIGNMENT((#219));
#101=VERTEX_POINT('',#220);
#102=PRESENTATION_STYLE_ASSIGNMENT((#221));
#103=VERTEX_POINT('',#222);
#104=PRESENTATION_STYLE_ASSIGNMENT((#223));
#105=EDGE_CURVE('',#135,#103,#224,.T.);
#106=PRESENTATION_STYLE_ASSIGNMENT((#225));
#107=VERTEX_POINT('',#226);
#108=PRESENTATION_STYLE_ASSIGNMENT((#227));
#109=VERTEX_POINT('',#228);
#110=PRESENTATION_STYLE_ASSIGNMENT((#229));
#111=EDGE_CURVE('',#169,#93,#230,.T.);
#112=PRESENTATION_STYLE_ASSIGNMENT((#231));
#113=MANIFOLD_SOLID_BREP('1',#232);
#114=PRESENTATION_STYLE_ASSIGNMENT((#233));
#115=EDGE_CURVE('',#159,#169,#234,.T.);
#116=PRESENTATION_STYLE_ASSIGNMENT((#235));
#117=EDGE_CURVE('',#139,#109,#236,.T.);
#118=PRESENTATION_STYLE_ASSIGNMENT((#237));
#119=ADVANCED_FACE('',(#238),#239,.T.);
#120=PRESENTATION_STYLE_ASSIGNMENT((#240));
#121=EDGE_CURVE('',#109,#103,#241,.T.);
#122=PRESENTATION_STYLE_ASSIGNMENT((#242));
#123=EDGE_CURVE('',#103,#139,#243,.T.);
#124=PRESENTATION_STYLE_ASSIGNMENT((#244));
#125=EDGE_CURVE('',#101,#151,#245,.T.);
#126=PRESENTATION_STYLE_ASSIGNMENT((#246));
#127=ADVANCED_FACE('',(#247),#248,.T.);
#128=PRESENTATION_STYLE_ASSIGNMENT((#249));
#129=EDGE_CURVE('',#93,#107,#250,.T.);
#130=PRESENTATION_STYLE_ASSIGNMENT((#251));
#131=ADVANCED_FACE('',(#252),#253,.T.);
#132=PRESENTATION_STYLE_ASSIGNMENT((#254));
#133=ADVANCED_FACE('',(#255),#256,.T.);
#134=PRESENTATION_STYLE_ASSIGNMENT((#257));
#135=VERTEX_POINT('',#258);
#136=PRESENTATION_STYLE_ASSIGNMENT((#259));
#137=EDGE_CURVE('',#155,#159,#260,.T.);
#138=PRESENTATION_STYLE_ASSIGNMENT((#261));
#139=VERTEX_POINT('',#262);
#140=PRESENTATION_STYLE_ASSIGNMENT((#263));
#141=EDGE_CURVE('',#83,#155,#264,.T.);
#142=PRESENTATION_STYLE_ASSIGNMENT((#265));
#143=EDGE_CURVE('',#93,#169,#266,.T.);
#144=PRESENTATION_STYLE_ASSIGNMENT((#267));
#145=EDGE_CURVE('',#151,#139,#268,.T.);
#146=PRESENTATION_STYLE_ASSIGNMENT((#269));
#147=MANIFOLD_SOLID_BREP('2',#270);
#148=PRESENTATION_STYLE_ASSIGNMENT((#271));
#149=EDGE_CURVE('',#85,#83,#272,.T.);
#150=PRESENTATION_STYLE_ASSIGNMENT((#273));
#151=VERTEX_POINT('',#274);
#152=PRESENTATION_STYLE_ASSIGNMENT((#275));
#153=ADVANCED_FACE('',(#276),#277,.T.);
#154=PRESENTATION_STYLE_ASSIGNMENT((#278));
#155=VERTEX_POINT('',#279);
#156=PRESENTATION_STYLE_ASSIGNMENT((#280));
#157=ADVANCED_FACE('',(#281),#282,.T.);
#158=PRESENTATION_STYLE_ASSIGNMENT((#283));
#159=VERTEX_POINT('',#284);
#160=PRESENTATION_STYLE_ASSIGNMENT((#285));
#161=VERTEX_POINT('',#286);
#162=PRESENTATION_STYLE_ASSIGNMENT((#287));
#163=EDGE_CURVE('',#107,#155,#288,.T.);
#164=PRESENTATION_STYLE_ASSIGNMENT((#289));
#165=EDGE_CURVE('',#109,#135,#290,.T.);
#166=PRESENTATION_STYLE_ASSIGNMENT((#291));
#167=ADVANCED_FACE('',(#292),#293,.T.);
#168=PRESENTATION_STYLE_ASSIGNMENT((#294));
#169=VERTEX_POINT('',#295);
#170=PRESENTATION_STYLE_ASSIGNMENT((#296));
#171=EDGE_CURVE('',#161,#107,#297,.T.);
#172=PRESENTATION_STYLE_ASSIGNMENT((#298));
#173=EDGE_CURVE('',#135,#101,#299,.T.);
#174=PRESENTATION_STYLE_ASSIGNMENT((#300));
#175=EDGE_CURVE('',#151,#101,#301,.T.);
#176=PRODUCT('1','1','PART-1-DESC',(#302));
#177=PRODUCT_DEFINITION('NONE','NONE',#303,#2);
#178=AXIS2_PLACEMENT_3D('',#304,#305,#306);
#179=PRODUCT('2','2','PART-2-DESC',(#307));
#180=PRODUCT_DEFINITION('NONE','NONE',#308,#6);
#181=AXIS2_PLACEMENT_3D('',#309,#310,#311);
#184=LENGTH_MEASURE_WITH_UNIT(LENGTH_MEASURE(1.0),#312);
#187=DIMENSIONAL_EXPONENTS(1.0,0.0,0.0,0.0,0.0,0.0,0.0);
#189=DIMENSIONAL_EXPONENTS(0.0,0.0,0.0,0.0,0.0,0.0,0.0);
#195=SURFACE_STYLE_USAGE(.BOTH.,#313);
#196=FACE_OUTER_BOUND('',#314,.T.);
#197=CYLINDRICAL_SURFACE('',#315,5.0);
#198=POINT_STYLE(' ',#316,POSITIVE_LENGTH_MEASURE(1.0E-006),#317);
#199=CARTESIAN_POINT('',(5.0,6.12303176911189E-016,-85.0));
#200=POINT_STYLE(' ',#318,POSITIVE_LENGTH_MEASURE(1.0E-006),#319);
#201=CARTESIAN_POINT('',(-5.0,0.0,-85.0));
#202=CURVE_STYLE('',#320,POSITIVE_LENGTH_MEASURE(1.0E-006),#321);
#203=CIRCLE('',#322,5.0);
#204=SURFACE_STYLE_USAGE(.BOTH.,#323);
#205=FACE_OUTER_BOUND('',#324,.T.);
#206=SPHERICAL_SURFACE('',#325,5.00000000000002);
#207=CURVE_STYLE('',#326,POSITIVE_LENGTH_MEASURE(1.0E-006),#327);
#208=LINE('',#328,#329);
#209=POINT_STYLE(' ',#330,POSITIVE_LENGTH_MEASURE(1.0E-006),#331);
#210=CARTESIAN_POINT('',(0.0,4.5,0.0));
#211=CURVE_STYLE('',#332,POSITIVE_LENGTH_MEASURE(1.0E-006),#333);
#212=CIRCLE('',#334,5.0);
#213=SURFACE_STYLE_USAGE(.BOTH.,#335);
#214=FACE_OUTER_BOUND('',#336,.T.);
#215=SPHERICAL_SURFACE('',#337,5.00000000000002);
#216=SURFACE_STYLE_USAGE(.BOTH.,#338);
#217=FACE_OUTER_BOUND('',#339,.T.);
#218=PLANE('',#340);
#219=POINT_STYLE(' ',#341,POSITIVE_LENGTH_MEASURE(1.0E-006),#342);
#220=CARTESIAN_POINT('',(-2.5,-4.33012701892219,-85.0));
#221=POINT_STYLE(' ',#343,POSITIVE_LENGTH_MEASURE(1.0E-006),#344);
#222=CARTESIAN_POINT('',(1.7402702977483E-030,5.0,-95.0));
#223=CURVE_STYLE('',#345,POSITIVE_LENGTH_MEASURE(1.0E-006),#346);
#224=CIRCLE('',#347,5.0);
#225=POINT_STYLE(' ',#348,POSITIVE_LENGTH_MEASURE(1.0E-006),#349);
#226=CARTESIAN_POINT('',(0.0,5.0,-0.5));
#227=POINT_STYLE(' ',#350,POSITIVE_LENGTH_MEASURE(1.0E-006),#351);
#228=CARTESIAN_POINT('',(1.7402702977483E-030,-5.0,-95.0));
#229=CURVE_STYLE('',#352,POSITIVE_LENGTH_MEASURE(1.0E-006),#353);
#230=CIRCLE('',#354,4.5);
#231=SURFACE_STYLE_USAGE(.BOTH.,#355);
#232=CLOSED_SHELL('',(#167,#127,#133,#119,#131,#157));
#233=CURVE_STYLE('',#356,POSITIVE_LENGTH_MEASURE(1.0E-006),#357);
#234=LINE('',#358,#359);
#235=CURVE_STYLE('',#360,POSITIVE_LENGTH_MEASURE(1.0E-006),#361);
#236=CIRCLE('',#362,5.0);
#237=SURFACE_STYLE_USAGE(.BOTH.,#363);
#238=FACE_OUTER_BOUND('',#364,.T.);
#239=CONICAL_SURFACE('',#365,4.75,0.785398163397448);
#240=CURVE_STYLE('',#366,POSITIVE_LENGTH_MEASURE(1.0E-006),#367);
#241=CIRCLE('',#368,5.00000000000002);
#242=CURVE_STYLE('',#369,POSITIVE_LENGTH_MEASURE(1.0E-006),#370);
#243=CIRCLE('',#371,5.0);
#244=CURVE_STYLE('',#372,POSITIVE_LENGTH_MEASURE(1.0E-006),#373);
#245=CIRCLE('',#374,5.0);
#246=SURFACE_STYLE_USAGE(.BOTH.,#375);
#247=FACE_OUTER_BOUND('',#376,.T.);
#248=CONICAL_SURFACE('',#377,4.75,0.785398163397448);
#249=CURVE_STYLE('',#378,POSITIVE_LENGTH_MEASURE(1.0E-006),#379);
#250=LINE('',#380,#381);
#251=SURFACE_STYLE_USAGE(.BOTH.,#382);
#252=FACE_OUTER_BOUND('',#383,.T.);
#253=CYLINDRICAL_SURFACE('',#384,5.0);
#254=SURFACE_STYLE_USAGE(.BOTH.,#385);
#255=FACE_OUTER_BOUND('',#386,.T.);
#256=PLANE('',#387);
#257=POINT_STYLE(' ',#388,POSITIVE_LENGTH_MEASURE(1.0E-006),#389);
#258=CARTESIAN_POINT('',(-2.5,-4.33012701892219,-95.0));
#259=CURVE_STYLE('',#390,POSITIVE_LENGTH_MEASURE(1.0E-006),#391);
#260=CIRCLE('',#392,5.0);
#261=POINT_STYLE(' ',#393,POSITIVE_LENGTH_MEASURE(1.0E-006),#394);
#262=CARTESIAN_POINT('',(2.5,4.33012701892219,-95.0));
#263=CURVE_STYLE('',#395,POSITIVE_LENGTH_MEASURE(1.0E-006),#396);
#264=LINE('',#397,#398);
#265=CURVE_STYLE('',#399,POSITIVE_LENGTH_MEASURE(1.0E-006),#400);
#266=CIRCLE('',#401,4.5);
#267=CURVE_STYLE('',#402,POSITIVE_LENGTH_MEASURE(1.0E-006),#403);
#268=LINE('',#404,#405);
#269=SURFACE_STYLE_USAGE(.BOTH.,#406);
#270=CLOSED_SHELL('',(#153,#97,#89,#99,#81));
#271=CURVE_STYLE('',#407,POSITIVE_LENGTH_MEASURE(1.0E-006),#408);
#272=CIRCLE('',#409,5.0);
#273=POINT_STYLE(' ',#410,POSITIVE_LENGTH_MEASURE(1.0E-006),#411);
#274=CARTESIAN_POINT('',(2.5,4.33012701892219,-85.0));
#275=SURFACE_STYLE_USAGE(.BOTH.,#412);
#276=FACE_OUTER_BOUND('',#413,.T.);
#277=CYLINDRICAL_SURFACE('',#414,5.0);
#278=POINT_STYLE(' ',#415,POSITIVE_LENGTH_MEASURE(1.0E-006),#416);
#279=CARTESIAN_POINT('',(5.0,6.12303176911189E-016,-0.5));
#280=SURFACE_STYLE_USAGE(.BOTH.,#417);
#281=FACE_OUTER_BOUND('',#418,.T.);
#282=PLANE('',#419);
#283=POINT_STYLE(' ',#420,POSITIVE_LENGTH_MEASURE(1.0E-006),#421);
#284=CARTESIAN_POINT('',(6.12303176911189E-016,-5.0,-0.5));
#285=POINT_STYLE(' ',#422,POSITIVE_LENGTH_MEASURE(1.0E-006),#423);
#286=CARTESIAN_POINT('',(-5.0,-6.12303176911189E-016,-0.5));
#287=CURVE_STYLE('',#424,POSITIVE_LENGTH_MEASURE(1.0E-006),#425);
#288=CIRCLE('',#426,5.0);
#289=CURVE_STYLE('',#427,POSITIVE_LENGTH_MEASURE(1.0E-006),#428);
#290=CIRCLE('',#429,5.0);
#291=SURFACE_STYLE_USAGE(.BOTH.,#430);
#292=FACE_OUTER_BOUND('',#431,.T.);
#293=CYLINDRICAL_SURFACE('',#432,5.0);
#294=POINT_STYLE(' ',#433,POSITIVE_LENGTH_MEASURE(1.0E-006),#434);
#295=CARTESIAN_POINT('',(5.5107285922007E-016,-4.5,0.0));
#296=CURVE_STYLE('',#435,POSITIVE_LENGTH_MEASURE(1.0E-006),#436);
#297=CIRCLE('',#437,5.0);
#298=CURVE_STYLE('',#438,POSITIVE_LENGTH_MEASURE(1.0E-006),#439);
#299=LINE('',#440,#441);
#300=CURVE_STYLE('',#442,POSITIVE_LENGTH_MEASURE(1.0E-006),#443);
#301=CIRCLE('',#444,5.0);
#302=PRODUCT_CONTEXT('',#62,'mechanical');
#303=PRODUCT_DEFINITION_FORMATION_WITH_SPECIFIED_SOURCE(' ','NONE',#176,.NOT_KNOWN.);
#304=CARTESIAN_POINT('',(0.0,0.0,0.0));
#305=DIRECTION('',(0.0,0.0,1.0));
#306=DIRECTION('',(1.0,0.0,0.0));
#307=PRODUCT_CONTEXT('',#67,'mechanical');
#308=PRODUCT_DEFINITION_FORMATION_WITH_SPECIFIED_SOURCE(' ','NONE',#179,.NOT_KNOWN.);
#309=CARTESIAN_POINT('',(0.0,0.0,0.0));
#310=DIRECTION('',(0.0,0.0,1.0));
#311=DIRECTION('',(1.0,0.0,0.0));
#312= (NAMED_UNIT(#187)LENGTH_UNIT()SI_UNIT(.MILLI.,.METRE.));
#313=SURFACE_SIDE_STYLE('',(#446));
#314=EDGE_LOOP('',(#447,#448,#449,#450,#451));
#315=AXIS2_PLACEMENT_3D('',#452,#453,#454);
#316=PRE_DEFINED_MARKER('');
#317=COLOUR_RGB('',0.498039215803146,0.498039215803146,0.498039215803146);
#318=PRE_DEFINED_MARKER('');
#319=COLOUR_RGB('',0.498039215803146,0.498039215803146,0.498039215803146);
#320=DRAUGHTING_PRE_DEFINED_CURVE_FONT('continuous');
#321=COLOUR_RGB('',0.498039215803146,0.498039215803146,0.498039215803146);
#322=AXIS2_PLACEMENT_3D('',#455,#456,#457);
#323=SURFACE_SIDE_STYLE('',(#458));
#324=EDGE_LOOP('',(#459,#460,#461));
#325=AXIS2_PLACEMENT_3D('',#462,#463,#464);
#326=DRAUGHTING_PRE_DEFINED_CURVE_FONT('continuous');
#327=COLOUR_RGB('',0.498039215803146,0.498039215803146,0.498039215803146);
#328=CARTESIAN_POINT('',(-5.0,-6.12303176911189E-016,-62.5));
#329=VECTOR('',#465,1.0);
#330=PRE_DEFINED_MARKER('');
#331=COLOUR_RGB('',0.498039215803146,0.498039215803146,0.498039215803146);
#332=DRAUGHTING_PRE_DEFINED_CURVE_FONT('continuous');
#333=COLOUR_RGB('',0.498039215803146,0.498039215803146,0.498039215803146);
#334=AXIS2_PLACEMENT_3D('',#466,#467,#468);
#335=SURFACE_SIDE_STYLE('',(#469));
#336=EDGE_LOOP('',(#470,#471,#472));
#337=AXIS2_PLACEMENT_3D('',#473,#474,#475);
#338=SURFACE_SIDE_STYLE('',(#476));
#339=EDGE_LOOP('',(#477,#478));
#340=AXIS2_PLACEMENT_3D('',#479,#480,#481);
#341=PRE_DEFINED_MARKER('');
#342=COLOUR_RGB('',0.800000011920929,0.800000011920929,0.800000011920929);
#343=PRE_DEFINED_MARKER('');
#344=COLOUR_RGB('',0.800000011920929,0.800000011920929,0.800000011920929);
#345=DRAUGHTING_PRE_DEFINED_CURVE_FONT('continuous');
#346=COLOUR_RGB('',0.800000011920929,0.800000011920929,0.800000011920929);
#347=AXIS2_PLACEMENT_3D('',#482,#483,#484);
#348=PRE_DEFINED_MARKER('');
#349=COLOUR_RGB('',0.498039215803146,0.498039215803146,0.498039215803146);
#350=PRE_DEFINED_MARKER('');
#351=COLOUR_RGB('',0.800000011920929,0.800000011920929,0.800000011920929);
#352=DRAUGHTING_PRE_DEFINED_CURVE_FONT('continuous');
#353=COLOUR_RGB('',0.498039215803146,0.498039215803146,0.498039215803146);
#354=AXIS2_PLACEMENT_3D('',#485,#486,#487);
#355=SURFACE_SIDE_STYLE('',(#488));
#356=DRAUGHTING_PRE_DEFINED_CURVE_FONT('continuous');
#357=COLOUR_RGB('',0.498039215803146,0.498039215803146,0.498039215803146);
#358=CARTESIAN_POINT('',(5.81688018065629E-016,-4.75,-0.25));
#359=VECTOR('',#489,1.0);
#360=DRAUGHTING_PRE_DEFINED_CURVE_FONT('continuous');
#361=COLOUR_RGB('',0.800000011920929,0.800000011920929,0.800000011920929);
#362=AXIS2_PLACEMENT_3D('',#490,#491,#492);
#363=SURFACE_SIDE_STYLE('',(#493));
#364=EDGE_LOOP('',(#494,#495,#496,#497,#498));
#365=AXIS2_PLACEMENT_3D('',#499,#500,#501);
#366=DRAUGHTING_PRE_DEFINED_CURVE_FONT('continuous');
#367=COLOUR_RGB('',0.800000011920929,0.800000011920929,0.800000011920929);
#368=AXIS2_PLACEMENT_3D('',#502,#503,#504);
#369=DRAUGHTING_PRE_DEFINED_CURVE_FONT('continuous');
#370=COLOUR_RGB('',0.800000011920929,0.800000011920929,0.800000011920929);
#371=AXIS2_PLACEMENT_3D('',#505,#506,#507);
#372=DRAUGHTING_PRE_DEFINED_CURVE_FONT('continuous');
#373=COLOUR_RGB('',0.800000011920929,0.800000011920929,0.800000011920929);
#374=AXIS2_PLACEMENT_3D('',#508,#509,#510);
#375=SURFACE_SIDE_STYLE('',(#511));
#376=EDGE_LOOP('',(#512,#513,#514,#515,#516));
#377=AXIS2_PLACEMENT_3D('',#517,#518,#519);
#378=DRAUGHTING_PRE_DEFINED_CURVE_FONT('continuous');
#379=COLOUR_RGB('',0.498039215803146,0.498039215803146,0.498039215803146);
#380=CARTESIAN_POINT('',(-5.81688018065629E-016,4.75,-0.25));
#381=VECTOR('',#520,1.0);
#382=SURFACE_SIDE_STYLE('',(#521));
#383=EDGE_LOOP('',(#522,#523,#524,#525,#526));
#384=AXIS2_PLACEMENT_3D('',#527,#528,#529);
#385=SURFACE_SIDE_STYLE('',(#530));
#386=EDGE_LOOP('',(#531,#532));
#387=AXIS2_PLACEMENT_3D('',#533,#534,#535);
#388=PRE_DEFINED_MARKER('');
#389=COLOUR_RGB('',0.800000011920929,0.800000011920929,0.800000011920929);
#390=DRAUGHTING_PRE_DEFINED_CURVE_FONT('continuous');
#391=COLOUR_RGB('',0.498039215803146,0.498039215803146,0.498039215803146);
#392=AXIS2_PLACEMENT_3D('',#536,#537,#538);
#393=PRE_DEFINED_MARKER('');
#394=COLOUR_RGB('',0.800000011920929,0.800000011920929,0.800000011920929);
#395=DRAUGHTING_PRE_DEFINED_CURVE_FONT('continuous');
#396=COLOUR_RGB('',0.498039215803146,0.498039215803146,0.498039215803146);
#397=CARTESIAN_POINT('',(5.0,6.12303176911189E-016,-62.5));
#398=VECTOR('',#539,1.0);
#399=DRAUGHTING_PRE_DEFINED_CURVE_FONT('continuous');
#400=COLOUR_RGB('',0.498039215803146,0.498039215803146,0.498039215803146);
#401=AXIS2_PLACEMENT_3D('',#540,#541,#542);
#402=DRAUGHTING_PRE_DEFINED_CURVE_FONT('continuous');
#403=COLOUR_RGB('',0.800000011920929,0.800000011920929,0.800000011920929);
#404=CARTESIAN_POINT('',(2.5,4.33012701892219,-90.0));
#405=VECTOR('',#543,1.0);
#406=SURFACE_SIDE_STYLE('',(#544));
#407=DRAUGHTING_PRE_DEFINED_CURVE_FONT('continuous');
#408=COLOUR_RGB('',0.498039215803146,0.498039215803146,0.498039215803146);
#409=AXIS2_PLACEMENT_3D('',#545,#546,#547);
#410=PRE_DEFINED_MARKER('');
#411=COLOUR_RGB('',0.800000011920929,0.800000011920929,0.800000011920929);
#412=SURFACE_SIDE_STYLE('',(#548));
#413=EDGE_LOOP('',(#549,#550,#551,#552,#553));
#414=AXIS2_PLACEMENT_3D('',#554,#555,#556);
#415=PRE_DEFINED_MARKER('');
#416=COLOUR_RGB('',0.498039215803146,0.498039215803146,0.498039215803146);
#417=SURFACE_SIDE_STYLE('',(#557));
#418=EDGE_LOOP('',(#558,#559));
#419=AXIS2_PLACEMENT_3D('',#560,#561,#562);
#420=PRE_DEFINED_MARKER('');
#421=COLOUR_RGB('',0.498039215803146,0.498039215803146,0.498039215803146);
#422=PRE_DEFINED_MARKER('');
#423=COLOUR_RGB('',0.498039215803146,0.498039215803146,0.498039215803146);
#424=DRAUGHTING_PRE_DEFINED_CURVE_FONT('continuous');
#425=COLOUR_RGB('',0.498039215803146,0.498039215803146,0.498039215803146);
#426=AXIS2_PLACEMENT_3D('',#563,#564,#565);
#427=DRAUGHTING_PRE_DEFINED_CURVE_FONT('continuous');
#428=COLOUR_RGB('',0.800000011920929,0.800000011920929,0.800000011920929);
#429=AXIS2_PLACEMENT_3D('',#566,#567,#568);
#430=SURFACE_SIDE_STYLE('',(#569));
#431=EDGE_LOOP('',(#570,#571,#572,#573,#574));
#432=AXIS2_PLACEMENT_3D('',#575,#576,#577);
#433=PRE_DEFINED_MARKER('');
#434=COLOUR_RGB('',0.498039215803146,0.498039215803146,0.498039215803146);
#435=DRAUGHTING_PRE_DEFINED_CURVE_FONT('continuous');
#436=COLOUR_RGB('',0.498039215803146,0.498039215803146,0.498039215803146);
#437=AXIS2_PLACEMENT_3D('',#578,#579,#580);
#438=DRAUGHTING_PRE_DEFINED_CURVE_FONT('continuous');
#439=COLOUR_RGB('',0.800000011920929,0.800000011920929,0.800000011920929);
#440=CARTESIAN_POINT('',(-2.5,-4.33012701892219,-90.0));
#441=VECTOR('',#581,1.0);
#442=DRAUGHTING_PRE_DEFINED_CURVE_FONT('continuous');
#443=COLOUR_RGB('',0.800000011920929,0.800000011920929,0.800000011920929);
#444=AXIS2_PLACEMENT_3D('',#582,#583,#584);
#446=SURFACE_STYLE_FILL_AREA(#585);
#447=ORIENTED_EDGE('',*,*,#145,.T.);
#448=ORIENTED_EDGE('',*,*,#123,.F.);
#449=ORIENTED_EDGE('',*,*,#105,.F.);
#450=ORIENTED_EDGE('',*,*,#173,.T.);
#451=ORIENTED_EDGE('',*,*,#125,.T.);
#452=CARTESIAN_POINT('',(0.0,0.0,-90.0));
#453=DIRECTION('',(-0.0,-0.0,1.0));
#454=DIRECTION('',(0.5,0.866025403784439,0.0));
#455=CARTESIAN_POINT('',(0.0,0.0,-0.5));
#456=DIRECTION('',(0.0,0.0,-1.0));
#457=DIRECTION('',(0.0,1.0,0.0));
#458=SURFACE_STYLE_FILL_AREA(#586);
#459=ORIENTED_EDGE('',*,*,#121,.T.);
#460=ORIENTED_EDGE('',*,*,#123,.T.);
#461=ORIENTED_EDGE('',*,*,#117,.T.);
#462=CARTESIAN_POINT('',(0.0,0.0,-95.0));
#463=DIRECTION('',(0.0,1.0,0.0));
#464=DIRECTION('',(0.0,0.0,-1.0));
#465=DIRECTION('',(0.0,0.0,-1.0));
#466=CARTESIAN_POINT('',(0.0,0.0,-85.0));
#467=DIRECTION('',(0.0,0.0,-1.0));
#468=DIRECTION('',(-1.0,0.0,0.0));
#469=SURFACE_STYLE_FILL_AREA(#587);
#470=ORIENTED_EDGE('',*,*,#121,.F.);
#471=ORIENTED_EDGE('',*,*,#165,.T.);
#472=ORIENTED_EDGE('',*,*,#105,.T.);
#473=CARTESIAN_POINT('',(0.0,0.0,-95.0));
#474=DIRECTION('',(0.0,1.0,0.0));
#475=DIRECTION('',(0.0,0.0,-1.0));
#476=SURFACE_STYLE_FILL_AREA(#588);
#477=ORIENTED_EDGE('',*,*,#175,.F.);
#478=ORIENTED_EDGE('',*,*,#125,.F.);
#479=CARTESIAN_POINT('',(1.25,2.1650635094611,-85.0));
#480=DIRECTION('',(0.0,0.0,1.0));
#481=DIRECTION('',(-0.5,-0.866025403784439,0.0));
#482=CARTESIAN_POINT('',(0.0,0.0,-95.0));
#483=DIRECTION('',(0.0,0.0,-1.0));
#484=DIRECTION('',(0.5,0.866025403784439,0.0));
#485=CARTESIAN_POINT('',(0.0,0.0,0.0));
#486=DIRECTION('',(0.0,0.0,-1.0));
#487=DIRECTION('',(0.0,1.0,0.0));
#488=SURFACE_STYLE_FILL_AREA(#589);
#489=DIRECTION('',(-8.65927457071936E-017,0.707106781186548,0.707106781186548));
#490=CARTESIAN_POINT('',(0.0,0.0,-95.0));
#491=DIRECTION('',(0.0,0.0,-1.0));
#492=DIRECTION('',(0.5,0.866025403784439,0.0));
#493=SURFACE_STYLE_FILL_AREA(#590);
#494=ORIENTED_EDGE('',*,*,#129,.T.);
#495=ORIENTED_EDGE('',*,*,#171,.F.);
#496=ORIENTED_EDGE('',*,*,#87,.F.);
#497=ORIENTED_EDGE('',*,*,#115,.T.);
#498=ORIENTED_EDGE('',*,*,#111,.T.);
#499=CARTESIAN_POINT('',(0.0,0.0,-0.25));
#500=DIRECTION('',(0.0,-0.0,-1.0));
#501=DIRECTION('',(0.0,1.0,0.0));
#502=CARTESIAN_POINT('',(0.0,0.0,-95.0));
#503=DIRECTION('',(1.0,0.0,1.22460635382238E-016));
#504=DIRECTION('',(-1.22460635382238E-016,0.0,1.0));
#505=CARTESIAN_POINT('',(0.0,0.0,-95.0));
#506=DIRECTION('',(0.0,0.0,-1.0));
#507=DIRECTION('',(0.5,0.866025403784439,0.0));
#508=CARTESIAN_POINT('',(0.0,0.0,-85.0));
#509=DIRECTION('',(0.0,0.0,-1.0));
#510=DIRECTION('',(0.5,0.866025403784439,0.0));
#511=SURFACE_STYLE_FILL_AREA(#591);
#512=ORIENTED_EDGE('',*,*,#129,.F.);
#513=ORIENTED_EDGE('',*,*,#143,.T.);
#514=ORIENTED_EDGE('',*,*,#115,.F.);
#515=ORIENTED_EDGE('',*,*,#137,.F.);
#516=ORIENTED_EDGE('',*,*,#163,.F.);
#517=CARTESIAN_POINT('',(0.0,0.0,-0.25));
#518=DIRECTION('',(0.0,-0.0,-1.0));
#519=DIRECTION('',(0.0,1.0,0.0));
#520=DIRECTION('',(-8.65927457071936E-017,0.707106781186548,-0.707106781186548));
#521=SURFACE_STYLE_FILL_AREA(#592);
#522=ORIENTED_EDGE('',*,*,#91,.T.);
#523=ORIENTED_EDGE('',*,*,#95,.F.);
#524=ORIENTED_EDGE('',*,*,#141,.T.);
#525=ORIENTED_EDGE('',*,*,#137,.T.);
#526=ORIENTED_EDGE('',*,*,#87,.T.);
#527=CARTESIAN_POINT('',(0.0,0.0,-62.5));
#528=DIRECTION('',(-0.0,-0.0,1.0));
#529=DIRECTION('',(-1.0,0.0,0.0));
#530=SURFACE_STYLE_FILL_AREA(#593);
#531=ORIENTED_EDGE('',*,*,#143,.F.);
#532=ORIENTED_EDGE('',*,*,#111,.F.);
#533=CARTESIAN_POINT('',(0.0,2.25,0.0));
#534=DIRECTION('',(-0.0,0.0,1.0));
#535=DIRECTION('',(0.0,-1.0,0.0));
#536=CARTESIAN_POINT('',(0.0,0.0,-0.5));
#537=DIRECTION('',(0.0,0.0,-1.0));
#538=DIRECTION('',(0.0,1.0,0.0));
#539=DIRECTION('',(-0.0,-0.0,1.0));
#540=CARTESIAN_POINT('',(0.0,0.0,0.0));
#541=DIRECTION('',(0.0,0.0,-1.0));
#542=DIRECTION('',(0.0,1.0,0.0));
#543=DIRECTION('',(0.0,0.0,-1.0));
#544=SURFACE_STYLE_FILL_AREA(#594);
#545=CARTESIAN_POINT('',(0.0,0.0,-85.0));
#546=DIRECTION('',(0.0,0.0,-1.0));
#547=DIRECTION('',(-1.0,0.0,0.0));
#548=SURFACE_STYLE_FILL_AREA(#595);
#549=ORIENTED_EDGE('',*,*,#145,.F.);
#550=ORIENTED_EDGE('',*,*,#175,.T.);
#551=ORIENTED_EDGE('',*,*,#173,.F.);
#552=ORIENTED_EDGE('',*,*,#165,.F.);
#553=ORIENTED_EDGE('',*,*,#117,.F.);
#554=CARTESIAN_POINT('',(0.0,0.0,-90.0));
#555=DIRECTION('',(-0.0,-0.0,1.0));
#556=DIRECTION('',(0.5,0.866025403784439,0.0));
#557=SURFACE_STYLE_FILL_AREA(#596);
#558=ORIENTED_EDGE('',*,*,#149,.T.);
#559=ORIENTED_EDGE('',*,*,#95,.T.);
#560=CARTESIAN_POINT('',(-2.5,0.0,-85.0));
#561=DIRECTION('',(0.0,0.0,-1.0));
#562=DIRECTION('',(-1.0,0.0,0.0));
#563=CARTESIAN_POINT('',(0.0,0.0,-0.5));
#564=DIRECTION('',(0.0,0.0,-1.0));
#565=DIRECTION('',(0.0,1.0,0.0));
#566=CARTESIAN_POINT('',(0.0,0.0,-95.0));
#567=DIRECTION('',(0.0,0.0,-1.0));
#568=DIRECTION('',(0.5,0.866025403784439,0.0));
#569=SURFACE_STYLE_FILL_AREA(#597);
#570=ORIENTED_EDGE('',*,*,#91,.F.);
#571=ORIENTED_EDGE('',*,*,#171,.T.);
#572=ORIENTED_EDGE('',*,*,#163,.T.);
#573=ORIENTED_EDGE('',*,*,#141,.F.);
#574=ORIENTED_EDGE('',*,*,#149,.F.);
#575=CARTESIAN_POINT('',(0.0,0.0,-62.5));
#576=DIRECTION('',(-0.0,-0.0,1.0));
#577=DIRECTION('',(-1.0,0.0,0.0));
#578=CARTESIAN_POINT('',(0.0,0.0,-0.5));
#579=DIRECTION('',(0.0,0.0,-1.0));
#580=DIRECTION('',(0.0,1.0,0.0));
#581=DIRECTION('',(-0.0,-0.0,1.0));
#582=CARTESIAN_POINT('',(0.0,0.0,-85.0));
#583=DIRECTION('',(0.0,0.0,-1.0));
#584=DIRECTION('',(0.5,0.866025403784439,0.0));
#585=FILL_AREA_STYLE('',(#598));
#586=FILL_AREA_STYLE('',(#599));
#587=FILL_AREA_STYLE('',(#600));
#588=FILL_AREA_STYLE('',(#601));
#589=FILL_AREA_STYLE('',(#602));
#590=FILL_AREA_STYLE('',(#603));
#591=FILL_AREA_STYLE('',(#604));
#592=FILL_AREA_STYLE('',(#605));
#593=FILL_AREA_STYLE('',(#606));
#594=FILL_AREA_STYLE('',(#607));
#595=FILL_AREA_STYLE('',(#608));
#596=FILL_AREA_STYLE('',(#609));
#597=FILL_AREA_STYLE('',(#610));
#598=FILL_AREA_STYLE_COLOUR('',#611);
#599=FILL_AREA_STYLE_COLOUR('',#612);
#600=FILL_AREA_STYLE_COLOUR('',#613);
#601=FILL_AREA_STYLE_COLOUR('',#614);
#602=FILL_AREA_STYLE_COLOUR('',#615);
#603=FILL_AREA_STYLE_COLOUR('',#616);
#604=FILL_AREA_STYLE_COLOUR('',#617);
#605=FILL_AREA_STYLE_COLOUR('',#618);
#606=FILL_AREA_STYLE_COLOUR('',#619);
#607=FILL_AREA_STYLE_COLOUR('',#620);
#608=FILL_AREA_STYLE_COLOUR('',#621);
#609=FILL_AREA_STYLE_COLOUR('',#622);
#610=FILL_AREA_STYLE_COLOUR('',#623);
#611=COLOUR_RGB('',0.800000011920929,0.800000011920929,0.800000011920929);
#612=COLOUR_RGB('',0.800000011920929,0.800000011920929,0.800000011920929);
#613=COLOUR_RGB('',0.800000011920929,0.800000011920929,0.800000011920929);
#614=COLOUR_RGB('',0.800000011920929,0.800000011920929,0.800000011920929);
#615=COLOUR_RGB('',0.498039215803146,0.498039215803146,0.498039215803146);
#616=COLOUR_RGB('',0.498039215803146,0.498039215803146,0.498039215803146);
#617=COLOUR_RGB('',0.498039215803146,0.498039215803146,0.498039215803146);
#618=COLOUR_RGB('',0.498039215803146,0.498039215803146,0.498039215803146);
#619=COLOUR_RGB('',0.498039215803146,0.498039215803146,0.498039215803146);
#620=COLOUR_RGB('',0.800000011920929,0.800000011920929,0.800000011920929);
#621=COLOUR_RGB('',0.800000011920929,0.800000011920929,0.800000011920929);
#622=COLOUR_RGB('',0.498039215803146,0.498039215803146,0.498039215803146);
#623=COLOUR_RGB('',0.498039215803146,0.498039215803146,0.498039215803146);
#624=AXIS2_PLACEMENT_3D('PCS',#625,#626,#627);
#625=CARTESIAN_POINT('',(0.0,0.0,0.0));
#626=DIRECTION('',(0.0,0.0,1.0));
#627=DIRECTION('',(1.0,0.0,0.0));
#628=AXIS2_PLACEMENT_3D('MCS',#629,#630,#631);
#629=CARTESIAN_POINT('',(0.0,0.0,-40.0));
#630=DIRECTION('',(0.0,0.0,1.0));
#631=DIRECTION('',(1.0,0.0,0.0));
#632=AXIS2_PLACEMENT_3D('CIP',#633,#634,#635);
#633=CARTESIAN_POINT('',(0.0,0.0,-100.0));
#634=DIRECTION('',(0.0,0.0,1.0));
#635=DIRECTION('',(1.0,0.0,0.0));
#636=CONSTRUCTIVE_GEOMETRY_REPRESENTATION_RELATIONSHIP('coordinate systems',$,#66,#637);
#637=CONSTRUCTIVE_GEOMETRY_REPRESENTATION('coordinate systems',(#624,#628,#632),#10);
ENDSEC;
END-ISO-10303-21;
