ISO-10303-21;
HEADER;
FILE_DESCRIPTION(('no description'),'unknown implementation level');
FILE_NAME('3106660.stp','  ',('CIM GmbH Aachen'),('CADClick - KiM GmbH - www.kimweb.de'),'unknown preprocess','ACIS','unknown authorization');
FILE_SCHEMA(('automotive_design'));
ENDSEC;
DATA;
#1=MECHANICAL_DESIGN_GEOMETRIC_PRESENTATION_REPRESENTATION(' ',(#14,#15,#16,#17,#18,#19,#20,#21,#22,#23,#24,#25,#26,#27,#28,#29,#30,#31,#32,#33,#34,#35,#36,#37,#38,#39,#40,#41,#42,#43,#44,#45,#46,#47,#48,#49,#50,#51,#52,#53,#54,#55,#56,#57,#58,#59,#60,#61),#10);
#2=PRODUCT_DEFINITION_CONTEXT('',#62,'design');
#3=APPLICATION_PROTOCOL_DEFINITION('INTERNATIONAL STANDARD','automotive_design',1994,#62);
#4=PRODUCT_CATEGORY_RELATIONSHIP('NONE','NONE',#63,#64);
#5=SHAPE_DEFINITION_REPRESENTATION(#65,#66);
#6=PRODUCT_DEFINITION_CONTEXT('',#67,'design');
#7=APPLICATION_PROTOCOL_DEFINITION('INTERNATIONAL STANDARD','automotive_design',1994,#67);
#8=PRODUCT_CATEGORY_RELATIONSHIP('NONE','NONE',#68,#69);
#9=SHAPE_DEFINITION_REPRESENTATION(#70,#71);
#10= (GEOMETRIC_REPRESENTATION_CONTEXT(3)GLOBAL_UNCERTAINTY_ASSIGNED_CONTEXT((#74))GLOBAL_UNIT_ASSIGNED_CONTEXT((#76,#77,#78))REPRESENTATION_CONTEXT('NONE','WORKSPACE'));
#14=STYLED_ITEM('',(#80),#81);
#15=STYLED_ITEM('',(#82),#83);
#16=STYLED_ITEM('',(#84),#85);
#17=STYLED_ITEM('',(#86),#87);
#18=STYLED_ITEM('',(#88),#89);
#19=STYLED_ITEM('',(#90),#91);
#20=STYLED_ITEM('',(#92),#93);
#21=STYLED_ITEM('',(#94),#95);
#22=STYLED_ITEM('',(#96),#97);
#23=STYLED_ITEM('',(#98),#99);
#24=STYLED_ITEM('',(#100),#101);
#25=STYLED_ITEM('',(#102),#103);
#26=STYLED_ITEM('',(#104),#105);
#27=STYLED_ITEM('',(#106),#107);
#28=STYLED_ITEM('',(#108),#109);
#29=STYLED_ITEM('',(#110),#111);
#30=STYLED_ITEM('',(#112),#113);
#31=STYLED_ITEM('',(#114),#115);
#32=STYLED_ITEM('',(#116),#117);
#33=STYLED_ITEM('',(#118),#119);
#34=STYLED_ITEM('',(#120),#121);
#35=STYLED_ITEM('',(#122),#123);
#36=STYLED_ITEM('',(#124),#125);
#37=STYLED_ITEM('',(#126),#127);
#38=STYLED_ITEM('',(#128),#129);
#39=STYLED_ITEM('',(#130),#131);
#40=STYLED_ITEM('',(#132),#133);
#41=STYLED_ITEM('',(#134),#135);
#42=STYLED_ITEM('',(#136),#137);
#43=STYLED_ITEM('',(#138),#139);
#44=STYLED_ITEM('',(#140),#141);
#45=STYLED_ITEM('',(#142),#143);
#46=STYLED_ITEM('',(#144),#145);
#47=STYLED_ITEM('',(#146),#147);
#48=STYLED_ITEM('',(#148),#149);
#49=STYLED_ITEM('',(#150),#151);
#50=STYLED_ITEM('',(#152),#153);
#51=STYLED_ITEM('',(#154),#155);
#52=STYLED_ITEM('',(#156),#157);
#53=STYLED_ITEM('',(#158),#159);
#54=STYLED_ITEM('',(#160),#161);
#55=STYLED_ITEM('',(#162),#163);
#56=STYLED_ITEM('',(#164),#165);
#57=STYLED_ITEM('',(#166),#167);
#58=STYLED_ITEM('',(#168),#169);
#59=STYLED_ITEM('',(#170),#171);
#60=STYLED_ITEM('',(#172),#173);
#61=STYLED_ITEM('',(#174),#175);
#62=APPLICATION_CONTEXT(' ');
#63=PRODUCT_CATEGORY('part','NONE');
#64=PRODUCT_RELATED_PRODUCT_CATEGORY('detail',' ',(#176));
#65=PRODUCT_DEFINITION_SHAPE('NONE','NONE',#177);
#66=ADVANCED_BREP_SHAPE_REPRESENTATION('1',(#149,#178),#10);
#67=APPLICATION_CONTEXT(' ');
#68=PRODUCT_CATEGORY('part','NONE');
#69=PRODUCT_RELATED_PRODUCT_CATEGORY('detail',' ',(#179));
#70=PRODUCT_DEFINITION_SHAPE('NONE','NONE',#180);
#71=ADVANCED_BREP_SHAPE_REPRESENTATION('2',(#131,#181),#10);
#74=UNCERTAINTY_MEASURE_WITH_UNIT(LENGTH_MEASURE(1.0E-006),#76,'','');
#76= (CONVERSION_BASED_UNIT('MILLIMETRE',#184)LENGTH_UNIT()NAMED_UNIT(#187));
#77= (NAMED_UNIT(#189)PLANE_ANGLE_UNIT()SI_UNIT($,.RADIAN.));
#78= (NAMED_UNIT(#189)SOLID_ANGLE_UNIT()SI_UNIT($,.STERADIAN.));
#80=PRESENTATION_STYLE_ASSIGNMENT((#195));
#81=VERTEX_POINT('',#196);
#82=PRESENTATION_STYLE_ASSIGNMENT((#197));
#83=EDGE_CURVE('',#81,#95,#198,.T.);
#84=PRESENTATION_STYLE_ASSIGNMENT((#199));
#85=EDGE_CURVE('',#155,#173,#200,.T.);
#86=PRESENTATION_STYLE_ASSIGNMENT((#201));
#87=ADVANCED_FACE('',(#202),#203,.T.);
#88=PRESENTATION_STYLE_ASSIGNMENT((#204));
#89=ADVANCED_FACE('',(#205),#206,.T.);
#90=PRESENTATION_STYLE_ASSIGNMENT((#207));
#91=VERTEX_POINT('',#208);
#92=PRESENTATION_STYLE_ASSIGNMENT((#209));
#93=VERTEX_POINT('',#210);
#94=PRESENTATION_STYLE_ASSIGNMENT((#211));
#95=VERTEX_POINT('',#212);
#96=PRESENTATION_STYLE_ASSIGNMENT((#213));
#97=EDGE_CURVE('',#81,#137,#214,.T.);
#98=PRESENTATION_STYLE_ASSIGNMENT((#215));
#99=EDGE_CURVE('',#93,#91,#216,.T.);
#100=PRESENTATION_STYLE_ASSIGNMENT((#217));
#101=EDGE_CURVE('',#121,#95,#218,.T.);
#102=PRESENTATION_STYLE_ASSIGNMENT((#219));
#103=EDGE_CURVE('',#173,#123,#220,.T.);
#104=PRESENTATION_STYLE_ASSIGNMENT((#221));
#105=EDGE_CURVE('',#123,#121,#222,.T.);
#106=PRESENTATION_STYLE_ASSIGNMENT((#223));
#107=VERTEX_POINT('',#224);
#108=PRESENTATION_STYLE_ASSIGNMENT((#225));
#109=EDGE_CURVE('',#121,#171,#226,.T.);
#110=PRESENTATION_STYLE_ASSIGNMENT((#227));
#111=EDGE_CURVE('',#147,#107,#228,.T.);
#112=PRESENTATION_STYLE_ASSIGNMENT((#229));
#113=ADVANCED_FACE('',(#230),#231,.T.);
#114=PRESENTATION_STYLE_ASSIGNMENT((#232));
#115=EDGE_CURVE('',#155,#171,#233,.T.);
#116=PRESENTATION_STYLE_ASSIGNMENT((#234));
#117=ADVANCED_FACE('',(#235),#236,.T.);
#118=PRESENTATION_STYLE_ASSIGNMENT((#237));
#119=EDGE_CURVE('',#137,#81,#238,.T.);
#120=PRESENTATION_STYLE_ASSIGNMENT((#239));
#121=VERTEX_POINT('',#240);
#122=PRESENTATION_STYLE_ASSIGNMENT((#241));
#123=VERTEX_POINT('',#242);
#124=PRESENTATION_STYLE_ASSIGNMENT((#243));
#125=VERTEX_POINT('',#244);
#126=PRESENTATION_STYLE_ASSIGNMENT((#245));
#127=EDGE_CURVE('',#91,#125,#246,.T.);
#128=PRESENTATION_STYLE_ASSIGNMENT((#247));
#129=EDGE_CURVE('',#125,#151,#248,.T.);
#130=PRESENTATION_STYLE_ASSIGNMENT((#249));
#131=MANIFOLD_SOLID_BREP('2',#250);
#132=PRESENTATION_STYLE_ASSIGNMENT((#251));
#133=ADVANCED_FACE('',(#252),#253,.T.);
#134=PRESENTATION_STYLE_ASSIGNMENT((#254));
#135=ADVANCED_FACE('',(#255),#256,.T.);
#136=PRESENTATION_STYLE_ASSIGNMENT((#257));
#137=VERTEX_POINT('',#258);
#138=PRESENTATION_STYLE_ASSIGNMENT((#259));
#139=EDGE_CURVE('',#171,#155,#260,.T.);
#140=PRESENTATION_STYLE_ASSIGNMENT((#261));
#141=EDGE_CURVE('',#91,#93,#262,.T.);
#142=PRESENTATION_STYLE_ASSIGNMENT((#263));
#143=EDGE_CURVE('',#147,#93,#264,.T.);
#144=PRESENTATION_STYLE_ASSIGNMENT((#265));
#145=EDGE_CURVE('',#107,#125,#266,.T.);
#146=PRESENTATION_STYLE_ASSIGNMENT((#267));
#147=VERTEX_POINT('',#268);
#148=PRESENTATION_STYLE_ASSIGNMENT((#269));
#149=MANIFOLD_SOLID_BREP('1',#270);
#150=PRESENTATION_STYLE_ASSIGNMENT((#271));
#151=VERTEX_POINT('',#272);
#152=PRESENTATION_STYLE_ASSIGNMENT((#273));
#153=ADVANCED_FACE('',(#274),#275,.T.);
#154=PRESENTATION_STYLE_ASSIGNMENT((#276));
#155=VERTEX_POINT('',#277);
#156=PRESENTATION_STYLE_ASSIGNMENT((#278));
#157=ADVANCED_FACE('',(#279),#280,.T.);
#158=PRESENTATION_STYLE_ASSIGNMENT((#281));
#159=EDGE_CURVE('',#95,#173,#282,.T.);
#160=PRESENTATION_STYLE_ASSIGNMENT((#283));
#161=EDGE_CURVE('',#123,#137,#284,.T.);
#162=PRESENTATION_STYLE_ASSIGNMENT((#285));
#163=ADVANCED_FACE('',(#286),#287,.T.);
#164=PRESENTATION_STYLE_ASSIGNMENT((#288));
#165=ADVANCED_FACE('',(#289),#290,.T.);
#166=PRESENTATION_STYLE_ASSIGNMENT((#291));
#167=EDGE_CURVE('',#151,#107,#292,.T.);
#168=PRESENTATION_STYLE_ASSIGNMENT((#293));
#169=ADVANCED_FACE('',(#294),#295,.T.);
#170=PRESENTATION_STYLE_ASSIGNMENT((#296));
#171=VERTEX_POINT('',#297);
#172=PRESENTATION_STYLE_ASSIGNMENT((#298));
#173=VERTEX_POINT('',#299);
#174=PRESENTATION_STYLE_ASSIGNMENT((#300));
#175=EDGE_CURVE('',#151,#147,#301,.T.);
#176=PRODUCT('1','1','PART-1-DESC',(#302));
#177=PRODUCT_DEFINITION('NONE','NONE',#303,#2);
#178=AXIS2_PLACEMENT_3D('',#304,#305,#306);
#179=PRODUCT('2','2','PART-2-DESC',(#307));
#180=PRODUCT_DEFINITION('NONE','NONE',#308,#6);
#181=AXIS2_PLACEMENT_3D('',#309,#310,#311);
#184=LENGTH_MEASURE_WITH_UNIT(LENGTH_MEASURE(1.0),#312);
#187=DIMENSIONAL_EXPONENTS(1.0,0.0,0.0,0.0,0.0,0.0,0.0);
#189=DIMENSIONAL_EXPONENTS(0.0,0.0,0.0,0.0,0.0,0.0,0.0);
#195=POINT_STYLE(' ',#313,POSITIVE_LENGTH_MEASURE(1.0E-006),#314);
#196=CARTESIAN_POINT('',(0.0,5.4,0.0));
#197=CURVE_STYLE('',#315,POSITIVE_LENGTH_MEASURE(1.0E-006),#316);
#198=LINE('',#317,#318);
#199=CURVE_STYLE('',#319,POSITIVE_LENGTH_MEASURE(1.0E-006),#320);
#200=LINE('',#321,#322);
#201=SURFACE_STYLE_USAGE(.BOTH.,#323);
#202=FACE_OUTER_BOUND('',#324,.T.);
#203=SPHERICAL_SURFACE('',#325,5.99999999999999);
#204=SURFACE_STYLE_USAGE(.BOTH.,#326);
#205=FACE_OUTER_BOUND('',#327,.T.);
#206=PLANE('',#328);
#207=POINT_STYLE(' ',#329,POSITIVE_LENGTH_MEASURE(1.0E-006),#330);
#208=CARTESIAN_POINT('',(3.0,5.19615242270663,-92.0));
#209=POINT_STYLE(' ',#331,POSITIVE_LENGTH_MEASURE(1.0E-006),#332);
#210=CARTESIAN_POINT('',(-3.0,-5.19615242270663,-92.0));
#211=POINT_STYLE(' ',#333,POSITIVE_LENGTH_MEASURE(1.0E-006),#334);
#212=CARTESIAN_POINT('',(0.0,6.0,-0.600000000000001));
#213=CURVE_STYLE('',#335,POSITIVE_LENGTH_MEASURE(1.0E-006),#336);
#214=CIRCLE('',#337,5.4);
#215=CURVE_STYLE('',#338,POSITIVE_LENGTH_MEASURE(1.0E-006),#339);
#216=CIRCLE('',#340,6.0);
#217=CURVE_STYLE('',#341,POSITIVE_LENGTH_MEASURE(1.0E-006),#342);
#218=CIRCLE('',#343,6.0);
#219=CURVE_STYLE('',#344,POSITIVE_LENGTH_MEASURE(1.0E-006),#345);
#220=CIRCLE('',#346,6.0);
#221=CURVE_STYLE('',#347,POSITIVE_LENGTH_MEASURE(1.0E-006),#348);
#222=CIRCLE('',#349,6.0);
#223=POINT_STYLE(' ',#350,POSITIVE_LENGTH_MEASURE(1.0E-006),#351);
#224=CARTESIAN_POINT('',(-1.74027029774831E-030,6.0,-104.0));
#225=CURVE_STYLE('',#352,POSITIVE_LENGTH_MEASURE(1.0E-006),#353);
#226=LINE('',#354,#355);
#227=CURVE_STYLE('',#356,POSITIVE_LENGTH_MEASURE(1.0E-006),#357);
#228=CIRCLE('',#358,6.0);
#229=SURFACE_STYLE_USAGE(.BOTH.,#359);
#230=FACE_OUTER_BOUND('',#360,.T.);
#231=CONICAL_SURFACE('',#361,5.7,0.785398163397447);
#232=CURVE_STYLE('',#362,POSITIVE_LENGTH_MEASURE(1.0E-006),#363);
#233=CIRCLE('',#364,6.0);
#234=SURFACE_STYLE_USAGE(.BOTH.,#365);
#235=FACE_OUTER_BOUND('',#366,.T.);
#236=SPHERICAL_SURFACE('',#367,5.99999999999999);
#237=CURVE_STYLE('',#368,POSITIVE_LENGTH_MEASURE(1.0E-006),#369);
#238=CIRCLE('',#370,5.4);
#239=POINT_STYLE(' ',#371,POSITIVE_LENGTH_MEASURE(1.0E-006),#372);
#240=CARTESIAN_POINT('',(-6.0,-7.34763812293426E-016,-0.600000000000001));
#241=POINT_STYLE(' ',#373,POSITIVE_LENGTH_MEASURE(1.0E-006),#374);
#242=CARTESIAN_POINT('',(7.34763812293426E-016,-6.0,-0.600000000000001));
#243=POINT_STYLE(' ',#375,POSITIVE_LENGTH_MEASURE(1.0E-006),#376);
#244=CARTESIAN_POINT('',(3.0,5.19615242270663,-104.0));
#245=CURVE_STYLE('',#377,POSITIVE_LENGTH_MEASURE(1.0E-006),#378);
#246=LINE('',#379,#380);
#247=CURVE_STYLE('',#381,POSITIVE_LENGTH_MEASURE(1.0E-006),#382);
#248=CIRCLE('',#383,6.0);
#249=SURFACE_STYLE_USAGE(.BOTH.,#384);
#250=CLOSED_SHELL('',(#165,#117,#87,#89,#169));
#251=SURFACE_STYLE_USAGE(.BOTH.,#385);
#252=FACE_OUTER_BOUND('',#386,.T.);
#253=CYLINDRICAL_SURFACE('',#387,6.0);
#254=SURFACE_STYLE_USAGE(.BOTH.,#388);
#255=FACE_OUTER_BOUND('',#389,.T.);
#256=CONICAL_SURFACE('',#390,5.7,0.785398163397447);
#257=POINT_STYLE(' ',#391,POSITIVE_LENGTH_MEASURE(1.0E-006),#392);
#258=CARTESIAN_POINT('',(6.61287431064084E-016,-5.4,0.0));
#259=CURVE_STYLE('',#393,POSITIVE_LENGTH_MEASURE(1.0E-006),#394);
#260=CIRCLE('',#395,6.0);
#261=CURVE_STYLE('',#396,POSITIVE_LENGTH_MEASURE(1.0E-006),#397);
#262=CIRCLE('',#398,6.0);
#263=CURVE_STYLE('',#399,POSITIVE_LENGTH_MEASURE(1.0E-006),#400);
#264=LINE('',#401,#402);
#265=CURVE_STYLE('',#403,POSITIVE_LENGTH_MEASURE(1.0E-006),#404);
#266=CIRCLE('',#405,6.0);
#267=POINT_STYLE(' ',#406,POSITIVE_LENGTH_MEASURE(1.0E-006),#407);
#268=CARTESIAN_POINT('',(-3.0,-5.19615242270663,-104.0));
#269=SURFACE_STYLE_USAGE(.BOTH.,#408);
#270=CLOSED_SHELL('',(#153,#113,#163,#135,#133,#157));
#271=POINT_STYLE(' ',#409,POSITIVE_LENGTH_MEASURE(1.0E-006),#410);
#272=CARTESIAN_POINT('',(-1.74027029774831E-030,-6.0,-104.0));
#273=SURFACE_STYLE_USAGE(.BOTH.,#411);
#274=FACE_OUTER_BOUND('',#412,.T.);
#275=CYLINDRICAL_SURFACE('',#413,6.0);
#276=POINT_STYLE(' ',#414,POSITIVE_LENGTH_MEASURE(1.0E-006),#415);
#277=CARTESIAN_POINT('',(6.0,7.34763812293426E-016,-92.0));
#278=SURFACE_STYLE_USAGE(.BOTH.,#416);
#279=FACE_OUTER_BOUND('',#417,.T.);
#280=PLANE('',#418);
#281=CURVE_STYLE('',#419,POSITIVE_LENGTH_MEASURE(1.0E-006),#420);
#282=CIRCLE('',#421,6.0);
#283=CURVE_STYLE('',#422,POSITIVE_LENGTH_MEASURE(1.0E-006),#423);
#284=LINE('',#424,#425);
#285=SURFACE_STYLE_USAGE(.BOTH.,#426);
#286=FACE_OUTER_BOUND('',#427,.T.);
#287=PLANE('',#428);
#288=SURFACE_STYLE_USAGE(.BOTH.,#429);
#289=FACE_OUTER_BOUND('',#430,.T.);
#290=CYLINDRICAL_SURFACE('',#431,6.0);
#291=CURVE_STYLE('',#432,POSITIVE_LENGTH_MEASURE(1.0E-006),#433);
#292=CIRCLE('',#434,5.99999999999999);
#293=SURFACE_STYLE_USAGE(.BOTH.,#435);
#294=FACE_OUTER_BOUND('',#436,.T.);
#295=CYLINDRICAL_SURFACE('',#437,6.0);
#296=POINT_STYLE(' ',#438,POSITIVE_LENGTH_MEASURE(1.0E-006),#439);
#297=CARTESIAN_POINT('',(-6.0,0.0,-92.0));
#298=POINT_STYLE(' ',#440,POSITIVE_LENGTH_MEASURE(1.0E-006),#441);
#299=CARTESIAN_POINT('',(6.0,7.34763812293426E-016,-0.600000000000001));
#300=CURVE_STYLE('',#442,POSITIVE_LENGTH_MEASURE(1.0E-006),#443);
#301=CIRCLE('',#444,6.0);
#302=PRODUCT_CONTEXT('',#62,'mechanical');
#303=PRODUCT_DEFINITION_FORMATION_WITH_SPECIFIED_SOURCE(' ','NONE',#176,.NOT_KNOWN.);
#304=CARTESIAN_POINT('',(0.0,0.0,0.0));
#305=DIRECTION('',(0.0,0.0,1.0));
#306=DIRECTION('',(1.0,0.0,0.0));
#307=PRODUCT_CONTEXT('',#67,'mechanical');
#308=PRODUCT_DEFINITION_FORMATION_WITH_SPECIFIED_SOURCE(' ','NONE',#179,.NOT_KNOWN.);
#309=CARTESIAN_POINT('',(0.0,0.0,0.0));
#310=DIRECTION('',(0.0,0.0,1.0));
#311=DIRECTION('',(1.0,0.0,0.0));
#312= (NAMED_UNIT(#187)LENGTH_UNIT()SI_UNIT(.MILLI.,.METRE.));
#313=PRE_DEFINED_MARKER('');
#314=COLOUR_RGB('',0.498039215803146,0.498039215803146,0.498039215803146);
#315=DRAUGHTING_PRE_DEFINED_CURVE_FONT('continuous');
#316=COLOUR_RGB('',0.498039215803146,0.498039215803146,0.498039215803146);
#317=CARTESIAN_POINT('',(-6.98025621678755E-016,5.7,-0.300000000000004));
#318=VECTOR('',#446,1.0);
#319=DRAUGHTING_PRE_DEFINED_CURVE_FONT('continuous');
#320=COLOUR_RGB('',0.498039215803146,0.498039215803146,0.498039215803146);
#321=CARTESIAN_POINT('',(6.0,7.34763812293426E-016,-68.5));
#322=VECTOR('',#447,1.0);
#323=SURFACE_SIDE_STYLE('',(#448));
#324=EDGE_LOOP('',(#449,#450,#451));
#325=AXIS2_PLACEMENT_3D('',#452,#453,#454);
#326=SURFACE_SIDE_STYLE('',(#455));
#327=EDGE_LOOP('',(#456,#457));
#328=AXIS2_PLACEMENT_3D('',#458,#459,#460);
#329=PRE_DEFINED_MARKER('');
#330=COLOUR_RGB('',0.800000011920929,0.800000011920929,0.800000011920929);
#331=PRE_DEFINED_MARKER('');
#332=COLOUR_RGB('',0.800000011920929,0.800000011920929,0.800000011920929);
#333=PRE_DEFINED_MARKER('');
#334=COLOUR_RGB('',0.498039215803146,0.498039215803146,0.498039215803146);
#335=DRAUGHTING_PRE_DEFINED_CURVE_FONT('continuous');
#336=COLOUR_RGB('',0.498039215803146,0.498039215803146,0.498039215803146);
#337=AXIS2_PLACEMENT_3D('',#461,#462,#463);
#338=DRAUGHTING_PRE_DEFINED_CURVE_FONT('continuous');
#339=COLOUR_RGB('',0.800000011920929,0.800000011920929,0.800000011920929);
#340=AXIS2_PLACEMENT_3D('',#464,#465,#466);
#341=DRAUGHTING_PRE_DEFINED_CURVE_FONT('continuous');
#342=COLOUR_RGB('',0.498039215803146,0.498039215803146,0.498039215803146);
#343=AXIS2_PLACEMENT_3D('',#467,#468,#469);
#344=DRAUGHTING_PRE_DEFINED_CURVE_FONT('continuous');
#345=COLOUR_RGB('',0.498039215803146,0.498039215803146,0.498039215803146);
#346=AXIS2_PLACEMENT_3D('',#470,#471,#472);
#347=DRAUGHTING_PRE_DEFINED_CURVE_FONT('continuous');
#348=COLOUR_RGB('',0.498039215803146,0.498039215803146,0.498039215803146);
#349=AXIS2_PLACEMENT_3D('',#473,#474,#475);
#350=PRE_DEFINED_MARKER('');
#351=COLOUR_RGB('',0.800000011920929,0.800000011920929,0.800000011920929);
#352=DRAUGHTING_PRE_DEFINED_CURVE_FONT('continuous');
#353=COLOUR_RGB('',0.498039215803146,0.498039215803146,0.498039215803146);
#354=CARTESIAN_POINT('',(-6.0,-7.34763812293426E-016,-68.5));
#355=VECTOR('',#476,1.0);
#356=DRAUGHTING_PRE_DEFINED_CURVE_FONT('continuous');
#357=COLOUR_RGB('',0.800000011920929,0.800000011920929,0.800000011920929);
#358=AXIS2_PLACEMENT_3D('',#477,#478,#479);
#359=SURFACE_SIDE_STYLE('',(#480));
#360=EDGE_LOOP('',(#481,#482,#483,#484,#485));
#361=AXIS2_PLACEMENT_3D('',#486,#487,#488);
#362=DRAUGHTING_PRE_DEFINED_CURVE_FONT('continuous');
#363=COLOUR_RGB('',0.498039215803146,0.498039215803146,0.498039215803146);
#364=AXIS2_PLACEMENT_3D('',#489,#490,#491);
#365=SURFACE_SIDE_STYLE('',(#492));
#366=EDGE_LOOP('',(#493,#494,#495));
#367=AXIS2_PLACEMENT_3D('',#496,#497,#498);
#368=DRAUGHTING_PRE_DEFINED_CURVE_FONT('continuous');
#369=COLOUR_RGB('',0.498039215803146,0.498039215803146,0.498039215803146);
#370=AXIS2_PLACEMENT_3D('',#499,#500,#501);
#371=PRE_DEFINED_MARKER('');
#372=COLOUR_RGB('',0.498039215803146,0.498039215803146,0.498039215803146);
#373=PRE_DEFINED_MARKER('');
#374=COLOUR_RGB('',0.498039215803146,0.498039215803146,0.498039215803146);
#375=PRE_DEFINED_MARKER('');
#376=COLOUR_RGB('',0.800000011920929,0.800000011920929,0.800000011920929);
#377=DRAUGHTING_PRE_DEFINED_CURVE_FONT('continuous');
#378=COLOUR_RGB('',0.800000011920929,0.800000011920929,0.800000011920929);
#379=CARTESIAN_POINT('',(3.0,5.19615242270663,-98.0));
#380=VECTOR('',#502,1.0);
#381=DRAUGHTING_PRE_DEFINED_CURVE_FONT('continuous');
#382=COLOUR_RGB('',0.800000011920929,0.800000011920929,0.800000011920929);
#383=AXIS2_PLACEMENT_3D('',#503,#504,#505);
#384=SURFACE_SIDE_STYLE('',(#506));
#385=SURFACE_SIDE_STYLE('',(#507));
#386=EDGE_LOOP('',(#508,#509,#510,#511,#512));
#387=AXIS2_PLACEMENT_3D('',#513,#514,#515);
#388=SURFACE_SIDE_STYLE('',(#516));
#389=EDGE_LOOP('',(#517,#518,#519,#520,#521));
#390=AXIS2_PLACEMENT_3D('',#522,#523,#524);
#391=PRE_DEFINED_MARKER('');
#392=COLOUR_RGB('',0.498039215803146,0.498039215803146,0.498039215803146);
#393=DRAUGHTING_PRE_DEFINED_CURVE_FONT('continuous');
#394=COLOUR_RGB('',0.498039215803146,0.498039215803146,0.498039215803146);
#395=AXIS2_PLACEMENT_3D('',#525,#526,#527);
#396=DRAUGHTING_PRE_DEFINED_CURVE_FONT('continuous');
#397=COLOUR_RGB('',0.800000011920929,0.800000011920929,0.800000011920929);
#398=AXIS2_PLACEMENT_3D('',#528,#529,#530);
#399=DRAUGHTING_PRE_DEFINED_CURVE_FONT('continuous');
#400=COLOUR_RGB('',0.800000011920929,0.800000011920929,0.800000011920929);
#401=CARTESIAN_POINT('',(-3.0,-5.19615242270663,-98.0));
#402=VECTOR('',#531,1.0);
#403=DRAUGHTING_PRE_DEFINED_CURVE_FONT('continuous');
#404=COLOUR_RGB('',0.800000011920929,0.800000011920929,0.800000011920929);
#405=AXIS2_PLACEMENT_3D('',#532,#533,#534);
#406=PRE_DEFINED_MARKER('');
#407=COLOUR_RGB('',0.800000011920929,0.800000011920929,0.800000011920929);
#408=SURFACE_SIDE_STYLE('',(#535));
#409=PRE_DEFINED_MARKER('');
#410=COLOUR_RGB('',0.800000011920929,0.800000011920929,0.800000011920929);
#411=SURFACE_SIDE_STYLE('',(#536));
#412=EDGE_LOOP('',(#537,#538,#539,#540,#541));
#413=AXIS2_PLACEMENT_3D('',#542,#543,#544);
#414=PRE_DEFINED_MARKER('');
#415=COLOUR_RGB('',0.498039215803146,0.498039215803146,0.498039215803146);
#416=SURFACE_SIDE_STYLE('',(#545));
#417=EDGE_LOOP('',(#546,#547));
#418=AXIS2_PLACEMENT_3D('',#548,#549,#550);
#419=DRAUGHTING_PRE_DEFINED_CURVE_FONT('continuous');
#420=COLOUR_RGB('',0.498039215803146,0.498039215803146,0.498039215803146);
#421=AXIS2_PLACEMENT_3D('',#551,#552,#553);
#422=DRAUGHTING_PRE_DEFINED_CURVE_FONT('continuous');
#423=COLOUR_RGB('',0.498039215803146,0.498039215803146,0.498039215803146);
#424=CARTESIAN_POINT('',(6.98025621678755E-016,-5.7,-0.300000000000004));
#425=VECTOR('',#554,1.0);
#426=SURFACE_SIDE_STYLE('',(#555));
#427=EDGE_LOOP('',(#556,#557));
#428=AXIS2_PLACEMENT_3D('',#558,#559,#560);
#429=SURFACE_SIDE_STYLE('',(#561));
#430=EDGE_LOOP('',(#562,#563,#564,#565,#566));
#431=AXIS2_PLACEMENT_3D('',#567,#568,#569);
#432=DRAUGHTING_PRE_DEFINED_CURVE_FONT('continuous');
#433=COLOUR_RGB('',0.800000011920929,0.800000011920929,0.800000011920929);
#434=AXIS2_PLACEMENT_3D('',#570,#571,#572);
#435=SURFACE_SIDE_STYLE('',(#573));
#436=EDGE_LOOP('',(#574,#575,#576,#577,#578));
#437=AXIS2_PLACEMENT_3D('',#579,#580,#581);
#438=PRE_DEFINED_MARKER('');
#439=COLOUR_RGB('',0.498039215803146,0.498039215803146,0.498039215803146);
#440=PRE_DEFINED_MARKER('');
#441=COLOUR_RGB('',0.498039215803146,0.498039215803146,0.498039215803146);
#442=DRAUGHTING_PRE_DEFINED_CURVE_FONT('continuous');
#443=COLOUR_RGB('',0.800000011920929,0.800000011920929,0.800000011920929);
#444=AXIS2_PLACEMENT_3D('',#582,#583,#584);
#446=DIRECTION('',(-8.65927457071934E-017,0.707106781186546,-0.707106781186549));
#447=DIRECTION('',(-0.0,-0.0,1.0));
#448=SURFACE_STYLE_FILL_AREA(#585);
#449=ORIENTED_EDGE('',*,*,#167,.T.);
#450=ORIENTED_EDGE('',*,*,#145,.T.);
#451=ORIENTED_EDGE('',*,*,#129,.T.);
#452=CARTESIAN_POINT('',(0.0,0.0,-104.0));
#453=DIRECTION('',(0.0,1.0,0.0));
#454=DIRECTION('',(0.0,0.0,-1.0));
#455=SURFACE_STYLE_FILL_AREA(#586);
#456=ORIENTED_EDGE('',*,*,#141,.F.);
#457=ORIENTED_EDGE('',*,*,#99,.F.);
#458=CARTESIAN_POINT('',(1.5,2.59807621135332,-92.0));
#459=DIRECTION('',(0.0,0.0,1.0));
#460=DIRECTION('',(-0.5,-0.866025403784439,0.0));
#461=CARTESIAN_POINT('',(0.0,0.0,0.0));
#462=DIRECTION('',(0.0,0.0,-1.0));
#463=DIRECTION('',(0.0,1.0,0.0));
#464=CARTESIAN_POINT('',(0.0,0.0,-92.0));
#465=DIRECTION('',(0.0,0.0,-1.0));
#466=DIRECTION('',(0.5,0.866025403784439,0.0));
#467=CARTESIAN_POINT('',(0.0,0.0,-0.600000000000001));
#468=DIRECTION('',(0.0,0.0,-1.0));
#469=DIRECTION('',(0.0,1.0,0.0));
#470=CARTESIAN_POINT('',(0.0,0.0,-0.600000000000001));
#471=DIRECTION('',(0.0,0.0,-1.0));
#472=DIRECTION('',(0.0,1.0,0.0));
#473=CARTESIAN_POINT('',(0.0,0.0,-0.600000000000001));
#474=DIRECTION('',(0.0,0.0,-1.0));
#475=DIRECTION('',(0.0,1.0,0.0));
#476=DIRECTION('',(0.0,0.0,-1.0));
#477=CARTESIAN_POINT('',(0.0,0.0,-104.0));
#478=DIRECTION('',(0.0,0.0,-1.0));
#479=DIRECTION('',(0.5,0.866025403784439,0.0));
#480=SURFACE_STYLE_FILL_AREA(#587);
#481=ORIENTED_EDGE('',*,*,#83,.F.);
#482=ORIENTED_EDGE('',*,*,#97,.T.);
#483=ORIENTED_EDGE('',*,*,#161,.F.);
#484=ORIENTED_EDGE('',*,*,#103,.F.);
#485=ORIENTED_EDGE('',*,*,#159,.F.);
#486=CARTESIAN_POINT('',(0.0,0.0,-0.300000000000004));
#487=DIRECTION('',(0.0,-0.0,-1.0));
#488=DIRECTION('',(0.0,1.0,0.0));
#489=CARTESIAN_POINT('',(0.0,0.0,-92.0));
#490=DIRECTION('',(0.0,0.0,-1.0));
#491=DIRECTION('',(-1.0,0.0,0.0));
#492=SURFACE_STYLE_FILL_AREA(#588);
#493=ORIENTED_EDGE('',*,*,#167,.F.);
#494=ORIENTED_EDGE('',*,*,#175,.T.);
#495=ORIENTED_EDGE('',*,*,#111,.T.);
#496=CARTESIAN_POINT('',(0.0,0.0,-104.0));
#497=DIRECTION('',(0.0,1.0,0.0));
#498=DIRECTION('',(0.0,0.0,-1.0));
#499=CARTESIAN_POINT('',(0.0,0.0,0.0));
#500=DIRECTION('',(0.0,0.0,-1.0));
#501=DIRECTION('',(0.0,1.0,0.0));
#502=DIRECTION('',(0.0,0.0,-1.0));
#503=CARTESIAN_POINT('',(0.0,0.0,-104.0));
#504=DIRECTION('',(0.0,0.0,-1.0));
#505=DIRECTION('',(0.5,0.866025403784439,0.0));
#506=SURFACE_STYLE_FILL_AREA(#589);
#507=SURFACE_STYLE_FILL_AREA(#590);
#508=ORIENTED_EDGE('',*,*,#109,.T.);
#509=ORIENTED_EDGE('',*,*,#115,.F.);
#510=ORIENTED_EDGE('',*,*,#85,.T.);
#511=ORIENTED_EDGE('',*,*,#103,.T.);
#512=ORIENTED_EDGE('',*,*,#105,.T.);
#513=CARTESIAN_POINT('',(0.0,0.0,-68.5));
#514=DIRECTION('',(-0.0,-0.0,1.0));
#515=DIRECTION('',(-1.0,0.0,0.0));
#516=SURFACE_STYLE_FILL_AREA(#591);
#517=ORIENTED_EDGE('',*,*,#83,.T.);
#518=ORIENTED_EDGE('',*,*,#101,.F.);
#519=ORIENTED_EDGE('',*,*,#105,.F.);
#520=ORIENTED_EDGE('',*,*,#161,.T.);
#521=ORIENTED_EDGE('',*,*,#119,.T.);
#522=CARTESIAN_POINT('',(0.0,0.0,-0.300000000000004));
#523=DIRECTION('',(0.0,-0.0,-1.0));
#524=DIRECTION('',(0.0,1.0,0.0));
#525=CARTESIAN_POINT('',(0.0,0.0,-92.0));
#526=DIRECTION('',(0.0,0.0,-1.0));
#527=DIRECTION('',(-1.0,0.0,0.0));
#528=CARTESIAN_POINT('',(0.0,0.0,-92.0));
#529=DIRECTION('',(0.0,0.0,-1.0));
#530=DIRECTION('',(0.5,0.866025403784439,0.0));
#531=DIRECTION('',(-0.0,-0.0,1.0));
#532=CARTESIAN_POINT('',(0.0,0.0,-104.0));
#533=DIRECTION('',(0.0,0.0,-1.0));
#534=DIRECTION('',(0.5,0.866025403784439,0.0));
#535=SURFACE_STYLE_FILL_AREA(#592);
#536=SURFACE_STYLE_FILL_AREA(#593);
#537=ORIENTED_EDGE('',*,*,#109,.F.);
#538=ORIENTED_EDGE('',*,*,#101,.T.);
#539=ORIENTED_EDGE('',*,*,#159,.T.);
#540=ORIENTED_EDGE('',*,*,#85,.F.);
#541=ORIENTED_EDGE('',*,*,#139,.F.);
#542=CARTESIAN_POINT('',(0.0,0.0,-68.5));
#543=DIRECTION('',(-0.0,-0.0,1.0));
#544=DIRECTION('',(-1.0,0.0,0.0));
#545=SURFACE_STYLE_FILL_AREA(#594);
#546=ORIENTED_EDGE('',*,*,#139,.T.);
#547=ORIENTED_EDGE('',*,*,#115,.T.);
#548=CARTESIAN_POINT('',(-3.0,0.0,-92.0));
#549=DIRECTION('',(0.0,0.0,-1.0));
#550=DIRECTION('',(-1.0,0.0,0.0));
#551=CARTESIAN_POINT('',(0.0,0.0,-0.600000000000001));
#552=DIRECTION('',(0.0,0.0,-1.0));
#553=DIRECTION('',(0.0,1.0,0.0));
#554=DIRECTION('',(-8.65927457071934E-017,0.707106781186546,0.707106781186549));
#555=SURFACE_STYLE_FILL_AREA(#595);
#556=ORIENTED_EDGE('',*,*,#97,.F.);
#557=ORIENTED_EDGE('',*,*,#119,.F.);
#558=CARTESIAN_POINT('',(0.0,2.7,0.0));
#559=DIRECTION('',(-0.0,0.0,1.0));
#560=DIRECTION('',(0.0,-1.0,0.0));
#561=SURFACE_STYLE_FILL_AREA(#596);
#562=ORIENTED_EDGE('',*,*,#127,.F.);
#563=ORIENTED_EDGE('',*,*,#141,.T.);
#564=ORIENTED_EDGE('',*,*,#143,.F.);
#565=ORIENTED_EDGE('',*,*,#175,.F.);
#566=ORIENTED_EDGE('',*,*,#129,.F.);
#567=CARTESIAN_POINT('',(0.0,0.0,-98.0));
#568=DIRECTION('',(-0.0,-0.0,1.0));
#569=DIRECTION('',(0.5,0.866025403784439,0.0));
#570=CARTESIAN_POINT('',(0.0,0.0,-104.0));
#571=DIRECTION('',(1.0,0.0,1.22460635382238E-016));
#572=DIRECTION('',(-1.22460635382238E-016,0.0,1.0));
#573=SURFACE_STYLE_FILL_AREA(#597);
#574=ORIENTED_EDGE('',*,*,#127,.T.);
#575=ORIENTED_EDGE('',*,*,#145,.F.);
#576=ORIENTED_EDGE('',*,*,#111,.F.);
#577=ORIENTED_EDGE('',*,*,#143,.T.);
#578=ORIENTED_EDGE('',*,*,#99,.T.);
#579=CARTESIAN_POINT('',(0.0,0.0,-98.0));
#580=DIRECTION('',(-0.0,-0.0,1.0));
#581=DIRECTION('',(0.5,0.866025403784439,0.0));
#582=CARTESIAN_POINT('',(0.0,0.0,-104.0));
#583=DIRECTION('',(0.0,0.0,-1.0));
#584=DIRECTION('',(0.5,0.866025403784439,0.0));
#585=FILL_AREA_STYLE('',(#598));
#586=FILL_AREA_STYLE('',(#599));
#587=FILL_AREA_STYLE('',(#600));
#588=FILL_AREA_STYLE('',(#601));
#589=FILL_AREA_STYLE('',(#602));
#590=FILL_AREA_STYLE('',(#603));
#591=FILL_AREA_STYLE('',(#604));
#592=FILL_AREA_STYLE('',(#605));
#593=FILL_AREA_STYLE('',(#606));
#594=FILL_AREA_STYLE('',(#607));
#595=FILL_AREA_STYLE('',(#608));
#596=FILL_AREA_STYLE('',(#609));
#597=FILL_AREA_STYLE('',(#610));
#598=FILL_AREA_STYLE_COLOUR('',#611);
#599=FILL_AREA_STYLE_COLOUR('',#612);
#600=FILL_AREA_STYLE_COLOUR('',#613);
#601=FILL_AREA_STYLE_COLOUR('',#614);
#602=FILL_AREA_STYLE_COLOUR('',#615);
#603=FILL_AREA_STYLE_COLOUR('',#616);
#604=FILL_AREA_STYLE_COLOUR('',#617);
#605=FILL_AREA_STYLE_COLOUR('',#618);
#606=FILL_AREA_STYLE_COLOUR('',#619);
#607=FILL_AREA_STYLE_COLOUR('',#620);
#608=FILL_AREA_STYLE_COLOUR('',#621);
#609=FILL_AREA_STYLE_COLOUR('',#622);
#610=FILL_AREA_STYLE_COLOUR('',#623);
#611=COLOUR_RGB('',0.800000011920929,0.800000011920929,0.800000011920929);
#612=COLOUR_RGB('',0.800000011920929,0.800000011920929,0.800000011920929);
#613=COLOUR_RGB('',0.498039215803146,0.498039215803146,0.498039215803146);
#614=COLOUR_RGB('',0.800000011920929,0.800000011920929,0.800000011920929);
#615=COLOUR_RGB('',0.800000011920929,0.800000011920929,0.800000011920929);
#616=COLOUR_RGB('',0.498039215803146,0.498039215803146,0.498039215803146);
#617=COLOUR_RGB('',0.498039215803146,0.498039215803146,0.498039215803146);
#618=COLOUR_RGB('',0.498039215803146,0.498039215803146,0.498039215803146);
#619=COLOUR_RGB('',0.498039215803146,0.498039215803146,0.498039215803146);
#620=COLOUR_RGB('',0.498039215803146,0.498039215803146,0.498039215803146);
#621=COLOUR_RGB('',0.498039215803146,0.498039215803146,0.498039215803146);
#622=COLOUR_RGB('',0.800000011920929,0.800000011920929,0.800000011920929);
#623=COLOUR_RGB('',0.800000011920929,0.800000011920929,0.800000011920929);
#624=AXIS2_PLACEMENT_3D('PCS',#625,#626,#627);
#625=CARTESIAN_POINT('',(0.0,0.0,0.0));
#626=DIRECTION('',(0.0,0.0,1.0));
#627=DIRECTION('',(1.0,0.0,0.0));
#628=AXIS2_PLACEMENT_3D('MCS',#629,#630,#631);
#629=CARTESIAN_POINT('',(0.0,0.0,-45.0));
#630=DIRECTION('',(0.0,0.0,1.0));
#631=DIRECTION('',(1.0,0.0,0.0));
#632=AXIS2_PLACEMENT_3D('CIP',#633,#634,#635);
#633=CARTESIAN_POINT('',(0.0,0.0,-110.0));
#634=DIRECTION('',(0.0,0.0,1.0));
#635=DIRECTION('',(1.0,0.0,0.0));
#636=CONSTRUCTIVE_GEOMETRY_REPRESENTATION_RELATIONSHIP('coordinate systems',$,#66,#637);
#637=CONSTRUCTIVE_GEOMETRY_REPRESENTATION('coordinate systems',(#624,#628,#632),#10);
ENDSEC;
END-ISO-10303-21;
