ISO-10303-21;
HEADER;
FILE_DESCRIPTION(('no description'),'unknown implementation level');
FILE_NAME('3106661.stp','  ',('CIM GmbH Aachen'),('CADClick - KiM GmbH - www.kimweb.de'),'unknown preprocess','ACIS','unknown authorization');
FILE_SCHEMA(('automotive_design'));
ENDSEC;
DATA;
#1=MECHANICAL_DESIGN_GEOMETRIC_PRESENTATION_REPRESENTATION(' ',(#14,#15,#16,#17,#18,#19,#20,#21,#22,#23,#24,#25,#26,#27,#28,#29,#30,#31,#32,#33,#34,#35,#36,#37,#38,#39,#40,#41,#42,#43,#44,#45,#46,#47,#48,#49,#50,#51,#52,#53,#54,#55,#56,#57,#58,#59,#60,#61),#10);
#2=PRODUCT_DEFINITION_CONTEXT('',#62,'design');
#3=APPLICATION_PROTOCOL_DEFINITION('INTERNATIONAL STANDARD','automotive_design',1994,#62);
#4=PRODUCT_CATEGORY_RELATIONSHIP('NONE','NONE',#63,#64);
#5=SHAPE_DEFINITION_REPRESENTATION(#65,#66);
#6=PRODUCT_DEFINITION_CONTEXT('',#67,'design');
#7=APPLICATION_PROTOCOL_DEFINITION('INTERNATIONAL STANDARD','automotive_design',1994,#67);
#8=PRODUCT_CATEGORY_RELATIONSHIP('NONE','NONE',#68,#69);
#9=SHAPE_DEFINITION_REPRESENTATION(#70,#71);
#10= (GEOMETRIC_REPRESENTATION_CONTEXT(3)GLOBAL_UNCERTAINTY_ASSIGNED_CONTEXT((#74))GLOBAL_UNIT_ASSIGNED_CONTEXT((#76,#77,#78))REPRESENTATION_CONTEXT('NONE','WORKSPACE'));
#14=STYLED_ITEM('',(#80),#81);
#15=STYLED_ITEM('',(#82),#83);
#16=STYLED_ITEM('',(#84),#85);
#17=STYLED_ITEM('',(#86),#87);
#18=STYLED_ITEM('',(#88),#89);
#19=STYLED_ITEM('',(#90),#91);
#20=STYLED_ITEM('',(#92),#93);
#21=STYLED_ITEM('',(#94),#95);
#22=STYLED_ITEM('',(#96),#97);
#23=STYLED_ITEM('',(#98),#99);
#24=STYLED_ITEM('',(#100),#101);
#25=STYLED_ITEM('',(#102),#103);
#26=STYLED_ITEM('',(#104),#105);
#27=STYLED_ITEM('',(#106),#107);
#28=STYLED_ITEM('',(#108),#109);
#29=STYLED_ITEM('',(#110),#111);
#30=STYLED_ITEM('',(#112),#113);
#31=STYLED_ITEM('',(#114),#115);
#32=STYLED_ITEM('',(#116),#117);
#33=STYLED_ITEM('',(#118),#119);
#34=STYLED_ITEM('',(#120),#121);
#35=STYLED_ITEM('',(#122),#123);
#36=STYLED_ITEM('',(#124),#125);
#37=STYLED_ITEM('',(#126),#127);
#38=STYLED_ITEM('',(#128),#129);
#39=STYLED_ITEM('',(#130),#131);
#40=STYLED_ITEM('',(#132),#133);
#41=STYLED_ITEM('',(#134),#135);
#42=STYLED_ITEM('',(#136),#137);
#43=STYLED_ITEM('',(#138),#139);
#44=STYLED_ITEM('',(#140),#141);
#45=STYLED_ITEM('',(#142),#143);
#46=STYLED_ITEM('',(#144),#145);
#47=STYLED_ITEM('',(#146),#147);
#48=STYLED_ITEM('',(#148),#149);
#49=STYLED_ITEM('',(#150),#151);
#50=STYLED_ITEM('',(#152),#153);
#51=STYLED_ITEM('',(#154),#155);
#52=STYLED_ITEM('',(#156),#157);
#53=STYLED_ITEM('',(#158),#159);
#54=STYLED_ITEM('',(#160),#161);
#55=STYLED_ITEM('',(#162),#163);
#56=STYLED_ITEM('',(#164),#165);
#57=STYLED_ITEM('',(#166),#167);
#58=STYLED_ITEM('',(#168),#169);
#59=STYLED_ITEM('',(#170),#171);
#60=STYLED_ITEM('',(#172),#173);
#61=STYLED_ITEM('',(#174),#175);
#62=APPLICATION_CONTEXT(' ');
#63=PRODUCT_CATEGORY('part','NONE');
#64=PRODUCT_RELATED_PRODUCT_CATEGORY('detail',' ',(#176));
#65=PRODUCT_DEFINITION_SHAPE('NONE','NONE',#177);
#66=ADVANCED_BREP_SHAPE_REPRESENTATION('1',(#153,#178),#10);
#67=APPLICATION_CONTEXT(' ');
#68=PRODUCT_CATEGORY('part','NONE');
#69=PRODUCT_RELATED_PRODUCT_CATEGORY('detail',' ',(#179));
#70=PRODUCT_DEFINITION_SHAPE('NONE','NONE',#180);
#71=ADVANCED_BREP_SHAPE_REPRESENTATION('2',(#135,#181),#10);
#74=UNCERTAINTY_MEASURE_WITH_UNIT(LENGTH_MEASURE(1.0E-006),#76,'','');
#76= (CONVERSION_BASED_UNIT('MILLIMETRE',#184)LENGTH_UNIT()NAMED_UNIT(#187));
#77= (NAMED_UNIT(#189)PLANE_ANGLE_UNIT()SI_UNIT($,.RADIAN.));
#78= (NAMED_UNIT(#189)SOLID_ANGLE_UNIT()SI_UNIT($,.STERADIAN.));
#80=PRESENTATION_STYLE_ASSIGNMENT((#195));
#81=VERTEX_POINT('',#196);
#82=PRESENTATION_STYLE_ASSIGNMENT((#197));
#83=EDGE_CURVE('',#147,#103,#198,.T.);
#84=PRESENTATION_STYLE_ASSIGNMENT((#199));
#85=ADVANCED_FACE('',(#200),#201,.T.);
#86=PRESENTATION_STYLE_ASSIGNMENT((#202));
#87=VERTEX_POINT('',#203);
#88=PRESENTATION_STYLE_ASSIGNMENT((#204));
#89=EDGE_CURVE('',#103,#155,#205,.T.);
#90=PRESENTATION_STYLE_ASSIGNMENT((#206));
#91=EDGE_CURVE('',#155,#147,#207,.T.);
#92=PRESENTATION_STYLE_ASSIGNMENT((#208));
#93=VERTEX_POINT('',#209);
#94=PRESENTATION_STYLE_ASSIGNMENT((#210));
#95=VERTEX_POINT('',#211);
#96=PRESENTATION_STYLE_ASSIGNMENT((#212));
#97=VERTEX_POINT('',#213);
#98=PRESENTATION_STYLE_ASSIGNMENT((#214));
#99=VERTEX_POINT('',#215);
#100=PRESENTATION_STYLE_ASSIGNMENT((#216));
#101=VERTEX_POINT('',#217);
#102=PRESENTATION_STYLE_ASSIGNMENT((#218));
#103=VERTEX_POINT('',#219);
#104=PRESENTATION_STYLE_ASSIGNMENT((#220));
#105=EDGE_CURVE('',#169,#155,#221,.T.);
#106=PRESENTATION_STYLE_ASSIGNMENT((#222));
#107=EDGE_CURVE('',#95,#149,#223,.T.);
#108=PRESENTATION_STYLE_ASSIGNMENT((#224));
#109=EDGE_CURVE('',#97,#101,#225,.T.);
#110=PRESENTATION_STYLE_ASSIGNMENT((#226));
#111=ADVANCED_FACE('',(#227),#228,.T.);
#112=PRESENTATION_STYLE_ASSIGNMENT((#229));
#113=ADVANCED_FACE('',(#230),#231,.T.);
#114=PRESENTATION_STYLE_ASSIGNMENT((#232));
#115=EDGE_CURVE('',#149,#95,#233,.T.);
#116=PRESENTATION_STYLE_ASSIGNMENT((#234));
#117=EDGE_CURVE('',#143,#97,#235,.T.);
#118=PRESENTATION_STYLE_ASSIGNMENT((#236));
#119=EDGE_CURVE('',#101,#87,#237,.T.);
#120=PRESENTATION_STYLE_ASSIGNMENT((#238));
#121=ADVANCED_FACE('',(#239),#240,.T.);
#122=PRESENTATION_STYLE_ASSIGNMENT((#241));
#123=EDGE_CURVE('',#87,#101,#242,.T.);
#124=PRESENTATION_STYLE_ASSIGNMENT((#243));
#125=EDGE_CURVE('',#87,#93,#244,.T.);
#126=PRESENTATION_STYLE_ASSIGNMENT((#245));
#127=ADVANCED_FACE('',(#246),#247,.T.);
#128=PRESENTATION_STYLE_ASSIGNMENT((#248));
#129=EDGE_CURVE('',#81,#147,#249,.T.);
#130=PRESENTATION_STYLE_ASSIGNMENT((#250));
#131=EDGE_CURVE('',#103,#169,#251,.T.);
#132=PRESENTATION_STYLE_ASSIGNMENT((#252));
#133=ADVANCED_FACE('',(#253),#254,.T.);
#134=PRESENTATION_STYLE_ASSIGNMENT((#255));
#135=MANIFOLD_SOLID_BREP('2',#256);
#136=PRESENTATION_STYLE_ASSIGNMENT((#257));
#137=ADVANCED_FACE('',(#258),#259,.T.);
#138=PRESENTATION_STYLE_ASSIGNMENT((#260));
#139=ADVANCED_FACE('',(#261),#262,.T.);
#140=PRESENTATION_STYLE_ASSIGNMENT((#263));
#141=EDGE_CURVE('',#97,#99,#264,.T.);
#142=PRESENTATION_STYLE_ASSIGNMENT((#265));
#143=VERTEX_POINT('',#266);
#144=PRESENTATION_STYLE_ASSIGNMENT((#267));
#145=EDGE_CURVE('',#143,#95,#268,.T.);
#146=PRESENTATION_STYLE_ASSIGNMENT((#269));
#147=VERTEX_POINT('',#270);
#148=PRESENTATION_STYLE_ASSIGNMENT((#271));
#149=VERTEX_POINT('',#272);
#150=PRESENTATION_STYLE_ASSIGNMENT((#273));
#151=EDGE_CURVE('',#93,#143,#274,.T.);
#152=PRESENTATION_STYLE_ASSIGNMENT((#275));
#153=MANIFOLD_SOLID_BREP('1',#276);
#154=PRESENTATION_STYLE_ASSIGNMENT((#277));
#155=VERTEX_POINT('',#278);
#156=PRESENTATION_STYLE_ASSIGNMENT((#279));
#157=EDGE_CURVE('',#169,#167,#280,.T.);
#158=PRESENTATION_STYLE_ASSIGNMENT((#281));
#159=EDGE_CURVE('',#149,#99,#282,.T.);
#160=PRESENTATION_STYLE_ASSIGNMENT((#283));
#161=EDGE_CURVE('',#81,#167,#284,.T.);
#162=PRESENTATION_STYLE_ASSIGNMENT((#285));
#163=EDGE_CURVE('',#167,#81,#286,.T.);
#164=PRESENTATION_STYLE_ASSIGNMENT((#287));
#165=ADVANCED_FACE('',(#288),#289,.T.);
#166=PRESENTATION_STYLE_ASSIGNMENT((#290));
#167=VERTEX_POINT('',#291);
#168=PRESENTATION_STYLE_ASSIGNMENT((#292));
#169=VERTEX_POINT('',#293);
#170=PRESENTATION_STYLE_ASSIGNMENT((#294));
#171=ADVANCED_FACE('',(#295),#296,.T.);
#172=PRESENTATION_STYLE_ASSIGNMENT((#297));
#173=EDGE_CURVE('',#99,#93,#298,.T.);
#174=PRESENTATION_STYLE_ASSIGNMENT((#299));
#175=ADVANCED_FACE('',(#300),#301,.T.);
#176=PRODUCT('1','1','PART-1-DESC',(#302));
#177=PRODUCT_DEFINITION('NONE','NONE',#303,#2);
#178=AXIS2_PLACEMENT_3D('',#304,#305,#306);
#179=PRODUCT('2','2','PART-2-DESC',(#307));
#180=PRODUCT_DEFINITION('NONE','NONE',#308,#6);
#181=AXIS2_PLACEMENT_3D('',#309,#310,#311);
#184=LENGTH_MEASURE_WITH_UNIT(LENGTH_MEASURE(1.0),#312);
#187=DIMENSIONAL_EXPONENTS(1.0,0.0,0.0,0.0,0.0,0.0,0.0);
#189=DIMENSIONAL_EXPONENTS(0.0,0.0,0.0,0.0,0.0,0.0,0.0);
#195=POINT_STYLE(' ',#313,POSITIVE_LENGTH_MEASURE(1.0E-006),#314);
#196=CARTESIAN_POINT('',(3.0,5.19615242270663,-88.0));
#197=CURVE_STYLE('',#315,POSITIVE_LENGTH_MEASURE(1.0E-006),#316);
#198=CIRCLE('',#317,6.0);
#199=SURFACE_STYLE_USAGE(.BOTH.,#318);
#200=FACE_OUTER_BOUND('',#319,.T.);
#201=CYLINDRICAL_SURFACE('',#320,6.0);
#202=POINT_STYLE(' ',#321,POSITIVE_LENGTH_MEASURE(1.0E-006),#322);
#203=CARTESIAN_POINT('',(6.0,7.34763812293426E-016,-88.0));
#204=CURVE_STYLE('',#323,POSITIVE_LENGTH_MEASURE(1.0E-006),#324);
#205=CIRCLE('',#325,5.99999999999999);
#206=CURVE_STYLE('',#326,POSITIVE_LENGTH_MEASURE(1.0E-006),#327);
#207=CIRCLE('',#328,6.0);
#208=POINT_STYLE(' ',#329,POSITIVE_LENGTH_MEASURE(1.0E-006),#330);
#209=CARTESIAN_POINT('',(6.0,7.34763812293426E-016,-0.600000000000001));
#210=POINT_STYLE(' ',#331,POSITIVE_LENGTH_MEASURE(1.0E-006),#332);
#211=CARTESIAN_POINT('',(6.61287431064084E-016,-5.4,0.0));
#212=POINT_STYLE(' ',#333,POSITIVE_LENGTH_MEASURE(1.0E-006),#334);
#213=CARTESIAN_POINT('',(-6.0,-7.34763812293426E-016,-0.600000000000001));
#214=POINT_STYLE(' ',#335,POSITIVE_LENGTH_MEASURE(1.0E-006),#336);
#215=CARTESIAN_POINT('',(0.0,6.0,-0.600000000000001));
#216=POINT_STYLE(' ',#337,POSITIVE_LENGTH_MEASURE(1.0E-006),#338);
#217=CARTESIAN_POINT('',(-6.0,0.0,-88.0));
#218=POINT_STYLE(' ',#339,POSITIVE_LENGTH_MEASURE(1.0E-006),#340);
#219=CARTESIAN_POINT('',(-1.74027029774831E-030,-6.0,-104.0));
#220=CURVE_STYLE('',#341,POSITIVE_LENGTH_MEASURE(1.0E-006),#342);
#221=CIRCLE('',#343,6.0);
#222=CURVE_STYLE('',#344,POSITIVE_LENGTH_MEASURE(1.0E-006),#345);
#223=CIRCLE('',#346,5.4);
#224=CURVE_STYLE('',#347,POSITIVE_LENGTH_MEASURE(1.0E-006),#348);
#225=LINE('',#349,#350);
#226=SURFACE_STYLE_USAGE(.BOTH.,#351);
#227=FACE_OUTER_BOUND('',#352,.T.);
#228=CYLINDRICAL_SURFACE('',#353,6.0);
#229=SURFACE_STYLE_USAGE(.BOTH.,#354);
#230=FACE_OUTER_BOUND('',#355,.T.);
#231=CONICAL_SURFACE('',#356,5.7,0.785398163397447);
#232=CURVE_STYLE('',#357,POSITIVE_LENGTH_MEASURE(1.0E-006),#358);
#233=CIRCLE('',#359,5.4);
#234=CURVE_STYLE('',#360,POSITIVE_LENGTH_MEASURE(1.0E-006),#361);
#235=CIRCLE('',#362,6.0);
#236=CURVE_STYLE('',#363,POSITIVE_LENGTH_MEASURE(1.0E-006),#364);
#237=CIRCLE('',#365,6.0);
#238=SURFACE_STYLE_USAGE(.BOTH.,#366);
#239=FACE_OUTER_BOUND('',#367,.T.);
#240=PLANE('',#368);
#241=CURVE_STYLE('',#369,POSITIVE_LENGTH_MEASURE(1.0E-006),#370);
#242=CIRCLE('',#371,6.0);
#243=CURVE_STYLE('',#372,POSITIVE_LENGTH_MEASURE(1.0E-006),#373);
#244=LINE('',#374,#375);
#245=SURFACE_STYLE_USAGE(.BOTH.,#376);
#246=FACE_OUTER_BOUND('',#377,.T.);
#247=CYLINDRICAL_SURFACE('',#378,6.0);
#248=CURVE_STYLE('',#379,POSITIVE_LENGTH_MEASURE(1.0E-006),#380);
#249=LINE('',#381,#382);
#250=CURVE_STYLE('',#383,POSITIVE_LENGTH_MEASURE(1.0E-006),#384);
#251=CIRCLE('',#385,6.0);
#252=SURFACE_STYLE_USAGE(.BOTH.,#386);
#253=FACE_OUTER_BOUND('',#387,.T.);
#254=PLANE('',#388);
#255=SURFACE_STYLE_USAGE(.BOTH.,#389);
#256=CLOSED_SHELL('',(#127,#165,#175,#121,#111));
#257=SURFACE_STYLE_USAGE(.BOTH.,#390);
#258=FACE_OUTER_BOUND('',#391,.T.);
#259=CYLINDRICAL_SURFACE('',#392,6.0);
#260=SURFACE_STYLE_USAGE(.BOTH.,#393);
#261=FACE_OUTER_BOUND('',#394,.T.);
#262=PLANE('',#395);
#263=CURVE_STYLE('',#396,POSITIVE_LENGTH_MEASURE(1.0E-006),#397);
#264=CIRCLE('',#398,6.0);
#265=POINT_STYLE(' ',#399,POSITIVE_LENGTH_MEASURE(1.0E-006),#400);
#266=CARTESIAN_POINT('',(7.34763812293426E-016,-6.0,-0.600000000000001));
#267=CURVE_STYLE('',#401,POSITIVE_LENGTH_MEASURE(1.0E-006),#402);
#268=LINE('',#403,#404);
#269=POINT_STYLE(' ',#405,POSITIVE_LENGTH_MEASURE(1.0E-006),#406);
#270=CARTESIAN_POINT('',(3.0,5.19615242270663,-104.0));
#271=POINT_STYLE(' ',#407,POSITIVE_LENGTH_MEASURE(1.0E-006),#408);
#272=CARTESIAN_POINT('',(0.0,5.4,0.0));
#273=CURVE_STYLE('',#409,POSITIVE_LENGTH_MEASURE(1.0E-006),#410);
#274=CIRCLE('',#411,6.0);
#275=SURFACE_STYLE_USAGE(.BOTH.,#412);
#276=CLOSED_SHELL('',(#85,#171,#139,#113,#137,#133));
#277=POINT_STYLE(' ',#413,POSITIVE_LENGTH_MEASURE(1.0E-006),#414);
#278=CARTESIAN_POINT('',(-1.74027029774831E-030,6.0,-104.0));
#279=CURVE_STYLE('',#415,POSITIVE_LENGTH_MEASURE(1.0E-006),#416);
#280=LINE('',#417,#418);
#281=CURVE_STYLE('',#419,POSITIVE_LENGTH_MEASURE(1.0E-006),#420);
#282=LINE('',#421,#422);
#283=CURVE_STYLE('',#423,POSITIVE_LENGTH_MEASURE(1.0E-006),#424);
#284=CIRCLE('',#425,6.0);
#285=CURVE_STYLE('',#426,POSITIVE_LENGTH_MEASURE(1.0E-006),#427);
#286=CIRCLE('',#428,6.0);
#287=SURFACE_STYLE_USAGE(.BOTH.,#429);
#288=FACE_OUTER_BOUND('',#430,.T.);
#289=SPHERICAL_SURFACE('',#431,5.99999999999999);
#290=POINT_STYLE(' ',#432,POSITIVE_LENGTH_MEASURE(1.0E-006),#433);
#291=CARTESIAN_POINT('',(-3.0,-5.19615242270663,-88.0));
#292=POINT_STYLE(' ',#434,POSITIVE_LENGTH_MEASURE(1.0E-006),#435);
#293=CARTESIAN_POINT('',(-3.0,-5.19615242270663,-104.0));
#294=SURFACE_STYLE_USAGE(.BOTH.,#436);
#295=FACE_OUTER_BOUND('',#437,.T.);
#296=CONICAL_SURFACE('',#438,5.7,0.785398163397447);
#297=CURVE_STYLE('',#439,POSITIVE_LENGTH_MEASURE(1.0E-006),#440);
#298=CIRCLE('',#441,6.0);
#299=SURFACE_STYLE_USAGE(.BOTH.,#442);
#300=FACE_OUTER_BOUND('',#443,.T.);
#301=SPHERICAL_SURFACE('',#444,5.99999999999999);
#302=PRODUCT_CONTEXT('',#62,'mechanical');
#303=PRODUCT_DEFINITION_FORMATION_WITH_SPECIFIED_SOURCE(' ','NONE',#176,.NOT_KNOWN.);
#304=CARTESIAN_POINT('',(0.0,0.0,0.0));
#305=DIRECTION('',(0.0,0.0,1.0));
#306=DIRECTION('',(1.0,0.0,0.0));
#307=PRODUCT_CONTEXT('',#67,'mechanical');
#308=PRODUCT_DEFINITION_FORMATION_WITH_SPECIFIED_SOURCE(' ','NONE',#179,.NOT_KNOWN.);
#309=CARTESIAN_POINT('',(0.0,0.0,0.0));
#310=DIRECTION('',(0.0,0.0,1.0));
#311=DIRECTION('',(1.0,0.0,0.0));
#312= (NAMED_UNIT(#187)LENGTH_UNIT()SI_UNIT(.MILLI.,.METRE.));
#313=PRE_DEFINED_MARKER('');
#314=COLOUR_RGB('',0.800000011920929,0.800000011920929,0.800000011920929);
#315=DRAUGHTING_PRE_DEFINED_CURVE_FONT('continuous');
#316=COLOUR_RGB('',0.800000011920929,0.800000011920929,0.800000011920929);
#317=AXIS2_PLACEMENT_3D('',#446,#447,#448);
#318=SURFACE_SIDE_STYLE('',(#449));
#319=EDGE_LOOP('',(#450,#451,#452,#453,#454));
#320=AXIS2_PLACEMENT_3D('',#455,#456,#457);
#321=PRE_DEFINED_MARKER('');
#322=COLOUR_RGB('',0.498039215803146,0.498039215803146,0.498039215803146);
#323=DRAUGHTING_PRE_DEFINED_CURVE_FONT('continuous');
#324=COLOUR_RGB('',0.800000011920929,0.800000011920929,0.800000011920929);
#325=AXIS2_PLACEMENT_3D('',#458,#459,#460);
#326=DRAUGHTING_PRE_DEFINED_CURVE_FONT('continuous');
#327=COLOUR_RGB('',0.800000011920929,0.800000011920929,0.800000011920929);
#328=AXIS2_PLACEMENT_3D('',#461,#462,#463);
#329=PRE_DEFINED_MARKER('');
#330=COLOUR_RGB('',0.498039215803146,0.498039215803146,0.498039215803146);
#331=PRE_DEFINED_MARKER('');
#332=COLOUR_RGB('',0.498039215803146,0.498039215803146,0.498039215803146);
#333=PRE_DEFINED_MARKER('');
#334=COLOUR_RGB('',0.498039215803146,0.498039215803146,0.498039215803146);
#335=PRE_DEFINED_MARKER('');
#336=COLOUR_RGB('',0.498039215803146,0.498039215803146,0.498039215803146);
#337=PRE_DEFINED_MARKER('');
#338=COLOUR_RGB('',0.498039215803146,0.498039215803146,0.498039215803146);
#339=PRE_DEFINED_MARKER('');
#340=COLOUR_RGB('',0.800000011920929,0.800000011920929,0.800000011920929);
#341=DRAUGHTING_PRE_DEFINED_CURVE_FONT('continuous');
#342=COLOUR_RGB('',0.800000011920929,0.800000011920929,0.800000011920929);
#343=AXIS2_PLACEMENT_3D('',#464,#465,#466);
#344=DRAUGHTING_PRE_DEFINED_CURVE_FONT('continuous');
#345=COLOUR_RGB('',0.498039215803146,0.498039215803146,0.498039215803146);
#346=AXIS2_PLACEMENT_3D('',#467,#468,#469);
#347=DRAUGHTING_PRE_DEFINED_CURVE_FONT('continuous');
#348=COLOUR_RGB('',0.498039215803146,0.498039215803146,0.498039215803146);
#349=CARTESIAN_POINT('',(-6.0,-7.34763812293426E-016,-66.5));
#350=VECTOR('',#470,1.0);
#351=SURFACE_SIDE_STYLE('',(#471));
#352=EDGE_LOOP('',(#472,#473,#474,#475,#476));
#353=AXIS2_PLACEMENT_3D('',#477,#478,#479);
#354=SURFACE_SIDE_STYLE('',(#480));
#355=EDGE_LOOP('',(#481,#482,#483,#484,#485));
#356=AXIS2_PLACEMENT_3D('',#486,#487,#488);
#357=DRAUGHTING_PRE_DEFINED_CURVE_FONT('continuous');
#358=COLOUR_RGB('',0.498039215803146,0.498039215803146,0.498039215803146);
#359=AXIS2_PLACEMENT_3D('',#489,#490,#491);
#360=DRAUGHTING_PRE_DEFINED_CURVE_FONT('continuous');
#361=COLOUR_RGB('',0.498039215803146,0.498039215803146,0.498039215803146);
#362=AXIS2_PLACEMENT_3D('',#492,#493,#494);
#363=DRAUGHTING_PRE_DEFINED_CURVE_FONT('continuous');
#364=COLOUR_RGB('',0.498039215803146,0.498039215803146,0.498039215803146);
#365=AXIS2_PLACEMENT_3D('',#495,#496,#497);
#366=SURFACE_SIDE_STYLE('',(#498));
#367=EDGE_LOOP('',(#499,#500));
#368=AXIS2_PLACEMENT_3D('',#501,#502,#503);
#369=DRAUGHTING_PRE_DEFINED_CURVE_FONT('continuous');
#370=COLOUR_RGB('',0.498039215803146,0.498039215803146,0.498039215803146);
#371=AXIS2_PLACEMENT_3D('',#504,#505,#506);
#372=DRAUGHTING_PRE_DEFINED_CURVE_FONT('continuous');
#373=COLOUR_RGB('',0.498039215803146,0.498039215803146,0.498039215803146);
#374=CARTESIAN_POINT('',(6.0,7.34763812293426E-016,-66.5));
#375=VECTOR('',#507,1.0);
#376=SURFACE_SIDE_STYLE('',(#508));
#377=EDGE_LOOP('',(#509,#510,#511,#512,#513));
#378=AXIS2_PLACEMENT_3D('',#514,#515,#516);
#379=DRAUGHTING_PRE_DEFINED_CURVE_FONT('continuous');
#380=COLOUR_RGB('',0.800000011920929,0.800000011920929,0.800000011920929);
#381=CARTESIAN_POINT('',(3.0,5.19615242270663,-96.0));
#382=VECTOR('',#517,1.0);
#383=DRAUGHTING_PRE_DEFINED_CURVE_FONT('continuous');
#384=COLOUR_RGB('',0.800000011920929,0.800000011920929,0.800000011920929);
#385=AXIS2_PLACEMENT_3D('',#518,#519,#520);
#386=SURFACE_SIDE_STYLE('',(#521));
#387=EDGE_LOOP('',(#522,#523));
#388=AXIS2_PLACEMENT_3D('',#524,#525,#526);
#389=SURFACE_SIDE_STYLE('',(#527));
#390=SURFACE_SIDE_STYLE('',(#528));
#391=EDGE_LOOP('',(#529,#530,#531,#532,#533));
#392=AXIS2_PLACEMENT_3D('',#534,#535,#536);
#393=SURFACE_SIDE_STYLE('',(#537));
#394=EDGE_LOOP('',(#538,#539));
#395=AXIS2_PLACEMENT_3D('',#540,#541,#542);
#396=DRAUGHTING_PRE_DEFINED_CURVE_FONT('continuous');
#397=COLOUR_RGB('',0.498039215803146,0.498039215803146,0.498039215803146);
#398=AXIS2_PLACEMENT_3D('',#543,#544,#545);
#399=PRE_DEFINED_MARKER('');
#400=COLOUR_RGB('',0.498039215803146,0.498039215803146,0.498039215803146);
#401=DRAUGHTING_PRE_DEFINED_CURVE_FONT('continuous');
#402=COLOUR_RGB('',0.498039215803146,0.498039215803146,0.498039215803146);
#403=CARTESIAN_POINT('',(6.98025621678755E-016,-5.7,-0.300000000000004));
#404=VECTOR('',#546,1.0);
#405=PRE_DEFINED_MARKER('');
#406=COLOUR_RGB('',0.800000011920929,0.800000011920929,0.800000011920929);
#407=PRE_DEFINED_MARKER('');
#408=COLOUR_RGB('',0.498039215803146,0.498039215803146,0.498039215803146);
#409=DRAUGHTING_PRE_DEFINED_CURVE_FONT('continuous');
#410=COLOUR_RGB('',0.498039215803146,0.498039215803146,0.498039215803146);
#411=AXIS2_PLACEMENT_3D('',#547,#548,#549);
#412=SURFACE_SIDE_STYLE('',(#550));
#413=PRE_DEFINED_MARKER('');
#414=COLOUR_RGB('',0.800000011920929,0.800000011920929,0.800000011920929);
#415=DRAUGHTING_PRE_DEFINED_CURVE_FONT('continuous');
#416=COLOUR_RGB('',0.800000011920929,0.800000011920929,0.800000011920929);
#417=CARTESIAN_POINT('',(-3.0,-5.19615242270663,-96.0));
#418=VECTOR('',#551,1.0);
#419=DRAUGHTING_PRE_DEFINED_CURVE_FONT('continuous');
#420=COLOUR_RGB('',0.498039215803146,0.498039215803146,0.498039215803146);
#421=CARTESIAN_POINT('',(-6.98025621678755E-016,5.7,-0.300000000000004));
#422=VECTOR('',#552,1.0);
#423=DRAUGHTING_PRE_DEFINED_CURVE_FONT('continuous');
#424=COLOUR_RGB('',0.800000011920929,0.800000011920929,0.800000011920929);
#425=AXIS2_PLACEMENT_3D('',#553,#554,#555);
#426=DRAUGHTING_PRE_DEFINED_CURVE_FONT('continuous');
#427=COLOUR_RGB('',0.800000011920929,0.800000011920929,0.800000011920929);
#428=AXIS2_PLACEMENT_3D('',#556,#557,#558);
#429=SURFACE_SIDE_STYLE('',(#559));
#430=EDGE_LOOP('',(#560,#561,#562));
#431=AXIS2_PLACEMENT_3D('',#563,#564,#565);
#432=PRE_DEFINED_MARKER('');
#433=COLOUR_RGB('',0.800000011920929,0.800000011920929,0.800000011920929);
#434=PRE_DEFINED_MARKER('');
#435=COLOUR_RGB('',0.800000011920929,0.800000011920929,0.800000011920929);
#436=SURFACE_SIDE_STYLE('',(#566));
#437=EDGE_LOOP('',(#567,#568,#569,#570,#571));
#438=AXIS2_PLACEMENT_3D('',#572,#573,#574);
#439=DRAUGHTING_PRE_DEFINED_CURVE_FONT('continuous');
#440=COLOUR_RGB('',0.498039215803146,0.498039215803146,0.498039215803146);
#441=AXIS2_PLACEMENT_3D('',#575,#576,#577);
#442=SURFACE_SIDE_STYLE('',(#578));
#443=EDGE_LOOP('',(#579,#580,#581));
#444=AXIS2_PLACEMENT_3D('',#582,#583,#584);
#446=CARTESIAN_POINT('',(0.0,0.0,-104.0));
#447=DIRECTION('',(0.0,0.0,-1.0));
#448=DIRECTION('',(0.5,0.866025403784439,0.0));
#449=SURFACE_STYLE_FILL_AREA(#585);
#450=ORIENTED_EDGE('',*,*,#109,.F.);
#451=ORIENTED_EDGE('',*,*,#141,.T.);
#452=ORIENTED_EDGE('',*,*,#173,.T.);
#453=ORIENTED_EDGE('',*,*,#125,.F.);
#454=ORIENTED_EDGE('',*,*,#119,.F.);
#455=CARTESIAN_POINT('',(0.0,0.0,-66.5));
#456=DIRECTION('',(-0.0,-0.0,1.0));
#457=DIRECTION('',(-1.0,0.0,0.0));
#458=CARTESIAN_POINT('',(0.0,0.0,-104.0));
#459=DIRECTION('',(1.0,0.0,1.22460635382238E-016));
#460=DIRECTION('',(-1.22460635382238E-016,0.0,1.0));
#461=CARTESIAN_POINT('',(0.0,0.0,-104.0));
#462=DIRECTION('',(0.0,0.0,-1.0));
#463=DIRECTION('',(0.5,0.866025403784439,0.0));
#464=CARTESIAN_POINT('',(0.0,0.0,-104.0));
#465=DIRECTION('',(0.0,0.0,-1.0));
#466=DIRECTION('',(0.5,0.866025403784439,0.0));
#467=CARTESIAN_POINT('',(0.0,0.0,0.0));
#468=DIRECTION('',(0.0,0.0,-1.0));
#469=DIRECTION('',(0.0,1.0,0.0));
#470=DIRECTION('',(0.0,0.0,-1.0));
#471=SURFACE_STYLE_FILL_AREA(#586);
#472=ORIENTED_EDGE('',*,*,#129,.T.);
#473=ORIENTED_EDGE('',*,*,#91,.F.);
#474=ORIENTED_EDGE('',*,*,#105,.F.);
#475=ORIENTED_EDGE('',*,*,#157,.T.);
#476=ORIENTED_EDGE('',*,*,#163,.T.);
#477=CARTESIAN_POINT('',(0.0,0.0,-96.0));
#478=DIRECTION('',(-0.0,-0.0,1.0));
#479=DIRECTION('',(0.5,0.866025403784439,0.0));
#480=SURFACE_STYLE_FILL_AREA(#587);
#481=ORIENTED_EDGE('',*,*,#159,.T.);
#482=ORIENTED_EDGE('',*,*,#141,.F.);
#483=ORIENTED_EDGE('',*,*,#117,.F.);
#484=ORIENTED_EDGE('',*,*,#145,.T.);
#485=ORIENTED_EDGE('',*,*,#107,.T.);
#486=CARTESIAN_POINT('',(0.0,0.0,-0.300000000000004));
#487=DIRECTION('',(0.0,-0.0,-1.0));
#488=DIRECTION('',(0.0,1.0,0.0));
#489=CARTESIAN_POINT('',(0.0,0.0,0.0));
#490=DIRECTION('',(0.0,0.0,-1.0));
#491=DIRECTION('',(0.0,1.0,0.0));
#492=CARTESIAN_POINT('',(0.0,0.0,-0.600000000000001));
#493=DIRECTION('',(0.0,0.0,-1.0));
#494=DIRECTION('',(0.0,1.0,0.0));
#495=CARTESIAN_POINT('',(0.0,0.0,-88.0));
#496=DIRECTION('',(0.0,0.0,-1.0));
#497=DIRECTION('',(-1.0,0.0,0.0));
#498=SURFACE_STYLE_FILL_AREA(#588);
#499=ORIENTED_EDGE('',*,*,#161,.F.);
#500=ORIENTED_EDGE('',*,*,#163,.F.);
#501=CARTESIAN_POINT('',(1.5,2.59807621135332,-88.0));
#502=DIRECTION('',(0.0,0.0,1.0));
#503=DIRECTION('',(-0.5,-0.866025403784439,0.0));
#504=CARTESIAN_POINT('',(0.0,0.0,-88.0));
#505=DIRECTION('',(0.0,0.0,-1.0));
#506=DIRECTION('',(-1.0,0.0,0.0));
#507=DIRECTION('',(-0.0,-0.0,1.0));
#508=SURFACE_STYLE_FILL_AREA(#589);
#509=ORIENTED_EDGE('',*,*,#129,.F.);
#510=ORIENTED_EDGE('',*,*,#161,.T.);
#511=ORIENTED_EDGE('',*,*,#157,.F.);
#512=ORIENTED_EDGE('',*,*,#131,.F.);
#513=ORIENTED_EDGE('',*,*,#83,.F.);
#514=CARTESIAN_POINT('',(0.0,0.0,-96.0));
#515=DIRECTION('',(-0.0,-0.0,1.0));
#516=DIRECTION('',(0.5,0.866025403784439,0.0));
#517=DIRECTION('',(0.0,0.0,-1.0));
#518=CARTESIAN_POINT('',(0.0,0.0,-104.0));
#519=DIRECTION('',(0.0,0.0,-1.0));
#520=DIRECTION('',(0.5,0.866025403784439,0.0));
#521=SURFACE_STYLE_FILL_AREA(#590);
#522=ORIENTED_EDGE('',*,*,#119,.T.);
#523=ORIENTED_EDGE('',*,*,#123,.T.);
#524=CARTESIAN_POINT('',(-3.0,0.0,-88.0));
#525=DIRECTION('',(0.0,0.0,-1.0));
#526=DIRECTION('',(-1.0,0.0,0.0));
#527=SURFACE_STYLE_FILL_AREA(#591);
#528=SURFACE_STYLE_FILL_AREA(#592);
#529=ORIENTED_EDGE('',*,*,#109,.T.);
#530=ORIENTED_EDGE('',*,*,#123,.F.);
#531=ORIENTED_EDGE('',*,*,#125,.T.);
#532=ORIENTED_EDGE('',*,*,#151,.T.);
#533=ORIENTED_EDGE('',*,*,#117,.T.);
#534=CARTESIAN_POINT('',(0.0,0.0,-66.5));
#535=DIRECTION('',(-0.0,-0.0,1.0));
#536=DIRECTION('',(-1.0,0.0,0.0));
#537=SURFACE_STYLE_FILL_AREA(#593);
#538=ORIENTED_EDGE('',*,*,#115,.F.);
#539=ORIENTED_EDGE('',*,*,#107,.F.);
#540=CARTESIAN_POINT('',(0.0,2.7,0.0));
#541=DIRECTION('',(-0.0,0.0,1.0));
#542=DIRECTION('',(0.0,-1.0,0.0));
#543=CARTESIAN_POINT('',(0.0,0.0,-0.600000000000001));
#544=DIRECTION('',(0.0,0.0,-1.0));
#545=DIRECTION('',(0.0,1.0,0.0));
#546=DIRECTION('',(-8.65927457071934E-017,0.707106781186546,0.707106781186549));
#547=CARTESIAN_POINT('',(0.0,0.0,-0.600000000000001));
#548=DIRECTION('',(0.0,0.0,-1.0));
#549=DIRECTION('',(0.0,1.0,0.0));
#550=SURFACE_STYLE_FILL_AREA(#594);
#551=DIRECTION('',(-0.0,-0.0,1.0));
#552=DIRECTION('',(-8.65927457071934E-017,0.707106781186546,-0.707106781186549));
#553=CARTESIAN_POINT('',(0.0,0.0,-88.0));
#554=DIRECTION('',(0.0,0.0,-1.0));
#555=DIRECTION('',(0.5,0.866025403784439,0.0));
#556=CARTESIAN_POINT('',(0.0,0.0,-88.0));
#557=DIRECTION('',(0.0,0.0,-1.0));
#558=DIRECTION('',(0.5,0.866025403784439,0.0));
#559=SURFACE_STYLE_FILL_AREA(#595);
#560=ORIENTED_EDGE('',*,*,#89,.F.);
#561=ORIENTED_EDGE('',*,*,#131,.T.);
#562=ORIENTED_EDGE('',*,*,#105,.T.);
#563=CARTESIAN_POINT('',(0.0,0.0,-104.0));
#564=DIRECTION('',(0.0,1.0,0.0));
#565=DIRECTION('',(0.0,0.0,-1.0));
#566=SURFACE_STYLE_FILL_AREA(#596);
#567=ORIENTED_EDGE('',*,*,#159,.F.);
#568=ORIENTED_EDGE('',*,*,#115,.T.);
#569=ORIENTED_EDGE('',*,*,#145,.F.);
#570=ORIENTED_EDGE('',*,*,#151,.F.);
#571=ORIENTED_EDGE('',*,*,#173,.F.);
#572=CARTESIAN_POINT('',(0.0,0.0,-0.300000000000004));
#573=DIRECTION('',(0.0,-0.0,-1.0));
#574=DIRECTION('',(0.0,1.0,0.0));
#575=CARTESIAN_POINT('',(0.0,0.0,-0.600000000000001));
#576=DIRECTION('',(0.0,0.0,-1.0));
#577=DIRECTION('',(0.0,1.0,0.0));
#578=SURFACE_STYLE_FILL_AREA(#597);
#579=ORIENTED_EDGE('',*,*,#89,.T.);
#580=ORIENTED_EDGE('',*,*,#91,.T.);
#581=ORIENTED_EDGE('',*,*,#83,.T.);
#582=CARTESIAN_POINT('',(0.0,0.0,-104.0));
#583=DIRECTION('',(0.0,1.0,0.0));
#584=DIRECTION('',(0.0,0.0,-1.0));
#585=FILL_AREA_STYLE('',(#598));
#586=FILL_AREA_STYLE('',(#599));
#587=FILL_AREA_STYLE('',(#600));
#588=FILL_AREA_STYLE('',(#601));
#589=FILL_AREA_STYLE('',(#602));
#590=FILL_AREA_STYLE('',(#603));
#591=FILL_AREA_STYLE('',(#604));
#592=FILL_AREA_STYLE('',(#605));
#593=FILL_AREA_STYLE('',(#606));
#594=FILL_AREA_STYLE('',(#607));
#595=FILL_AREA_STYLE('',(#608));
#596=FILL_AREA_STYLE('',(#609));
#597=FILL_AREA_STYLE('',(#610));
#598=FILL_AREA_STYLE_COLOUR('',#611);
#599=FILL_AREA_STYLE_COLOUR('',#612);
#600=FILL_AREA_STYLE_COLOUR('',#613);
#601=FILL_AREA_STYLE_COLOUR('',#614);
#602=FILL_AREA_STYLE_COLOUR('',#615);
#603=FILL_AREA_STYLE_COLOUR('',#616);
#604=FILL_AREA_STYLE_COLOUR('',#617);
#605=FILL_AREA_STYLE_COLOUR('',#618);
#606=FILL_AREA_STYLE_COLOUR('',#619);
#607=FILL_AREA_STYLE_COLOUR('',#620);
#608=FILL_AREA_STYLE_COLOUR('',#621);
#609=FILL_AREA_STYLE_COLOUR('',#622);
#610=FILL_AREA_STYLE_COLOUR('',#623);
#611=COLOUR_RGB('',0.498039215803146,0.498039215803146,0.498039215803146);
#612=COLOUR_RGB('',0.800000011920929,0.800000011920929,0.800000011920929);
#613=COLOUR_RGB('',0.498039215803146,0.498039215803146,0.498039215803146);
#614=COLOUR_RGB('',0.800000011920929,0.800000011920929,0.800000011920929);
#615=COLOUR_RGB('',0.800000011920929,0.800000011920929,0.800000011920929);
#616=COLOUR_RGB('',0.498039215803146,0.498039215803146,0.498039215803146);
#617=COLOUR_RGB('',0.800000011920929,0.800000011920929,0.800000011920929);
#618=COLOUR_RGB('',0.498039215803146,0.498039215803146,0.498039215803146);
#619=COLOUR_RGB('',0.498039215803146,0.498039215803146,0.498039215803146);
#620=COLOUR_RGB('',0.498039215803146,0.498039215803146,0.498039215803146);
#621=COLOUR_RGB('',0.800000011920929,0.800000011920929,0.800000011920929);
#622=COLOUR_RGB('',0.498039215803146,0.498039215803146,0.498039215803146);
#623=COLOUR_RGB('',0.800000011920929,0.800000011920929,0.800000011920929);
#624=AXIS2_PLACEMENT_3D('PCS',#625,#626,#627);
#625=CARTESIAN_POINT('',(0.0,0.0,0.0));
#626=DIRECTION('',(0.0,0.0,1.0));
#627=DIRECTION('',(1.0,0.0,0.0));
#628=AXIS2_PLACEMENT_3D('MCS',#629,#630,#631);
#629=CARTESIAN_POINT('',(0.0,0.0,-45.0));
#630=DIRECTION('',(0.0,0.0,1.0));
#631=DIRECTION('',(1.0,0.0,0.0));
#632=AXIS2_PLACEMENT_3D('CIP',#633,#634,#635);
#633=CARTESIAN_POINT('',(0.0,0.0,-110.0));
#634=DIRECTION('',(0.0,0.0,1.0));
#635=DIRECTION('',(1.0,0.0,0.0));
#636=CONSTRUCTIVE_GEOMETRY_REPRESENTATION_RELATIONSHIP('coordinate systems',$,#66,#637);
#637=CONSTRUCTIVE_GEOMETRY_REPRESENTATION('coordinate systems',(#624,#628,#632),#10);
ENDSEC;
END-ISO-10303-21;
