ISO-10303-21;
HEADER;
FILE_DESCRIPTION(('no description'),'unknown implementation level');
FILE_NAME('3106700.stp','  ',('CIM GmbH Aachen'),('CADClick - KiM GmbH - www.kimweb.de'),'unknown preprocess','ACIS','unknown authorization');
FILE_SCHEMA(('automotive_design'));
ENDSEC;
DATA;
#1=MECHANICAL_DESIGN_GEOMETRIC_PRESENTATION_REPRESENTATION(' ',(#14,#15,#16,#17,#18,#19,#20,#21,#22,#23,#24,#25,#26,#27,#28,#29,#30,#31,#32,#33,#34,#35,#36,#37,#38,#39,#40,#41,#42,#43,#44,#45,#46,#47,#48,#49,#50,#51,#52,#53,#54,#55,#56,#57,#58,#59,#60,#61),#10);
#2=PRODUCT_DEFINITION_CONTEXT('',#62,'design');
#3=APPLICATION_PROTOCOL_DEFINITION('INTERNATIONAL STANDARD','automotive_design',1994,#62);
#4=PRODUCT_CATEGORY_RELATIONSHIP('NONE','NONE',#63,#64);
#5=SHAPE_DEFINITION_REPRESENTATION(#65,#66);
#6=PRODUCT_DEFINITION_CONTEXT('',#67,'design');
#7=APPLICATION_PROTOCOL_DEFINITION('INTERNATIONAL STANDARD','automotive_design',1994,#67);
#8=PRODUCT_CATEGORY_RELATIONSHIP('NONE','NONE',#68,#69);
#9=SHAPE_DEFINITION_REPRESENTATION(#70,#71);
#10= (GEOMETRIC_REPRESENTATION_CONTEXT(3)GLOBAL_UNCERTAINTY_ASSIGNED_CONTEXT((#74))GLOBAL_UNIT_ASSIGNED_CONTEXT((#76,#77,#78))REPRESENTATION_CONTEXT('NONE','WORKSPACE'));
#14=STYLED_ITEM('',(#80),#81);
#15=STYLED_ITEM('',(#82),#83);
#16=STYLED_ITEM('',(#84),#85);
#17=STYLED_ITEM('',(#86),#87);
#18=STYLED_ITEM('',(#88),#89);
#19=STYLED_ITEM('',(#90),#91);
#20=STYLED_ITEM('',(#92),#93);
#21=STYLED_ITEM('',(#94),#95);
#22=STYLED_ITEM('',(#96),#97);
#23=STYLED_ITEM('',(#98),#99);
#24=STYLED_ITEM('',(#100),#101);
#25=STYLED_ITEM('',(#102),#103);
#26=STYLED_ITEM('',(#104),#105);
#27=STYLED_ITEM('',(#106),#107);
#28=STYLED_ITEM('',(#108),#109);
#29=STYLED_ITEM('',(#110),#111);
#30=STYLED_ITEM('',(#112),#113);
#31=STYLED_ITEM('',(#114),#115);
#32=STYLED_ITEM('',(#116),#117);
#33=STYLED_ITEM('',(#118),#119);
#34=STYLED_ITEM('',(#120),#121);
#35=STYLED_ITEM('',(#122),#123);
#36=STYLED_ITEM('',(#124),#125);
#37=STYLED_ITEM('',(#126),#127);
#38=STYLED_ITEM('',(#128),#129);
#39=STYLED_ITEM('',(#130),#131);
#40=STYLED_ITEM('',(#132),#133);
#41=STYLED_ITEM('',(#134),#135);
#42=STYLED_ITEM('',(#136),#137);
#43=STYLED_ITEM('',(#138),#139);
#44=STYLED_ITEM('',(#140),#141);
#45=STYLED_ITEM('',(#142),#143);
#46=STYLED_ITEM('',(#144),#145);
#47=STYLED_ITEM('',(#146),#147);
#48=STYLED_ITEM('',(#148),#149);
#49=STYLED_ITEM('',(#150),#151);
#50=STYLED_ITEM('',(#152),#153);
#51=STYLED_ITEM('',(#154),#155);
#52=STYLED_ITEM('',(#156),#157);
#53=STYLED_ITEM('',(#158),#159);
#54=STYLED_ITEM('',(#160),#161);
#55=STYLED_ITEM('',(#162),#163);
#56=STYLED_ITEM('',(#164),#165);
#57=STYLED_ITEM('',(#166),#167);
#58=STYLED_ITEM('',(#168),#169);
#59=STYLED_ITEM('',(#170),#171);
#60=STYLED_ITEM('',(#172),#173);
#61=STYLED_ITEM('',(#174),#175);
#62=APPLICATION_CONTEXT(' ');
#63=PRODUCT_CATEGORY('part','NONE');
#64=PRODUCT_RELATED_PRODUCT_CATEGORY('detail',' ',(#176));
#65=PRODUCT_DEFINITION_SHAPE('NONE','NONE',#177);
#66=ADVANCED_BREP_SHAPE_REPRESENTATION('1',(#173,#178),#10);
#67=APPLICATION_CONTEXT(' ');
#68=PRODUCT_CATEGORY('part','NONE');
#69=PRODUCT_RELATED_PRODUCT_CATEGORY('detail',' ',(#179));
#70=PRODUCT_DEFINITION_SHAPE('NONE','NONE',#180);
#71=ADVANCED_BREP_SHAPE_REPRESENTATION('2',(#129,#181),#10);
#74=UNCERTAINTY_MEASURE_WITH_UNIT(LENGTH_MEASURE(1.0E-006),#76,'','');
#76= (CONVERSION_BASED_UNIT('MILLIMETRE',#184)LENGTH_UNIT()NAMED_UNIT(#187));
#77= (NAMED_UNIT(#189)PLANE_ANGLE_UNIT()SI_UNIT($,.RADIAN.));
#78= (NAMED_UNIT(#189)SOLID_ANGLE_UNIT()SI_UNIT($,.STERADIAN.));
#80=PRESENTATION_STYLE_ASSIGNMENT((#195));
#81=EDGE_CURVE('',#117,#107,#196,.T.);
#82=PRESENTATION_STYLE_ASSIGNMENT((#197));
#83=EDGE_CURVE('',#131,#153,#198,.T.);
#84=PRESENTATION_STYLE_ASSIGNMENT((#199));
#85=EDGE_CURVE('',#139,#145,#200,.T.);
#86=PRESENTATION_STYLE_ASSIGNMENT((#201));
#87=ADVANCED_FACE('',(#202),#203,.T.);
#88=PRESENTATION_STYLE_ASSIGNMENT((#204));
#89=VERTEX_POINT('',#205);
#90=PRESENTATION_STYLE_ASSIGNMENT((#206));
#91=VERTEX_POINT('',#207);
#92=PRESENTATION_STYLE_ASSIGNMENT((#208));
#93=EDGE_CURVE('',#157,#91,#209,.T.);
#94=PRESENTATION_STYLE_ASSIGNMENT((#210));
#95=ADVANCED_FACE('',(#211),#212,.T.);
#96=PRESENTATION_STYLE_ASSIGNMENT((#213));
#97=ADVANCED_FACE('',(#214),#215,.T.);
#98=PRESENTATION_STYLE_ASSIGNMENT((#216));
#99=ADVANCED_FACE('',(#217),#218,.T.);
#100=PRESENTATION_STYLE_ASSIGNMENT((#219));
#101=EDGE_CURVE('',#167,#145,#220,.T.);
#102=PRESENTATION_STYLE_ASSIGNMENT((#221));
#103=ADVANCED_FACE('',(#222),#223,.T.);
#104=PRESENTATION_STYLE_ASSIGNMENT((#224));
#105=EDGE_CURVE('',#113,#171,#225,.T.);
#106=PRESENTATION_STYLE_ASSIGNMENT((#226));
#107=VERTEX_POINT('',#227);
#108=PRESENTATION_STYLE_ASSIGNMENT((#228));
#109=EDGE_CURVE('',#117,#121,#229,.T.);
#110=PRESENTATION_STYLE_ASSIGNMENT((#230));
#111=VERTEX_POINT('',#231);
#112=PRESENTATION_STYLE_ASSIGNMENT((#232));
#113=VERTEX_POINT('',#233);
#114=PRESENTATION_STYLE_ASSIGNMENT((#234));
#115=EDGE_CURVE('',#171,#113,#235,.T.);
#116=PRESENTATION_STYLE_ASSIGNMENT((#236));
#117=VERTEX_POINT('',#237);
#118=PRESENTATION_STYLE_ASSIGNMENT((#238));
#119=ADVANCED_FACE('',(#239),#240,.T.);
#120=PRESENTATION_STYLE_ASSIGNMENT((#241));
#121=VERTEX_POINT('',#242);
#122=PRESENTATION_STYLE_ASSIGNMENT((#243));
#123=EDGE_CURVE('',#153,#167,#244,.T.);
#124=PRESENTATION_STYLE_ASSIGNMENT((#245));
#125=EDGE_CURVE('',#107,#157,#246,.T.);
#126=PRESENTATION_STYLE_ASSIGNMENT((#247));
#127=EDGE_CURVE('',#157,#111,#248,.T.);
#128=PRESENTATION_STYLE_ASSIGNMENT((#249));
#129=MANIFOLD_SOLID_BREP('2',#250);
#130=PRESENTATION_STYLE_ASSIGNMENT((#251));
#131=VERTEX_POINT('',#252);
#132=PRESENTATION_STYLE_ASSIGNMENT((#253));
#133=ADVANCED_FACE('',(#254),#255,.T.);
#134=PRESENTATION_STYLE_ASSIGNMENT((#256));
#135=ADVANCED_FACE('',(#257),#258,.T.);
#136=PRESENTATION_STYLE_ASSIGNMENT((#259));
#137=EDGE_CURVE('',#139,#171,#260,.T.);
#138=PRESENTATION_STYLE_ASSIGNMENT((#261));
#139=VERTEX_POINT('',#262);
#140=PRESENTATION_STYLE_ASSIGNMENT((#263));
#141=EDGE_CURVE('',#167,#153,#264,.T.);
#142=PRESENTATION_STYLE_ASSIGNMENT((#265));
#143=EDGE_CURVE('',#111,#107,#266,.T.);
#144=PRESENTATION_STYLE_ASSIGNMENT((#267));
#145=VERTEX_POINT('',#268);
#146=PRESENTATION_STYLE_ASSIGNMENT((#269));
#147=EDGE_CURVE('',#91,#121,#270,.T.);
#148=PRESENTATION_STYLE_ASSIGNMENT((#271));
#149=ADVANCED_FACE('',(#272),#273,.T.);
#150=PRESENTATION_STYLE_ASSIGNMENT((#274));
#151=EDGE_CURVE('',#121,#117,#275,.T.);
#152=PRESENTATION_STYLE_ASSIGNMENT((#276));
#153=VERTEX_POINT('',#277);
#154=PRESENTATION_STYLE_ASSIGNMENT((#278));
#155=EDGE_CURVE('',#145,#89,#279,.T.);
#156=PRESENTATION_STYLE_ASSIGNMENT((#280));
#157=VERTEX_POINT('',#281);
#158=PRESENTATION_STYLE_ASSIGNMENT((#282));
#159=ADVANCED_FACE('',(#283),#284,.T.);
#160=PRESENTATION_STYLE_ASSIGNMENT((#285));
#161=EDGE_CURVE('',#91,#111,#286,.T.);
#162=PRESENTATION_STYLE_ASSIGNMENT((#287));
#163=EDGE_CURVE('',#113,#89,#288,.T.);
#164=PRESENTATION_STYLE_ASSIGNMENT((#289));
#165=EDGE_CURVE('',#89,#131,#290,.T.);
#166=PRESENTATION_STYLE_ASSIGNMENT((#291));
#167=VERTEX_POINT('',#292);
#168=PRESENTATION_STYLE_ASSIGNMENT((#293));
#169=EDGE_CURVE('',#131,#139,#294,.T.);
#170=PRESENTATION_STYLE_ASSIGNMENT((#295));
#171=VERTEX_POINT('',#296);
#172=PRESENTATION_STYLE_ASSIGNMENT((#297));
#173=MANIFOLD_SOLID_BREP('1',#298);
#174=PRESENTATION_STYLE_ASSIGNMENT((#299));
#175=ADVANCED_FACE('',(#300),#301,.T.);
#176=PRODUCT('1','1','PART-1-DESC',(#302));
#177=PRODUCT_DEFINITION('NONE','NONE',#303,#2);
#178=AXIS2_PLACEMENT_3D('',#304,#305,#306);
#179=PRODUCT('2','2','PART-2-DESC',(#307));
#180=PRODUCT_DEFINITION('NONE','NONE',#308,#6);
#181=AXIS2_PLACEMENT_3D('',#309,#310,#311);
#184=LENGTH_MEASURE_WITH_UNIT(LENGTH_MEASURE(1.0),#312);
#187=DIMENSIONAL_EXPONENTS(1.0,0.0,0.0,0.0,0.0,0.0,0.0);
#189=DIMENSIONAL_EXPONENTS(0.0,0.0,0.0,0.0,0.0,0.0,0.0);
#195=CURVE_STYLE('',#313,POSITIVE_LENGTH_MEASURE(1.0E-006),#314);
#196=LINE('',#315,#316);
#197=CURVE_STYLE('',#317,POSITIVE_LENGTH_MEASURE(1.0E-006),#318);
#198=LINE('',#319,#320);
#199=CURVE_STYLE('',#321,POSITIVE_LENGTH_MEASURE(1.0E-006),#322);
#200=CIRCLE('',#323,10.0);
#201=SURFACE_STYLE_USAGE(.BOTH.,#324);
#202=FACE_OUTER_BOUND('',#325,.T.);
#203=PLANE('',#326);
#204=POINT_STYLE(' ',#327,POSITIVE_LENGTH_MEASURE(1.0E-006),#328);
#205=CARTESIAN_POINT('',(10.0,1.22460635382238E-015,-1.0));
#206=POINT_STYLE(' ',#329,POSITIVE_LENGTH_MEASURE(1.0E-006),#330);
#207=CARTESIAN_POINT('',(-5.0,-8.66025403784439,-150.0));
#208=CURVE_STYLE('',#331,POSITIVE_LENGTH_MEASURE(1.0E-006),#332);
#209=CIRCLE('',#333,10.0);
#210=SURFACE_STYLE_USAGE(.BOTH.,#334);
#211=FACE_OUTER_BOUND('',#335,.T.);
#212=PLANE('',#336);
#213=SURFACE_STYLE_USAGE(.BOTH.,#337);
#214=FACE_OUTER_BOUND('',#338,.T.);
#215=PLANE('',#339);
#216=SURFACE_STYLE_USAGE(.BOTH.,#340);
#217=FACE_OUTER_BOUND('',#341,.T.);
#218=CONICAL_SURFACE('',#342,9.5,0.785398163397448);
#219=CURVE_STYLE('',#343,POSITIVE_LENGTH_MEASURE(1.0E-006),#344);
#220=LINE('',#345,#346);
#221=SURFACE_STYLE_USAGE(.BOTH.,#347);
#222=FACE_OUTER_BOUND('',#348,.T.);
#223=SPHERICAL_SURFACE('',#349,10.0);
#224=CURVE_STYLE('',#350,POSITIVE_LENGTH_MEASURE(1.0E-006),#351);
#225=CIRCLE('',#352,10.0);
#226=POINT_STYLE(' ',#353,POSITIVE_LENGTH_MEASURE(1.0E-006),#354);
#227=CARTESIAN_POINT('',(5.0,8.66025403784439,-150.0));
#228=CURVE_STYLE('',#355,POSITIVE_LENGTH_MEASURE(1.0E-006),#356);
#229=CIRCLE('',#357,10.0);
#230=POINT_STYLE(' ',#358,POSITIVE_LENGTH_MEASURE(1.0E-006),#359);
#231=CARTESIAN_POINT('',(3.48054059549661E-030,10.0,-150.0));
#232=POINT_STYLE(' ',#360,POSITIVE_LENGTH_MEASURE(1.0E-006),#361);
#233=CARTESIAN_POINT('',(10.0,1.22460635382238E-015,-122.0));
#234=CURVE_STYLE('',#362,POSITIVE_LENGTH_MEASURE(1.0E-006),#363);
#235=CIRCLE('',#364,10.0);
#236=POINT_STYLE(' ',#365,POSITIVE_LENGTH_MEASURE(1.0E-006),#366);
#237=CARTESIAN_POINT('',(5.0,8.66025403784439,-122.0));
#238=SURFACE_STYLE_USAGE(.BOTH.,#367);
#239=FACE_OUTER_BOUND('',#368,.T.);
#240=CYLINDRICAL_SURFACE('',#369,10.0);
#241=POINT_STYLE(' ',#370,POSITIVE_LENGTH_MEASURE(1.0E-006),#371);
#242=CARTESIAN_POINT('',(-5.0,-8.66025403784439,-122.0));
#243=CURVE_STYLE('',#372,POSITIVE_LENGTH_MEASURE(1.0E-006),#373);
#244=CIRCLE('',#374,9.0);
#245=CURVE_STYLE('',#375,POSITIVE_LENGTH_MEASURE(1.0E-006),#376);
#246=CIRCLE('',#377,10.0);
#247=CURVE_STYLE('',#378,POSITIVE_LENGTH_MEASURE(1.0E-006),#379);
#248=CIRCLE('',#380,10.0);
#249=SURFACE_STYLE_USAGE(.BOTH.,#381);
#250=CLOSED_SHELL('',(#175,#149,#103,#95,#135));
#251=POINT_STYLE(' ',#382,POSITIVE_LENGTH_MEASURE(1.0E-006),#383);
#252=CARTESIAN_POINT('',(1.22460635382238E-015,-10.0,-1.0));
#253=SURFACE_STYLE_USAGE(.BOTH.,#384);
#254=FACE_OUTER_BOUND('',#385,.T.);
#255=CONICAL_SURFACE('',#386,9.5,0.785398163397448);
#256=SURFACE_STYLE_USAGE(.BOTH.,#387);
#257=FACE_OUTER_BOUND('',#388,.T.);
#258=CYLINDRICAL_SURFACE('',#389,10.0);
#259=CURVE_STYLE('',#390,POSITIVE_LENGTH_MEASURE(1.0E-006),#391);
#260=LINE('',#392,#393);
#261=POINT_STYLE(' ',#394,POSITIVE_LENGTH_MEASURE(1.0E-006),#395);
#262=CARTESIAN_POINT('',(-10.0,-1.22460635382238E-015,-1.0));
#263=CURVE_STYLE('',#396,POSITIVE_LENGTH_MEASURE(1.0E-006),#397);
#264=CIRCLE('',#398,9.0);
#265=CURVE_STYLE('',#399,POSITIVE_LENGTH_MEASURE(1.0E-006),#400);
#266=CIRCLE('',#401,10.0);
#267=POINT_STYLE(' ',#402,POSITIVE_LENGTH_MEASURE(1.0E-006),#403);
#268=CARTESIAN_POINT('',(0.0,10.0,-1.0));
#269=CURVE_STYLE('',#404,POSITIVE_LENGTH_MEASURE(1.0E-006),#405);
#270=LINE('',#406,#407);
#271=SURFACE_STYLE_USAGE(.BOTH.,#408);
#272=FACE_OUTER_BOUND('',#409,.T.);
#273=SPHERICAL_SURFACE('',#410,10.0);
#274=CURVE_STYLE('',#411,POSITIVE_LENGTH_MEASURE(1.0E-006),#412);
#275=CIRCLE('',#413,10.0);
#276=POINT_STYLE(' ',#414,POSITIVE_LENGTH_MEASURE(1.0E-006),#415);
#277=CARTESIAN_POINT('',(1.10214571844014E-015,-9.0,0.0));
#278=CURVE_STYLE('',#416,POSITIVE_LENGTH_MEASURE(1.0E-006),#417);
#279=CIRCLE('',#418,10.0);
#280=POINT_STYLE(' ',#419,POSITIVE_LENGTH_MEASURE(1.0E-006),#420);
#281=CARTESIAN_POINT('',(3.48054059549661E-030,-10.0,-150.0));
#282=SURFACE_STYLE_USAGE(.BOTH.,#421);
#283=FACE_OUTER_BOUND('',#422,.T.);
#284=CYLINDRICAL_SURFACE('',#423,10.0);
#285=CURVE_STYLE('',#424,POSITIVE_LENGTH_MEASURE(1.0E-006),#425);
#286=CIRCLE('',#426,10.0);
#287=CURVE_STYLE('',#427,POSITIVE_LENGTH_MEASURE(1.0E-006),#428);
#288=LINE('',#429,#430);
#289=CURVE_STYLE('',#431,POSITIVE_LENGTH_MEASURE(1.0E-006),#432);
#290=CIRCLE('',#433,10.0);
#291=POINT_STYLE(' ',#434,POSITIVE_LENGTH_MEASURE(1.0E-006),#435);
#292=CARTESIAN_POINT('',(0.0,9.0,0.0));
#293=CURVE_STYLE('',#436,POSITIVE_LENGTH_MEASURE(1.0E-006),#437);
#294=CIRCLE('',#438,10.0);
#295=POINT_STYLE(' ',#439,POSITIVE_LENGTH_MEASURE(1.0E-006),#440);
#296=CARTESIAN_POINT('',(-10.0,0.0,-122.0));
#297=SURFACE_STYLE_USAGE(.BOTH.,#441);
#298=CLOSED_SHELL('',(#119,#133,#97,#99,#159,#87));
#299=SURFACE_STYLE_USAGE(.BOTH.,#442);
#300=FACE_OUTER_BOUND('',#443,.T.);
#301=CYLINDRICAL_SURFACE('',#444,10.0);
#302=PRODUCT_CONTEXT('',#62,'mechanical');
#303=PRODUCT_DEFINITION_FORMATION_WITH_SPECIFIED_SOURCE(' ','NONE',#176,.NOT_KNOWN.);
#304=CARTESIAN_POINT('',(0.0,0.0,0.0));
#305=DIRECTION('',(0.0,0.0,1.0));
#306=DIRECTION('',(1.0,0.0,0.0));
#307=PRODUCT_CONTEXT('',#67,'mechanical');
#308=PRODUCT_DEFINITION_FORMATION_WITH_SPECIFIED_SOURCE(' ','NONE',#179,.NOT_KNOWN.);
#309=CARTESIAN_POINT('',(0.0,0.0,0.0));
#310=DIRECTION('',(0.0,0.0,1.0));
#311=DIRECTION('',(1.0,0.0,0.0));
#312= (NAMED_UNIT(#187)LENGTH_UNIT()SI_UNIT(.MILLI.,.METRE.));
#313=DRAUGHTING_PRE_DEFINED_CURVE_FONT('continuous');
#314=COLOUR_RGB('',0.800000011920929,0.800000011920929,0.800000011920929);
#315=CARTESIAN_POINT('',(5.0,8.66025403784439,-136.0));
#316=VECTOR('',#446,1.0);
#317=DRAUGHTING_PRE_DEFINED_CURVE_FONT('continuous');
#318=COLOUR_RGB('',0.498039215803146,0.498039215803146,0.498039215803146);
#319=CARTESIAN_POINT('',(1.16337603613126E-015,-9.5,-0.5));
#320=VECTOR('',#447,1.0);
#321=DRAUGHTING_PRE_DEFINED_CURVE_FONT('continuous');
#322=COLOUR_RGB('',0.498039215803146,0.498039215803146,0.498039215803146);
#323=AXIS2_PLACEMENT_3D('',#448,#449,#450);
#324=SURFACE_SIDE_STYLE('',(#451));
#325=EDGE_LOOP('',(#452,#453));
#326=AXIS2_PLACEMENT_3D('',#454,#455,#456);
#327=PRE_DEFINED_MARKER('');
#328=COLOUR_RGB('',0.498039215803146,0.498039215803146,0.498039215803146);
#329=PRE_DEFINED_MARKER('');
#330=COLOUR_RGB('',0.800000011920929,0.800000011920929,0.800000011920929);
#331=DRAUGHTING_PRE_DEFINED_CURVE_FONT('continuous');
#332=COLOUR_RGB('',0.800000011920929,0.800000011920929,0.800000011920929);
#333=AXIS2_PLACEMENT_3D('',#457,#458,#459);
#334=SURFACE_SIDE_STYLE('',(#460));
#335=EDGE_LOOP('',(#461,#462));
#336=AXIS2_PLACEMENT_3D('',#463,#464,#465);
#337=SURFACE_SIDE_STYLE('',(#466));
#338=EDGE_LOOP('',(#467,#468));
#339=AXIS2_PLACEMENT_3D('',#469,#470,#471);
#340=SURFACE_SIDE_STYLE('',(#472));
#341=EDGE_LOOP('',(#473,#474,#475,#476,#477));
#342=AXIS2_PLACEMENT_3D('',#478,#479,#480);
#343=DRAUGHTING_PRE_DEFINED_CURVE_FONT('continuous');
#344=COLOUR_RGB('',0.498039215803146,0.498039215803146,0.498039215803146);
#345=CARTESIAN_POINT('',(-1.16337603613126E-015,9.5,-0.5));
#346=VECTOR('',#481,1.0);
#347=SURFACE_SIDE_STYLE('',(#482));
#348=EDGE_LOOP('',(#483,#484,#485));
#349=AXIS2_PLACEMENT_3D('',#486,#487,#488);
#350=DRAUGHTING_PRE_DEFINED_CURVE_FONT('continuous');
#351=COLOUR_RGB('',0.498039215803146,0.498039215803146,0.498039215803146);
#352=AXIS2_PLACEMENT_3D('',#489,#490,#491);
#353=PRE_DEFINED_MARKER('');
#354=COLOUR_RGB('',0.800000011920929,0.800000011920929,0.800000011920929);
#355=DRAUGHTING_PRE_DEFINED_CURVE_FONT('continuous');
#356=COLOUR_RGB('',0.800000011920929,0.800000011920929,0.800000011920929);
#357=AXIS2_PLACEMENT_3D('',#492,#493,#494);
#358=PRE_DEFINED_MARKER('');
#359=COLOUR_RGB('',0.800000011920929,0.800000011920929,0.800000011920929);
#360=PRE_DEFINED_MARKER('');
#361=COLOUR_RGB('',0.498039215803146,0.498039215803146,0.498039215803146);
#362=DRAUGHTING_PRE_DEFINED_CURVE_FONT('continuous');
#363=COLOUR_RGB('',0.498039215803146,0.498039215803146,0.498039215803146);
#364=AXIS2_PLACEMENT_3D('',#495,#496,#497);
#365=PRE_DEFINED_MARKER('');
#366=COLOUR_RGB('',0.800000011920929,0.800000011920929,0.800000011920929);
#367=SURFACE_SIDE_STYLE('',(#498));
#368=EDGE_LOOP('',(#499,#500,#501,#502,#503));
#369=AXIS2_PLACEMENT_3D('',#504,#505,#506);
#370=PRE_DEFINED_MARKER('');
#371=COLOUR_RGB('',0.800000011920929,0.800000011920929,0.800000011920929);
#372=DRAUGHTING_PRE_DEFINED_CURVE_FONT('continuous');
#373=COLOUR_RGB('',0.498039215803146,0.498039215803146,0.498039215803146);
#374=AXIS2_PLACEMENT_3D('',#507,#508,#509);
#375=DRAUGHTING_PRE_DEFINED_CURVE_FONT('continuous');
#376=COLOUR_RGB('',0.800000011920929,0.800000011920929,0.800000011920929);
#377=AXIS2_PLACEMENT_3D('',#510,#511,#512);
#378=DRAUGHTING_PRE_DEFINED_CURVE_FONT('continuous');
#379=COLOUR_RGB('',0.800000011920929,0.800000011920929,0.800000011920929);
#380=AXIS2_PLACEMENT_3D('',#513,#514,#515);
#381=SURFACE_SIDE_STYLE('',(#516));
#382=PRE_DEFINED_MARKER('');
#383=COLOUR_RGB('',0.498039215803146,0.498039215803146,0.498039215803146);
#384=SURFACE_SIDE_STYLE('',(#517));
#385=EDGE_LOOP('',(#518,#519,#520,#521,#522));
#386=AXIS2_PLACEMENT_3D('',#523,#524,#525);
#387=SURFACE_SIDE_STYLE('',(#526));
#388=EDGE_LOOP('',(#527,#528,#529,#530,#531));
#389=AXIS2_PLACEMENT_3D('',#532,#533,#534);
#390=DRAUGHTING_PRE_DEFINED_CURVE_FONT('continuous');
#391=COLOUR_RGB('',0.498039215803146,0.498039215803146,0.498039215803146);
#392=CARTESIAN_POINT('',(-10.0,-1.22460635382238E-015,-86.0));
#393=VECTOR('',#535,1.0);
#394=PRE_DEFINED_MARKER('');
#395=COLOUR_RGB('',0.498039215803146,0.498039215803146,0.498039215803146);
#396=DRAUGHTING_PRE_DEFINED_CURVE_FONT('continuous');
#397=COLOUR_RGB('',0.498039215803146,0.498039215803146,0.498039215803146);
#398=AXIS2_PLACEMENT_3D('',#536,#537,#538);
#399=DRAUGHTING_PRE_DEFINED_CURVE_FONT('continuous');
#400=COLOUR_RGB('',0.800000011920929,0.800000011920929,0.800000011920929);
#401=AXIS2_PLACEMENT_3D('',#539,#540,#541);
#402=PRE_DEFINED_MARKER('');
#403=COLOUR_RGB('',0.498039215803146,0.498039215803146,0.498039215803146);
#404=DRAUGHTING_PRE_DEFINED_CURVE_FONT('continuous');
#405=COLOUR_RGB('',0.800000011920929,0.800000011920929,0.800000011920929);
#406=CARTESIAN_POINT('',(-5.0,-8.66025403784439,-136.0));
#407=VECTOR('',#542,1.0);
#408=SURFACE_SIDE_STYLE('',(#543));
#409=EDGE_LOOP('',(#544,#545,#546));
#410=AXIS2_PLACEMENT_3D('',#547,#548,#549);
#411=DRAUGHTING_PRE_DEFINED_CURVE_FONT('continuous');
#412=COLOUR_RGB('',0.800000011920929,0.800000011920929,0.800000011920929);
#413=AXIS2_PLACEMENT_3D('',#550,#551,#552);
#414=PRE_DEFINED_MARKER('');
#415=COLOUR_RGB('',0.498039215803146,0.498039215803146,0.498039215803146);
#416=DRAUGHTING_PRE_DEFINED_CURVE_FONT('continuous');
#417=COLOUR_RGB('',0.498039215803146,0.498039215803146,0.498039215803146);
#418=AXIS2_PLACEMENT_3D('',#553,#554,#555);
#419=PRE_DEFINED_MARKER('');
#420=COLOUR_RGB('',0.800000011920929,0.800000011920929,0.800000011920929);
#421=SURFACE_SIDE_STYLE('',(#556));
#422=EDGE_LOOP('',(#557,#558,#559,#560,#561));
#423=AXIS2_PLACEMENT_3D('',#562,#563,#564);
#424=DRAUGHTING_PRE_DEFINED_CURVE_FONT('continuous');
#425=COLOUR_RGB('',0.800000011920929,0.800000011920929,0.800000011920929);
#426=AXIS2_PLACEMENT_3D('',#565,#566,#567);
#427=DRAUGHTING_PRE_DEFINED_CURVE_FONT('continuous');
#428=COLOUR_RGB('',0.498039215803146,0.498039215803146,0.498039215803146);
#429=CARTESIAN_POINT('',(10.0,1.22460635382238E-015,-86.0));
#430=VECTOR('',#568,1.0);
#431=DRAUGHTING_PRE_DEFINED_CURVE_FONT('continuous');
#432=COLOUR_RGB('',0.498039215803146,0.498039215803146,0.498039215803146);
#433=AXIS2_PLACEMENT_3D('',#569,#570,#571);
#434=PRE_DEFINED_MARKER('');
#435=COLOUR_RGB('',0.498039215803146,0.498039215803146,0.498039215803146);
#436=DRAUGHTING_PRE_DEFINED_CURVE_FONT('continuous');
#437=COLOUR_RGB('',0.498039215803146,0.498039215803146,0.498039215803146);
#438=AXIS2_PLACEMENT_3D('',#572,#573,#574);
#439=PRE_DEFINED_MARKER('');
#440=COLOUR_RGB('',0.498039215803146,0.498039215803146,0.498039215803146);
#441=SURFACE_SIDE_STYLE('',(#575));
#442=SURFACE_SIDE_STYLE('',(#576));
#443=EDGE_LOOP('',(#577,#578,#579,#580,#581));
#444=AXIS2_PLACEMENT_3D('',#582,#583,#584);
#446=DIRECTION('',(0.0,0.0,-1.0));
#447=DIRECTION('',(-8.65927457071936E-017,0.707106781186548,0.707106781186548));
#448=CARTESIAN_POINT('',(0.0,0.0,-1.0));
#449=DIRECTION('',(0.0,0.0,-1.0));
#450=DIRECTION('',(0.0,1.0,0.0));
#451=SURFACE_STYLE_FILL_AREA(#585);
#452=ORIENTED_EDGE('',*,*,#115,.T.);
#453=ORIENTED_EDGE('',*,*,#105,.T.);
#454=CARTESIAN_POINT('',(-5.0,0.0,-122.0));
#455=DIRECTION('',(0.0,0.0,-1.0));
#456=DIRECTION('',(-1.0,0.0,0.0));
#457=CARTESIAN_POINT('',(0.0,0.0,-150.0));
#458=DIRECTION('',(0.0,0.0,-1.0));
#459=DIRECTION('',(0.5,0.866025403784439,0.0));
#460=SURFACE_STYLE_FILL_AREA(#586);
#461=ORIENTED_EDGE('',*,*,#109,.F.);
#462=ORIENTED_EDGE('',*,*,#151,.F.);
#463=CARTESIAN_POINT('',(2.5,4.33012701892219,-122.0));
#464=DIRECTION('',(0.0,0.0,1.0));
#465=DIRECTION('',(-0.5,-0.866025403784439,0.0));
#466=SURFACE_STYLE_FILL_AREA(#587);
#467=ORIENTED_EDGE('',*,*,#141,.F.);
#468=ORIENTED_EDGE('',*,*,#123,.F.);
#469=CARTESIAN_POINT('',(0.0,4.5,0.0));
#470=DIRECTION('',(-0.0,0.0,1.0));
#471=DIRECTION('',(0.0,-1.0,0.0));
#472=SURFACE_STYLE_FILL_AREA(#588);
#473=ORIENTED_EDGE('',*,*,#101,.T.);
#474=ORIENTED_EDGE('',*,*,#85,.F.);
#475=ORIENTED_EDGE('',*,*,#169,.F.);
#476=ORIENTED_EDGE('',*,*,#83,.T.);
#477=ORIENTED_EDGE('',*,*,#123,.T.);
#478=CARTESIAN_POINT('',(0.0,0.0,-0.5));
#479=DIRECTION('',(0.0,-0.0,-1.0));
#480=DIRECTION('',(0.0,1.0,0.0));
#481=DIRECTION('',(-8.65927457071936E-017,0.707106781186548,-0.707106781186548));
#482=SURFACE_STYLE_FILL_AREA(#589);
#483=ORIENTED_EDGE('',*,*,#127,.T.);
#484=ORIENTED_EDGE('',*,*,#143,.T.);
#485=ORIENTED_EDGE('',*,*,#125,.T.);
#486=CARTESIAN_POINT('',(0.0,0.0,-150.0));
#487=DIRECTION('',(0.0,1.0,0.0));
#488=DIRECTION('',(0.0,0.0,-1.0));
#489=CARTESIAN_POINT('',(0.0,0.0,-122.0));
#490=DIRECTION('',(0.0,0.0,-1.0));
#491=DIRECTION('',(-1.0,0.0,0.0));
#492=CARTESIAN_POINT('',(0.0,0.0,-122.0));
#493=DIRECTION('',(0.0,0.0,-1.0));
#494=DIRECTION('',(0.5,0.866025403784439,0.0));
#495=CARTESIAN_POINT('',(0.0,0.0,-122.0));
#496=DIRECTION('',(0.0,0.0,-1.0));
#497=DIRECTION('',(-1.0,0.0,0.0));
#498=SURFACE_STYLE_FILL_AREA(#590);
#499=ORIENTED_EDGE('',*,*,#137,.F.);
#500=ORIENTED_EDGE('',*,*,#85,.T.);
#501=ORIENTED_EDGE('',*,*,#155,.T.);
#502=ORIENTED_EDGE('',*,*,#163,.F.);
#503=ORIENTED_EDGE('',*,*,#115,.F.);
#504=CARTESIAN_POINT('',(0.0,0.0,-86.0));
#505=DIRECTION('',(-0.0,-0.0,1.0));
#506=DIRECTION('',(-1.0,0.0,0.0));
#507=CARTESIAN_POINT('',(0.0,0.0,0.0));
#508=DIRECTION('',(0.0,0.0,-1.0));
#509=DIRECTION('',(0.0,1.0,0.0));
#510=CARTESIAN_POINT('',(0.0,0.0,-150.0));
#511=DIRECTION('',(0.0,0.0,-1.0));
#512=DIRECTION('',(0.5,0.866025403784439,0.0));
#513=CARTESIAN_POINT('',(0.0,0.0,-150.0));
#514=DIRECTION('',(1.0,0.0,1.22460635382238E-016));
#515=DIRECTION('',(-1.22460635382238E-016,0.0,1.0));
#516=SURFACE_STYLE_FILL_AREA(#591);
#517=SURFACE_STYLE_FILL_AREA(#592);
#518=ORIENTED_EDGE('',*,*,#101,.F.);
#519=ORIENTED_EDGE('',*,*,#141,.T.);
#520=ORIENTED_EDGE('',*,*,#83,.F.);
#521=ORIENTED_EDGE('',*,*,#165,.F.);
#522=ORIENTED_EDGE('',*,*,#155,.F.);
#523=CARTESIAN_POINT('',(0.0,0.0,-0.5));
#524=DIRECTION('',(0.0,-0.0,-1.0));
#525=DIRECTION('',(0.0,1.0,0.0));
#526=SURFACE_STYLE_FILL_AREA(#593);
#527=ORIENTED_EDGE('',*,*,#81,.T.);
#528=ORIENTED_EDGE('',*,*,#143,.F.);
#529=ORIENTED_EDGE('',*,*,#161,.F.);
#530=ORIENTED_EDGE('',*,*,#147,.T.);
#531=ORIENTED_EDGE('',*,*,#151,.T.);
#532=CARTESIAN_POINT('',(0.0,0.0,-136.0));
#533=DIRECTION('',(-0.0,-0.0,1.0));
#534=DIRECTION('',(0.5,0.866025403784439,0.0));
#535=DIRECTION('',(0.0,0.0,-1.0));
#536=CARTESIAN_POINT('',(0.0,0.0,0.0));
#537=DIRECTION('',(0.0,0.0,-1.0));
#538=DIRECTION('',(0.0,1.0,0.0));
#539=CARTESIAN_POINT('',(0.0,0.0,-150.0));
#540=DIRECTION('',(0.0,0.0,-1.0));
#541=DIRECTION('',(0.5,0.866025403784439,0.0));
#542=DIRECTION('',(-0.0,-0.0,1.0));
#543=SURFACE_STYLE_FILL_AREA(#594);
#544=ORIENTED_EDGE('',*,*,#127,.F.);
#545=ORIENTED_EDGE('',*,*,#93,.T.);
#546=ORIENTED_EDGE('',*,*,#161,.T.);
#547=CARTESIAN_POINT('',(0.0,0.0,-150.0));
#548=DIRECTION('',(0.0,1.0,0.0));
#549=DIRECTION('',(0.0,0.0,-1.0));
#550=CARTESIAN_POINT('',(0.0,0.0,-122.0));
#551=DIRECTION('',(0.0,0.0,-1.0));
#552=DIRECTION('',(0.5,0.866025403784439,0.0));
#553=CARTESIAN_POINT('',(0.0,0.0,-1.0));
#554=DIRECTION('',(0.0,0.0,-1.0));
#555=DIRECTION('',(0.0,1.0,0.0));
#556=SURFACE_STYLE_FILL_AREA(#595);
#557=ORIENTED_EDGE('',*,*,#137,.T.);
#558=ORIENTED_EDGE('',*,*,#105,.F.);
#559=ORIENTED_EDGE('',*,*,#163,.T.);
#560=ORIENTED_EDGE('',*,*,#165,.T.);
#561=ORIENTED_EDGE('',*,*,#169,.T.);
#562=CARTESIAN_POINT('',(0.0,0.0,-86.0));
#563=DIRECTION('',(-0.0,-0.0,1.0));
#564=DIRECTION('',(-1.0,0.0,0.0));
#565=CARTESIAN_POINT('',(0.0,0.0,-150.0));
#566=DIRECTION('',(0.0,0.0,-1.0));
#567=DIRECTION('',(0.5,0.866025403784439,0.0));
#568=DIRECTION('',(-0.0,-0.0,1.0));
#569=CARTESIAN_POINT('',(0.0,0.0,-1.0));
#570=DIRECTION('',(0.0,0.0,-1.0));
#571=DIRECTION('',(0.0,1.0,0.0));
#572=CARTESIAN_POINT('',(0.0,0.0,-1.0));
#573=DIRECTION('',(0.0,0.0,-1.0));
#574=DIRECTION('',(0.0,1.0,0.0));
#575=SURFACE_STYLE_FILL_AREA(#596);
#576=SURFACE_STYLE_FILL_AREA(#597);
#577=ORIENTED_EDGE('',*,*,#81,.F.);
#578=ORIENTED_EDGE('',*,*,#109,.T.);
#579=ORIENTED_EDGE('',*,*,#147,.F.);
#580=ORIENTED_EDGE('',*,*,#93,.F.);
#581=ORIENTED_EDGE('',*,*,#125,.F.);
#582=CARTESIAN_POINT('',(0.0,0.0,-136.0));
#583=DIRECTION('',(-0.0,-0.0,1.0));
#584=DIRECTION('',(0.5,0.866025403784439,0.0));
#585=FILL_AREA_STYLE('',(#598));
#586=FILL_AREA_STYLE('',(#599));
#587=FILL_AREA_STYLE('',(#600));
#588=FILL_AREA_STYLE('',(#601));
#589=FILL_AREA_STYLE('',(#602));
#590=FILL_AREA_STYLE('',(#603));
#591=FILL_AREA_STYLE('',(#604));
#592=FILL_AREA_STYLE('',(#605));
#593=FILL_AREA_STYLE('',(#606));
#594=FILL_AREA_STYLE('',(#607));
#595=FILL_AREA_STYLE('',(#608));
#596=FILL_AREA_STYLE('',(#609));
#597=FILL_AREA_STYLE('',(#610));
#598=FILL_AREA_STYLE_COLOUR('',#611);
#599=FILL_AREA_STYLE_COLOUR('',#612);
#600=FILL_AREA_STYLE_COLOUR('',#613);
#601=FILL_AREA_STYLE_COLOUR('',#614);
#602=FILL_AREA_STYLE_COLOUR('',#615);
#603=FILL_AREA_STYLE_COLOUR('',#616);
#604=FILL_AREA_STYLE_COLOUR('',#617);
#605=FILL_AREA_STYLE_COLOUR('',#618);
#606=FILL_AREA_STYLE_COLOUR('',#619);
#607=FILL_AREA_STYLE_COLOUR('',#620);
#608=FILL_AREA_STYLE_COLOUR('',#621);
#609=FILL_AREA_STYLE_COLOUR('',#622);
#610=FILL_AREA_STYLE_COLOUR('',#623);
#611=COLOUR_RGB('',0.498039215803146,0.498039215803146,0.498039215803146);
#612=COLOUR_RGB('',0.800000011920929,0.800000011920929,0.800000011920929);
#613=COLOUR_RGB('',0.498039215803146,0.498039215803146,0.498039215803146);
#614=COLOUR_RGB('',0.498039215803146,0.498039215803146,0.498039215803146);
#615=COLOUR_RGB('',0.800000011920929,0.800000011920929,0.800000011920929);
#616=COLOUR_RGB('',0.498039215803146,0.498039215803146,0.498039215803146);
#617=COLOUR_RGB('',0.800000011920929,0.800000011920929,0.800000011920929);
#618=COLOUR_RGB('',0.498039215803146,0.498039215803146,0.498039215803146);
#619=COLOUR_RGB('',0.800000011920929,0.800000011920929,0.800000011920929);
#620=COLOUR_RGB('',0.800000011920929,0.800000011920929,0.800000011920929);
#621=COLOUR_RGB('',0.498039215803146,0.498039215803146,0.498039215803146);
#622=COLOUR_RGB('',0.498039215803146,0.498039215803146,0.498039215803146);
#623=COLOUR_RGB('',0.800000011920929,0.800000011920929,0.800000011920929);
#624=AXIS2_PLACEMENT_3D('PCS',#625,#626,#627);
#625=CARTESIAN_POINT('',(0.0,0.0,0.0));
#626=DIRECTION('',(0.0,0.0,1.0));
#627=DIRECTION('',(1.0,0.0,0.0));
#628=AXIS2_PLACEMENT_3D('MCS',#629,#630,#631);
#629=CARTESIAN_POINT('',(0.0,0.0,-50.0));
#630=DIRECTION('',(0.0,0.0,1.0));
#631=DIRECTION('',(1.0,0.0,0.0));
#632=AXIS2_PLACEMENT_3D('CIP',#633,#634,#635);
#633=CARTESIAN_POINT('',(0.0,0.0,-160.0));
#634=DIRECTION('',(0.0,0.0,1.0));
#635=DIRECTION('',(1.0,0.0,0.0));
#636=CONSTRUCTIVE_GEOMETRY_REPRESENTATION_RELATIONSHIP('coordinate systems',$,#66,#637);
#637=CONSTRUCTIVE_GEOMETRY_REPRESENTATION('coordinate systems',(#624,#628,#632),#10);
ENDSEC;
END-ISO-10303-21;
