ISO-10303-21;
HEADER;
/* Generated by software containing ST-Developer
 * from STEP Tools, Inc. (www.steptools.com) 
 */
/* OPTION: using custom schema-name function */

FILE_DESCRIPTION(
/* description */ (''),
/* implementation_level */ '2;1');

FILE_NAME(
/* name */ '3188212.stp',
/* time_stamp */ '2021-01-07T10:57:34+09:00',
/* author */ (''),
/* organization */ (''),
/* preprocessor_version */ 'ST-DEVELOPER v16.7',
/* originating_system */ 'SIEMENS PLM Software NX 12.0',
/* authorisation */ '');

FILE_SCHEMA (('AUTOMOTIVE_DESIGN { 1 0 10303 214 3 1 1 1 }'));
ENDSEC;

DATA;
#10=CONTEXT_DEPENDENT_SHAPE_REPRESENTATION(#14,#36);
#11=CONTEXT_DEPENDENT_SHAPE_REPRESENTATION(#15,#37);
#12=NEXT_ASSEMBLY_USAGE_OCCURRENCE('1001',' ','CUT_3188212',#40,#39,$);
#13=NEXT_ASSEMBLY_USAGE_OCCURRENCE('1002',' ','NOCUT_3188212',#40,#38,$);
#14=(
REPRESENTATION_RELATIONSHIP(' ',' ',#59,#60)
REPRESENTATION_RELATIONSHIP_WITH_TRANSFORMATION(#16)
SHAPE_REPRESENTATION_RELATIONSHIP()
);
#15=(
REPRESENTATION_RELATIONSHIP(' ',' ',#58,#60)
REPRESENTATION_RELATIONSHIP_WITH_TRANSFORMATION(#17)
SHAPE_REPRESENTATION_RELATIONSHIP()
);
#16=ITEM_DEFINED_TRANSFORMATION(' ',' ',#273,#301);
#17=ITEM_DEFINED_TRANSFORMATION(' ',' ',#273,#302);
#18=CONSTRUCTIVE_GEOMETRY_REPRESENTATION_RELATIONSHIP(
'supplemental geometry','',#58,#20);
#19=CONSTRUCTIVE_GEOMETRY_REPRESENTATION_RELATIONSHIP(
'supplemental geometry','',#59,#21);
#20=CONSTRUCTIVE_GEOMETRY_REPRESENTATION('supplemental geometry',(#288,
#289),#446);
#21=CONSTRUCTIVE_GEOMETRY_REPRESENTATION('supplemental geometry',(#278,
#279),#445);
#22=GEOMETRICALLY_BOUNDED_WIREFRAME_SHAPE_REPRESENTATION(
'NOCUT_3188212-None',(#61),#446);
#23=GEOMETRICALLY_BOUNDED_WIREFRAME_SHAPE_REPRESENTATION(
'CUT_3188212-None',(#62),#445);
#24=SHAPE_REPRESENTATION_RELATIONSHIP('None',
'relationship between NOCUT_3188212-None and NOCUT_3188212-None',#58,#28);
#25=SHAPE_REPRESENTATION_RELATIONSHIP('None',
'relationship between NOCUT_3188212-None and NOCUT_3188212-None',#58,#22);
#26=SHAPE_REPRESENTATION_RELATIONSHIP('None',
'relationship between CUT_3188212-None and CUT_3188212-None',#59,#29);
#27=SHAPE_REPRESENTATION_RELATIONSHIP('None',
'relationship between CUT_3188212-None and CUT_3188212-None',#59,#23);
#28=ADVANCED_BREP_SHAPE_REPRESENTATION('NOCUT_3188212-None',(#75),#446);
#29=ADVANCED_BREP_SHAPE_REPRESENTATION('CUT_3188212-None',(#74),#445);
#30=SHAPE_DEFINITION_REPRESENTATION(#33,#58);
#31=SHAPE_DEFINITION_REPRESENTATION(#34,#59);
#32=SHAPE_DEFINITION_REPRESENTATION(#35,#60);
#33=PRODUCT_DEFINITION_SHAPE('','',#38);
#34=PRODUCT_DEFINITION_SHAPE('','',#39);
#35=PRODUCT_DEFINITION_SHAPE('','',#40);
#36=PRODUCT_DEFINITION_SHAPE(' ','NAUO PRDDFN',#12);
#37=PRODUCT_DEFINITION_SHAPE(' ','NAUO PRDDFN',#13);
#38=PRODUCT_DEFINITION(' ','',#44,#41);
#39=PRODUCT_DEFINITION(' ','',#45,#42);
#40=PRODUCT_DEFINITION(' ','',#46,#43);
#41=PRODUCT_DEFINITION_CONTEXT('part definition',#57,'design');
#42=PRODUCT_DEFINITION_CONTEXT('part definition',#57,'design');
#43=PRODUCT_DEFINITION_CONTEXT('part definition',#57,'design');
#44=PRODUCT_DEFINITION_FORMATION_WITH_SPECIFIED_SOURCE(' ',' ',#50,
 .NOT_KNOWN.);
#45=PRODUCT_DEFINITION_FORMATION_WITH_SPECIFIED_SOURCE(' ',' ',#51,
 .NOT_KNOWN.);
#46=PRODUCT_DEFINITION_FORMATION_WITH_SPECIFIED_SOURCE(' ',' ',#52,
 .NOT_KNOWN.);
#47=PRODUCT_RELATED_PRODUCT_CATEGORY('part','',(#50));
#48=PRODUCT_RELATED_PRODUCT_CATEGORY('part','',(#51));
#49=PRODUCT_RELATED_PRODUCT_CATEGORY('part','',(#52));
#50=PRODUCT('NOCUT_3188212','NOCUT_3188212',' ',(#53));
#51=PRODUCT('CUT_3188212','CUT_3188212',' ',(#54));
#52=PRODUCT('3188212','3188212',' ',(#55));
#53=PRODUCT_CONTEXT(' ',#57,'mechanical');
#54=PRODUCT_CONTEXT(' ',#57,'mechanical');
#55=PRODUCT_CONTEXT(' ',#57,'mechanical');
#56=APPLICATION_PROTOCOL_DEFINITION('international standard',
'automotive_design',2010,#57);
#57=APPLICATION_CONTEXT(
'core data for automotive mechanical design processes');
#58=SHAPE_REPRESENTATION('NOCUT_3188212-None',(#273),#446);
#59=SHAPE_REPRESENTATION('CUT_3188212-None',(#273),#445);
#60=SHAPE_REPRESENTATION('3188212-none',(#273,#301,#302),#444);
#61=GEOMETRIC_CURVE_SET('None',(#420,#421));
#62=GEOMETRIC_CURVE_SET('None',(#368,#369,#209,#210,#211,#212,#213,#214,
#215,#216));
#63=CONICAL_SURFACE('',#293,6.,45.0000000000002);
#64=SURFACE_STYLE_USAGE(.BOTH.,#66);
#65=SURFACE_STYLE_USAGE(.BOTH.,#67);
#66=SURFACE_SIDE_STYLE('',(#68));
#67=SURFACE_SIDE_STYLE('',(#69));
#68=SURFACE_STYLE_FILL_AREA(#70);
#69=SURFACE_STYLE_FILL_AREA(#71);
#70=FILL_AREA_STYLE('',(#72));
#71=FILL_AREA_STYLE('',(#73));
#72=FILL_AREA_STYLE_COLOUR('',#271);
#73=FILL_AREA_STYLE_COLOUR('',#272);
#74=MANIFOLD_SOLID_BREP('',#76);
#75=MANIFOLD_SOLID_BREP('',#77);
#76=CLOSED_SHELL('',(#97,#98,#99,#100,#101));
#77=CLOSED_SHELL('',(#102,#103,#104,#105,#106,#107));
#78=(
BOUNDED_SURFACE()
B_SPLINE_SURFACE(3,3,((#391,#392,#393,#394,#395,#396,#397),(#398,#399,#400,
#401,#402,#403,#404),(#405,#406,#407,#408,#409,#410,#411),(#412,#413,#414,
#415,#416,#417,#418)),.UNSPECIFIED.,.F.,.T.,.F.)
B_SPLINE_SURFACE_WITH_KNOTS((4,4),(1,3,3,3,1),(0.,1.),(-0.5,0.,0.5,1.,1.5),
 .UNSPECIFIED.)
GEOMETRIC_REPRESENTATION_ITEM()
RATIONAL_B_SPLINE_SURFACE(((1.,0.333333333333333,0.333333333333333,1.,0.333333333333333,
0.333333333333333,1.),(0.990344841075938,0.330114947025313,0.330114947025313,
0.990344841075938,0.330114947025313,0.330114947025313,0.990344841075938),
(0.990344841075938,0.330114947025313,0.330114947025313,0.990344841075938,
0.330114947025313,0.330114947025313,0.990344841075938),(1.,0.333333333333333,
0.333333333333333,1.,0.333333333333333,0.333333333333333,1.)))
REPRESENTATION_ITEM('')
SURFACE()
);
#79=TOROIDAL_SURFACE('',#285,4.8,1.2);
#80=CYLINDRICAL_SURFACE('',#283,6.);
#81=CYLINDRICAL_SURFACE('',#295,6.);
#82=CYLINDRICAL_SURFACE('',#299,5.85);
#83=FACE_BOUND('',#118,.T.);
#84=FACE_BOUND('',#119,.T.);
#85=FACE_BOUND('',#120,.T.);
#86=FACE_BOUND('',#121,.T.);
#87=FACE_BOUND('',#122,.T.);
#88=FACE_BOUND('',#123,.T.);
#89=FACE_BOUND('',#126,.T.);
#90=FACE_BOUND('',#127,.T.);
#91=FACE_BOUND('',#128,.T.);
#92=FACE_BOUND('',#129,.T.);
#93=FACE_BOUND('',#130,.T.);
#94=FACE_BOUND('',#131,.T.);
#95=FACE_BOUND('',#132,.T.);
#96=FACE_BOUND('',#133,.T.);
#97=ADVANCED_FACE('',(#113),#108,.F.);
#98=ADVANCED_FACE('',(#83,#84),#80,.T.);
#99=ADVANCED_FACE('',(#85,#86),#79,.T.);
#100=ADVANCED_FACE('',(#87,#88),#78,.T.);
#101=ADVANCED_FACE('',(#114),#109,.F.);
#102=ADVANCED_FACE('',(#115),#110,.T.);
#103=ADVANCED_FACE('',(#89,#90),#63,.T.);
#104=ADVANCED_FACE('',(#91,#92),#81,.T.);
#105=ADVANCED_FACE('',(#93,#94),#111,.T.);
#106=ADVANCED_FACE('',(#95,#96),#82,.T.);
#107=ADVANCED_FACE('',(#116),#112,.T.);
#108=PLANE('',#281);
#109=PLANE('',#287);
#110=PLANE('',#291);
#111=PLANE('',#297);
#112=PLANE('',#300);
#113=FACE_OUTER_BOUND('',#117,.T.);
#114=FACE_OUTER_BOUND('',#124,.T.);
#115=FACE_OUTER_BOUND('',#125,.T.);
#116=FACE_OUTER_BOUND('',#134,.T.);
#117=EDGE_LOOP('',(#135));
#118=EDGE_LOOP('',(#136));
#119=EDGE_LOOP('',(#137));
#120=EDGE_LOOP('',(#138));
#121=EDGE_LOOP('',(#139));
#122=EDGE_LOOP('',(#140));
#123=EDGE_LOOP('',(#141));
#124=EDGE_LOOP('',(#142));
#125=EDGE_LOOP('',(#143));
#126=EDGE_LOOP('',(#144));
#127=EDGE_LOOP('',(#145));
#128=EDGE_LOOP('',(#146));
#129=EDGE_LOOP('',(#147));
#130=EDGE_LOOP('',(#148));
#131=EDGE_LOOP('',(#149));
#132=EDGE_LOOP('',(#150));
#133=EDGE_LOOP('',(#151));
#134=EDGE_LOOP('',(#152));
#135=ORIENTED_EDGE('',*,*,#162,.T.);
#136=ORIENTED_EDGE('',*,*,#162,.F.);
#137=ORIENTED_EDGE('',*,*,#163,.T.);
#138=ORIENTED_EDGE('',*,*,#163,.F.);
#139=ORIENTED_EDGE('',*,*,#164,.T.);
#140=ORIENTED_EDGE('',*,*,#164,.F.);
#141=ORIENTED_EDGE('',*,*,#165,.T.);
#142=ORIENTED_EDGE('',*,*,#165,.F.);
#143=ORIENTED_EDGE('',*,*,#166,.F.);
#144=ORIENTED_EDGE('',*,*,#166,.T.);
#145=ORIENTED_EDGE('',*,*,#167,.F.);
#146=ORIENTED_EDGE('',*,*,#167,.T.);
#147=ORIENTED_EDGE('',*,*,#168,.F.);
#148=ORIENTED_EDGE('',*,*,#168,.T.);
#149=ORIENTED_EDGE('',*,*,#169,.F.);
#150=ORIENTED_EDGE('',*,*,#169,.T.);
#151=ORIENTED_EDGE('',*,*,#170,.F.);
#152=ORIENTED_EDGE('',*,*,#170,.T.);
#153=VERTEX_POINT('',#381);
#154=VERTEX_POINT('',#384);
#155=VERTEX_POINT('',#387);
#156=VERTEX_POINT('',#390);
#157=VERTEX_POINT('',#425);
#158=VERTEX_POINT('',#428);
#159=VERTEX_POINT('',#431);
#160=VERTEX_POINT('',#434);
#161=VERTEX_POINT('',#437);
#162=EDGE_CURVE('',#153,#153,#175,.T.);
#163=EDGE_CURVE('',#154,#154,#176,.T.);
#164=EDGE_CURVE('',#155,#155,#177,.T.);
#165=EDGE_CURVE('',#156,#156,#178,.T.);
#166=EDGE_CURVE('',#157,#157,#179,.T.);
#167=EDGE_CURVE('',#158,#158,#180,.T.);
#168=EDGE_CURVE('',#159,#159,#181,.T.);
#169=EDGE_CURVE('',#160,#160,#182,.T.);
#170=EDGE_CURVE('',#161,#161,#183,.T.);
#171=CIRCLE('CUTTING EDGE LINE',#274,1.2);
#172=CIRCLE('CUTTING EDGE LINE',#275,7.);
#173=CIRCLE('CUTTING EDGE LINE',#276,1.2);
#174=CIRCLE('CUTTING EDGE LINE',#277,7.);
#175=CIRCLE('',#280,6.);
#176=CIRCLE('',#282,6.);
#177=CIRCLE('',#284,5.29655172413794);
#178=CIRCLE('',#286,3.);
#179=CIRCLE('',#290,5.2);
#180=CIRCLE('',#292,6.);
#181=CIRCLE('',#294,6.);
#182=CIRCLE('',#296,5.85);
#183=CIRCLE('',#298,5.85);
#184=CURVE_STYLE('',#197,POSITIVE_LENGTH_MEASURE(0.7),#196);
#185=CURVE_STYLE('',#198,POSITIVE_LENGTH_MEASURE(0.7),#196);
#186=CURVE_STYLE('',#199,POSITIVE_LENGTH_MEASURE(0.7),#196);
#187=CURVE_STYLE('',#200,POSITIVE_LENGTH_MEASURE(0.7),#196);
#188=CURVE_STYLE('',#201,POSITIVE_LENGTH_MEASURE(0.7),#196);
#189=CURVE_STYLE('',#202,POSITIVE_LENGTH_MEASURE(0.7),#196);
#190=CURVE_STYLE('',#203,POSITIVE_LENGTH_MEASURE(0.7),#196);
#191=CURVE_STYLE('',#204,POSITIVE_LENGTH_MEASURE(0.7),#196);
#192=CURVE_STYLE('',#205,POSITIVE_LENGTH_MEASURE(0.7),#270);
#193=CURVE_STYLE('',#206,POSITIVE_LENGTH_MEASURE(0.7),#270);
#194=CURVE_STYLE('',#207,POSITIVE_LENGTH_MEASURE(0.7),#270);
#195=CURVE_STYLE('',#208,POSITIVE_LENGTH_MEASURE(0.7),#270);
#196=DRAUGHTING_PRE_DEFINED_COLOUR('blue');
#197=DRAUGHTING_PRE_DEFINED_CURVE_FONT('continuous');
#198=DRAUGHTING_PRE_DEFINED_CURVE_FONT('continuous');
#199=DRAUGHTING_PRE_DEFINED_CURVE_FONT('continuous');
#200=DRAUGHTING_PRE_DEFINED_CURVE_FONT('continuous');
#201=DRAUGHTING_PRE_DEFINED_CURVE_FONT('continuous');
#202=DRAUGHTING_PRE_DEFINED_CURVE_FONT('continuous');
#203=DRAUGHTING_PRE_DEFINED_CURVE_FONT('continuous');
#204=DRAUGHTING_PRE_DEFINED_CURVE_FONT('continuous');
#205=DRAUGHTING_PRE_DEFINED_CURVE_FONT('continuous');
#206=DRAUGHTING_PRE_DEFINED_CURVE_FONT('continuous');
#207=DRAUGHTING_PRE_DEFINED_CURVE_FONT('continuous');
#208=DRAUGHTING_PRE_DEFINED_CURVE_FONT('continuous');
#209=TRIMMED_CURVE('CUTTING EDGE LINE',#217,(PARAMETER_VALUE(0.)),(
PARAMETER_VALUE(1.)),.T.,.PARAMETER.);
#210=TRIMMED_CURVE('CUTTING EDGE LINE',#218,(PARAMETER_VALUE(0.)),(
PARAMETER_VALUE(1.)),.T.,.PARAMETER.);
#211=TRIMMED_CURVE('CUTTING EDGE LINE',#219,(PARAMETER_VALUE(0.)),(
PARAMETER_VALUE(1.)),.T.,.PARAMETER.);
#212=TRIMMED_CURVE('CUTTING EDGE LINE',#220,(PARAMETER_VALUE(0.)),(
PARAMETER_VALUE(1.)),.T.,.PARAMETER.);
#213=TRIMMED_CURVE('CUTTING EDGE LINE',#171,(PARAMETER_VALUE(90.)),(
PARAMETER_VALUE(155.556664572297)),.T.,.PARAMETER.);
#214=TRIMMED_CURVE('CUTTING EDGE LINE',#172,(PARAMETER_VALUE(155.556664572302)),
(PARAMETER_VALUE(175.082899664471)),.T.,.PARAMETER.);
#215=TRIMMED_CURVE('CUTTING EDGE LINE',#173,(PARAMETER_VALUE(204.443335427703)),
(PARAMETER_VALUE(270.)),.T.,.PARAMETER.);
#216=TRIMMED_CURVE('CUTTING EDGE LINE',#174,(PARAMETER_VALUE(184.917100335529)),
(PARAMETER_VALUE(204.443335427698)),.T.,.PARAMETER.);
#217=LINE('CUTTING EDGE LINE',#370,#221);
#218=LINE('CUTTING EDGE LINE',#371,#222);
#219=LINE('CUTTING EDGE LINE',#372,#223);
#220=LINE('CUTTING EDGE LINE',#373,#224);
#221=VECTOR('',#305,6.);
#222=VECTOR('',#306,22.3059132033126);
#223=VECTOR('',#307,12.);
#224=VECTOR('',#308,22.3059132033126);
#225=PRESENTATION_LAYER_ASSIGNMENT('1','Layer 1',(#368,#369,#209,#210,#211,
#212,#213,#214,#215,#216,#278,#279,#74,#420,#421,#288,#289,#75));
#226=STYLED_ITEM('',(#244),#368);
#227=STYLED_ITEM('',(#245),#369);
#228=STYLED_ITEM('',(#246),#209);
#229=STYLED_ITEM('',(#247),#210);
#230=STYLED_ITEM('',(#248),#211);
#231=STYLED_ITEM('',(#249),#212);
#232=STYLED_ITEM('',(#250),#213);
#233=STYLED_ITEM('',(#251),#214);
#234=STYLED_ITEM('',(#252),#215);
#235=STYLED_ITEM('',(#253),#216);
#236=STYLED_ITEM('',(#254),#278);
#237=STYLED_ITEM('',(#255),#279);
#238=STYLED_ITEM('',(#256),#74);
#239=STYLED_ITEM('',(#257),#420);
#240=STYLED_ITEM('',(#258),#421);
#241=STYLED_ITEM('',(#259),#288);
#242=STYLED_ITEM('',(#260),#289);
#243=STYLED_ITEM('',(#261),#75);
#244=PRESENTATION_STYLE_ASSIGNMENT((#262));
#245=PRESENTATION_STYLE_ASSIGNMENT((#263));
#246=PRESENTATION_STYLE_ASSIGNMENT((#184));
#247=PRESENTATION_STYLE_ASSIGNMENT((#185));
#248=PRESENTATION_STYLE_ASSIGNMENT((#186));
#249=PRESENTATION_STYLE_ASSIGNMENT((#187));
#250=PRESENTATION_STYLE_ASSIGNMENT((#188));
#251=PRESENTATION_STYLE_ASSIGNMENT((#189));
#252=PRESENTATION_STYLE_ASSIGNMENT((#190));
#253=PRESENTATION_STYLE_ASSIGNMENT((#191));
#254=PRESENTATION_STYLE_ASSIGNMENT((#192));
#255=PRESENTATION_STYLE_ASSIGNMENT((#193));
#256=PRESENTATION_STYLE_ASSIGNMENT((#64));
#257=PRESENTATION_STYLE_ASSIGNMENT((#264));
#258=PRESENTATION_STYLE_ASSIGNMENT((#265));
#259=PRESENTATION_STYLE_ASSIGNMENT((#194));
#260=PRESENTATION_STYLE_ASSIGNMENT((#195));
#261=PRESENTATION_STYLE_ASSIGNMENT((#65));
#262=POINT_STYLE('',#266,POSITIVE_LENGTH_MEASURE(3.),#270);
#263=POINT_STYLE('',#267,POSITIVE_LENGTH_MEASURE(3.),#270);
#264=POINT_STYLE('',#268,POSITIVE_LENGTH_MEASURE(3.),#270);
#265=POINT_STYLE('',#269,POSITIVE_LENGTH_MEASURE(3.),#270);
#266=PRE_DEFINED_POINT_MARKER_SYMBOL('plus');
#267=PRE_DEFINED_POINT_MARKER_SYMBOL('plus');
#268=PRE_DEFINED_POINT_MARKER_SYMBOL('plus');
#269=PRE_DEFINED_POINT_MARKER_SYMBOL('plus');
#270=COLOUR_RGB('Medium Maroon',0.6,0.4,0.4);
#271=COLOUR_RGB('Light Gray',0.8,0.8,0.8);
#272=COLOUR_RGB('Medium Gray',0.490196078431373,0.490196078431373,0.490196078431373);
#273=AXIS2_PLACEMENT_3D('',#367,#303,#304);
#274=AXIS2_PLACEMENT_3D('',#374,#309,#310);
#275=AXIS2_PLACEMENT_3D('',#375,#311,#312);
#276=AXIS2_PLACEMENT_3D('',#376,#313,#314);
#277=AXIS2_PLACEMENT_3D('',#377,#315,#316);
#278=AXIS2_PLACEMENT_3D('CRP',#378,#317,#318);
#279=AXIS2_PLACEMENT_3D('CIP',#379,#319,#320);
#280=AXIS2_PLACEMENT_3D('',#380,#321,#322);
#281=AXIS2_PLACEMENT_3D('',#382,#323,#324);
#282=AXIS2_PLACEMENT_3D('',#383,#325,#326);
#283=AXIS2_PLACEMENT_3D('',#385,#327,#328);
#284=AXIS2_PLACEMENT_3D('',#386,#329,#330);
#285=AXIS2_PLACEMENT_3D('',#388,#331,#332);
#286=AXIS2_PLACEMENT_3D('',#389,#333,#334);
#287=AXIS2_PLACEMENT_3D('',#419,#335,#336);
#288=AXIS2_PLACEMENT_3D('MCS',#422,#337,#338);
#289=AXIS2_PLACEMENT_3D('PCS',#423,#339,#340);
#290=AXIS2_PLACEMENT_3D('',#424,#341,#342);
#291=AXIS2_PLACEMENT_3D('',#426,#343,#344);
#292=AXIS2_PLACEMENT_3D('',#427,#345,#346);
#293=AXIS2_PLACEMENT_3D('',#429,#347,#348);
#294=AXIS2_PLACEMENT_3D('',#430,#349,#350);
#295=AXIS2_PLACEMENT_3D('',#432,#351,#352);
#296=AXIS2_PLACEMENT_3D('',#433,#353,#354);
#297=AXIS2_PLACEMENT_3D('',#435,#355,#356);
#298=AXIS2_PLACEMENT_3D('',#436,#357,#358);
#299=AXIS2_PLACEMENT_3D('',#438,#359,#360);
#300=AXIS2_PLACEMENT_3D('',#439,#361,#362);
#301=AXIS2_PLACEMENT_3D('',#440,#363,#364);
#302=AXIS2_PLACEMENT_3D('',#441,#365,#366);
#303=DIRECTION('',(0.,0.,1.));
#304=DIRECTION('',(1.,0.,0.));
#305=DIRECTION('',(1.,0.,0.));
#306=DIRECTION('',(0.,0.,1.));
#307=DIRECTION('',(-1.,0.,0.));
#308=DIRECTION('',(0.,0.,-1.));
#309=DIRECTION('',(0.,-1.,0.));
#310=DIRECTION('',(0.,0.,1.));
#311=DIRECTION('',(0.,-1.,0.));
#312=DIRECTION('',(0.,0.,1.));
#313=DIRECTION('',(0.,-1.,0.));
#314=DIRECTION('',(0.,0.,1.));
#315=DIRECTION('',(0.,-1.,0.));
#316=DIRECTION('',(0.,0.,1.));
#317=DIRECTION('',(0.,0.,1.));
#318=DIRECTION('',(1.,0.,0.));
#319=DIRECTION('',(0.,0.,1.));
#320=DIRECTION('',(1.,0.,0.));
#321=DIRECTION('',(0.,0.,1.));
#322=DIRECTION('',(1.,0.,0.));
#323=DIRECTION('',(0.,0.,-1.));
#324=DIRECTION('',(-1.,0.,0.));
#325=DIRECTION('',(0.,0.,1.));
#326=DIRECTION('',(1.,0.,0.));
#327=DIRECTION('',(0.,0.,1.));
#328=DIRECTION('',(1.,0.,0.));
#329=DIRECTION('',(0.,0.,1.));
#330=DIRECTION('',(1.,0.,0.));
#331=DIRECTION('',(0.,0.,1.));
#332=DIRECTION('',(1.,0.,0.));
#333=DIRECTION('',(0.,0.,1.));
#334=DIRECTION('',(1.,0.,0.));
#335=DIRECTION('',(0.,0.,1.));
#336=DIRECTION('',(1.,0.,0.));
#337=DIRECTION('',(0.,0.,1.));
#338=DIRECTION('',(1.,0.,0.));
#339=DIRECTION('',(0.,0.,1.));
#340=DIRECTION('',(1.,0.,0.));
#341=DIRECTION('',(0.,1.11331527195214E-17,-1.));
#342=DIRECTION('',(0.,1.,1.11331527195214E-17));
#343=DIRECTION('',(0.,-1.11331527195214E-17,1.));
#344=DIRECTION('',(0.,-1.,-1.11331527195214E-17));
#345=DIRECTION('',(0.,1.11331527195214E-17,-1.));
#346=DIRECTION('',(0.,1.,1.80700362080917E-17));
#347=DIRECTION('',(0.,1.11331527195214E-17,-1.));
#348=DIRECTION('',(0.,1.,8.76199171203488E-17));
#349=DIRECTION('',(0.,1.11331527195214E-17,-1.));
#350=DIRECTION('',(0.,1.,0.));
#351=DIRECTION('',(0.,1.11331527195214E-17,-1.));
#352=DIRECTION('',(0.,1.,0.));
#353=DIRECTION('',(0.,1.11331527195214E-17,-1.));
#354=DIRECTION('',(0.,1.,0.));
#355=DIRECTION('',(0.,1.11331527195214E-17,-1.));
#356=DIRECTION('',(0.,1.,1.38777878078145E-17));
#357=DIRECTION('',(0.,1.11331527195214E-17,-1.));
#358=DIRECTION('',(0.,1.,0.));
#359=DIRECTION('',(0.,1.11331527195214E-17,-1.));
#360=DIRECTION('',(0.,1.,0.));
#361=DIRECTION('',(0.,1.11331527195214E-17,-1.));
#362=DIRECTION('',(0.,1.,1.38777878078145E-17));
#363=DIRECTION('',(0.,0.,1.));
#364=DIRECTION('',(1.,0.,0.));
#365=DIRECTION('',(0.,0.,1.));
#366=DIRECTION('',(1.,0.,0.));
#367=CARTESIAN_POINT('',(0.,0.,0.));
#368=CARTESIAN_POINT('',(0.,0.,-90.));
#369=CARTESIAN_POINT('',(-6.,0.,-90.));
#370=CARTESIAN_POINT('',(-3.,0.,-90.));
#371=CARTESIAN_POINT('',(6.,0.,-88.3059132033126));
#372=CARTESIAN_POINT('',(6.,0.,-66.));
#373=CARTESIAN_POINT('',(-6.,0.,-66.));
#374=CARTESIAN_POINT('',(-4.8,0.,-88.3059132033126));
#375=CARTESIAN_POINT('',(-2.4,0.,-83.0257616903349));
#376=CARTESIAN_POINT('',(4.8,0.,-88.3059132033126));
#377=CARTESIAN_POINT('',(2.4,0.,-83.0257616903349));
#378=CARTESIAN_POINT('',(-6.,0.,-90.));
#379=CARTESIAN_POINT('',(0.,0.,-90.));
#380=CARTESIAN_POINT('',(0.,0.,-66.));
#381=CARTESIAN_POINT('',(6.,0.,-66.));
#382=CARTESIAN_POINT('',(0.,6.,-66.));
#383=CARTESIAN_POINT('',(0.,0.,-88.3059132033126));
#384=CARTESIAN_POINT('',(6.,0.,-88.3059132033126));
#385=CARTESIAN_POINT('',(0.,0.,0.));
#386=CARTESIAN_POINT('',(0.,0.,-89.3983583439286));
#387=CARTESIAN_POINT('',(5.29655172413794,0.,-89.3983583439286));
#388=CARTESIAN_POINT('',(0.,0.,-88.3059132033126));
#389=CARTESIAN_POINT('',(0.,0.,-90.));
#390=CARTESIAN_POINT('',(3.,0.,-90.));
#391=CARTESIAN_POINT('',(5.29655172413794,0.,-89.3983583439286));
#392=CARTESIAN_POINT('',(5.29655172413794,10.5931034482759,-89.3983583439286));
#393=CARTESIAN_POINT('',(-5.29655172413794,10.5931034482759,-89.3983583439286));
#394=CARTESIAN_POINT('',(-5.29655172413794,0.,-89.3983583439286));
#395=CARTESIAN_POINT('',(-5.29655172413794,-10.5931034482759,-89.3983583439286));
#396=CARTESIAN_POINT('',(5.29655172413794,-10.5931034482759,-89.3983583439286));
#397=CARTESIAN_POINT('',(5.29655172413794,0.,-89.3983583439286));
#398=CARTESIAN_POINT('',(4.56910548168408,0.,-89.7290062387093));
#399=CARTESIAN_POINT('',(4.56910548168408,9.13821096336816,-89.7290062387093));
#400=CARTESIAN_POINT('',(-4.56910548168408,9.13821096336816,-89.7290062387093));
#401=CARTESIAN_POINT('',(-4.56910548168408,0.,-89.7290062387093));
#402=CARTESIAN_POINT('',(-4.56910548168408,-9.13821096336816,-89.7290062387093));
#403=CARTESIAN_POINT('',(4.56910548168408,-9.13821096336816,-89.7290062387093));
#404=CARTESIAN_POINT('',(4.56910548168408,0.,-89.7290062387093));
#405=CARTESIAN_POINT('',(3.79612499082028,0.,-89.9315086503668));
#406=CARTESIAN_POINT('',(3.79612499082028,7.59224998164056,-89.9315086503668));
#407=CARTESIAN_POINT('',(-3.79612499082028,7.59224998164056,-89.9315086503668));
#408=CARTESIAN_POINT('',(-3.79612499082028,0.,-89.9315086503668));
#409=CARTESIAN_POINT('',(-3.79612499082028,-7.59224998164056,-89.9315086503668));
#410=CARTESIAN_POINT('',(3.79612499082028,-7.59224998164056,-89.9315086503668));
#411=CARTESIAN_POINT('',(3.79612499082028,0.,-89.9315086503668));
#412=CARTESIAN_POINT('',(3.,0.,-90.));
#413=CARTESIAN_POINT('',(3.,6.,-90.));
#414=CARTESIAN_POINT('',(-3.,6.,-90.));
#415=CARTESIAN_POINT('',(-3.,0.,-90.));
#416=CARTESIAN_POINT('',(-3.,-6.,-90.));
#417=CARTESIAN_POINT('',(3.,-6.,-90.));
#418=CARTESIAN_POINT('',(3.,0.,-90.));
#419=CARTESIAN_POINT('',(0.,3.,-90.));
#420=CARTESIAN_POINT('',(0.,6.01190246854156E-16,-54.));
#421=CARTESIAN_POINT('',(0.,0.,0.));
#422=CARTESIAN_POINT('',(0.,6.01190246854156E-16,-54.));
#423=CARTESIAN_POINT('',(0.,0.,0.));
#424=CARTESIAN_POINT('',(0.,0.,0.));
#425=CARTESIAN_POINT('',(0.,5.2,5.78923941415114E-17));
#426=CARTESIAN_POINT('',(0.,3.22262432638086E-34,-2.89461970707557E-17));
#427=CARTESIAN_POINT('',(0.,8.90652217561711E-18,-0.8));
#428=CARTESIAN_POINT('',(0.,6.,-0.8));
#429=CARTESIAN_POINT('',(0.,8.90652217561711E-18,-0.8));
#430=CARTESIAN_POINT('',(0.,6.01190246854156E-16,-54.));
#431=CARTESIAN_POINT('',(0.,6.,-54.));
#432=CARTESIAN_POINT('',(0.,7.34788079488413E-16,-66.));
#433=CARTESIAN_POINT('',(0.,6.01190246854156E-16,-54.));
#434=CARTESIAN_POINT('',(0.,5.85,-54.));
#435=CARTESIAN_POINT('',(0.,6.,-54.));
#436=CARTESIAN_POINT('',(0.,7.34788079488413E-16,-66.));
#437=CARTESIAN_POINT('',(0.,5.85,-66.));
#438=CARTESIAN_POINT('',(0.,7.34788079488413E-16,-66.));
#439=CARTESIAN_POINT('',(0.,5.85,-66.));
#440=CARTESIAN_POINT('',(0.,0.,0.));
#441=CARTESIAN_POINT('',(0.,0.,0.));
#442=MECHANICAL_DESIGN_GEOMETRIC_PRESENTATION_REPRESENTATION('',(#226,#227,
#228,#229,#230,#231,#232,#233,#234,#235,#236,#237,#238),#445);
#443=MECHANICAL_DESIGN_GEOMETRIC_PRESENTATION_REPRESENTATION('',(#239,#240,
#241,#242,#243),#446);
#444=(
GEOMETRIC_REPRESENTATION_CONTEXT(3)
GLOBAL_UNCERTAINTY_ASSIGNED_CONTEXT((#447))
GLOBAL_UNIT_ASSIGNED_CONTEXT((#455,#451,#450))
REPRESENTATION_CONTEXT('3188212','TOP_LEVEL_ASSEMBLY_PART')
);
#445=(
GEOMETRIC_REPRESENTATION_CONTEXT(3)
GLOBAL_UNCERTAINTY_ASSIGNED_CONTEXT((#448))
GLOBAL_UNIT_ASSIGNED_CONTEXT((#455,#451,#450))
REPRESENTATION_CONTEXT('CUT_3188212','COMPONENT_PART')
);
#446=(
GEOMETRIC_REPRESENTATION_CONTEXT(3)
GLOBAL_UNCERTAINTY_ASSIGNED_CONTEXT((#449))
GLOBAL_UNIT_ASSIGNED_CONTEXT((#455,#451,#450))
REPRESENTATION_CONTEXT('NOCUT_3188212','COMPONENT_PART')
);
#447=UNCERTAINTY_MEASURE_WITH_UNIT(LENGTH_MEASURE(2.E-5),#455,
'DISTANCE_ACCURACY_VALUE','Maximum Tolerance applied to model');
#448=UNCERTAINTY_MEASURE_WITH_UNIT(LENGTH_MEASURE(0.0254),#455,
'DISTANCE_ACCURACY_VALUE','Maximum Tolerance applied to model');
#449=UNCERTAINTY_MEASURE_WITH_UNIT(LENGTH_MEASURE(2.E-5),#455,
'DISTANCE_ACCURACY_VALUE','Maximum Tolerance applied to model');
#450=(
NAMED_UNIT(*)
SI_UNIT($,.STERADIAN.)
SOLID_ANGLE_UNIT()
);
#451=(
CONVERSION_BASED_UNIT('DEGREE',#453)
NAMED_UNIT(#452)
PLANE_ANGLE_UNIT()
);
#452=DIMENSIONAL_EXPONENTS(0.,0.,0.,0.,0.,0.,0.);
#453=PLANE_ANGLE_MEASURE_WITH_UNIT(PLANE_ANGLE_MEASURE(0.0174532925),#454);
#454=(
NAMED_UNIT(*)
PLANE_ANGLE_UNIT()
SI_UNIT($,.RADIAN.)
);
#455=(
LENGTH_UNIT()
NAMED_UNIT(*)
SI_UNIT(.MILLI.,.METRE.)
);
ENDSEC;
END-ISO-10303-21;
