ISO-10303-21;
HEADER;
FILE_DESCRIPTION(('no description'),'unknown implementation level');
FILE_NAME('solidPSVaNDtQjazbqftA6xuTeQ1xFYI_1.STP','  ',('CIMSOURCE GmbH'),('CADClick - KiM GmbH - www.kimweb.de'),'unknown preprocess','ACIS','unknown authorization');
FILE_SCHEMA(('automotive_design'));
ENDSEC;
DATA;
#1=MECHANICAL_DESIGN_GEOMETRIC_PRESENTATION_REPRESENTATION(' ',(#10,#11,#12,#13,#14,#15,#16,#17,#18,#19,#20,#21,#22,#23,#24,#25,#26,#27,#28,#29,#30,#31,#32,#33,#34,#35,#36,#37,#38,#39,#40),#6);
#2=PRODUCT_DEFINITION_CONTEXT('',#41,'design');
#3=APPLICATION_PROTOCOL_DEFINITION('INTERNATIONAL STANDARD','automotive_design',1994,#41);
#4=PRODUCT_CATEGORY_RELATIONSHIP('NONE','NONE',#42,#43);
#5=SHAPE_DEFINITION_REPRESENTATION(#44,#45);
#6= (GEOMETRIC_REPRESENTATION_CONTEXT(3)GLOBAL_UNCERTAINTY_ASSIGNED_CONTEXT((#48))GLOBAL_UNIT_ASSIGNED_CONTEXT((#50,#51,#52))REPRESENTATION_CONTEXT('NONE','WORKSPACE'));
#10=STYLED_ITEM('',(#54),#55);
#11=STYLED_ITEM('',(#56),#57);
#12=STYLED_ITEM('',(#58),#59);
#13=STYLED_ITEM('',(#60),#61);
#14=STYLED_ITEM('',(#62),#63);
#15=STYLED_ITEM('',(#64),#65);
#16=STYLED_ITEM('',(#66),#67);
#17=STYLED_ITEM('',(#68),#69);
#18=STYLED_ITEM('',(#70),#71);
#19=STYLED_ITEM('',(#72),#73);
#20=STYLED_ITEM('',(#74),#75);
#21=STYLED_ITEM('',(#76),#77);
#22=STYLED_ITEM('',(#78),#79);
#23=STYLED_ITEM('',(#80),#81);
#24=STYLED_ITEM('',(#82),#83);
#25=STYLED_ITEM('',(#84),#85);
#26=STYLED_ITEM('',(#86),#87);
#27=STYLED_ITEM('',(#88),#89);
#28=STYLED_ITEM('',(#90),#91);
#29=STYLED_ITEM('',(#92),#93);
#30=STYLED_ITEM('',(#94),#95);
#31=STYLED_ITEM('',(#96),#97);
#32=STYLED_ITEM('',(#98),#99);
#33=STYLED_ITEM('',(#100),#101);
#34=STYLED_ITEM('',(#102),#103);
#35=STYLED_ITEM('',(#104),#105);
#36=STYLED_ITEM('',(#106),#107);
#37=STYLED_ITEM('',(#108),#109);
#38=STYLED_ITEM('',(#110),#111);
#39=STYLED_ITEM('',(#112),#113);
#40=STYLED_ITEM('',(#114),#115);
#41=APPLICATION_CONTEXT(' ');
#42=PRODUCT_CATEGORY('part','NONE');
#43=PRODUCT_RELATED_PRODUCT_CATEGORY('detail',' ',(#116));
#44=PRODUCT_DEFINITION_SHAPE('NONE','NONE',#117);
#45=ADVANCED_BREP_SHAPE_REPRESENTATION('1',(#65,#118),#6);
#48=UNCERTAINTY_MEASURE_WITH_UNIT(LENGTH_MEASURE(1.0E-006),#50,'','');
#50= (CONVERSION_BASED_UNIT('MILLIMETRE',#121)LENGTH_UNIT()NAMED_UNIT(#124));
#51= (NAMED_UNIT(#126)PLANE_ANGLE_UNIT()SI_UNIT($,.RADIAN.));
#52= (NAMED_UNIT(#126)SOLID_ANGLE_UNIT()SI_UNIT($,.STERADIAN.));
#54=PRESENTATION_STYLE_ASSIGNMENT((#132));
#55=ADVANCED_FACE('',(#133),#134,.T.);
#56=PRESENTATION_STYLE_ASSIGNMENT((#135));
#57=EDGE_CURVE('',#83,#71,#136,.T.);
#58=PRESENTATION_STYLE_ASSIGNMENT((#137));
#59=EDGE_CURVE('',#69,#83,#138,.T.);
#60=PRESENTATION_STYLE_ASSIGNMENT((#139));
#61=VERTEX_POINT('',#140);
#62=PRESENTATION_STYLE_ASSIGNMENT((#141));
#63=EDGE_CURVE('',#83,#107,#142,.T.);
#64=PRESENTATION_STYLE_ASSIGNMENT((#143));
#65=MANIFOLD_SOLID_BREP('1',#144);
#66=PRESENTATION_STYLE_ASSIGNMENT((#145));
#67=ADVANCED_FACE('',(#146),#147,.T.);
#68=PRESENTATION_STYLE_ASSIGNMENT((#148));
#69=VERTEX_POINT('',#149);
#70=PRESENTATION_STYLE_ASSIGNMENT((#150));
#71=VERTEX_POINT('',#151);
#72=PRESENTATION_STYLE_ASSIGNMENT((#152));
#73=EDGE_CURVE('',#109,#97,#153,.T.);
#74=PRESENTATION_STYLE_ASSIGNMENT((#154));
#75=ADVANCED_FACE('',(#155),#156,.T.);
#76=PRESENTATION_STYLE_ASSIGNMENT((#157));
#77=VERTEX_POINT('',#158);
#78=PRESENTATION_STYLE_ASSIGNMENT((#159));
#79=EDGE_CURVE('',#71,#77,#160,.T.);
#80=PRESENTATION_STYLE_ASSIGNMENT((#161));
#81=EDGE_CURVE('',#77,#69,#162,.T.);
#82=PRESENTATION_STYLE_ASSIGNMENT((#163));
#83=VERTEX_POINT('',#164);
#84=PRESENTATION_STYLE_ASSIGNMENT((#165));
#85=EDGE_CURVE('',#61,#109,#166,.T.);
#86=PRESENTATION_STYLE_ASSIGNMENT((#167));
#87=EDGE_CURVE('',#109,#61,#168,.T.);
#88=PRESENTATION_STYLE_ASSIGNMENT((#169));
#89=EDGE_CURVE('',#107,#61,#170,.T.);
#90=PRESENTATION_STYLE_ASSIGNMENT((#171));
#91=ADVANCED_FACE('',(#172),#173,.T.);
#92=PRESENTATION_STYLE_ASSIGNMENT((#174));
#93=ADVANCED_FACE('',(#175),#176,.T.);
#94=PRESENTATION_STYLE_ASSIGNMENT((#177));
#95=EDGE_CURVE('',#97,#107,#178,.T.);
#96=PRESENTATION_STYLE_ASSIGNMENT((#179));
#97=VERTEX_POINT('',#180);
#98=PRESENTATION_STYLE_ASSIGNMENT((#181));
#99=EDGE_CURVE('',#69,#77,#182,.T.);
#100=PRESENTATION_STYLE_ASSIGNMENT((#183));
#101=EDGE_CURVE('',#71,#83,#184,.T.);
#102=PRESENTATION_STYLE_ASSIGNMENT((#185));
#103=ADVANCED_FACE('',(#186),#187,.T.);
#104=PRESENTATION_STYLE_ASSIGNMENT((#188));
#105=EDGE_CURVE('',#107,#97,#189,.T.);
#106=PRESENTATION_STYLE_ASSIGNMENT((#190));
#107=VERTEX_POINT('',#191);
#108=PRESENTATION_STYLE_ASSIGNMENT((#192));
#109=VERTEX_POINT('',#193);
#110=PRESENTATION_STYLE_ASSIGNMENT((#194));
#111=EDGE_CURVE('',#97,#71,#195,.T.);
#112=PRESENTATION_STYLE_ASSIGNMENT((#196));
#113=ADVANCED_FACE('',(#197),#198,.T.);
#114=PRESENTATION_STYLE_ASSIGNMENT((#199));
#115=ADVANCED_FACE('',(#200),#201,.T.);
#116=PRODUCT('1','1','PART-1-DESC',(#202));
#117=PRODUCT_DEFINITION('NONE','NONE',#203,#2);
#118=AXIS2_PLACEMENT_3D('',#204,#205,#206);
#121=LENGTH_MEASURE_WITH_UNIT(LENGTH_MEASURE(1.0),#207);
#124=DIMENSIONAL_EXPONENTS(1.0,0.0,0.0,0.0,0.0,0.0,0.0);
#126=DIMENSIONAL_EXPONENTS(0.0,0.0,0.0,0.0,0.0,0.0,0.0);
#132=SURFACE_STYLE_USAGE(.BOTH.,#208);
#133=FACE_OUTER_BOUND('',#209,.T.);
#134=CONICAL_SURFACE('',#210,4.75,0.785398163397448);
#135=CURVE_STYLE('',#211,POSITIVE_LENGTH_MEASURE(1.0E-006),#212);
#136=CIRCLE('',#213,5.0);
#137=CURVE_STYLE('',#214,POSITIVE_LENGTH_MEASURE(1.0E-006),#215);
#138=LINE('',#216,#217);
#139=POINT_STYLE(' ',#218,POSITIVE_LENGTH_MEASURE(1.0E-006),#219);
#140=CARTESIAN_POINT('',(5.5107285922007E-016,-4.5,0.0));
#141=CURVE_STYLE('',#220,POSITIVE_LENGTH_MEASURE(1.0E-006),#221);
#142=LINE('',#222,#223);
#143=SURFACE_STYLE_USAGE(.BOTH.,#224);
#144=CLOSED_SHELL('',(#115,#55,#91,#75,#113,#103,#67,#93));
#145=SURFACE_STYLE_USAGE(.BOTH.,#225);
#146=FACE_OUTER_BOUND('',#226,.T.);
#147=CYLINDRICAL_SURFACE('',#227,5.0);
#148=POINT_STYLE(' ',#228,POSITIVE_LENGTH_MEASURE(1.0E-006),#229);
#149=CARTESIAN_POINT('',(4.62130683100853E-016,-3.77370803,-85.0));
#150=POINT_STYLE(' ',#230,POSITIVE_LENGTH_MEASURE(1.0E-006),#231);
#151=CARTESIAN_POINT('',(0.0,5.0,-84.2920000010154));
#152=CURVE_STYLE('',#232,POSITIVE_LENGTH_MEASURE(1.0E-006),#233);
#153=LINE('',#234,#235);
#154=SURFACE_STYLE_USAGE(.BOTH.,#236);
#155=FACE_OUTER_BOUND('',#237,.T.);
#156=CONICAL_SURFACE('',#238,4.386854015,1.0471975511966);
#157=POINT_STYLE(' ',#239,POSITIVE_LENGTH_MEASURE(1.0E-006),#240);
#158=CARTESIAN_POINT('',(0.0,3.77370803,-85.0));
#159=CURVE_STYLE('',#241,POSITIVE_LENGTH_MEASURE(1.0E-006),#242);
#160=LINE('',#243,#244);
#161=CURVE_STYLE('',#245,POSITIVE_LENGTH_MEASURE(1.0E-006),#246);
#162=CIRCLE('',#247,3.77370803);
#163=POINT_STYLE(' ',#248,POSITIVE_LENGTH_MEASURE(1.0E-006),#249);
#164=CARTESIAN_POINT('',(6.12303176911189E-016,-5.0,-84.2920000010154));
#165=CURVE_STYLE('',#250,POSITIVE_LENGTH_MEASURE(1.0E-006),#251);
#166=CIRCLE('',#252,4.5);
#167=CURVE_STYLE('',#253,POSITIVE_LENGTH_MEASURE(1.0E-006),#254);
#168=CIRCLE('',#255,4.5);
#169=CURVE_STYLE('',#256,POSITIVE_LENGTH_MEASURE(1.0E-006),#257);
#170=LINE('',#258,#259);
#171=SURFACE_STYLE_USAGE(.BOTH.,#260);
#172=FACE_OUTER_BOUND('',#261,.T.);
#173=CONICAL_SURFACE('',#262,4.386854015,1.0471975511966);
#174=SURFACE_STYLE_USAGE(.BOTH.,#263);
#175=FACE_OUTER_BOUND('',#264,.T.);
#176=PLANE('',#265);
#177=CURVE_STYLE('',#266,POSITIVE_LENGTH_MEASURE(1.0E-006),#267);
#178=CIRCLE('',#268,5.0);
#179=POINT_STYLE(' ',#269,POSITIVE_LENGTH_MEASURE(1.0E-006),#270);
#180=CARTESIAN_POINT('',(0.0,5.0,-0.5));
#181=CURVE_STYLE('',#271,POSITIVE_LENGTH_MEASURE(1.0E-006),#272);
#182=CIRCLE('',#273,3.77370803);
#183=CURVE_STYLE('',#274,POSITIVE_LENGTH_MEASURE(1.0E-006),#275);
#184=CIRCLE('',#276,5.0);
#185=SURFACE_STYLE_USAGE(.BOTH.,#277);
#186=FACE_OUTER_BOUND('',#278,.T.);
#187=CONICAL_SURFACE('',#279,4.75,0.785398163397448);
#188=CURVE_STYLE('',#280,POSITIVE_LENGTH_MEASURE(1.0E-006),#281);
#189=CIRCLE('',#282,5.0);
#190=POINT_STYLE(' ',#283,POSITIVE_LENGTH_MEASURE(1.0E-006),#284);
#191=CARTESIAN_POINT('',(6.12303176911189E-016,-5.0,-0.5));
#192=POINT_STYLE(' ',#285,POSITIVE_LENGTH_MEASURE(1.0E-006),#286);
#193=CARTESIAN_POINT('',(0.0,4.5,0.0));
#194=CURVE_STYLE('',#287,POSITIVE_LENGTH_MEASURE(1.0E-006),#288);
#195=LINE('',#289,#290);
#196=SURFACE_STYLE_USAGE(.BOTH.,#291);
#197=FACE_OUTER_BOUND('',#292,.T.);
#198=PLANE('',#293);
#199=SURFACE_STYLE_USAGE(.BOTH.,#294);
#200=FACE_OUTER_BOUND('',#295,.T.);
#201=CYLINDRICAL_SURFACE('',#296,5.0);
#202=PRODUCT_CONTEXT('',#41,'mechanical');
#203=PRODUCT_DEFINITION_FORMATION_WITH_SPECIFIED_SOURCE(' ','NONE',#116,.NOT_KNOWN.);
#204=CARTESIAN_POINT('',(0.0,0.0,0.0));
#205=DIRECTION('',(0.0,0.0,1.0));
#206=DIRECTION('',(1.0,0.0,0.0));
#207= (NAMED_UNIT(#124)LENGTH_UNIT()SI_UNIT(.MILLI.,.METRE.));
#208=SURFACE_SIDE_STYLE('',(#298));
#209=EDGE_LOOP('',(#299,#300,#301,#302));
#210=AXIS2_PLACEMENT_3D('',#303,#304,#305);
#211=DRAUGHTING_PRE_DEFINED_CURVE_FONT('continuous');
#212=COLOUR_RGB('',0.800000011920929,0.800000011920929,0.800000011920929);
#213=AXIS2_PLACEMENT_3D('',#306,#307,#308);
#214=DRAUGHTING_PRE_DEFINED_CURVE_FONT('continuous');
#215=COLOUR_RGB('',0.800000011920929,0.800000011920929,0.800000011920929);
#216=CARTESIAN_POINT('',(5.37216930006021E-016,-4.386854015,-84.6460000005077));
#217=VECTOR('',#309,1.0);
#218=PRE_DEFINED_MARKER('');
#219=COLOUR_RGB('',0.498039215803146,0.498039215803146,0.498039215803146);
#220=DRAUGHTING_PRE_DEFINED_CURVE_FONT('continuous');
#221=COLOUR_RGB('',0.498039215803146,0.498039215803146,0.498039215803146);
#222=CARTESIAN_POINT('',(6.12303176911189E-016,-5.0,-22.75));
#223=VECTOR('',#310,1.0);
#224=SURFACE_SIDE_STYLE('',(#311));
#225=SURFACE_SIDE_STYLE('',(#312));
#226=EDGE_LOOP('',(#313,#314,#315,#316));
#227=AXIS2_PLACEMENT_3D('',#317,#318,#319);
#228=PRE_DEFINED_MARKER('');
#229=COLOUR_RGB('',0.498039215803146,0.498039215803146,0.498039215803146);
#230=PRE_DEFINED_MARKER('');
#231=COLOUR_RGB('',0.800000011920929,0.800000011920929,0.800000011920929);
#232=DRAUGHTING_PRE_DEFINED_CURVE_FONT('continuous');
#233=COLOUR_RGB('',0.498039215803146,0.498039215803146,0.498039215803146);
#234=CARTESIAN_POINT('',(-5.81688018065629E-016,4.75,-0.25));
#235=VECTOR('',#320,1.0);
#236=SURFACE_SIDE_STYLE('',(#321));
#237=EDGE_LOOP('',(#322,#323,#324,#325));
#238=AXIS2_PLACEMENT_3D('',#326,#327,#328);
#239=PRE_DEFINED_MARKER('');
#240=COLOUR_RGB('',0.498039215803146,0.498039215803146,0.498039215803146);
#241=DRAUGHTING_PRE_DEFINED_CURVE_FONT('continuous');
#242=COLOUR_RGB('',0.800000011920929,0.800000011920929,0.800000011920929);
#243=CARTESIAN_POINT('',(-5.37216930006021E-016,4.386854015,-84.6460000005077));
#244=VECTOR('',#329,1.0);
#245=DRAUGHTING_PRE_DEFINED_CURVE_FONT('continuous');
#246=COLOUR_RGB('',0.498039215803146,0.498039215803146,0.498039215803146);
#247=AXIS2_PLACEMENT_3D('',#330,#331,#332);
#248=PRE_DEFINED_MARKER('');
#249=COLOUR_RGB('',0.800000011920929,0.800000011920929,0.800000011920929);
#250=DRAUGHTING_PRE_DEFINED_CURVE_FONT('continuous');
#251=COLOUR_RGB('',0.498039215803146,0.498039215803146,0.498039215803146);
#252=AXIS2_PLACEMENT_3D('',#333,#334,#335);
#253=DRAUGHTING_PRE_DEFINED_CURVE_FONT('continuous');
#254=COLOUR_RGB('',0.498039215803146,0.498039215803146,0.498039215803146);
#255=AXIS2_PLACEMENT_3D('',#336,#337,#338);
#256=DRAUGHTING_PRE_DEFINED_CURVE_FONT('continuous');
#257=COLOUR_RGB('',0.498039215803146,0.498039215803146,0.498039215803146);
#258=CARTESIAN_POINT('',(5.81688018065629E-016,-4.75,-0.25));
#259=VECTOR('',#339,1.0);
#260=SURFACE_SIDE_STYLE('',(#340));
#261=EDGE_LOOP('',(#341,#342,#343,#344));
#262=AXIS2_PLACEMENT_3D('',#345,#346,#347);
#263=SURFACE_SIDE_STYLE('',(#348));
#264=EDGE_LOOP('',(#349,#350));
#265=AXIS2_PLACEMENT_3D('',#351,#352,#353);
#266=DRAUGHTING_PRE_DEFINED_CURVE_FONT('continuous');
#267=COLOUR_RGB('',0.498039215803146,0.498039215803146,0.498039215803146);
#268=AXIS2_PLACEMENT_3D('',#354,#355,#356);
#269=PRE_DEFINED_MARKER('');
#270=COLOUR_RGB('',0.498039215803146,0.498039215803146,0.498039215803146);
#271=DRAUGHTING_PRE_DEFINED_CURVE_FONT('continuous');
#272=COLOUR_RGB('',0.498039215803146,0.498039215803146,0.498039215803146);
#273=AXIS2_PLACEMENT_3D('',#357,#358,#359);
#274=DRAUGHTING_PRE_DEFINED_CURVE_FONT('continuous');
#275=COLOUR_RGB('',0.800000011920929,0.800000011920929,0.800000011920929);
#276=AXIS2_PLACEMENT_3D('',#360,#361,#362);
#277=SURFACE_SIDE_STYLE('',(#363));
#278=EDGE_LOOP('',(#364,#365,#366,#367));
#279=AXIS2_PLACEMENT_3D('',#368,#369,#370);
#280=DRAUGHTING_PRE_DEFINED_CURVE_FONT('continuous');
#281=COLOUR_RGB('',0.498039215803146,0.498039215803146,0.498039215803146);
#282=AXIS2_PLACEMENT_3D('',#371,#372,#373);
#283=PRE_DEFINED_MARKER('');
#284=COLOUR_RGB('',0.498039215803146,0.498039215803146,0.498039215803146);
#285=PRE_DEFINED_MARKER('');
#286=COLOUR_RGB('',0.498039215803146,0.498039215803146,0.498039215803146);
#287=DRAUGHTING_PRE_DEFINED_CURVE_FONT('continuous');
#288=COLOUR_RGB('',0.498039215803146,0.498039215803146,0.498039215803146);
#289=CARTESIAN_POINT('',(-6.12303176911189E-016,5.0,-22.75));
#290=VECTOR('',#374,1.0);
#291=SURFACE_SIDE_STYLE('',(#375));
#292=EDGE_LOOP('',(#376,#377));
#293=AXIS2_PLACEMENT_3D('',#378,#379,#380);
#294=SURFACE_SIDE_STYLE('',(#381));
#295=EDGE_LOOP('',(#382,#383,#384,#385));
#296=AXIS2_PLACEMENT_3D('',#386,#387,#388);
#298=SURFACE_STYLE_FILL_AREA(#389);
#299=ORIENTED_EDGE('',*,*,#73,.F.);
#300=ORIENTED_EDGE('',*,*,#87,.T.);
#301=ORIENTED_EDGE('',*,*,#89,.F.);
#302=ORIENTED_EDGE('',*,*,#95,.F.);
#303=CARTESIAN_POINT('',(0.0,0.0,-0.25));
#304=DIRECTION('',(0.0,-0.0,-1.0));
#305=DIRECTION('',(0.0,1.0,0.0));
#306=CARTESIAN_POINT('',(0.0,0.0,-84.2920000010154));
#307=DIRECTION('',(0.0,0.0,-1.0));
#308=DIRECTION('',(0.0,1.0,0.0));
#309=DIRECTION('',(1.06054021204601E-016,-0.866025403784439,0.5));
#310=DIRECTION('',(-0.0,-0.0,1.0));
#311=SURFACE_STYLE_FILL_AREA(#390);
#312=SURFACE_STYLE_FILL_AREA(#391);
#313=ORIENTED_EDGE('',*,*,#111,.T.);
#314=ORIENTED_EDGE('',*,*,#57,.F.);
#315=ORIENTED_EDGE('',*,*,#63,.T.);
#316=ORIENTED_EDGE('',*,*,#105,.T.);
#317=CARTESIAN_POINT('',(0.0,0.0,-22.75));
#318=DIRECTION('',(-0.0,-0.0,1.0));
#319=DIRECTION('',(0.0,1.0,0.0));
#320=DIRECTION('',(-8.65927457071936E-017,0.707106781186548,-0.707106781186548));
#321=SURFACE_STYLE_FILL_AREA(#392);
#322=ORIENTED_EDGE('',*,*,#79,.T.);
#323=ORIENTED_EDGE('',*,*,#99,.F.);
#324=ORIENTED_EDGE('',*,*,#59,.T.);
#325=ORIENTED_EDGE('',*,*,#57,.T.);
#326=CARTESIAN_POINT('',(0.0,0.0,-84.6460000005077));
#327=DIRECTION('',(-0.0,-0.0,1.0));
#328=DIRECTION('',(0.0,1.0,0.0));
#329=DIRECTION('',(1.06054021204601E-016,-0.866025403784439,-0.5));
#330=CARTESIAN_POINT('',(0.0,0.0,-85.0));
#331=DIRECTION('',(0.0,0.0,-1.0));
#332=DIRECTION('',(0.0,1.0,0.0));
#333=CARTESIAN_POINT('',(0.0,0.0,0.0));
#334=DIRECTION('',(0.0,0.0,-1.0));
#335=DIRECTION('',(0.0,1.0,0.0));
#336=CARTESIAN_POINT('',(0.0,0.0,0.0));
#337=DIRECTION('',(0.0,0.0,-1.0));
#338=DIRECTION('',(0.0,1.0,0.0));
#339=DIRECTION('',(-8.65927457071936E-017,0.707106781186548,0.707106781186548));
#340=SURFACE_STYLE_FILL_AREA(#393);
#341=ORIENTED_EDGE('',*,*,#79,.F.);
#342=ORIENTED_EDGE('',*,*,#101,.T.);
#343=ORIENTED_EDGE('',*,*,#59,.F.);
#344=ORIENTED_EDGE('',*,*,#81,.F.);
#345=CARTESIAN_POINT('',(0.0,0.0,-84.6460000005077));
#346=DIRECTION('',(-0.0,-0.0,1.0));
#347=DIRECTION('',(0.0,1.0,0.0));
#348=SURFACE_STYLE_FILL_AREA(#394);
#349=ORIENTED_EDGE('',*,*,#81,.T.);
#350=ORIENTED_EDGE('',*,*,#99,.T.);
#351=CARTESIAN_POINT('',(0.0,1.886854015,-85.0));
#352=DIRECTION('',(0.0,0.0,-1.0));
#353=DIRECTION('',(0.0,1.0,0.0));
#354=CARTESIAN_POINT('',(0.0,0.0,-0.5));
#355=DIRECTION('',(0.0,0.0,-1.0));
#356=DIRECTION('',(0.0,1.0,0.0));
#357=CARTESIAN_POINT('',(0.0,0.0,-85.0));
#358=DIRECTION('',(0.0,0.0,-1.0));
#359=DIRECTION('',(0.0,1.0,0.0));
#360=CARTESIAN_POINT('',(0.0,0.0,-84.2920000010154));
#361=DIRECTION('',(0.0,0.0,-1.0));
#362=DIRECTION('',(0.0,1.0,0.0));
#363=SURFACE_STYLE_FILL_AREA(#395);
#364=ORIENTED_EDGE('',*,*,#73,.T.);
#365=ORIENTED_EDGE('',*,*,#105,.F.);
#366=ORIENTED_EDGE('',*,*,#89,.T.);
#367=ORIENTED_EDGE('',*,*,#85,.T.);
#368=CARTESIAN_POINT('',(0.0,0.0,-0.25));
#369=DIRECTION('',(0.0,-0.0,-1.0));
#370=DIRECTION('',(0.0,1.0,0.0));
#371=CARTESIAN_POINT('',(0.0,0.0,-0.5));
#372=DIRECTION('',(0.0,0.0,-1.0));
#373=DIRECTION('',(0.0,1.0,0.0));
#374=DIRECTION('',(0.0,0.0,-1.0));
#375=SURFACE_STYLE_FILL_AREA(#396);
#376=ORIENTED_EDGE('',*,*,#87,.F.);
#377=ORIENTED_EDGE('',*,*,#85,.F.);
#378=CARTESIAN_POINT('',(0.0,2.25,0.0));
#379=DIRECTION('',(-0.0,0.0,1.0));
#380=DIRECTION('',(0.0,-1.0,0.0));
#381=SURFACE_STYLE_FILL_AREA(#397);
#382=ORIENTED_EDGE('',*,*,#111,.F.);
#383=ORIENTED_EDGE('',*,*,#95,.T.);
#384=ORIENTED_EDGE('',*,*,#63,.F.);
#385=ORIENTED_EDGE('',*,*,#101,.F.);
#386=CARTESIAN_POINT('',(0.0,0.0,-22.75));
#387=DIRECTION('',(-0.0,-0.0,1.0));
#388=DIRECTION('',(0.0,1.0,0.0));
#389=FILL_AREA_STYLE('',(#398));
#390=FILL_AREA_STYLE('',(#399));
#391=FILL_AREA_STYLE('',(#400));
#392=FILL_AREA_STYLE('',(#401));
#393=FILL_AREA_STYLE('',(#402));
#394=FILL_AREA_STYLE('',(#403));
#395=FILL_AREA_STYLE('',(#404));
#396=FILL_AREA_STYLE('',(#405));
#397=FILL_AREA_STYLE('',(#406));
#398=FILL_AREA_STYLE_COLOUR('',#407);
#399=FILL_AREA_STYLE_COLOUR('',#408);
#400=FILL_AREA_STYLE_COLOUR('',#409);
#401=FILL_AREA_STYLE_COLOUR('',#410);
#402=FILL_AREA_STYLE_COLOUR('',#411);
#403=FILL_AREA_STYLE_COLOUR('',#412);
#404=FILL_AREA_STYLE_COLOUR('',#413);
#405=FILL_AREA_STYLE_COLOUR('',#414);
#406=FILL_AREA_STYLE_COLOUR('',#415);
#407=COLOUR_RGB('',0.498039215803146,0.498039215803146,0.498039215803146);
#408=COLOUR_RGB('',0.498039215803146,0.498039215803146,0.498039215803146);
#409=COLOUR_RGB('',0.498039215803146,0.498039215803146,0.498039215803146);
#410=COLOUR_RGB('',0.800000011920929,0.800000011920929,0.800000011920929);
#411=COLOUR_RGB('',0.800000011920929,0.800000011920929,0.800000011920929);
#412=COLOUR_RGB('',0.498039215803146,0.498039215803146,0.498039215803146);
#413=COLOUR_RGB('',0.498039215803146,0.498039215803146,0.498039215803146);
#414=COLOUR_RGB('',0.498039215803146,0.498039215803146,0.498039215803146);
#415=COLOUR_RGB('',0.498039215803146,0.498039215803146,0.498039215803146);
#416=AXIS2_PLACEMENT_3D('PCS',#417,#418,#419);
#417=CARTESIAN_POINT('',(0.0,0.0,0.0));
#418=DIRECTION('',(0.0,0.0,1.0));
#419=DIRECTION('',(1.0,0.0,0.0));
#420=AXIS2_PLACEMENT_3D('CIP',#421,#422,#423);
#421=CARTESIAN_POINT('',(0.0,0.0,-85.0));
#422=DIRECTION('',(0.0,0.0,1.0));
#423=DIRECTION('',(1.0,0.0,0.0));
#424=AXIS2_PLACEMENT_3D('CRP',#425,#426,#427);
#425=CARTESIAN_POINT('',(-5.0,0.0,-85.0));
#426=DIRECTION('',(0.0,0.0,1.0));
#427=DIRECTION('',(1.0,0.0,0.0));
#428=AXIS2_PLACEMENT_3D('MCS',#429,#430,#431);
#429=CARTESIAN_POINT('',(0.0,0.0,-45.0));
#430=DIRECTION('',(0.0,0.0,1.0));
#431=DIRECTION('',(1.0,0.0,0.0));
#432=CONSTRUCTIVE_GEOMETRY_REPRESENTATION_RELATIONSHIP('coordinate systems',$,#45,#433);
#433=CONSTRUCTIVE_GEOMETRY_REPRESENTATION('coordinate systems',(#416,#420,#424,#428),#6);
ENDSEC;
END-ISO-10303-21;
