ISO-10303-21;
HEADER;
FILE_DESCRIPTION(('no description'),'unknown implementation level');
FILE_NAME('solidQzyEdw18n6iwS0uyfZSS2FleLaY_1.STP','  ',('CIMSOURCE GmbH'),('CADClick - KiM GmbH - www.kimweb.de'),'unknown preprocess','ACIS','unknown authorization');
FILE_SCHEMA(('automotive_design'));
ENDSEC;
DATA;
#1=MECHANICAL_DESIGN_GEOMETRIC_PRESENTATION_REPRESENTATION(' ',(#10,#11,#12,#13,#14,#15,#16,#17,#18,#19,#20,#21,#22,#23,#24,#25,#26,#27,#28,#29,#30,#31,#32,#33,#34,#35,#36,#37,#38,#39,#40),#6);
#2=PRODUCT_DEFINITION_CONTEXT('',#41,'design');
#3=APPLICATION_PROTOCOL_DEFINITION('INTERNATIONAL STANDARD','automotive_design',1994,#41);
#4=PRODUCT_CATEGORY_RELATIONSHIP('NONE','NONE',#42,#43);
#5=SHAPE_DEFINITION_REPRESENTATION(#44,#45);
#6= (GEOMETRIC_REPRESENTATION_CONTEXT(3)GLOBAL_UNCERTAINTY_ASSIGNED_CONTEXT((#48))GLOBAL_UNIT_ASSIGNED_CONTEXT((#50,#51,#52))REPRESENTATION_CONTEXT('NONE','WORKSPACE'));
#10=STYLED_ITEM('',(#54),#55);
#11=STYLED_ITEM('',(#56),#57);
#12=STYLED_ITEM('',(#58),#59);
#13=STYLED_ITEM('',(#60),#61);
#14=STYLED_ITEM('',(#62),#63);
#15=STYLED_ITEM('',(#64),#65);
#16=STYLED_ITEM('',(#66),#67);
#17=STYLED_ITEM('',(#68),#69);
#18=STYLED_ITEM('',(#70),#71);
#19=STYLED_ITEM('',(#72),#73);
#20=STYLED_ITEM('',(#74),#75);
#21=STYLED_ITEM('',(#76),#77);
#22=STYLED_ITEM('',(#78),#79);
#23=STYLED_ITEM('',(#80),#81);
#24=STYLED_ITEM('',(#82),#83);
#25=STYLED_ITEM('',(#84),#85);
#26=STYLED_ITEM('',(#86),#87);
#27=STYLED_ITEM('',(#88),#89);
#28=STYLED_ITEM('',(#90),#91);
#29=STYLED_ITEM('',(#92),#93);
#30=STYLED_ITEM('',(#94),#95);
#31=STYLED_ITEM('',(#96),#97);
#32=STYLED_ITEM('',(#98),#99);
#33=STYLED_ITEM('',(#100),#101);
#34=STYLED_ITEM('',(#102),#103);
#35=STYLED_ITEM('',(#104),#105);
#36=STYLED_ITEM('',(#106),#107);
#37=STYLED_ITEM('',(#108),#109);
#38=STYLED_ITEM('',(#110),#111);
#39=STYLED_ITEM('',(#112),#113);
#40=STYLED_ITEM('',(#114),#115);
#41=APPLICATION_CONTEXT(' ');
#42=PRODUCT_CATEGORY('part','NONE');
#43=PRODUCT_RELATED_PRODUCT_CATEGORY('detail',' ',(#116));
#44=PRODUCT_DEFINITION_SHAPE('NONE','NONE',#117);
#45=ADVANCED_BREP_SHAPE_REPRESENTATION('1',(#93,#118),#6);
#48=UNCERTAINTY_MEASURE_WITH_UNIT(LENGTH_MEASURE(1.0E-006),#50,'','');
#50= (CONVERSION_BASED_UNIT('MILLIMETRE',#121)LENGTH_UNIT()NAMED_UNIT(#124));
#51= (NAMED_UNIT(#126)PLANE_ANGLE_UNIT()SI_UNIT($,.RADIAN.));
#52= (NAMED_UNIT(#126)SOLID_ANGLE_UNIT()SI_UNIT($,.STERADIAN.));
#54=PRESENTATION_STYLE_ASSIGNMENT((#132));
#55=EDGE_CURVE('',#97,#77,#133,.T.);
#56=PRESENTATION_STYLE_ASSIGNMENT((#134));
#57=ADVANCED_FACE('',(#135),#136,.T.);
#58=PRESENTATION_STYLE_ASSIGNMENT((#137));
#59=VERTEX_POINT('',#138);
#60=PRESENTATION_STYLE_ASSIGNMENT((#139));
#61=ADVANCED_FACE('',(#140),#141,.T.);
#62=PRESENTATION_STYLE_ASSIGNMENT((#142));
#63=ADVANCED_FACE('',(#143),#144,.T.);
#64=PRESENTATION_STYLE_ASSIGNMENT((#145));
#65=ADVANCED_FACE('',(#146),#147,.T.);
#66=PRESENTATION_STYLE_ASSIGNMENT((#148));
#67=EDGE_CURVE('',#91,#89,#149,.T.);
#68=PRESENTATION_STYLE_ASSIGNMENT((#150));
#69=EDGE_CURVE('',#91,#81,#151,.T.);
#70=PRESENTATION_STYLE_ASSIGNMENT((#152));
#71=EDGE_CURVE('',#81,#77,#153,.T.);
#72=PRESENTATION_STYLE_ASSIGNMENT((#154));
#73=VERTEX_POINT('',#155);
#74=PRESENTATION_STYLE_ASSIGNMENT((#156));
#75=ADVANCED_FACE('',(#157),#158,.T.);
#76=PRESENTATION_STYLE_ASSIGNMENT((#159));
#77=VERTEX_POINT('',#160);
#78=PRESENTATION_STYLE_ASSIGNMENT((#161));
#79=EDGE_CURVE('',#59,#83,#162,.T.);
#80=PRESENTATION_STYLE_ASSIGNMENT((#163));
#81=VERTEX_POINT('',#164);
#82=PRESENTATION_STYLE_ASSIGNMENT((#165));
#83=VERTEX_POINT('',#166);
#84=PRESENTATION_STYLE_ASSIGNMENT((#167));
#85=EDGE_CURVE('',#83,#81,#168,.T.);
#86=PRESENTATION_STYLE_ASSIGNMENT((#169));
#87=EDGE_CURVE('',#83,#89,#170,.T.);
#88=PRESENTATION_STYLE_ASSIGNMENT((#171));
#89=VERTEX_POINT('',#172);
#90=PRESENTATION_STYLE_ASSIGNMENT((#173));
#91=VERTEX_POINT('',#174);
#92=PRESENTATION_STYLE_ASSIGNMENT((#175));
#93=MANIFOLD_SOLID_BREP('1',#176);
#94=PRESENTATION_STYLE_ASSIGNMENT((#177));
#95=EDGE_CURVE('',#77,#97,#178,.T.);
#96=PRESENTATION_STYLE_ASSIGNMENT((#179));
#97=VERTEX_POINT('',#180);
#98=PRESENTATION_STYLE_ASSIGNMENT((#181));
#99=ADVANCED_FACE('',(#182),#183,.T.);
#100=PRESENTATION_STYLE_ASSIGNMENT((#184));
#101=EDGE_CURVE('',#97,#91,#185,.T.);
#102=PRESENTATION_STYLE_ASSIGNMENT((#186));
#103=ADVANCED_FACE('',(#187),#188,.T.);
#104=PRESENTATION_STYLE_ASSIGNMENT((#189));
#105=EDGE_CURVE('',#89,#73,#190,.T.);
#106=PRESENTATION_STYLE_ASSIGNMENT((#191));
#107=EDGE_CURVE('',#89,#83,#192,.T.);
#108=PRESENTATION_STYLE_ASSIGNMENT((#193));
#109=EDGE_CURVE('',#81,#91,#194,.T.);
#110=PRESENTATION_STYLE_ASSIGNMENT((#195));
#111=ADVANCED_FACE('',(#196),#197,.T.);
#112=PRESENTATION_STYLE_ASSIGNMENT((#198));
#113=EDGE_CURVE('',#59,#73,#199,.T.);
#114=PRESENTATION_STYLE_ASSIGNMENT((#200));
#115=EDGE_CURVE('',#73,#59,#201,.T.);
#116=PRODUCT('1','1','PART-1-DESC',(#202));
#117=PRODUCT_DEFINITION('NONE','NONE',#203,#2);
#118=AXIS2_PLACEMENT_3D('',#204,#205,#206);
#121=LENGTH_MEASURE_WITH_UNIT(LENGTH_MEASURE(1.0),#207);
#124=DIMENSIONAL_EXPONENTS(1.0,0.0,0.0,0.0,0.0,0.0,0.0);
#126=DIMENSIONAL_EXPONENTS(0.0,0.0,0.0,0.0,0.0,0.0,0.0);
#132=CURVE_STYLE('',#208,POSITIVE_LENGTH_MEASURE(1.0E-006),#209);
#133=CIRCLE('',#210,5.4);
#134=SURFACE_STYLE_USAGE(.BOTH.,#211);
#135=FACE_OUTER_BOUND('',#212,.T.);
#136=CONICAL_SURFACE('',#213,5.54014051,1.0471975511966);
#137=POINT_STYLE(' ',#214,POSITIVE_LENGTH_MEASURE(1.0E-006),#215);
#138=CARTESIAN_POINT('',(6.22134441629523E-016,-5.08028102,-95.0));
#139=SURFACE_STYLE_USAGE(.BOTH.,#216);
#140=FACE_OUTER_BOUND('',#217,.T.);
#141=PLANE('',#218);
#142=SURFACE_STYLE_USAGE(.BOTH.,#219);
#143=FACE_OUTER_BOUND('',#220,.T.);
#144=CONICAL_SURFACE('',#221,5.7,0.785398163397447);
#145=SURFACE_STYLE_USAGE(.BOTH.,#222);
#146=FACE_OUTER_BOUND('',#223,.T.);
#147=CONICAL_SURFACE('',#224,5.54014051,1.0471975511966);
#148=CURVE_STYLE('',#225,POSITIVE_LENGTH_MEASURE(1.0E-006),#226);
#149=LINE('',#227,#228);
#150=CURVE_STYLE('',#229,POSITIVE_LENGTH_MEASURE(1.0E-006),#230);
#151=CIRCLE('',#231,6.0);
#152=CURVE_STYLE('',#232,POSITIVE_LENGTH_MEASURE(1.0E-006),#233);
#153=LINE('',#234,#235);
#154=POINT_STYLE(' ',#236,POSITIVE_LENGTH_MEASURE(1.0E-006),#237);
#155=CARTESIAN_POINT('',(0.0,5.08028102,-95.0));
#156=SURFACE_STYLE_USAGE(.BOTH.,#238);
#157=FACE_OUTER_BOUND('',#239,.T.);
#158=CYLINDRICAL_SURFACE('',#240,6.0);
#159=POINT_STYLE(' ',#241,POSITIVE_LENGTH_MEASURE(1.0E-006),#242);
#160=CARTESIAN_POINT('',(6.61287431064084E-016,-5.4,0.0));
#161=CURVE_STYLE('',#243,POSITIVE_LENGTH_MEASURE(1.0E-006),#244);
#162=LINE('',#245,#246);
#163=POINT_STYLE(' ',#247,POSITIVE_LENGTH_MEASURE(1.0E-006),#248);
#164=CARTESIAN_POINT('',(7.34763812293426E-016,-6.0,-0.600000000000001));
#165=POINT_STYLE(' ',#249,POSITIVE_LENGTH_MEASURE(1.0E-006),#250);
#166=CARTESIAN_POINT('',(7.34763812293426E-016,-6.0,-94.4689999993182));
#167=CURVE_STYLE('',#251,POSITIVE_LENGTH_MEASURE(1.0E-006),#252);
#168=LINE('',#253,#254);
#169=CURVE_STYLE('',#255,POSITIVE_LENGTH_MEASURE(1.0E-006),#256);
#170=CIRCLE('',#257,6.0);
#171=POINT_STYLE(' ',#258,POSITIVE_LENGTH_MEASURE(1.0E-006),#259);
#172=CARTESIAN_POINT('',(0.0,6.0,-94.4689999993182));
#173=POINT_STYLE(' ',#260,POSITIVE_LENGTH_MEASURE(1.0E-006),#261);
#174=CARTESIAN_POINT('',(0.0,6.0,-0.600000000000001));
#175=SURFACE_STYLE_USAGE(.BOTH.,#262);
#176=CLOSED_SHELL('',(#111,#103,#57,#65,#61,#63,#75,#99));
#177=CURVE_STYLE('',#263,POSITIVE_LENGTH_MEASURE(1.0E-006),#264);
#178=CIRCLE('',#265,5.4);
#179=POINT_STYLE(' ',#266,POSITIVE_LENGTH_MEASURE(1.0E-006),#267);
#180=CARTESIAN_POINT('',(0.0,5.4,0.0));
#181=SURFACE_STYLE_USAGE(.BOTH.,#268);
#182=FACE_OUTER_BOUND('',#269,.T.);
#183=PLANE('',#270);
#184=CURVE_STYLE('',#271,POSITIVE_LENGTH_MEASURE(1.0E-006),#272);
#185=LINE('',#273,#274);
#186=SURFACE_STYLE_USAGE(.BOTH.,#275);
#187=FACE_OUTER_BOUND('',#276,.T.);
#188=CONICAL_SURFACE('',#277,5.7,0.785398163397447);
#189=CURVE_STYLE('',#278,POSITIVE_LENGTH_MEASURE(1.0E-006),#279);
#190=LINE('',#280,#281);
#191=CURVE_STYLE('',#282,POSITIVE_LENGTH_MEASURE(1.0E-006),#283);
#192=CIRCLE('',#284,6.0);
#193=CURVE_STYLE('',#285,POSITIVE_LENGTH_MEASURE(1.0E-006),#286);
#194=CIRCLE('',#287,6.0);
#195=SURFACE_STYLE_USAGE(.BOTH.,#288);
#196=FACE_OUTER_BOUND('',#289,.T.);
#197=CYLINDRICAL_SURFACE('',#290,6.0);
#198=CURVE_STYLE('',#291,POSITIVE_LENGTH_MEASURE(1.0E-006),#292);
#199=CIRCLE('',#293,5.08028102);
#200=CURVE_STYLE('',#294,POSITIVE_LENGTH_MEASURE(1.0E-006),#295);
#201=CIRCLE('',#296,5.08028102);
#202=PRODUCT_CONTEXT('',#41,'mechanical');
#203=PRODUCT_DEFINITION_FORMATION_WITH_SPECIFIED_SOURCE(' ','NONE',#116,.NOT_KNOWN.);
#204=CARTESIAN_POINT('',(0.0,0.0,0.0));
#205=DIRECTION('',(0.0,0.0,1.0));
#206=DIRECTION('',(1.0,0.0,0.0));
#207= (NAMED_UNIT(#124)LENGTH_UNIT()SI_UNIT(.MILLI.,.METRE.));
#208=DRAUGHTING_PRE_DEFINED_CURVE_FONT('continuous');
#209=COLOUR_RGB('',0.498039215803146,0.498039215803146,0.498039215803146);
#210=AXIS2_PLACEMENT_3D('',#298,#299,#300);
#211=SURFACE_SIDE_STYLE('',(#301));
#212=EDGE_LOOP('',(#302,#303,#304,#305));
#213=AXIS2_PLACEMENT_3D('',#306,#307,#308);
#214=PRE_DEFINED_MARKER('');
#215=COLOUR_RGB('',0.498039215803146,0.498039215803146,0.498039215803146);
#216=SURFACE_SIDE_STYLE('',(#309));
#217=EDGE_LOOP('',(#310,#311));
#218=AXIS2_PLACEMENT_3D('',#312,#313,#314);
#219=SURFACE_SIDE_STYLE('',(#315));
#220=EDGE_LOOP('',(#316,#317,#318,#319));
#221=AXIS2_PLACEMENT_3D('',#320,#321,#322);
#222=SURFACE_SIDE_STYLE('',(#323));
#223=EDGE_LOOP('',(#324,#325,#326,#327));
#224=AXIS2_PLACEMENT_3D('',#328,#329,#330);
#225=DRAUGHTING_PRE_DEFINED_CURVE_FONT('continuous');
#226=COLOUR_RGB('',0.498039215803146,0.498039215803146,0.498039215803146);
#227=CARTESIAN_POINT('',(-7.34763812293426E-016,6.0,-24.8));
#228=VECTOR('',#331,1.0);
#229=DRAUGHTING_PRE_DEFINED_CURVE_FONT('continuous');
#230=COLOUR_RGB('',0.498039215803146,0.498039215803146,0.498039215803146);
#231=AXIS2_PLACEMENT_3D('',#332,#333,#334);
#232=DRAUGHTING_PRE_DEFINED_CURVE_FONT('continuous');
#233=COLOUR_RGB('',0.498039215803146,0.498039215803146,0.498039215803146);
#234=CARTESIAN_POINT('',(6.98025621678755E-016,-5.7,-0.300000000000004));
#235=VECTOR('',#335,1.0);
#236=PRE_DEFINED_MARKER('');
#237=COLOUR_RGB('',0.498039215803146,0.498039215803146,0.498039215803146);
#238=SURFACE_SIDE_STYLE('',(#336));
#239=EDGE_LOOP('',(#337,#338,#339,#340));
#240=AXIS2_PLACEMENT_3D('',#341,#342,#343);
#241=PRE_DEFINED_MARKER('');
#242=COLOUR_RGB('',0.498039215803146,0.498039215803146,0.498039215803146);
#243=DRAUGHTING_PRE_DEFINED_CURVE_FONT('continuous');
#244=COLOUR_RGB('',0.800000011920929,0.800000011920929,0.800000011920929);
#245=CARTESIAN_POINT('',(6.78449126961475E-016,-5.54014051,-94.7344999996591));
#246=VECTOR('',#344,1.0);
#247=PRE_DEFINED_MARKER('');
#248=COLOUR_RGB('',0.498039215803146,0.498039215803146,0.498039215803146);
#249=PRE_DEFINED_MARKER('');
#250=COLOUR_RGB('',0.800000011920929,0.800000011920929,0.800000011920929);
#251=DRAUGHTING_PRE_DEFINED_CURVE_FONT('continuous');
#252=COLOUR_RGB('',0.498039215803146,0.498039215803146,0.498039215803146);
#253=CARTESIAN_POINT('',(7.34763812293426E-016,-6.0,-24.8));
#254=VECTOR('',#345,1.0);
#255=DRAUGHTING_PRE_DEFINED_CURVE_FONT('continuous');
#256=COLOUR_RGB('',0.800000011920929,0.800000011920929,0.800000011920929);
#257=AXIS2_PLACEMENT_3D('',#346,#347,#348);
#258=PRE_DEFINED_MARKER('');
#259=COLOUR_RGB('',0.800000011920929,0.800000011920929,0.800000011920929);
#260=PRE_DEFINED_MARKER('');
#261=COLOUR_RGB('',0.498039215803146,0.498039215803146,0.498039215803146);
#262=SURFACE_SIDE_STYLE('',(#349));
#263=DRAUGHTING_PRE_DEFINED_CURVE_FONT('continuous');
#264=COLOUR_RGB('',0.498039215803146,0.498039215803146,0.498039215803146);
#265=AXIS2_PLACEMENT_3D('',#350,#351,#352);
#266=PRE_DEFINED_MARKER('');
#267=COLOUR_RGB('',0.498039215803146,0.498039215803146,0.498039215803146);
#268=SURFACE_SIDE_STYLE('',(#353));
#269=EDGE_LOOP('',(#354,#355));
#270=AXIS2_PLACEMENT_3D('',#356,#357,#358);
#271=DRAUGHTING_PRE_DEFINED_CURVE_FONT('continuous');
#272=COLOUR_RGB('',0.498039215803146,0.498039215803146,0.498039215803146);
#273=CARTESIAN_POINT('',(-6.98025621678755E-016,5.7,-0.300000000000004));
#274=VECTOR('',#359,1.0);
#275=SURFACE_SIDE_STYLE('',(#360));
#276=EDGE_LOOP('',(#361,#362,#363,#364));
#277=AXIS2_PLACEMENT_3D('',#365,#366,#367);
#278=DRAUGHTING_PRE_DEFINED_CURVE_FONT('continuous');
#279=COLOUR_RGB('',0.800000011920929,0.800000011920929,0.800000011920929);
#280=CARTESIAN_POINT('',(-6.78449126961475E-016,5.54014051,-94.7344999996591));
#281=VECTOR('',#368,1.0);
#282=DRAUGHTING_PRE_DEFINED_CURVE_FONT('continuous');
#283=COLOUR_RGB('',0.800000011920929,0.800000011920929,0.800000011920929);
#284=AXIS2_PLACEMENT_3D('',#369,#370,#371);
#285=DRAUGHTING_PRE_DEFINED_CURVE_FONT('continuous');
#286=COLOUR_RGB('',0.498039215803146,0.498039215803146,0.498039215803146);
#287=AXIS2_PLACEMENT_3D('',#372,#373,#374);
#288=SURFACE_SIDE_STYLE('',(#375));
#289=EDGE_LOOP('',(#376,#377,#378,#379));
#290=AXIS2_PLACEMENT_3D('',#380,#381,#382);
#291=DRAUGHTING_PRE_DEFINED_CURVE_FONT('continuous');
#292=COLOUR_RGB('',0.498039215803146,0.498039215803146,0.498039215803146);
#293=AXIS2_PLACEMENT_3D('',#383,#384,#385);
#294=DRAUGHTING_PRE_DEFINED_CURVE_FONT('continuous');
#295=COLOUR_RGB('',0.498039215803146,0.498039215803146,0.498039215803146);
#296=AXIS2_PLACEMENT_3D('',#386,#387,#388);
#298=CARTESIAN_POINT('',(0.0,0.0,0.0));
#299=DIRECTION('',(0.0,0.0,-1.0));
#300=DIRECTION('',(0.0,1.0,0.0));
#301=SURFACE_STYLE_FILL_AREA(#389);
#302=ORIENTED_EDGE('',*,*,#105,.F.);
#303=ORIENTED_EDGE('',*,*,#107,.T.);
#304=ORIENTED_EDGE('',*,*,#79,.F.);
#305=ORIENTED_EDGE('',*,*,#115,.F.);
#306=CARTESIAN_POINT('',(0.0,0.0,-94.7344999996591));
#307=DIRECTION('',(-0.0,-0.0,1.0));
#308=DIRECTION('',(0.0,1.0,0.0));
#309=SURFACE_STYLE_FILL_AREA(#390);
#310=ORIENTED_EDGE('',*,*,#55,.F.);
#311=ORIENTED_EDGE('',*,*,#95,.F.);
#312=CARTESIAN_POINT('',(0.0,2.7,0.0));
#313=DIRECTION('',(-0.0,0.0,1.0));
#314=DIRECTION('',(0.0,-1.0,0.0));
#315=SURFACE_STYLE_FILL_AREA(#391);
#316=ORIENTED_EDGE('',*,*,#101,.T.);
#317=ORIENTED_EDGE('',*,*,#109,.F.);
#318=ORIENTED_EDGE('',*,*,#71,.T.);
#319=ORIENTED_EDGE('',*,*,#95,.T.);
#320=CARTESIAN_POINT('',(0.0,0.0,-0.300000000000004));
#321=DIRECTION('',(0.0,-0.0,-1.0));
#322=DIRECTION('',(0.0,1.0,0.0));
#323=SURFACE_STYLE_FILL_AREA(#392);
#324=ORIENTED_EDGE('',*,*,#105,.T.);
#325=ORIENTED_EDGE('',*,*,#113,.F.);
#326=ORIENTED_EDGE('',*,*,#79,.T.);
#327=ORIENTED_EDGE('',*,*,#87,.T.);
#328=CARTESIAN_POINT('',(0.0,0.0,-94.7344999996591));
#329=DIRECTION('',(-0.0,-0.0,1.0));
#330=DIRECTION('',(0.0,1.0,0.0));
#331=DIRECTION('',(0.0,0.0,-1.0));
#332=CARTESIAN_POINT('',(0.0,0.0,-0.600000000000001));
#333=DIRECTION('',(0.0,0.0,-1.0));
#334=DIRECTION('',(0.0,1.0,0.0));
#335=DIRECTION('',(-8.65927457071934E-017,0.707106781186546,0.707106781186549));
#336=SURFACE_STYLE_FILL_AREA(#393);
#337=ORIENTED_EDGE('',*,*,#67,.T.);
#338=ORIENTED_EDGE('',*,*,#87,.F.);
#339=ORIENTED_EDGE('',*,*,#85,.T.);
#340=ORIENTED_EDGE('',*,*,#109,.T.);
#341=CARTESIAN_POINT('',(0.0,0.0,-24.8));
#342=DIRECTION('',(-0.0,-0.0,1.0));
#343=DIRECTION('',(0.0,1.0,0.0));
#344=DIRECTION('',(1.06054021204601E-016,-0.866025403784439,0.5));
#345=DIRECTION('',(-0.0,-0.0,1.0));
#346=CARTESIAN_POINT('',(0.0,0.0,-94.4689999993182));
#347=DIRECTION('',(0.0,0.0,-1.0));
#348=DIRECTION('',(0.0,1.0,0.0));
#349=SURFACE_STYLE_FILL_AREA(#394);
#350=CARTESIAN_POINT('',(0.0,0.0,0.0));
#351=DIRECTION('',(0.0,0.0,-1.0));
#352=DIRECTION('',(0.0,1.0,0.0));
#353=SURFACE_STYLE_FILL_AREA(#395);
#354=ORIENTED_EDGE('',*,*,#115,.T.);
#355=ORIENTED_EDGE('',*,*,#113,.T.);
#356=CARTESIAN_POINT('',(0.0,2.54014051,-95.0));
#357=DIRECTION('',(0.0,0.0,-1.0));
#358=DIRECTION('',(0.0,1.0,0.0));
#359=DIRECTION('',(-8.65927457071934E-017,0.707106781186546,-0.707106781186549));
#360=SURFACE_STYLE_FILL_AREA(#396);
#361=ORIENTED_EDGE('',*,*,#101,.F.);
#362=ORIENTED_EDGE('',*,*,#55,.T.);
#363=ORIENTED_EDGE('',*,*,#71,.F.);
#364=ORIENTED_EDGE('',*,*,#69,.F.);
#365=CARTESIAN_POINT('',(0.0,0.0,-0.300000000000004));
#366=DIRECTION('',(0.0,-0.0,-1.0));
#367=DIRECTION('',(0.0,1.0,0.0));
#368=DIRECTION('',(1.06054021204601E-016,-0.866025403784439,-0.5));
#369=CARTESIAN_POINT('',(0.0,0.0,-94.4689999993182));
#370=DIRECTION('',(0.0,0.0,-1.0));
#371=DIRECTION('',(0.0,1.0,0.0));
#372=CARTESIAN_POINT('',(0.0,0.0,-0.600000000000001));
#373=DIRECTION('',(0.0,0.0,-1.0));
#374=DIRECTION('',(0.0,1.0,0.0));
#375=SURFACE_STYLE_FILL_AREA(#397);
#376=ORIENTED_EDGE('',*,*,#67,.F.);
#377=ORIENTED_EDGE('',*,*,#69,.T.);
#378=ORIENTED_EDGE('',*,*,#85,.F.);
#379=ORIENTED_EDGE('',*,*,#107,.F.);
#380=CARTESIAN_POINT('',(0.0,0.0,-24.8));
#381=DIRECTION('',(-0.0,-0.0,1.0));
#382=DIRECTION('',(0.0,1.0,0.0));
#383=CARTESIAN_POINT('',(0.0,0.0,-95.0));
#384=DIRECTION('',(0.0,0.0,-1.0));
#385=DIRECTION('',(0.0,1.0,0.0));
#386=CARTESIAN_POINT('',(0.0,0.0,-95.0));
#387=DIRECTION('',(0.0,0.0,-1.0));
#388=DIRECTION('',(0.0,1.0,0.0));
#389=FILL_AREA_STYLE('',(#398));
#390=FILL_AREA_STYLE('',(#399));
#391=FILL_AREA_STYLE('',(#400));
#392=FILL_AREA_STYLE('',(#401));
#393=FILL_AREA_STYLE('',(#402));
#394=FILL_AREA_STYLE('',(#403));
#395=FILL_AREA_STYLE('',(#404));
#396=FILL_AREA_STYLE('',(#405));
#397=FILL_AREA_STYLE('',(#406));
#398=FILL_AREA_STYLE_COLOUR('',#407);
#399=FILL_AREA_STYLE_COLOUR('',#408);
#400=FILL_AREA_STYLE_COLOUR('',#409);
#401=FILL_AREA_STYLE_COLOUR('',#410);
#402=FILL_AREA_STYLE_COLOUR('',#411);
#403=FILL_AREA_STYLE_COLOUR('',#412);
#404=FILL_AREA_STYLE_COLOUR('',#413);
#405=FILL_AREA_STYLE_COLOUR('',#414);
#406=FILL_AREA_STYLE_COLOUR('',#415);
#407=COLOUR_RGB('',0.800000011920929,0.800000011920929,0.800000011920929);
#408=COLOUR_RGB('',0.498039215803146,0.498039215803146,0.498039215803146);
#409=COLOUR_RGB('',0.498039215803146,0.498039215803146,0.498039215803146);
#410=COLOUR_RGB('',0.800000011920929,0.800000011920929,0.800000011920929);
#411=COLOUR_RGB('',0.498039215803146,0.498039215803146,0.498039215803146);
#412=COLOUR_RGB('',0.498039215803146,0.498039215803146,0.498039215803146);
#413=COLOUR_RGB('',0.498039215803146,0.498039215803146,0.498039215803146);
#414=COLOUR_RGB('',0.498039215803146,0.498039215803146,0.498039215803146);
#415=COLOUR_RGB('',0.498039215803146,0.498039215803146,0.498039215803146);
#416=AXIS2_PLACEMENT_3D('PCS',#417,#418,#419);
#417=CARTESIAN_POINT('',(0.0,0.0,0.0));
#418=DIRECTION('',(0.0,0.0,1.0));
#419=DIRECTION('',(1.0,0.0,0.0));
#420=AXIS2_PLACEMENT_3D('CIP',#421,#422,#423);
#421=CARTESIAN_POINT('',(0.0,0.0,-95.0));
#422=DIRECTION('',(0.0,0.0,1.0));
#423=DIRECTION('',(1.0,0.0,0.0));
#424=AXIS2_PLACEMENT_3D('CRP',#425,#426,#427);
#425=CARTESIAN_POINT('',(-6.0,0.0,-95.0));
#426=DIRECTION('',(0.0,0.0,1.0));
#427=DIRECTION('',(1.0,0.0,0.0));
#428=AXIS2_PLACEMENT_3D('MCS',#429,#430,#431);
#429=CARTESIAN_POINT('',(0.0,0.0,-49.0));
#430=DIRECTION('',(0.0,0.0,1.0));
#431=DIRECTION('',(1.0,0.0,0.0));
#432=CONSTRUCTIVE_GEOMETRY_REPRESENTATION_RELATIONSHIP('coordinate systems',$,#45,#433);
#433=CONSTRUCTIVE_GEOMETRY_REPRESENTATION('coordinate systems',(#416,#420,#424,#428),#6);
ENDSEC;
END-ISO-10303-21;
