ISO-10303-21;
HEADER;
FILE_DESCRIPTION(('no description'),'unknown implementation level');
FILE_NAME('solid1VbnVMyVq9du05sIkIRoLQ6RlfE_1.STP','  ',('CIMSOURCE GmbH'),('CADClick - KiM GmbH - www.kimweb.de'),'unknown preprocess','ACIS','unknown authorization');
FILE_SCHEMA(('automotive_design'));
ENDSEC;
DATA;
#1=MECHANICAL_DESIGN_GEOMETRIC_PRESENTATION_REPRESENTATION(' ',(#10,#11,#12,#13,#14,#15,#16,#17,#18,#19,#20,#21,#22,#23,#24,#25,#26,#27,#28,#29,#30,#31,#32,#33,#34,#35,#36,#37,#38,#39,#40,#41,#42,#43,#44,#45,#46,#47,#48),#6);
#2=PRODUCT_DEFINITION_CONTEXT('',#49,'design');
#3=APPLICATION_PROTOCOL_DEFINITION('INTERNATIONAL STANDARD','automotive_design',1994,#49);
#4=PRODUCT_CATEGORY_RELATIONSHIP('NONE','NONE',#50,#51);
#5=SHAPE_DEFINITION_REPRESENTATION(#52,#53);
#6= (GEOMETRIC_REPRESENTATION_CONTEXT(3)GLOBAL_UNCERTAINTY_ASSIGNED_CONTEXT((#56))GLOBAL_UNIT_ASSIGNED_CONTEXT((#58,#59,#60))REPRESENTATION_CONTEXT('NONE','WORKSPACE'));
#10=STYLED_ITEM('',(#62),#63);
#11=STYLED_ITEM('',(#64),#65);
#12=STYLED_ITEM('',(#66),#67);
#13=STYLED_ITEM('',(#68),#69);
#14=STYLED_ITEM('',(#70),#71);
#15=STYLED_ITEM('',(#72),#73);
#16=STYLED_ITEM('',(#74),#75);
#17=STYLED_ITEM('',(#76),#77);
#18=STYLED_ITEM('',(#78),#79);
#19=STYLED_ITEM('',(#80),#81);
#20=STYLED_ITEM('',(#82),#83);
#21=STYLED_ITEM('',(#84),#85);
#22=STYLED_ITEM('',(#86),#87);
#23=STYLED_ITEM('',(#88),#89);
#24=STYLED_ITEM('',(#90),#91);
#25=STYLED_ITEM('',(#92),#93);
#26=STYLED_ITEM('',(#94),#95);
#27=STYLED_ITEM('',(#96),#97);
#28=STYLED_ITEM('',(#98),#99);
#29=STYLED_ITEM('',(#100),#101);
#30=STYLED_ITEM('',(#102),#103);
#31=STYLED_ITEM('',(#104),#105);
#32=STYLED_ITEM('',(#106),#107);
#33=STYLED_ITEM('',(#108),#109);
#34=STYLED_ITEM('',(#110),#111);
#35=STYLED_ITEM('',(#112),#113);
#36=STYLED_ITEM('',(#114),#115);
#37=STYLED_ITEM('',(#116),#117);
#38=STYLED_ITEM('',(#118),#119);
#39=STYLED_ITEM('',(#120),#121);
#40=STYLED_ITEM('',(#122),#123);
#41=STYLED_ITEM('',(#124),#125);
#42=STYLED_ITEM('',(#126),#127);
#43=STYLED_ITEM('',(#128),#129);
#44=STYLED_ITEM('',(#130),#131);
#45=STYLED_ITEM('',(#132),#133);
#46=STYLED_ITEM('',(#134),#135);
#47=STYLED_ITEM('',(#136),#137);
#48=STYLED_ITEM('',(#138),#139);
#49=APPLICATION_CONTEXT(' ');
#50=PRODUCT_CATEGORY('part','NONE');
#51=PRODUCT_RELATED_PRODUCT_CATEGORY('detail',' ',(#140));
#52=PRODUCT_DEFINITION_SHAPE('NONE','NONE',#141);
#53=ADVANCED_BREP_SHAPE_REPRESENTATION('1',(#107,#142),#6);
#56=UNCERTAINTY_MEASURE_WITH_UNIT(LENGTH_MEASURE(1.0E-006),#58,'','');
#58= (CONVERSION_BASED_UNIT('MILLIMETRE',#145)LENGTH_UNIT()NAMED_UNIT(#148));
#59= (NAMED_UNIT(#150)PLANE_ANGLE_UNIT()SI_UNIT($,.RADIAN.));
#60= (NAMED_UNIT(#150)SOLID_ANGLE_UNIT()SI_UNIT($,.STERADIAN.));
#62=PRESENTATION_STYLE_ASSIGNMENT((#156));
#63=EDGE_CURVE('',#133,#111,#157,.T.);
#64=PRESENTATION_STYLE_ASSIGNMENT((#158));
#65=EDGE_CURVE('',#113,#91,#159,.T.);
#66=PRESENTATION_STYLE_ASSIGNMENT((#160));
#67=VERTEX_POINT('',#161);
#68=PRESENTATION_STYLE_ASSIGNMENT((#162));
#69=EDGE_CURVE('',#133,#97,#163,.T.);
#70=PRESENTATION_STYLE_ASSIGNMENT((#164));
#71=EDGE_CURVE('',#93,#129,#165,.T.);
#72=PRESENTATION_STYLE_ASSIGNMENT((#166));
#73=EDGE_CURVE('',#67,#133,#167,.T.);
#74=PRESENTATION_STYLE_ASSIGNMENT((#168));
#75=EDGE_CURVE('',#81,#91,#169,.T.);
#76=PRESENTATION_STYLE_ASSIGNMENT((#170));
#77=ADVANCED_FACE('',(#171),#172,.T.);
#78=PRESENTATION_STYLE_ASSIGNMENT((#173));
#79=VERTEX_POINT('',#174);
#80=PRESENTATION_STYLE_ASSIGNMENT((#175));
#81=VERTEX_POINT('',#176);
#82=PRESENTATION_STYLE_ASSIGNMENT((#177));
#83=ADVANCED_FACE('',(#178),#179,.T.);
#84=PRESENTATION_STYLE_ASSIGNMENT((#180));
#85=EDGE_CURVE('',#67,#87,#181,.T.);
#86=PRESENTATION_STYLE_ASSIGNMENT((#182));
#87=VERTEX_POINT('',#183);
#88=PRESENTATION_STYLE_ASSIGNMENT((#184));
#89=EDGE_CURVE('',#87,#111,#185,.T.);
#90=PRESENTATION_STYLE_ASSIGNMENT((#186));
#91=VERTEX_POINT('',#187);
#92=PRESENTATION_STYLE_ASSIGNMENT((#188));
#93=VERTEX_POINT('',#189);
#94=PRESENTATION_STYLE_ASSIGNMENT((#190));
#95=EDGE_CURVE('',#97,#81,#191,.T.);
#96=PRESENTATION_STYLE_ASSIGNMENT((#192));
#97=VERTEX_POINT('',#193);
#98=PRESENTATION_STYLE_ASSIGNMENT((#194));
#99=EDGE_CURVE('',#79,#93,#195,.T.);
#100=PRESENTATION_STYLE_ASSIGNMENT((#196));
#101=EDGE_CURVE('',#81,#79,#197,.T.);
#102=PRESENTATION_STYLE_ASSIGNMENT((#198));
#103=EDGE_CURVE('',#129,#87,#199,.T.);
#104=PRESENTATION_STYLE_ASSIGNMENT((#200));
#105=ADVANCED_FACE('',(#201),#202,.T.);
#106=PRESENTATION_STYLE_ASSIGNMENT((#203));
#107=MANIFOLD_SOLID_BREP('1',#204);
#108=PRESENTATION_STYLE_ASSIGNMENT((#205));
#109=EDGE_CURVE('',#135,#67,#206,.T.);
#110=PRESENTATION_STYLE_ASSIGNMENT((#207));
#111=VERTEX_POINT('',#208);
#112=PRESENTATION_STYLE_ASSIGNMENT((#209));
#113=VERTEX_POINT('',#210);
#114=PRESENTATION_STYLE_ASSIGNMENT((#211));
#115=EDGE_CURVE('',#111,#113,#212,.T.);
#116=PRESENTATION_STYLE_ASSIGNMENT((#213));
#117=EDGE_CURVE('',#91,#93,#214,.T.);
#118=PRESENTATION_STYLE_ASSIGNMENT((#215));
#119=ADVANCED_FACE('',(#216),#217,.T.);
#120=PRESENTATION_STYLE_ASSIGNMENT((#218));
#121=ADVANCED_FACE('',(#219),#220,.T.);
#122=PRESENTATION_STYLE_ASSIGNMENT((#221));
#123=ADVANCED_FACE('',(#222),#223,.F.);
#124=PRESENTATION_STYLE_ASSIGNMENT((#224));
#125=EDGE_CURVE('',#97,#113,#225,.T.);
#126=PRESENTATION_STYLE_ASSIGNMENT((#226));
#127=EDGE_CURVE('',#135,#129,#227,.T.);
#128=PRESENTATION_STYLE_ASSIGNMENT((#228));
#129=VERTEX_POINT('',#229);
#130=PRESENTATION_STYLE_ASSIGNMENT((#230));
#131=ADVANCED_FACE('',(#231),#232,.T.);
#132=PRESENTATION_STYLE_ASSIGNMENT((#233));
#133=VERTEX_POINT('',#234);
#134=PRESENTATION_STYLE_ASSIGNMENT((#235));
#135=VERTEX_POINT('',#236);
#136=PRESENTATION_STYLE_ASSIGNMENT((#237));
#137=ADVANCED_FACE('',(#238),#239,.T.);
#138=PRESENTATION_STYLE_ASSIGNMENT((#240));
#139=EDGE_CURVE('',#79,#135,#241,.T.);
#140=PRODUCT('1','1','PART-1-DESC',(#242));
#141=PRODUCT_DEFINITION('NONE','NONE',#243,#2);
#142=AXIS2_PLACEMENT_3D('',#244,#245,#246);
#145=LENGTH_MEASURE_WITH_UNIT(LENGTH_MEASURE(1.0),#247);
#148=DIMENSIONAL_EXPONENTS(1.0,0.0,0.0,0.0,0.0,0.0,0.0);
#150=DIMENSIONAL_EXPONENTS(0.0,0.0,0.0,0.0,0.0,0.0,0.0);
#156=CURVE_STYLE('',#248,POSITIVE_LENGTH_MEASURE(1.0E-006),#249);
#157=LINE('',#250,#251);
#158=CURVE_STYLE('',#252,POSITIVE_LENGTH_MEASURE(1.0E-006),#253);
#159=CIRCLE('',#254,0.399999999999999);
#160=POINT_STYLE(' ',#255,POSITIVE_LENGTH_MEASURE(1.0E-006),#256);
#161=CARTESIAN_POINT('',(15.804963619066,0.0,0.0));
#162=CURVE_STYLE('',#257,POSITIVE_LENGTH_MEASURE(1.0E-006),#258);
#163=LINE('',#259,#260);
#164=CURVE_STYLE('',#261,POSITIVE_LENGTH_MEASURE(1.0E-006),#262);
#165=CIRCLE('',#263,0.4);
#166=CURVE_STYLE('',#264,POSITIVE_LENGTH_MEASURE(1.0E-006),#265);
#167=CIRCLE('',#266,0.400000000000001);
#168=CURVE_STYLE('',#267,POSITIVE_LENGTH_MEASURE(1.0E-006),#268);
#169=LINE('',#269,#270);
#170=SURFACE_STYLE_USAGE(.BOTH.,#271);
#171=FACE_OUTER_BOUND('',#272,.T.);
#172=PLANE('',#273);
#173=POINT_STYLE(' ',#274,POSITIVE_LENGTH_MEASURE(1.0E-006),#275);
#174=CARTESIAN_POINT('',(0.346410161513775,0.6,0.0));
#175=POINT_STYLE(' ',#276,POSITIVE_LENGTH_MEASURE(1.0E-006),#277);
#176=CARTESIAN_POINT('',(7.90248180961961,13.68749999995,0.0));
#177=SURFACE_STYLE_USAGE(.BOTH.,#278);
#178=FACE_OUTER_BOUND('',#279,.T.);
#179=PLANE('',#280);
#180=CURVE_STYLE('',#281,POSITIVE_LENGTH_MEASURE(1.0E-006),#282);
#181=LINE('',#283,#284);
#182=POINT_STYLE(' ',#285,POSITIVE_LENGTH_MEASURE(1.0E-006),#286);
#183=CARTESIAN_POINT('',(15.804963619066,0.0,-3.18));
#184=CURVE_STYLE('',#287,POSITIVE_LENGTH_MEASURE(1.0E-006),#288);
#185=CIRCLE('',#289,0.400000000000001);
#186=POINT_STYLE(' ',#290,POSITIVE_LENGTH_MEASURE(1.0E-006),#291);
#187=CARTESIAN_POINT('',(7.90248180961961,13.68749999995,-3.18));
#188=POINT_STYLE(' ',#292,POSITIVE_LENGTH_MEASURE(1.0E-006),#293);
#189=CARTESIAN_POINT('',(0.346410161513775,0.6,-3.18));
#190=CURVE_STYLE('',#294,POSITIVE_LENGTH_MEASURE(1.0E-006),#295);
#191=CIRCLE('',#296,0.399999999999999);
#192=POINT_STYLE(' ',#297,POSITIVE_LENGTH_MEASURE(1.0E-006),#298);
#193=CARTESIAN_POINT('',(8.59530213256056,13.6875,0.0));
#194=CURVE_STYLE('',#299,POSITIVE_LENGTH_MEASURE(1.0E-006),#300);
#195=LINE('',#301,#302);
#196=CURVE_STYLE('',#303,POSITIVE_LENGTH_MEASURE(1.0E-006),#304);
#197=LINE('',#305,#306);
#198=CURVE_STYLE('',#307,POSITIVE_LENGTH_MEASURE(1.0E-006),#308);
#199=LINE('',#309,#310);
#200=SURFACE_STYLE_USAGE(.BOTH.,#311);
#201=FACE_OUTER_BOUND('',#312,.T.);
#202=PLANE('',#313);
#203=SURFACE_STYLE_USAGE(.BOTH.,#314);
#204=CLOSED_SHELL('',(#119,#83,#131,#105,#137,#121,#123,#77));
#205=CURVE_STYLE('',#315,POSITIVE_LENGTH_MEASURE(1.0E-006),#316);
#206=LINE('',#317,#318);
#207=POINT_STYLE(' ',#319,POSITIVE_LENGTH_MEASURE(1.0E-006),#320);
#208=CARTESIAN_POINT('',(16.1513737804932,0.599999999949999,-3.18));
#209=POINT_STYLE(' ',#321,POSITIVE_LENGTH_MEASURE(1.0E-006),#322);
#210=CARTESIAN_POINT('',(8.59530213256056,13.6875,-3.18));
#211=CURVE_STYLE('',#323,POSITIVE_LENGTH_MEASURE(1.0E-006),#324);
#212=LINE('',#325,#326);
#213=CURVE_STYLE('',#327,POSITIVE_LENGTH_MEASURE(1.0E-006),#328);
#214=LINE('',#329,#330);
#215=SURFACE_STYLE_USAGE(.BOTH.,#331);
#216=FACE_OUTER_BOUND('',#332,.T.);
#217=CYLINDRICAL_SURFACE('',#333,0.400000000000001);
#218=SURFACE_STYLE_USAGE(.BOTH.,#334);
#219=FACE_OUTER_BOUND('',#335,.T.);
#220=PLANE('',#336);
#221=SURFACE_STYLE_USAGE(.BOTH.,#337);
#222=FACE_OUTER_BOUND('',#338,.T.);
#223=PLANE('',#339);
#224=CURVE_STYLE('',#340,POSITIVE_LENGTH_MEASURE(1.0E-006),#341);
#225=LINE('',#342,#343);
#226=CURVE_STYLE('',#344,POSITIVE_LENGTH_MEASURE(1.0E-006),#345);
#227=LINE('',#346,#347);
#228=POINT_STYLE(' ',#348,POSITIVE_LENGTH_MEASURE(1.0E-006),#349);
#229=CARTESIAN_POINT('',(0.692820323027551,0.0,-3.18));
#230=SURFACE_STYLE_USAGE(.BOTH.,#350);
#231=FACE_OUTER_BOUND('',#351,.T.);
#232=CYLINDRICAL_SURFACE('',#352,0.399999999999999);
#233=POINT_STYLE(' ',#353,POSITIVE_LENGTH_MEASURE(1.0E-006),#354);
#234=CARTESIAN_POINT('',(16.1513737804932,0.599999999949999,0.0));
#235=POINT_STYLE(' ',#355,POSITIVE_LENGTH_MEASURE(1.0E-006),#356);
#236=CARTESIAN_POINT('',(0.692820323027551,0.0,0.0));
#237=SURFACE_STYLE_USAGE(.BOTH.,#357);
#238=FACE_OUTER_BOUND('',#358,.T.);
#239=CYLINDRICAL_SURFACE('',#359,0.4);
#240=CURVE_STYLE('',#360,POSITIVE_LENGTH_MEASURE(1.0E-006),#361);
#241=CIRCLE('',#362,0.4);
#242=PRODUCT_CONTEXT('',#49,'mechanical');
#243=PRODUCT_DEFINITION_FORMATION_WITH_SPECIFIED_SOURCE(' ','NONE',#140,.NOT_KNOWN.);
#244=CARTESIAN_POINT('',(0.0,0.0,0.0));
#245=DIRECTION('',(0.0,0.0,1.0));
#246=DIRECTION('',(1.0,0.0,0.0));
#247= (NAMED_UNIT(#148)LENGTH_UNIT()SI_UNIT(.MILLI.,.METRE.));
#248=DRAUGHTING_PRE_DEFINED_CURVE_FONT('continuous');
#249=COLOUR_RGB('',0.800000011920929,0.800000011920929,0.800000011920929);
#250=CARTESIAN_POINT('',(16.1513737804932,0.599999999949999,0.0));
#251=VECTOR('',#364,1.0);
#252=DRAUGHTING_PRE_DEFINED_CURVE_FONT('continuous');
#253=COLOUR_RGB('',0.800000011920929,0.800000011920929,0.800000011920929);
#254=AXIS2_PLACEMENT_3D('',#365,#366,#367);
#255=PRE_DEFINED_MARKER('');
#256=COLOUR_RGB('',0.800000011920929,0.800000011920929,0.800000011920929);
#257=DRAUGHTING_PRE_DEFINED_CURVE_FONT('continuous');
#258=COLOUR_RGB('',0.800000011920929,0.800000011920929,0.800000011920929);
#259=CARTESIAN_POINT('',(16.1513737805798,0.6,0.0));
#260=VECTOR('',#368,1.0);
#261=DRAUGHTING_PRE_DEFINED_CURVE_FONT('continuous');
#262=COLOUR_RGB('',0.800000011920929,0.800000011920929,0.800000011920929);
#263=AXIS2_PLACEMENT_3D('',#369,#370,#371);
#264=DRAUGHTING_PRE_DEFINED_CURVE_FONT('continuous');
#265=COLOUR_RGB('',0.800000011920929,0.800000011920929,0.800000011920929);
#266=AXIS2_PLACEMENT_3D('',#372,#373,#374);
#267=DRAUGHTING_PRE_DEFINED_CURVE_FONT('continuous');
#268=COLOUR_RGB('',0.800000011920929,0.800000011920929,0.800000011920929);
#269=CARTESIAN_POINT('',(7.90248180961961,13.68749999995,0.0));
#270=VECTOR('',#375,1.0);
#271=SURFACE_SIDE_STYLE('',(#376));
#272=EDGE_LOOP('',(#377,#378,#379,#380,#381,#382));
#273=AXIS2_PLACEMENT_3D('',#383,#384,#385);
#274=PRE_DEFINED_MARKER('');
#275=COLOUR_RGB('',0.800000011920929,0.800000011920929,0.800000011920929);
#276=PRE_DEFINED_MARKER('');
#277=COLOUR_RGB('',0.800000011920929,0.800000011920929,0.800000011920929);
#278=SURFACE_SIDE_STYLE('',(#386));
#279=EDGE_LOOP('',(#387,#388,#389,#390));
#280=AXIS2_PLACEMENT_3D('',#391,#392,#393);
#281=DRAUGHTING_PRE_DEFINED_CURVE_FONT('continuous');
#282=COLOUR_RGB('',0.800000011920929,0.800000011920929,0.800000011920929);
#283=CARTESIAN_POINT('',(15.804963619066,0.0,0.0));
#284=VECTOR('',#394,1.0);
#285=PRE_DEFINED_MARKER('');
#286=COLOUR_RGB('',0.800000011920929,0.800000011920929,0.800000011920929);
#287=DRAUGHTING_PRE_DEFINED_CURVE_FONT('continuous');
#288=COLOUR_RGB('',0.800000011920929,0.800000011920929,0.800000011920929);
#289=AXIS2_PLACEMENT_3D('',#395,#396,#397);
#290=PRE_DEFINED_MARKER('');
#291=COLOUR_RGB('',0.800000011920929,0.800000011920929,0.800000011920929);
#292=PRE_DEFINED_MARKER('');
#293=COLOUR_RGB('',0.800000011920929,0.800000011920929,0.800000011920929);
#294=DRAUGHTING_PRE_DEFINED_CURVE_FONT('continuous');
#295=COLOUR_RGB('',0.800000011920929,0.800000011920929,0.800000011920929);
#296=AXIS2_PLACEMENT_3D('',#398,#399,#400);
#297=PRE_DEFINED_MARKER('');
#298=COLOUR_RGB('',0.800000011920929,0.800000011920929,0.800000011920929);
#299=DRAUGHTING_PRE_DEFINED_CURVE_FONT('continuous');
#300=COLOUR_RGB('',0.800000011920929,0.800000011920929,0.800000011920929);
#301=CARTESIAN_POINT('',(0.346410161513775,0.6,0.0));
#302=VECTOR('',#401,1.0);
#303=DRAUGHTING_PRE_DEFINED_CURVE_FONT('continuous');
#304=COLOUR_RGB('',0.800000011920929,0.800000011920929,0.800000011920929);
#305=CARTESIAN_POINT('',(7.90248180953301,13.6875,0.0));
#306=VECTOR('',#402,1.0);
#307=DRAUGHTING_PRE_DEFINED_CURVE_FONT('continuous');
#308=COLOUR_RGB('',0.800000011920929,0.800000011920929,0.800000011920929);
#309=CARTESIAN_POINT('',(0.692820323027551,0.0,-3.18));
#310=VECTOR('',#403,1.0);
#311=SURFACE_SIDE_STYLE('',(#404));
#312=EDGE_LOOP('',(#405,#406,#407,#408));
#313=AXIS2_PLACEMENT_3D('',#409,#410,#411);
#314=SURFACE_SIDE_STYLE('',(#412));
#315=DRAUGHTING_PRE_DEFINED_CURVE_FONT('continuous');
#316=COLOUR_RGB('',0.800000011920929,0.800000011920929,0.800000011920929);
#317=CARTESIAN_POINT('',(0.692820323027551,0.0,0.0));
#318=VECTOR('',#413,1.0);
#319=PRE_DEFINED_MARKER('');
#320=COLOUR_RGB('',0.800000011920929,0.800000011920929,0.800000011920929);
#321=PRE_DEFINED_MARKER('');
#322=COLOUR_RGB('',0.800000011920929,0.800000011920929,0.800000011920929);
#323=DRAUGHTING_PRE_DEFINED_CURVE_FONT('continuous');
#324=COLOUR_RGB('',0.800000011920929,0.800000011920929,0.800000011920929);
#325=CARTESIAN_POINT('',(16.1513737805798,0.6,-3.18));
#326=VECTOR('',#414,1.0);
#327=DRAUGHTING_PRE_DEFINED_CURVE_FONT('continuous');
#328=COLOUR_RGB('',0.800000011920929,0.800000011920929,0.800000011920929);
#329=CARTESIAN_POINT('',(7.90248180953301,13.6875,-3.18));
#330=VECTOR('',#415,1.0);
#331=SURFACE_SIDE_STYLE('',(#416));
#332=EDGE_LOOP('',(#417,#418,#419,#420));
#333=AXIS2_PLACEMENT_3D('',#421,#422,#423);
#334=SURFACE_SIDE_STYLE('',(#424));
#335=EDGE_LOOP('',(#425,#426,#427,#428));
#336=AXIS2_PLACEMENT_3D('',#429,#430,#431);
#337=SURFACE_SIDE_STYLE('',(#432));
#338=EDGE_LOOP('',(#433,#434,#435,#436,#437,#438));
#339=AXIS2_PLACEMENT_3D('',#439,#440,#441);
#340=DRAUGHTING_PRE_DEFINED_CURVE_FONT('continuous');
#341=COLOUR_RGB('',0.800000011920929,0.800000011920929,0.800000011920929);
#342=CARTESIAN_POINT('',(8.59530213256056,13.6875,0.0));
#343=VECTOR('',#442,1.0);
#344=DRAUGHTING_PRE_DEFINED_CURVE_FONT('continuous');
#345=COLOUR_RGB('',0.800000011920929,0.800000011920929,0.800000011920929);
#346=CARTESIAN_POINT('',(0.692820323027551,0.0,0.0));
#347=VECTOR('',#443,1.0);
#348=PRE_DEFINED_MARKER('');
#349=COLOUR_RGB('',0.800000011920929,0.800000011920929,0.800000011920929);
#350=SURFACE_SIDE_STYLE('',(#444));
#351=EDGE_LOOP('',(#445,#446,#447,#448));
#352=AXIS2_PLACEMENT_3D('',#449,#450,#451);
#353=PRE_DEFINED_MARKER('');
#354=COLOUR_RGB('',0.800000011920929,0.800000011920929,0.800000011920929);
#355=PRE_DEFINED_MARKER('');
#356=COLOUR_RGB('',0.800000011920929,0.800000011920929,0.800000011920929);
#357=SURFACE_SIDE_STYLE('',(#452));
#358=EDGE_LOOP('',(#453,#454,#455,#456));
#359=AXIS2_PLACEMENT_3D('',#457,#458,#459);
#360=DRAUGHTING_PRE_DEFINED_CURVE_FONT('continuous');
#361=COLOUR_RGB('',0.800000011920929,0.800000011920929,0.800000011920929);
#362=AXIS2_PLACEMENT_3D('',#460,#461,#462);
#364=DIRECTION('',(0.0,0.0,-1.0));
#365=CARTESIAN_POINT('',(8.24889197104678,13.4874999998,-3.18));
#366=DIRECTION('',(0.0,-0.0,1.0));
#367=DIRECTION('',(0.866025403567934,0.500000000374997,0.0));
#368=DIRECTION('',(-0.5,0.866025403784439,0.0));
#369=CARTESIAN_POINT('',(0.692820323200756,0.4000000001,-3.18));
#370=DIRECTION('',(0.0,0.0,1.0));
#371=DIRECTION('',(-0.866025404000946,0.499999999624998,0.0));
#372=CARTESIAN_POINT('',(15.8049636188928,0.400000000100001,0.0));
#373=DIRECTION('',(0.0,0.0,1.0));
#374=DIRECTION('',(4.330180658485E-010,-1.0,0.0));
#375=DIRECTION('',(0.0,0.0,-1.0));
#376=SURFACE_STYLE_FILL_AREA(#463);
#377=ORIENTED_EDGE('',*,*,#109,.T.);
#378=ORIENTED_EDGE('',*,*,#73,.T.);
#379=ORIENTED_EDGE('',*,*,#69,.T.);
#380=ORIENTED_EDGE('',*,*,#95,.T.);
#381=ORIENTED_EDGE('',*,*,#101,.T.);
#382=ORIENTED_EDGE('',*,*,#139,.T.);
#383=CARTESIAN_POINT('',(8.24889197104678,4.7625,0.0));
#384=DIRECTION('',(0.0,0.0,1.0));
#385=DIRECTION('',(1.0,0.0,0.0));
#386=SURFACE_STYLE_FILL_AREA(#464);
#387=ORIENTED_EDGE('',*,*,#115,.T.);
#388=ORIENTED_EDGE('',*,*,#125,.F.);
#389=ORIENTED_EDGE('',*,*,#69,.F.);
#390=ORIENTED_EDGE('',*,*,#63,.T.);
#391=CARTESIAN_POINT('',(16.1513737804932,0.599999999949999,0.0));
#392=DIRECTION('',(0.866025403784439,0.5,0.0));
#393=DIRECTION('',(0.5,-0.866025403784439,-0.0));
#394=DIRECTION('',(0.0,0.0,-1.0));
#395=CARTESIAN_POINT('',(15.8049636188928,0.400000000100001,-3.18));
#396=DIRECTION('',(0.0,0.0,1.0));
#397=DIRECTION('',(4.330180658485E-010,-1.0,0.0));
#398=CARTESIAN_POINT('',(8.24889197104678,13.4874999998,0.0));
#399=DIRECTION('',(0.0,-0.0,1.0));
#400=DIRECTION('',(0.866025403567934,0.500000000374997,0.0));
#401=DIRECTION('',(0.0,0.0,-1.0));
#402=DIRECTION('',(-0.5,-0.866025403784439,0.0));
#403=DIRECTION('',(1.0,0.0,0.0));
#404=SURFACE_STYLE_FILL_AREA(#465);
#405=ORIENTED_EDGE('',*,*,#117,.T.);
#406=ORIENTED_EDGE('',*,*,#99,.F.);
#407=ORIENTED_EDGE('',*,*,#101,.F.);
#408=ORIENTED_EDGE('',*,*,#75,.T.);
#409=CARTESIAN_POINT('',(7.90248180961961,13.68749999995,0.0));
#410=DIRECTION('',(-0.866025403784439,0.5,0.0));
#411=DIRECTION('',(0.5,0.866025403784439,-0.0));
#412=SURFACE_STYLE_FILL_AREA(#466);
#413=DIRECTION('',(1.0,0.0,0.0));
#414=DIRECTION('',(-0.5,0.866025403784439,0.0));
#415=DIRECTION('',(-0.5,-0.866025403784439,0.0));
#416=SURFACE_STYLE_FILL_AREA(#467);
#417=ORIENTED_EDGE('',*,*,#89,.T.);
#418=ORIENTED_EDGE('',*,*,#63,.F.);
#419=ORIENTED_EDGE('',*,*,#73,.F.);
#420=ORIENTED_EDGE('',*,*,#85,.T.);
#421=CARTESIAN_POINT('',(15.8049636188928,0.400000000100001,0.0));
#422=DIRECTION('',(-0.0,-0.0,1.0));
#423=DIRECTION('',(4.330180658485E-010,-1.0,0.0));
#424=SURFACE_STYLE_FILL_AREA(#468);
#425=ORIENTED_EDGE('',*,*,#103,.T.);
#426=ORIENTED_EDGE('',*,*,#85,.F.);
#427=ORIENTED_EDGE('',*,*,#109,.F.);
#428=ORIENTED_EDGE('',*,*,#127,.T.);
#429=CARTESIAN_POINT('',(0.692820323027551,0.0,0.0));
#430=DIRECTION('',(0.0,-1.0,-0.0));
#431=DIRECTION('',(-1.0,0.0,-0.0));
#432=SURFACE_STYLE_FILL_AREA(#469);
#433=ORIENTED_EDGE('',*,*,#89,.F.);
#434=ORIENTED_EDGE('',*,*,#103,.F.);
#435=ORIENTED_EDGE('',*,*,#71,.F.);
#436=ORIENTED_EDGE('',*,*,#117,.F.);
#437=ORIENTED_EDGE('',*,*,#65,.F.);
#438=ORIENTED_EDGE('',*,*,#115,.F.);
#439=CARTESIAN_POINT('',(8.24889197104678,4.7625,-3.18));
#440=DIRECTION('',(0.0,0.0,1.0));
#441=DIRECTION('',(1.0,0.0,0.0));
#442=DIRECTION('',(0.0,0.0,-1.0));
#443=DIRECTION('',(0.0,0.0,-1.0));
#444=SURFACE_STYLE_FILL_AREA(#470);
#445=ORIENTED_EDGE('',*,*,#65,.T.);
#446=ORIENTED_EDGE('',*,*,#75,.F.);
#447=ORIENTED_EDGE('',*,*,#95,.F.);
#448=ORIENTED_EDGE('',*,*,#125,.T.);
#449=CARTESIAN_POINT('',(8.24889197104678,13.4874999998,0.0));
#450=DIRECTION('',(-0.0,-0.0,1.0));
#451=DIRECTION('',(0.866025403567934,0.500000000374997,0.0));
#452=SURFACE_STYLE_FILL_AREA(#471);
#453=ORIENTED_EDGE('',*,*,#71,.T.);
#454=ORIENTED_EDGE('',*,*,#127,.F.);
#455=ORIENTED_EDGE('',*,*,#139,.F.);
#456=ORIENTED_EDGE('',*,*,#99,.T.);
#457=CARTESIAN_POINT('',(0.692820323200756,0.4000000001,0.0));
#458=DIRECTION('',(-0.0,-0.0,1.0));
#459=DIRECTION('',(-0.866025404000946,0.499999999624998,0.0));
#460=CARTESIAN_POINT('',(0.692820323200756,0.4000000001,0.0));
#461=DIRECTION('',(0.0,0.0,1.0));
#462=DIRECTION('',(-0.866025404000946,0.499999999624998,0.0));
#463=FILL_AREA_STYLE('',(#472));
#464=FILL_AREA_STYLE('',(#473));
#465=FILL_AREA_STYLE('',(#474));
#466=FILL_AREA_STYLE('',(#475));
#467=FILL_AREA_STYLE('',(#476));
#468=FILL_AREA_STYLE('',(#477));
#469=FILL_AREA_STYLE('',(#478));
#470=FILL_AREA_STYLE('',(#479));
#471=FILL_AREA_STYLE('',(#480));
#472=FILL_AREA_STYLE_COLOUR('',#481);
#473=FILL_AREA_STYLE_COLOUR('',#482);
#474=FILL_AREA_STYLE_COLOUR('',#483);
#475=FILL_AREA_STYLE_COLOUR('',#484);
#476=FILL_AREA_STYLE_COLOUR('',#485);
#477=FILL_AREA_STYLE_COLOUR('',#486);
#478=FILL_AREA_STYLE_COLOUR('',#487);
#479=FILL_AREA_STYLE_COLOUR('',#488);
#480=FILL_AREA_STYLE_COLOUR('',#489);
#481=COLOUR_RGB('',0.800000011920929,0.800000011920929,0.800000011920929);
#482=COLOUR_RGB('',0.800000011920929,0.800000011920929,0.800000011920929);
#483=COLOUR_RGB('',0.800000011920929,0.800000011920929,0.800000011920929);
#484=COLOUR_RGB('',0.800000011920929,0.800000011920929,0.800000011920929);
#485=COLOUR_RGB('',0.800000011920929,0.800000011920929,0.800000011920929);
#486=COLOUR_RGB('',0.800000011920929,0.800000011920929,0.800000011920929);
#487=COLOUR_RGB('',0.800000011920929,0.800000011920929,0.800000011920929);
#488=COLOUR_RGB('',0.800000011920929,0.800000011920929,0.800000011920929);
#489=COLOUR_RGB('',0.800000011920929,0.800000011920929,0.800000011920929);
#490=AXIS2_PLACEMENT_3D('PCS',#491,#492,#493);
#491=CARTESIAN_POINT('',(0.0,0.0,0.0));
#492=DIRECTION('',(0.0,0.0,1.0));
#493=DIRECTION('',(1.0,0.0,0.0));
#494=AXIS2_PLACEMENT_3D('MCS',#495,#496,#497);
#495=CARTESIAN_POINT('',(8.24889197,4.7625,0.0));
#496=DIRECTION('',(0.0,0.0,1.0));
#497=DIRECTION('',(1.0,0.0,0.0));
#498=CONSTRUCTIVE_GEOMETRY_REPRESENTATION_RELATIONSHIP('coordinate systems',$,#53,#499);
#499=CONSTRUCTIVE_GEOMETRY_REPRESENTATION('coordinate systems',(#490,#494),#6);
ENDSEC;
END-ISO-10303-21;
