ISO-10303-21;
HEADER;
FILE_DESCRIPTION(('no description'),'unknown implementation level');
FILE_NAME('8503560.stp','  ',('CIM GmbH Aachen'),('CADClick - KiM GmbH - www.kimweb.de'),'unknown preprocess','ACIS','unknown authorization');
FILE_SCHEMA(('automotive_design'));
ENDSEC;
DATA;
#1=MECHANICAL_DESIGN_GEOMETRIC_PRESENTATION_REPRESENTATION(' ',(#14,#15,#16,#17,#18,#19,#20,#21,#22,#23,#24,#25,#26,#27,#28,#29,#30,#31,#32,#33,#34,#35,#36,#37,#38,#39,#40,#41,#42,#43,#44,#45,#46,#47,#48,#49,#50,#51,#52,#53,#54,#55,#56,#57,#58,#59,#60,#61),#10);
#2=PRODUCT_DEFINITION_CONTEXT('',#62,'design');
#3=APPLICATION_PROTOCOL_DEFINITION('INTERNATIONAL STANDARD','automotive_design',1994,#62);
#4=PRODUCT_CATEGORY_RELATIONSHIP('NONE','NONE',#63,#64);
#5=SHAPE_DEFINITION_REPRESENTATION(#65,#66);
#6=PRODUCT_DEFINITION_CONTEXT('',#67,'design');
#7=APPLICATION_PROTOCOL_DEFINITION('INTERNATIONAL STANDARD','automotive_design',1994,#67);
#8=PRODUCT_CATEGORY_RELATIONSHIP('NONE','NONE',#68,#69);
#9=SHAPE_DEFINITION_REPRESENTATION(#70,#71);
#10= (GEOMETRIC_REPRESENTATION_CONTEXT(3)GLOBAL_UNCERTAINTY_ASSIGNED_CONTEXT((#74))GLOBAL_UNIT_ASSIGNED_CONTEXT((#76,#77,#78))REPRESENTATION_CONTEXT('NONE','WORKSPACE'));
#14=STYLED_ITEM('',(#80),#81);
#15=STYLED_ITEM('',(#82),#83);
#16=STYLED_ITEM('',(#84),#85);
#17=STYLED_ITEM('',(#86),#87);
#18=STYLED_ITEM('',(#88),#89);
#19=STYLED_ITEM('',(#90),#91);
#20=STYLED_ITEM('',(#92),#93);
#21=STYLED_ITEM('',(#94),#95);
#22=STYLED_ITEM('',(#96),#97);
#23=STYLED_ITEM('',(#98),#99);
#24=STYLED_ITEM('',(#100),#101);
#25=STYLED_ITEM('',(#102),#103);
#26=STYLED_ITEM('',(#104),#105);
#27=STYLED_ITEM('',(#106),#107);
#28=STYLED_ITEM('',(#108),#109);
#29=STYLED_ITEM('',(#110),#111);
#30=STYLED_ITEM('',(#112),#113);
#31=STYLED_ITEM('',(#114),#115);
#32=STYLED_ITEM('',(#116),#117);
#33=STYLED_ITEM('',(#118),#119);
#34=STYLED_ITEM('',(#120),#121);
#35=STYLED_ITEM('',(#122),#123);
#36=STYLED_ITEM('',(#124),#125);
#37=STYLED_ITEM('',(#126),#127);
#38=STYLED_ITEM('',(#128),#129);
#39=STYLED_ITEM('',(#130),#131);
#40=STYLED_ITEM('',(#132),#133);
#41=STYLED_ITEM('',(#134),#135);
#42=STYLED_ITEM('',(#136),#137);
#43=STYLED_ITEM('',(#138),#139);
#44=STYLED_ITEM('',(#140),#141);
#45=STYLED_ITEM('',(#142),#143);
#46=STYLED_ITEM('',(#144),#145);
#47=STYLED_ITEM('',(#146),#147);
#48=STYLED_ITEM('',(#148),#149);
#49=STYLED_ITEM('',(#150),#151);
#50=STYLED_ITEM('',(#152),#153);
#51=STYLED_ITEM('',(#154),#155);
#52=STYLED_ITEM('',(#156),#157);
#53=STYLED_ITEM('',(#158),#159);
#54=STYLED_ITEM('',(#160),#161);
#55=STYLED_ITEM('',(#162),#163);
#56=STYLED_ITEM('',(#164),#165);
#57=STYLED_ITEM('',(#166),#167);
#58=STYLED_ITEM('',(#168),#169);
#59=STYLED_ITEM('',(#170),#171);
#60=STYLED_ITEM('',(#172),#173);
#61=STYLED_ITEM('',(#174),#175);
#62=APPLICATION_CONTEXT(' ');
#63=PRODUCT_CATEGORY('part','NONE');
#64=PRODUCT_RELATED_PRODUCT_CATEGORY('detail',' ',(#176));
#65=PRODUCT_DEFINITION_SHAPE('NONE','NONE',#177);
#66=ADVANCED_BREP_SHAPE_REPRESENTATION('1',(#113,#178),#10);
#67=APPLICATION_CONTEXT(' ');
#68=PRODUCT_CATEGORY('part','NONE');
#69=PRODUCT_RELATED_PRODUCT_CATEGORY('detail',' ',(#179));
#70=PRODUCT_DEFINITION_SHAPE('NONE','NONE',#180);
#71=ADVANCED_BREP_SHAPE_REPRESENTATION('2',(#101,#181),#10);
#74=UNCERTAINTY_MEASURE_WITH_UNIT(LENGTH_MEASURE(1.0E-006),#76,'','');
#76= (CONVERSION_BASED_UNIT('MILLIMETRE',#184)LENGTH_UNIT()NAMED_UNIT(#187));
#77= (NAMED_UNIT(#189)PLANE_ANGLE_UNIT()SI_UNIT($,.RADIAN.));
#78= (NAMED_UNIT(#189)SOLID_ANGLE_UNIT()SI_UNIT($,.STERADIAN.));
#80=PRESENTATION_STYLE_ASSIGNMENT((#195));
#81=VERTEX_POINT('',#196);
#82=PRESENTATION_STYLE_ASSIGNMENT((#197));
#83=ADVANCED_FACE('',(#198),#199,.T.);
#84=PRESENTATION_STYLE_ASSIGNMENT((#200));
#85=VERTEX_POINT('',#201);
#86=PRESENTATION_STYLE_ASSIGNMENT((#202));
#87=VERTEX_POINT('',#203);
#88=PRESENTATION_STYLE_ASSIGNMENT((#204));
#89=EDGE_CURVE('',#81,#85,#205,.T.);
#90=PRESENTATION_STYLE_ASSIGNMENT((#206));
#91=EDGE_CURVE('',#157,#121,#207,.T.);
#92=PRESENTATION_STYLE_ASSIGNMENT((#208));
#93=ADVANCED_FACE('',(#209),#210,.T.);
#94=PRESENTATION_STYLE_ASSIGNMENT((#211));
#95=VERTEX_POINT('',#212);
#96=PRESENTATION_STYLE_ASSIGNMENT((#213));
#97=VERTEX_POINT('',#214);
#98=PRESENTATION_STYLE_ASSIGNMENT((#215));
#99=EDGE_CURVE('',#97,#125,#216,.T.);
#100=PRESENTATION_STYLE_ASSIGNMENT((#217));
#101=MANIFOLD_SOLID_BREP('2',#218);
#102=PRESENTATION_STYLE_ASSIGNMENT((#219));
#103=ADVANCED_FACE('',(#220),#221,.T.);
#104=PRESENTATION_STYLE_ASSIGNMENT((#222));
#105=VERTEX_POINT('',#223);
#106=PRESENTATION_STYLE_ASSIGNMENT((#224));
#107=ADVANCED_FACE('',(#225),#226,.T.);
#108=PRESENTATION_STYLE_ASSIGNMENT((#227));
#109=EDGE_CURVE('',#151,#111,#228,.T.);
#110=PRESENTATION_STYLE_ASSIGNMENT((#229));
#111=VERTEX_POINT('',#230);
#112=PRESENTATION_STYLE_ASSIGNMENT((#231));
#113=MANIFOLD_SOLID_BREP('1',#232);
#114=PRESENTATION_STYLE_ASSIGNMENT((#233));
#115=ADVANCED_FACE('',(#234),#235,.T.);
#116=PRESENTATION_STYLE_ASSIGNMENT((#236));
#117=EDGE_CURVE('',#81,#125,#237,.T.);
#118=PRESENTATION_STYLE_ASSIGNMENT((#238));
#119=EDGE_CURVE('',#169,#111,#239,.T.);
#120=PRESENTATION_STYLE_ASSIGNMENT((#240));
#121=VERTEX_POINT('',#241);
#122=PRESENTATION_STYLE_ASSIGNMENT((#242));
#123=ADVANCED_FACE('',(#243),#244,.T.);
#124=PRESENTATION_STYLE_ASSIGNMENT((#245));
#125=VERTEX_POINT('',#246);
#126=PRESENTATION_STYLE_ASSIGNMENT((#247));
#127=ADVANCED_FACE('',(#248),#249,.T.);
#128=PRESENTATION_STYLE_ASSIGNMENT((#250));
#129=EDGE_CURVE('',#85,#81,#251,.T.);
#130=PRESENTATION_STYLE_ASSIGNMENT((#252));
#131=EDGE_CURVE('',#95,#85,#253,.T.);
#132=PRESENTATION_STYLE_ASSIGNMENT((#254));
#133=EDGE_CURVE('',#155,#157,#255,.T.);
#134=PRESENTATION_STYLE_ASSIGNMENT((#256));
#135=VERTEX_POINT('',#257);
#136=PRESENTATION_STYLE_ASSIGNMENT((#258));
#137=EDGE_CURVE('',#111,#155,#259,.T.);
#138=PRESENTATION_STYLE_ASSIGNMENT((#260));
#139=EDGE_CURVE('',#95,#97,#261,.T.);
#140=PRESENTATION_STYLE_ASSIGNMENT((#262));
#141=EDGE_CURVE('',#157,#151,#263,.T.);
#142=PRESENTATION_STYLE_ASSIGNMENT((#264));
#143=EDGE_CURVE('',#105,#95,#265,.T.);
#144=PRESENTATION_STYLE_ASSIGNMENT((#266));
#145=EDGE_CURVE('',#125,#105,#267,.T.);
#146=PRESENTATION_STYLE_ASSIGNMENT((#268));
#147=EDGE_CURVE('',#105,#97,#269,.T.);
#148=PRESENTATION_STYLE_ASSIGNMENT((#270));
#149=ADVANCED_FACE('',(#271),#272,.T.);
#150=PRESENTATION_STYLE_ASSIGNMENT((#273));
#151=VERTEX_POINT('',#274);
#152=PRESENTATION_STYLE_ASSIGNMENT((#275));
#153=EDGE_CURVE('',#151,#135,#276,.T.);
#154=PRESENTATION_STYLE_ASSIGNMENT((#277));
#155=VERTEX_POINT('',#278);
#156=PRESENTATION_STYLE_ASSIGNMENT((#279));
#157=VERTEX_POINT('',#280);
#158=PRESENTATION_STYLE_ASSIGNMENT((#281));
#159=EDGE_CURVE('',#135,#87,#282,.T.);
#160=PRESENTATION_STYLE_ASSIGNMENT((#283));
#161=EDGE_CURVE('',#87,#135,#284,.T.);
#162=PRESENTATION_STYLE_ASSIGNMENT((#285));
#163=EDGE_CURVE('',#169,#121,#286,.T.);
#164=PRESENTATION_STYLE_ASSIGNMENT((#287));
#165=ADVANCED_FACE('',(#288),#289,.T.);
#166=PRESENTATION_STYLE_ASSIGNMENT((#290));
#167=ADVANCED_FACE('',(#291),#292,.T.);
#168=PRESENTATION_STYLE_ASSIGNMENT((#293));
#169=VERTEX_POINT('',#294);
#170=PRESENTATION_STYLE_ASSIGNMENT((#295));
#171=EDGE_CURVE('',#121,#169,#296,.T.);
#172=PRESENTATION_STYLE_ASSIGNMENT((#297));
#173=EDGE_CURVE('',#87,#155,#298,.T.);
#174=PRESENTATION_STYLE_ASSIGNMENT((#299));
#175=ADVANCED_FACE('',(#300),#301,.T.);
#176=PRODUCT('1','1','PART-1-DESC',(#302));
#177=PRODUCT_DEFINITION('NONE','NONE',#303,#2);
#178=AXIS2_PLACEMENT_3D('',#304,#305,#306);
#179=PRODUCT('2','2','PART-2-DESC',(#307));
#180=PRODUCT_DEFINITION('NONE','NONE',#308,#6);
#181=AXIS2_PLACEMENT_3D('',#309,#310,#311);
#184=LENGTH_MEASURE_WITH_UNIT(LENGTH_MEASURE(1.0),#312);
#187=DIMENSIONAL_EXPONENTS(1.0,0.0,0.0,0.0,0.0,0.0,0.0);
#189=DIMENSIONAL_EXPONENTS(0.0,0.0,0.0,0.0,0.0,0.0,0.0);
#195=POINT_STYLE(' ',#313,POSITIVE_LENGTH_MEASURE(1.0E-006),#314);
#196=CARTESIAN_POINT('',(4.0,6.92820323027551,-130.0));
#197=SURFACE_STYLE_USAGE(.BOTH.,#315);
#198=FACE_OUTER_BOUND('',#316,.T.);
#199=CONICAL_SURFACE('',#317,7.6,0.78539816339745);
#200=POINT_STYLE(' ',#318,POSITIVE_LENGTH_MEASURE(1.0E-006),#319);
#201=CARTESIAN_POINT('',(-4.0,-6.92820323027551,-130.0));
#202=POINT_STYLE(' ',#320,POSITIVE_LENGTH_MEASURE(1.0E-006),#321);
#203=CARTESIAN_POINT('',(8.0,9.79685083057902E-016,-130.0));
#204=CURVE_STYLE('',#322,POSITIVE_LENGTH_MEASURE(1.0E-006),#323);
#205=CIRCLE('',#324,8.0);
#206=CURVE_STYLE('',#325,POSITIVE_LENGTH_MEASURE(1.0E-006),#326);
#207=LINE('',#327,#328);
#208=SURFACE_STYLE_USAGE(.BOTH.,#329);
#209=FACE_OUTER_BOUND('',#330,.T.);
#210=SPHERICAL_SURFACE('',#331,8.00000000000002);
#211=POINT_STYLE(' ',#332,POSITIVE_LENGTH_MEASURE(1.0E-006),#333);
#212=CARTESIAN_POINT('',(-4.0,-6.92820323027551,-152.0));
#213=POINT_STYLE(' ',#334,POSITIVE_LENGTH_MEASURE(1.0E-006),#335);
#214=CARTESIAN_POINT('',(0.0,8.0,-152.0));
#215=CURVE_STYLE('',#336,POSITIVE_LENGTH_MEASURE(1.0E-006),#337);
#216=CIRCLE('',#338,8.0);
#217=SURFACE_STYLE_USAGE(.BOTH.,#339);
#218=CLOSED_SHELL('',(#165,#93,#175,#107,#127));
#219=SURFACE_STYLE_USAGE(.BOTH.,#340);
#220=FACE_OUTER_BOUND('',#341,.T.);
#221=PLANE('',#342);
#222=POINT_STYLE(' ',#343,POSITIVE_LENGTH_MEASURE(1.0E-006),#344);
#223=CARTESIAN_POINT('',(0.0,-8.0,-152.0));
#224=SURFACE_STYLE_USAGE(.BOTH.,#345);
#225=FACE_OUTER_BOUND('',#346,.T.);
#226=PLANE('',#347);
#227=CURVE_STYLE('',#348,POSITIVE_LENGTH_MEASURE(1.0E-006),#349);
#228=CIRCLE('',#350,8.0);
#229=POINT_STYLE(' ',#351,POSITIVE_LENGTH_MEASURE(1.0E-006),#352);
#230=CARTESIAN_POINT('',(0.0,8.0,-0.799999999999997));
#231=SURFACE_STYLE_USAGE(.BOTH.,#353);
#232=CLOSED_SHELL('',(#115,#83,#167,#123,#149,#103));
#233=SURFACE_STYLE_USAGE(.BOTH.,#354);
#234=FACE_OUTER_BOUND('',#355,.T.);
#235=CYLINDRICAL_SURFACE('',#356,8.0);
#236=CURVE_STYLE('',#357,POSITIVE_LENGTH_MEASURE(1.0E-006),#358);
#237=LINE('',#359,#360);
#238=CURVE_STYLE('',#361,POSITIVE_LENGTH_MEASURE(1.0E-006),#362);
#239=LINE('',#363,#364);
#240=POINT_STYLE(' ',#365,POSITIVE_LENGTH_MEASURE(1.0E-006),#366);
#241=CARTESIAN_POINT('',(8.81716574752112E-016,-7.2,0.0));
#242=SURFACE_STYLE_USAGE(.BOTH.,#367);
#243=FACE_OUTER_BOUND('',#368,.T.);
#244=CONICAL_SURFACE('',#369,7.6,0.78539816339745);
#245=POINT_STYLE(' ',#370,POSITIVE_LENGTH_MEASURE(1.0E-006),#371);
#246=CARTESIAN_POINT('',(4.0,6.92820323027551,-152.0));
#247=SURFACE_STYLE_USAGE(.BOTH.,#372);
#248=FACE_OUTER_BOUND('',#373,.T.);
#249=CYLINDRICAL_SURFACE('',#374,8.0);
#250=CURVE_STYLE('',#375,POSITIVE_LENGTH_MEASURE(1.0E-006),#376);
#251=CIRCLE('',#377,8.0);
#252=CURVE_STYLE('',#378,POSITIVE_LENGTH_MEASURE(1.0E-006),#379);
#253=LINE('',#380,#381);
#254=CURVE_STYLE('',#382,POSITIVE_LENGTH_MEASURE(1.0E-006),#383);
#255=CIRCLE('',#384,8.0);
#256=POINT_STYLE(' ',#385,POSITIVE_LENGTH_MEASURE(1.0E-006),#386);
#257=CARTESIAN_POINT('',(-8.0,0.0,-130.0));
#258=CURVE_STYLE('',#387,POSITIVE_LENGTH_MEASURE(1.0E-006),#388);
#259=CIRCLE('',#389,8.0);
#260=CURVE_STYLE('',#390,POSITIVE_LENGTH_MEASURE(1.0E-006),#391);
#261=CIRCLE('',#392,8.0);
#262=CURVE_STYLE('',#393,POSITIVE_LENGTH_MEASURE(1.0E-006),#394);
#263=CIRCLE('',#395,8.0);
#264=CURVE_STYLE('',#396,POSITIVE_LENGTH_MEASURE(1.0E-006),#397);
#265=CIRCLE('',#398,8.0);
#266=CURVE_STYLE('',#399,POSITIVE_LENGTH_MEASURE(1.0E-006),#400);
#267=CIRCLE('',#401,8.0);
#268=CURVE_STYLE('',#402,POSITIVE_LENGTH_MEASURE(1.0E-006),#403);
#269=CIRCLE('',#404,8.00000000000002);
#270=SURFACE_STYLE_USAGE(.BOTH.,#405);
#271=FACE_OUTER_BOUND('',#406,.T.);
#272=CYLINDRICAL_SURFACE('',#407,8.0);
#273=POINT_STYLE(' ',#408,POSITIVE_LENGTH_MEASURE(1.0E-006),#409);
#274=CARTESIAN_POINT('',(-8.0,-9.79685083057902E-016,-0.799999999999997));
#275=CURVE_STYLE('',#410,POSITIVE_LENGTH_MEASURE(1.0E-006),#411);
#276=LINE('',#412,#413);
#277=POINT_STYLE(' ',#414,POSITIVE_LENGTH_MEASURE(1.0E-006),#415);
#278=CARTESIAN_POINT('',(8.0,9.79685083057902E-016,-0.799999999999997));
#279=POINT_STYLE(' ',#416,POSITIVE_LENGTH_MEASURE(1.0E-006),#417);
#280=CARTESIAN_POINT('',(9.79685083057902E-016,-8.0,-0.799999999999997));
#281=CURVE_STYLE('',#418,POSITIVE_LENGTH_MEASURE(1.0E-006),#419);
#282=CIRCLE('',#420,8.0);
#283=CURVE_STYLE('',#421,POSITIVE_LENGTH_MEASURE(1.0E-006),#422);
#284=CIRCLE('',#423,8.0);
#285=CURVE_STYLE('',#424,POSITIVE_LENGTH_MEASURE(1.0E-006),#425);
#286=CIRCLE('',#426,7.2);
#287=SURFACE_STYLE_USAGE(.BOTH.,#427);
#288=FACE_OUTER_BOUND('',#428,.T.);
#289=CYLINDRICAL_SURFACE('',#429,8.0);
#290=SURFACE_STYLE_USAGE(.BOTH.,#430);
#291=FACE_OUTER_BOUND('',#431,.T.);
#292=PLANE('',#432);
#293=POINT_STYLE(' ',#433,POSITIVE_LENGTH_MEASURE(1.0E-006),#434);
#294=CARTESIAN_POINT('',(0.0,7.2,0.0));
#295=CURVE_STYLE('',#435,POSITIVE_LENGTH_MEASURE(1.0E-006),#436);
#296=CIRCLE('',#437,7.2);
#297=CURVE_STYLE('',#438,POSITIVE_LENGTH_MEASURE(1.0E-006),#439);
#298=LINE('',#440,#441);
#299=SURFACE_STYLE_USAGE(.BOTH.,#442);
#300=FACE_OUTER_BOUND('',#443,.T.);
#301=SPHERICAL_SURFACE('',#444,8.00000000000002);
#302=PRODUCT_CONTEXT('',#62,'mechanical');
#303=PRODUCT_DEFINITION_FORMATION_WITH_SPECIFIED_SOURCE(' ','NONE',#176,.NOT_KNOWN.);
#304=CARTESIAN_POINT('',(0.0,0.0,0.0));
#305=DIRECTION('',(0.0,0.0,1.0));
#306=DIRECTION('',(1.0,0.0,0.0));
#307=PRODUCT_CONTEXT('',#67,'mechanical');
#308=PRODUCT_DEFINITION_FORMATION_WITH_SPECIFIED_SOURCE(' ','NONE',#179,.NOT_KNOWN.);
#309=CARTESIAN_POINT('',(0.0,0.0,0.0));
#310=DIRECTION('',(0.0,0.0,1.0));
#311=DIRECTION('',(1.0,0.0,0.0));
#312= (NAMED_UNIT(#187)LENGTH_UNIT()SI_UNIT(.MILLI.,.METRE.));
#313=PRE_DEFINED_MARKER('');
#314=COLOUR_RGB('',0.800000011920929,0.800000011920929,0.800000011920929);
#315=SURFACE_SIDE_STYLE('',(#446));
#316=EDGE_LOOP('',(#447,#448,#449,#450,#451));
#317=AXIS2_PLACEMENT_3D('',#452,#453,#454);
#318=PRE_DEFINED_MARKER('');
#319=COLOUR_RGB('',0.800000011920929,0.800000011920929,0.800000011920929);
#320=PRE_DEFINED_MARKER('');
#321=COLOUR_RGB('',0.498039215803146,0.498039215803146,0.498039215803146);
#322=DRAUGHTING_PRE_DEFINED_CURVE_FONT('continuous');
#323=COLOUR_RGB('',0.800000011920929,0.800000011920929,0.800000011920929);
#324=AXIS2_PLACEMENT_3D('',#455,#456,#457);
#325=DRAUGHTING_PRE_DEFINED_CURVE_FONT('continuous');
#326=COLOUR_RGB('',0.498039215803146,0.498039215803146,0.498039215803146);
#327=CARTESIAN_POINT('',(9.30700828905007E-016,-7.6,-0.399999999999999));
#328=VECTOR('',#458,1.0);
#329=SURFACE_SIDE_STYLE('',(#459));
#330=EDGE_LOOP('',(#460,#461,#462));
#331=AXIS2_PLACEMENT_3D('',#463,#464,#465);
#332=PRE_DEFINED_MARKER('');
#333=COLOUR_RGB('',0.800000011920929,0.800000011920929,0.800000011920929);
#334=PRE_DEFINED_MARKER('');
#335=COLOUR_RGB('',0.800000011920929,0.800000011920929,0.800000011920929);
#336=DRAUGHTING_PRE_DEFINED_CURVE_FONT('continuous');
#337=COLOUR_RGB('',0.800000011920929,0.800000011920929,0.800000011920929);
#338=AXIS2_PLACEMENT_3D('',#466,#467,#468);
#339=SURFACE_SIDE_STYLE('',(#469));
#340=SURFACE_SIDE_STYLE('',(#470));
#341=EDGE_LOOP('',(#471,#472));
#342=AXIS2_PLACEMENT_3D('',#473,#474,#475);
#343=PRE_DEFINED_MARKER('');
#344=COLOUR_RGB('',0.800000011920929,0.800000011920929,0.800000011920929);
#345=SURFACE_SIDE_STYLE('',(#476));
#346=EDGE_LOOP('',(#477,#478));
#347=AXIS2_PLACEMENT_3D('',#479,#480,#481);
#348=DRAUGHTING_PRE_DEFINED_CURVE_FONT('continuous');
#349=COLOUR_RGB('',0.498039215803146,0.498039215803146,0.498039215803146);
#350=AXIS2_PLACEMENT_3D('',#482,#483,#484);
#351=PRE_DEFINED_MARKER('');
#352=COLOUR_RGB('',0.498039215803146,0.498039215803146,0.498039215803146);
#353=SURFACE_SIDE_STYLE('',(#485));
#354=SURFACE_SIDE_STYLE('',(#486));
#355=EDGE_LOOP('',(#487,#488,#489,#490,#491));
#356=AXIS2_PLACEMENT_3D('',#492,#493,#494);
#357=DRAUGHTING_PRE_DEFINED_CURVE_FONT('continuous');
#358=COLOUR_RGB('',0.800000011920929,0.800000011920929,0.800000011920929);
#359=CARTESIAN_POINT('',(4.0,6.92820323027551,-141.0));
#360=VECTOR('',#495,1.0);
#361=DRAUGHTING_PRE_DEFINED_CURVE_FONT('continuous');
#362=COLOUR_RGB('',0.498039215803146,0.498039215803146,0.498039215803146);
#363=CARTESIAN_POINT('',(-9.30700828905007E-016,7.6,-0.399999999999999));
#364=VECTOR('',#496,1.0);
#365=PRE_DEFINED_MARKER('');
#366=COLOUR_RGB('',0.498039215803146,0.498039215803146,0.498039215803146);
#367=SURFACE_SIDE_STYLE('',(#497));
#368=EDGE_LOOP('',(#498,#499,#500,#501,#502));
#369=AXIS2_PLACEMENT_3D('',#503,#504,#505);
#370=PRE_DEFINED_MARKER('');
#371=COLOUR_RGB('',0.800000011920929,0.800000011920929,0.800000011920929);
#372=SURFACE_SIDE_STYLE('',(#506));
#373=EDGE_LOOP('',(#507,#508,#509,#510,#511));
#374=AXIS2_PLACEMENT_3D('',#512,#513,#514);
#375=DRAUGHTING_PRE_DEFINED_CURVE_FONT('continuous');
#376=COLOUR_RGB('',0.800000011920929,0.800000011920929,0.800000011920929);
#377=AXIS2_PLACEMENT_3D('',#515,#516,#517);
#378=DRAUGHTING_PRE_DEFINED_CURVE_FONT('continuous');
#379=COLOUR_RGB('',0.800000011920929,0.800000011920929,0.800000011920929);
#380=CARTESIAN_POINT('',(-4.0,-6.92820323027551,-141.0));
#381=VECTOR('',#518,1.0);
#382=DRAUGHTING_PRE_DEFINED_CURVE_FONT('continuous');
#383=COLOUR_RGB('',0.498039215803146,0.498039215803146,0.498039215803146);
#384=AXIS2_PLACEMENT_3D('',#519,#520,#521);
#385=PRE_DEFINED_MARKER('');
#386=COLOUR_RGB('',0.498039215803146,0.498039215803146,0.498039215803146);
#387=DRAUGHTING_PRE_DEFINED_CURVE_FONT('continuous');
#388=COLOUR_RGB('',0.498039215803146,0.498039215803146,0.498039215803146);
#389=AXIS2_PLACEMENT_3D('',#522,#523,#524);
#390=DRAUGHTING_PRE_DEFINED_CURVE_FONT('continuous');
#391=COLOUR_RGB('',0.800000011920929,0.800000011920929,0.800000011920929);
#392=AXIS2_PLACEMENT_3D('',#525,#526,#527);
#393=DRAUGHTING_PRE_DEFINED_CURVE_FONT('continuous');
#394=COLOUR_RGB('',0.498039215803146,0.498039215803146,0.498039215803146);
#395=AXIS2_PLACEMENT_3D('',#528,#529,#530);
#396=DRAUGHTING_PRE_DEFINED_CURVE_FONT('continuous');
#397=COLOUR_RGB('',0.800000011920929,0.800000011920929,0.800000011920929);
#398=AXIS2_PLACEMENT_3D('',#531,#532,#533);
#399=DRAUGHTING_PRE_DEFINED_CURVE_FONT('continuous');
#400=COLOUR_RGB('',0.800000011920929,0.800000011920929,0.800000011920929);
#401=AXIS2_PLACEMENT_3D('',#534,#535,#536);
#402=DRAUGHTING_PRE_DEFINED_CURVE_FONT('continuous');
#403=COLOUR_RGB('',0.800000011920929,0.800000011920929,0.800000011920929);
#404=AXIS2_PLACEMENT_3D('',#537,#538,#539);
#405=SURFACE_SIDE_STYLE('',(#540));
#406=EDGE_LOOP('',(#541,#542,#543,#544,#545));
#407=AXIS2_PLACEMENT_3D('',#546,#547,#548);
#408=PRE_DEFINED_MARKER('');
#409=COLOUR_RGB('',0.498039215803146,0.498039215803146,0.498039215803146);
#410=DRAUGHTING_PRE_DEFINED_CURVE_FONT('continuous');
#411=COLOUR_RGB('',0.498039215803146,0.498039215803146,0.498039215803146);
#412=CARTESIAN_POINT('',(-8.0,-9.79685083057902E-016,-89.0));
#413=VECTOR('',#549,1.0);
#414=PRE_DEFINED_MARKER('');
#415=COLOUR_RGB('',0.498039215803146,0.498039215803146,0.498039215803146);
#416=PRE_DEFINED_MARKER('');
#417=COLOUR_RGB('',0.498039215803146,0.498039215803146,0.498039215803146);
#418=DRAUGHTING_PRE_DEFINED_CURVE_FONT('continuous');
#419=COLOUR_RGB('',0.498039215803146,0.498039215803146,0.498039215803146);
#420=AXIS2_PLACEMENT_3D('',#550,#551,#552);
#421=DRAUGHTING_PRE_DEFINED_CURVE_FONT('continuous');
#422=COLOUR_RGB('',0.498039215803146,0.498039215803146,0.498039215803146);
#423=AXIS2_PLACEMENT_3D('',#553,#554,#555);
#424=DRAUGHTING_PRE_DEFINED_CURVE_FONT('continuous');
#425=COLOUR_RGB('',0.498039215803146,0.498039215803146,0.498039215803146);
#426=AXIS2_PLACEMENT_3D('',#556,#557,#558);
#427=SURFACE_SIDE_STYLE('',(#559));
#428=EDGE_LOOP('',(#560,#561,#562,#563,#564));
#429=AXIS2_PLACEMENT_3D('',#565,#566,#567);
#430=SURFACE_SIDE_STYLE('',(#568));
#431=EDGE_LOOP('',(#569,#570));
#432=AXIS2_PLACEMENT_3D('',#571,#572,#573);
#433=PRE_DEFINED_MARKER('');
#434=COLOUR_RGB('',0.498039215803146,0.498039215803146,0.498039215803146);
#435=DRAUGHTING_PRE_DEFINED_CURVE_FONT('continuous');
#436=COLOUR_RGB('',0.498039215803146,0.498039215803146,0.498039215803146);
#437=AXIS2_PLACEMENT_3D('',#574,#575,#576);
#438=DRAUGHTING_PRE_DEFINED_CURVE_FONT('continuous');
#439=COLOUR_RGB('',0.498039215803146,0.498039215803146,0.498039215803146);
#440=CARTESIAN_POINT('',(8.0,9.79685083057902E-016,-89.0));
#441=VECTOR('',#577,1.0);
#442=SURFACE_SIDE_STYLE('',(#578));
#443=EDGE_LOOP('',(#579,#580,#581));
#444=AXIS2_PLACEMENT_3D('',#582,#583,#584);
#446=SURFACE_STYLE_FILL_AREA(#585);
#447=ORIENTED_EDGE('',*,*,#119,.F.);
#448=ORIENTED_EDGE('',*,*,#163,.T.);
#449=ORIENTED_EDGE('',*,*,#91,.F.);
#450=ORIENTED_EDGE('',*,*,#133,.F.);
#451=ORIENTED_EDGE('',*,*,#137,.F.);
#452=CARTESIAN_POINT('',(0.0,0.0,-0.399999999999999));
#453=DIRECTION('',(0.0,-0.0,-1.0));
#454=DIRECTION('',(0.0,1.0,0.0));
#455=CARTESIAN_POINT('',(0.0,0.0,-130.0));
#456=DIRECTION('',(0.0,0.0,-1.0));
#457=DIRECTION('',(0.5,0.866025403784439,0.0));
#458=DIRECTION('',(-8.65927457071937E-017,0.707106781186549,0.707106781186546));
#459=SURFACE_STYLE_FILL_AREA(#586);
#460=ORIENTED_EDGE('',*,*,#147,.F.);
#461=ORIENTED_EDGE('',*,*,#143,.T.);
#462=ORIENTED_EDGE('',*,*,#139,.T.);
#463=CARTESIAN_POINT('',(0.0,0.0,-152.0));
#464=DIRECTION('',(0.0,1.0,0.0));
#465=DIRECTION('',(0.0,0.0,-1.0));
#466=CARTESIAN_POINT('',(0.0,0.0,-152.0));
#467=DIRECTION('',(0.0,0.0,-1.0));
#468=DIRECTION('',(0.5,0.866025403784439,0.0));
#469=SURFACE_STYLE_FILL_AREA(#587);
#470=SURFACE_STYLE_FILL_AREA(#588);
#471=ORIENTED_EDGE('',*,*,#159,.T.);
#472=ORIENTED_EDGE('',*,*,#161,.T.);
#473=CARTESIAN_POINT('',(-4.0,0.0,-130.0));
#474=DIRECTION('',(0.0,0.0,-1.0));
#475=DIRECTION('',(-1.0,0.0,0.0));
#476=SURFACE_STYLE_FILL_AREA(#589);
#477=ORIENTED_EDGE('',*,*,#89,.F.);
#478=ORIENTED_EDGE('',*,*,#129,.F.);
#479=CARTESIAN_POINT('',(2.0,3.46410161513775,-130.0));
#480=DIRECTION('',(0.0,0.0,1.0));
#481=DIRECTION('',(-0.5,-0.866025403784439,0.0));
#482=CARTESIAN_POINT('',(0.0,0.0,-0.799999999999997));
#483=DIRECTION('',(0.0,0.0,-1.0));
#484=DIRECTION('',(0.0,1.0,0.0));
#485=SURFACE_STYLE_FILL_AREA(#590);
#486=SURFACE_STYLE_FILL_AREA(#591);
#487=ORIENTED_EDGE('',*,*,#153,.F.);
#488=ORIENTED_EDGE('',*,*,#109,.T.);
#489=ORIENTED_EDGE('',*,*,#137,.T.);
#490=ORIENTED_EDGE('',*,*,#173,.F.);
#491=ORIENTED_EDGE('',*,*,#159,.F.);
#492=CARTESIAN_POINT('',(0.0,0.0,-89.0));
#493=DIRECTION('',(-0.0,-0.0,1.0));
#494=DIRECTION('',(-1.0,0.0,0.0));
#495=DIRECTION('',(0.0,0.0,-1.0));
#496=DIRECTION('',(-8.65927457071937E-017,0.707106781186549,-0.707106781186546));
#497=SURFACE_STYLE_FILL_AREA(#592);
#498=ORIENTED_EDGE('',*,*,#119,.T.);
#499=ORIENTED_EDGE('',*,*,#109,.F.);
#500=ORIENTED_EDGE('',*,*,#141,.F.);
#501=ORIENTED_EDGE('',*,*,#91,.T.);
#502=ORIENTED_EDGE('',*,*,#171,.T.);
#503=CARTESIAN_POINT('',(0.0,0.0,-0.399999999999999));
#504=DIRECTION('',(0.0,-0.0,-1.0));
#505=DIRECTION('',(0.0,1.0,0.0));
#506=SURFACE_STYLE_FILL_AREA(#593);
#507=ORIENTED_EDGE('',*,*,#117,.T.);
#508=ORIENTED_EDGE('',*,*,#99,.F.);
#509=ORIENTED_EDGE('',*,*,#139,.F.);
#510=ORIENTED_EDGE('',*,*,#131,.T.);
#511=ORIENTED_EDGE('',*,*,#129,.T.);
#512=CARTESIAN_POINT('',(0.0,0.0,-141.0));
#513=DIRECTION('',(-0.0,-0.0,1.0));
#514=DIRECTION('',(0.5,0.866025403784439,0.0));
#515=CARTESIAN_POINT('',(0.0,0.0,-130.0));
#516=DIRECTION('',(0.0,0.0,-1.0));
#517=DIRECTION('',(0.5,0.866025403784439,0.0));
#518=DIRECTION('',(-0.0,-0.0,1.0));
#519=CARTESIAN_POINT('',(0.0,0.0,-0.799999999999997));
#520=DIRECTION('',(0.0,0.0,-1.0));
#521=DIRECTION('',(0.0,1.0,0.0));
#522=CARTESIAN_POINT('',(0.0,0.0,-0.799999999999997));
#523=DIRECTION('',(0.0,0.0,-1.0));
#524=DIRECTION('',(0.0,1.0,0.0));
#525=CARTESIAN_POINT('',(0.0,0.0,-152.0));
#526=DIRECTION('',(0.0,0.0,-1.0));
#527=DIRECTION('',(0.5,0.866025403784439,0.0));
#528=CARTESIAN_POINT('',(0.0,0.0,-0.799999999999997));
#529=DIRECTION('',(0.0,0.0,-1.0));
#530=DIRECTION('',(0.0,1.0,0.0));
#531=CARTESIAN_POINT('',(0.0,0.0,-152.0));
#532=DIRECTION('',(0.0,0.0,-1.0));
#533=DIRECTION('',(0.5,0.866025403784439,0.0));
#534=CARTESIAN_POINT('',(0.0,0.0,-152.0));
#535=DIRECTION('',(0.0,0.0,-1.0));
#536=DIRECTION('',(0.5,0.866025403784439,0.0));
#537=CARTESIAN_POINT('',(0.0,0.0,-152.0));
#538=DIRECTION('',(1.0,0.0,1.22460635382238E-016));
#539=DIRECTION('',(-1.22460635382238E-016,0.0,1.0));
#540=SURFACE_STYLE_FILL_AREA(#594);
#541=ORIENTED_EDGE('',*,*,#153,.T.);
#542=ORIENTED_EDGE('',*,*,#161,.F.);
#543=ORIENTED_EDGE('',*,*,#173,.T.);
#544=ORIENTED_EDGE('',*,*,#133,.T.);
#545=ORIENTED_EDGE('',*,*,#141,.T.);
#546=CARTESIAN_POINT('',(0.0,0.0,-89.0));
#547=DIRECTION('',(-0.0,-0.0,1.0));
#548=DIRECTION('',(-1.0,0.0,0.0));
#549=DIRECTION('',(0.0,0.0,-1.0));
#550=CARTESIAN_POINT('',(0.0,0.0,-130.0));
#551=DIRECTION('',(0.0,0.0,-1.0));
#552=DIRECTION('',(-1.0,0.0,0.0));
#553=CARTESIAN_POINT('',(0.0,0.0,-130.0));
#554=DIRECTION('',(0.0,0.0,-1.0));
#555=DIRECTION('',(-1.0,0.0,0.0));
#556=CARTESIAN_POINT('',(0.0,0.0,0.0));
#557=DIRECTION('',(0.0,0.0,-1.0));
#558=DIRECTION('',(0.0,1.0,0.0));
#559=SURFACE_STYLE_FILL_AREA(#595);
#560=ORIENTED_EDGE('',*,*,#117,.F.);
#561=ORIENTED_EDGE('',*,*,#89,.T.);
#562=ORIENTED_EDGE('',*,*,#131,.F.);
#563=ORIENTED_EDGE('',*,*,#143,.F.);
#564=ORIENTED_EDGE('',*,*,#145,.F.);
#565=CARTESIAN_POINT('',(0.0,0.0,-141.0));
#566=DIRECTION('',(-0.0,-0.0,1.0));
#567=DIRECTION('',(0.5,0.866025403784439,0.0));
#568=SURFACE_STYLE_FILL_AREA(#596);
#569=ORIENTED_EDGE('',*,*,#163,.F.);
#570=ORIENTED_EDGE('',*,*,#171,.F.);
#571=CARTESIAN_POINT('',(0.0,3.6,0.0));
#572=DIRECTION('',(-0.0,0.0,1.0));
#573=DIRECTION('',(0.0,-1.0,0.0));
#574=CARTESIAN_POINT('',(0.0,0.0,0.0));
#575=DIRECTION('',(0.0,0.0,-1.0));
#576=DIRECTION('',(0.0,1.0,0.0));
#577=DIRECTION('',(-0.0,-0.0,1.0));
#578=SURFACE_STYLE_FILL_AREA(#597);
#579=ORIENTED_EDGE('',*,*,#147,.T.);
#580=ORIENTED_EDGE('',*,*,#99,.T.);
#581=ORIENTED_EDGE('',*,*,#145,.T.);
#582=CARTESIAN_POINT('',(0.0,0.0,-152.0));
#583=DIRECTION('',(0.0,1.0,0.0));
#584=DIRECTION('',(0.0,0.0,-1.0));
#585=FILL_AREA_STYLE('',(#598));
#586=FILL_AREA_STYLE('',(#599));
#587=FILL_AREA_STYLE('',(#600));
#588=FILL_AREA_STYLE('',(#601));
#589=FILL_AREA_STYLE('',(#602));
#590=FILL_AREA_STYLE('',(#603));
#591=FILL_AREA_STYLE('',(#604));
#592=FILL_AREA_STYLE('',(#605));
#593=FILL_AREA_STYLE('',(#606));
#594=FILL_AREA_STYLE('',(#607));
#595=FILL_AREA_STYLE('',(#608));
#596=FILL_AREA_STYLE('',(#609));
#597=FILL_AREA_STYLE('',(#610));
#598=FILL_AREA_STYLE_COLOUR('',#611);
#599=FILL_AREA_STYLE_COLOUR('',#612);
#600=FILL_AREA_STYLE_COLOUR('',#613);
#601=FILL_AREA_STYLE_COLOUR('',#614);
#602=FILL_AREA_STYLE_COLOUR('',#615);
#603=FILL_AREA_STYLE_COLOUR('',#616);
#604=FILL_AREA_STYLE_COLOUR('',#617);
#605=FILL_AREA_STYLE_COLOUR('',#618);
#606=FILL_AREA_STYLE_COLOUR('',#619);
#607=FILL_AREA_STYLE_COLOUR('',#620);
#608=FILL_AREA_STYLE_COLOUR('',#621);
#609=FILL_AREA_STYLE_COLOUR('',#622);
#610=FILL_AREA_STYLE_COLOUR('',#623);
#611=COLOUR_RGB('',0.498039215803146,0.498039215803146,0.498039215803146);
#612=COLOUR_RGB('',0.800000011920929,0.800000011920929,0.800000011920929);
#613=COLOUR_RGB('',0.800000011920929,0.800000011920929,0.800000011920929);
#614=COLOUR_RGB('',0.498039215803146,0.498039215803146,0.498039215803146);
#615=COLOUR_RGB('',0.800000011920929,0.800000011920929,0.800000011920929);
#616=COLOUR_RGB('',0.498039215803146,0.498039215803146,0.498039215803146);
#617=COLOUR_RGB('',0.498039215803146,0.498039215803146,0.498039215803146);
#618=COLOUR_RGB('',0.498039215803146,0.498039215803146,0.498039215803146);
#619=COLOUR_RGB('',0.800000011920929,0.800000011920929,0.800000011920929);
#620=COLOUR_RGB('',0.498039215803146,0.498039215803146,0.498039215803146);
#621=COLOUR_RGB('',0.800000011920929,0.800000011920929,0.800000011920929);
#622=COLOUR_RGB('',0.498039215803146,0.498039215803146,0.498039215803146);
#623=COLOUR_RGB('',0.800000011920929,0.800000011920929,0.800000011920929);
#624=AXIS2_PLACEMENT_3D('PCS',#625,#626,#627);
#625=CARTESIAN_POINT('',(0.0,0.0,0.0));
#626=DIRECTION('',(0.0,0.0,1.0));
#627=DIRECTION('',(1.0,0.0,0.0));
#628=AXIS2_PLACEMENT_3D('MCS',#629,#630,#631);
#629=CARTESIAN_POINT('',(0.0,0.0,-48.0));
#630=DIRECTION('',(0.0,0.0,1.0));
#631=DIRECTION('',(1.0,0.0,0.0));
#632=AXIS2_PLACEMENT_3D('CIP',#633,#634,#635);
#633=CARTESIAN_POINT('',(0.0,0.0,-160.0));
#634=DIRECTION('',(0.0,0.0,1.0));
#635=DIRECTION('',(1.0,0.0,0.0));
#636=CONSTRUCTIVE_GEOMETRY_REPRESENTATION_RELATIONSHIP('coordinate systems',$,#66,#637);
#637=CONSTRUCTIVE_GEOMETRY_REPRESENTATION('coordinate systems',(#624,#628,#632),#10);
ENDSEC;
END-ISO-10303-21;
