ISO-10303-21;
HEADER;
FILE_DESCRIPTION(('no description'),'unknown implementation level');
FILE_NAME('8503600.stp','  ',('CIM GmbH Aachen'),('CADClick - KiM GmbH - www.kimweb.de'),'unknown preprocess','ACIS','unknown authorization');
FILE_SCHEMA(('automotive_design'));
ENDSEC;
DATA;
#1=MECHANICAL_DESIGN_GEOMETRIC_PRESENTATION_REPRESENTATION(' ',(#14,#15,#16,#17,#18,#19,#20,#21,#22,#23,#24,#25,#26,#27,#28,#29,#30,#31,#32,#33,#34,#35,#36,#37,#38,#39,#40,#41,#42,#43,#44,#45,#46,#47,#48,#49,#50,#51,#52,#53,#54,#55,#56,#57,#58,#59,#60,#61),#10);
#2=PRODUCT_DEFINITION_CONTEXT('',#62,'design');
#3=APPLICATION_PROTOCOL_DEFINITION('INTERNATIONAL STANDARD','automotive_design',1994,#62);
#4=PRODUCT_CATEGORY_RELATIONSHIP('NONE','NONE',#63,#64);
#5=SHAPE_DEFINITION_REPRESENTATION(#65,#66);
#6=PRODUCT_DEFINITION_CONTEXT('',#67,'design');
#7=APPLICATION_PROTOCOL_DEFINITION('INTERNATIONAL STANDARD','automotive_design',1994,#67);
#8=PRODUCT_CATEGORY_RELATIONSHIP('NONE','NONE',#68,#69);
#9=SHAPE_DEFINITION_REPRESENTATION(#70,#71);
#10= (GEOMETRIC_REPRESENTATION_CONTEXT(3)GLOBAL_UNCERTAINTY_ASSIGNED_CONTEXT((#74))GLOBAL_UNIT_ASSIGNED_CONTEXT((#76,#77,#78))REPRESENTATION_CONTEXT('NONE','WORKSPACE'));
#14=STYLED_ITEM('',(#80),#81);
#15=STYLED_ITEM('',(#82),#83);
#16=STYLED_ITEM('',(#84),#85);
#17=STYLED_ITEM('',(#86),#87);
#18=STYLED_ITEM('',(#88),#89);
#19=STYLED_ITEM('',(#90),#91);
#20=STYLED_ITEM('',(#92),#93);
#21=STYLED_ITEM('',(#94),#95);
#22=STYLED_ITEM('',(#96),#97);
#23=STYLED_ITEM('',(#98),#99);
#24=STYLED_ITEM('',(#100),#101);
#25=STYLED_ITEM('',(#102),#103);
#26=STYLED_ITEM('',(#104),#105);
#27=STYLED_ITEM('',(#106),#107);
#28=STYLED_ITEM('',(#108),#109);
#29=STYLED_ITEM('',(#110),#111);
#30=STYLED_ITEM('',(#112),#113);
#31=STYLED_ITEM('',(#114),#115);
#32=STYLED_ITEM('',(#116),#117);
#33=STYLED_ITEM('',(#118),#119);
#34=STYLED_ITEM('',(#120),#121);
#35=STYLED_ITEM('',(#122),#123);
#36=STYLED_ITEM('',(#124),#125);
#37=STYLED_ITEM('',(#126),#127);
#38=STYLED_ITEM('',(#128),#129);
#39=STYLED_ITEM('',(#130),#131);
#40=STYLED_ITEM('',(#132),#133);
#41=STYLED_ITEM('',(#134),#135);
#42=STYLED_ITEM('',(#136),#137);
#43=STYLED_ITEM('',(#138),#139);
#44=STYLED_ITEM('',(#140),#141);
#45=STYLED_ITEM('',(#142),#143);
#46=STYLED_ITEM('',(#144),#145);
#47=STYLED_ITEM('',(#146),#147);
#48=STYLED_ITEM('',(#148),#149);
#49=STYLED_ITEM('',(#150),#151);
#50=STYLED_ITEM('',(#152),#153);
#51=STYLED_ITEM('',(#154),#155);
#52=STYLED_ITEM('',(#156),#157);
#53=STYLED_ITEM('',(#158),#159);
#54=STYLED_ITEM('',(#160),#161);
#55=STYLED_ITEM('',(#162),#163);
#56=STYLED_ITEM('',(#164),#165);
#57=STYLED_ITEM('',(#166),#167);
#58=STYLED_ITEM('',(#168),#169);
#59=STYLED_ITEM('',(#170),#171);
#60=STYLED_ITEM('',(#172),#173);
#61=STYLED_ITEM('',(#174),#175);
#62=APPLICATION_CONTEXT(' ');
#63=PRODUCT_CATEGORY('part','NONE');
#64=PRODUCT_RELATED_PRODUCT_CATEGORY('detail',' ',(#176));
#65=PRODUCT_DEFINITION_SHAPE('NONE','NONE',#177);
#66=ADVANCED_BREP_SHAPE_REPRESENTATION('1',(#161,#178),#10);
#67=APPLICATION_CONTEXT(' ');
#68=PRODUCT_CATEGORY('part','NONE');
#69=PRODUCT_RELATED_PRODUCT_CATEGORY('detail',' ',(#179));
#70=PRODUCT_DEFINITION_SHAPE('NONE','NONE',#180);
#71=ADVANCED_BREP_SHAPE_REPRESENTATION('2',(#149,#181),#10);
#74=UNCERTAINTY_MEASURE_WITH_UNIT(LENGTH_MEASURE(1.0E-006),#76,'','');
#76= (CONVERSION_BASED_UNIT('MILLIMETRE',#184)LENGTH_UNIT()NAMED_UNIT(#187));
#77= (NAMED_UNIT(#189)PLANE_ANGLE_UNIT()SI_UNIT($,.RADIAN.));
#78= (NAMED_UNIT(#189)SOLID_ANGLE_UNIT()SI_UNIT($,.STERADIAN.));
#80=PRESENTATION_STYLE_ASSIGNMENT((#195));
#81=ADVANCED_FACE('',(#196),#197,.T.);
#82=PRESENTATION_STYLE_ASSIGNMENT((#198));
#83=ADVANCED_FACE('',(#199),#200,.T.);
#84=PRESENTATION_STYLE_ASSIGNMENT((#201));
#85=VERTEX_POINT('',#202);
#86=PRESENTATION_STYLE_ASSIGNMENT((#203));
#87=VERTEX_POINT('',#204);
#88=PRESENTATION_STYLE_ASSIGNMENT((#205));
#89=EDGE_CURVE('',#117,#163,#206,.T.);
#90=PRESENTATION_STYLE_ASSIGNMENT((#207));
#91=EDGE_CURVE('',#163,#101,#208,.T.);
#92=PRESENTATION_STYLE_ASSIGNMENT((#209));
#93=VERTEX_POINT('',#210);
#94=PRESENTATION_STYLE_ASSIGNMENT((#211));
#95=ADVANCED_FACE('',(#212),#213,.T.);
#96=PRESENTATION_STYLE_ASSIGNMENT((#214));
#97=EDGE_CURVE('',#117,#131,#215,.T.);
#98=PRESENTATION_STYLE_ASSIGNMENT((#216));
#99=VERTEX_POINT('',#217);
#100=PRESENTATION_STYLE_ASSIGNMENT((#218));
#101=VERTEX_POINT('',#219);
#102=PRESENTATION_STYLE_ASSIGNMENT((#220));
#103=EDGE_CURVE('',#167,#155,#221,.T.);
#104=PRESENTATION_STYLE_ASSIGNMENT((#222));
#105=ADVANCED_FACE('',(#223),#224,.T.);
#106=PRESENTATION_STYLE_ASSIGNMENT((#225));
#107=EDGE_CURVE('',#155,#175,#226,.T.);
#108=PRESENTATION_STYLE_ASSIGNMENT((#227));
#109=VERTEX_POINT('',#228);
#110=PRESENTATION_STYLE_ASSIGNMENT((#229));
#111=EDGE_CURVE('',#169,#109,#230,.T.);
#112=PRESENTATION_STYLE_ASSIGNMENT((#231));
#113=EDGE_CURVE('',#109,#167,#232,.T.);
#114=PRESENTATION_STYLE_ASSIGNMENT((#233));
#115=ADVANCED_FACE('',(#234),#235,.T.);
#116=PRESENTATION_STYLE_ASSIGNMENT((#236));
#117=VERTEX_POINT('',#237);
#118=PRESENTATION_STYLE_ASSIGNMENT((#238));
#119=EDGE_CURVE('',#93,#109,#239,.T.);
#120=PRESENTATION_STYLE_ASSIGNMENT((#240));
#121=EDGE_CURVE('',#175,#93,#241,.T.);
#122=PRESENTATION_STYLE_ASSIGNMENT((#242));
#123=ADVANCED_FACE('',(#243),#244,.T.);
#124=PRESENTATION_STYLE_ASSIGNMENT((#245));
#125=EDGE_CURVE('',#145,#163,#246,.T.);
#126=PRESENTATION_STYLE_ASSIGNMENT((#247));
#127=EDGE_CURVE('',#85,#101,#248,.T.);
#128=PRESENTATION_STYLE_ASSIGNMENT((#249));
#129=EDGE_CURVE('',#99,#87,#250,.T.);
#130=PRESENTATION_STYLE_ASSIGNMENT((#251));
#131=VERTEX_POINT('',#252);
#132=PRESENTATION_STYLE_ASSIGNMENT((#253));
#133=EDGE_CURVE('',#101,#145,#254,.T.);
#134=PRESENTATION_STYLE_ASSIGNMENT((#255));
#135=EDGE_CURVE('',#87,#99,#256,.T.);
#136=PRESENTATION_STYLE_ASSIGNMENT((#257));
#137=ADVANCED_FACE('',(#258),#259,.T.);
#138=PRESENTATION_STYLE_ASSIGNMENT((#260));
#139=ADVANCED_FACE('',(#261),#262,.T.);
#140=PRESENTATION_STYLE_ASSIGNMENT((#263));
#141=ADVANCED_FACE('',(#264),#265,.T.);
#142=PRESENTATION_STYLE_ASSIGNMENT((#266));
#143=EDGE_CURVE('',#131,#85,#267,.T.);
#144=PRESENTATION_STYLE_ASSIGNMENT((#268));
#145=VERTEX_POINT('',#269);
#146=PRESENTATION_STYLE_ASSIGNMENT((#270));
#147=EDGE_CURVE('',#99,#169,#271,.T.);
#148=PRESENTATION_STYLE_ASSIGNMENT((#272));
#149=MANIFOLD_SOLID_BREP('2',#273);
#150=PRESENTATION_STYLE_ASSIGNMENT((#274));
#151=ADVANCED_FACE('',(#275),#276,.T.);
#152=PRESENTATION_STYLE_ASSIGNMENT((#277));
#153=EDGE_CURVE('',#93,#175,#278,.T.);
#154=PRESENTATION_STYLE_ASSIGNMENT((#279));
#155=VERTEX_POINT('',#280);
#156=PRESENTATION_STYLE_ASSIGNMENT((#281));
#157=EDGE_CURVE('',#167,#87,#282,.T.);
#158=PRESENTATION_STYLE_ASSIGNMENT((#283));
#159=EDGE_CURVE('',#155,#169,#284,.T.);
#160=PRESENTATION_STYLE_ASSIGNMENT((#285));
#161=MANIFOLD_SOLID_BREP('1',#286);
#162=PRESENTATION_STYLE_ASSIGNMENT((#287));
#163=VERTEX_POINT('',#288);
#164=PRESENTATION_STYLE_ASSIGNMENT((#289));
#165=EDGE_CURVE('',#145,#117,#290,.T.);
#166=PRESENTATION_STYLE_ASSIGNMENT((#291));
#167=VERTEX_POINT('',#292);
#168=PRESENTATION_STYLE_ASSIGNMENT((#293));
#169=VERTEX_POINT('',#294);
#170=PRESENTATION_STYLE_ASSIGNMENT((#295));
#171=ADVANCED_FACE('',(#296),#297,.T.);
#172=PRESENTATION_STYLE_ASSIGNMENT((#298));
#173=EDGE_CURVE('',#85,#131,#299,.T.);
#174=PRESENTATION_STYLE_ASSIGNMENT((#300));
#175=VERTEX_POINT('',#301);
#176=PRODUCT('1','1','PART-1-DESC',(#302));
#177=PRODUCT_DEFINITION('NONE','NONE',#303,#2);
#178=AXIS2_PLACEMENT_3D('',#304,#305,#306);
#179=PRODUCT('2','2','PART-2-DESC',(#307));
#180=PRODUCT_DEFINITION('NONE','NONE',#308,#6);
#181=AXIS2_PLACEMENT_3D('',#309,#310,#311);
#184=LENGTH_MEASURE_WITH_UNIT(LENGTH_MEASURE(1.0),#312);
#187=DIMENSIONAL_EXPONENTS(1.0,0.0,0.0,0.0,0.0,0.0,0.0);
#189=DIMENSIONAL_EXPONENTS(0.0,0.0,0.0,0.0,0.0,0.0,0.0);
#195=SURFACE_STYLE_USAGE(.BOTH.,#313);
#196=FACE_OUTER_BOUND('',#314,.T.);
#197=SPHERICAL_SURFACE('',#315,9.99999999999997);
#198=SURFACE_STYLE_USAGE(.BOTH.,#316);
#199=FACE_OUTER_BOUND('',#317,.T.);
#200=SPHERICAL_SURFACE('',#318,9.99999999999997);
#201=POINT_STYLE(' ',#319,POSITIVE_LENGTH_MEASURE(1.0E-006),#320);
#202=CARTESIAN_POINT('',(5.0,8.66025403784439,-142.0));
#203=POINT_STYLE(' ',#321,POSITIVE_LENGTH_MEASURE(1.0E-006),#322);
#204=CARTESIAN_POINT('',(1.10214571844014E-015,-9.0,0.0));
#205=CURVE_STYLE('',#323,POSITIVE_LENGTH_MEASURE(1.0E-006),#324);
#206=CIRCLE('',#325,10.0);
#207=CURVE_STYLE('',#326,POSITIVE_LENGTH_MEASURE(1.0E-006),#327);
#208=CIRCLE('',#328,10.0);
#209=POINT_STYLE(' ',#329,POSITIVE_LENGTH_MEASURE(1.0E-006),#330);
#210=CARTESIAN_POINT('',(10.0,1.22460635382238E-015,-142.0));
#211=SURFACE_STYLE_USAGE(.BOTH.,#331);
#212=FACE_OUTER_BOUND('',#332,.T.);
#213=CYLINDRICAL_SURFACE('',#333,10.0);
#214=CURVE_STYLE('',#334,POSITIVE_LENGTH_MEASURE(1.0E-006),#335);
#215=LINE('',#336,#337);
#216=POINT_STYLE(' ',#338,POSITIVE_LENGTH_MEASURE(1.0E-006),#339);
#217=CARTESIAN_POINT('',(0.0,9.0,0.0));
#218=POINT_STYLE(' ',#340,POSITIVE_LENGTH_MEASURE(1.0E-006),#341);
#219=CARTESIAN_POINT('',(5.0,8.66025403784439,-170.0));
#220=CURVE_STYLE('',#342,POSITIVE_LENGTH_MEASURE(1.0E-006),#343);
#221=CIRCLE('',#344,10.0);
#222=SURFACE_STYLE_USAGE(.BOTH.,#345);
#223=FACE_OUTER_BOUND('',#346,.T.);
#224=CYLINDRICAL_SURFACE('',#347,10.0);
#225=CURVE_STYLE('',#348,POSITIVE_LENGTH_MEASURE(1.0E-006),#349);
#226=LINE('',#350,#351);
#227=POINT_STYLE(' ',#352,POSITIVE_LENGTH_MEASURE(1.0E-006),#353);
#228=CARTESIAN_POINT('',(10.0,1.22460635382238E-015,-1.0));
#229=CURVE_STYLE('',#354,POSITIVE_LENGTH_MEASURE(1.0E-006),#355);
#230=CIRCLE('',#356,10.0);
#231=CURVE_STYLE('',#357,POSITIVE_LENGTH_MEASURE(1.0E-006),#358);
#232=CIRCLE('',#359,10.0);
#233=SURFACE_STYLE_USAGE(.BOTH.,#360);
#234=FACE_OUTER_BOUND('',#361,.T.);
#235=PLANE('',#362);
#236=POINT_STYLE(' ',#363,POSITIVE_LENGTH_MEASURE(1.0E-006),#364);
#237=CARTESIAN_POINT('',(-5.0,-8.66025403784439,-170.0));
#238=CURVE_STYLE('',#365,POSITIVE_LENGTH_MEASURE(1.0E-006),#366);
#239=LINE('',#367,#368);
#240=CURVE_STYLE('',#369,POSITIVE_LENGTH_MEASURE(1.0E-006),#370);
#241=CIRCLE('',#371,10.0);
#242=SURFACE_STYLE_USAGE(.BOTH.,#372);
#243=FACE_OUTER_BOUND('',#373,.T.);
#244=CYLINDRICAL_SURFACE('',#374,10.0);
#245=CURVE_STYLE('',#375,POSITIVE_LENGTH_MEASURE(1.0E-006),#376);
#246=CIRCLE('',#377,9.99999999999997);
#247=CURVE_STYLE('',#378,POSITIVE_LENGTH_MEASURE(1.0E-006),#379);
#248=LINE('',#380,#381);
#249=CURVE_STYLE('',#382,POSITIVE_LENGTH_MEASURE(1.0E-006),#383);
#250=CIRCLE('',#384,9.0);
#251=POINT_STYLE(' ',#385,POSITIVE_LENGTH_MEASURE(1.0E-006),#386);
#252=CARTESIAN_POINT('',(-5.0,-8.66025403784439,-142.0));
#253=CURVE_STYLE('',#387,POSITIVE_LENGTH_MEASURE(1.0E-006),#388);
#254=CIRCLE('',#389,10.0);
#255=CURVE_STYLE('',#390,POSITIVE_LENGTH_MEASURE(1.0E-006),#391);
#256=CIRCLE('',#392,9.0);
#257=SURFACE_STYLE_USAGE(.BOTH.,#393);
#258=FACE_OUTER_BOUND('',#394,.T.);
#259=CONICAL_SURFACE('',#395,9.5,0.785398163397448);
#260=SURFACE_STYLE_USAGE(.BOTH.,#396);
#261=FACE_OUTER_BOUND('',#397,.T.);
#262=CYLINDRICAL_SURFACE('',#398,10.0);
#263=SURFACE_STYLE_USAGE(.BOTH.,#399);
#264=FACE_OUTER_BOUND('',#400,.T.);
#265=CONICAL_SURFACE('',#401,9.5,0.785398163397448);
#266=CURVE_STYLE('',#402,POSITIVE_LENGTH_MEASURE(1.0E-006),#403);
#267=CIRCLE('',#404,10.0);
#268=POINT_STYLE(' ',#405,POSITIVE_LENGTH_MEASURE(1.0E-006),#406);
#269=CARTESIAN_POINT('',(-6.96108119099322E-030,-10.0,-170.0));
#270=CURVE_STYLE('',#407,POSITIVE_LENGTH_MEASURE(1.0E-006),#408);
#271=LINE('',#409,#410);
#272=SURFACE_STYLE_USAGE(.BOTH.,#411);
#273=CLOSED_SHELL('',(#95,#81,#83,#115,#139));
#274=SURFACE_STYLE_USAGE(.BOTH.,#412);
#275=FACE_OUTER_BOUND('',#413,.T.);
#276=PLANE('',#414);
#277=CURVE_STYLE('',#415,POSITIVE_LENGTH_MEASURE(1.0E-006),#416);
#278=CIRCLE('',#417,10.0);
#279=POINT_STYLE(' ',#418,POSITIVE_LENGTH_MEASURE(1.0E-006),#419);
#280=CARTESIAN_POINT('',(-10.0,-1.22460635382238E-015,-1.0));
#281=CURVE_STYLE('',#420,POSITIVE_LENGTH_MEASURE(1.0E-006),#421);
#282=LINE('',#422,#423);
#283=CURVE_STYLE('',#424,POSITIVE_LENGTH_MEASURE(1.0E-006),#425);
#284=CIRCLE('',#426,10.0);
#285=SURFACE_STYLE_USAGE(.BOTH.,#427);
#286=CLOSED_SHELL('',(#123,#137,#151,#141,#105,#171));
#287=POINT_STYLE(' ',#428,POSITIVE_LENGTH_MEASURE(1.0E-006),#429);
#288=CARTESIAN_POINT('',(-6.96108119099322E-030,10.0,-170.0));
#289=CURVE_STYLE('',#430,POSITIVE_LENGTH_MEASURE(1.0E-006),#431);
#290=CIRCLE('',#432,10.0);
#291=POINT_STYLE(' ',#433,POSITIVE_LENGTH_MEASURE(1.0E-006),#434);
#292=CARTESIAN_POINT('',(1.22460635382238E-015,-10.0,-1.0));
#293=POINT_STYLE(' ',#435,POSITIVE_LENGTH_MEASURE(1.0E-006),#436);
#294=CARTESIAN_POINT('',(0.0,10.0,-1.0));
#295=SURFACE_STYLE_USAGE(.BOTH.,#437);
#296=FACE_OUTER_BOUND('',#438,.T.);
#297=PLANE('',#439);
#298=CURVE_STYLE('',#440,POSITIVE_LENGTH_MEASURE(1.0E-006),#441);
#299=CIRCLE('',#442,10.0);
#300=POINT_STYLE(' ',#443,POSITIVE_LENGTH_MEASURE(1.0E-006),#444);
#301=CARTESIAN_POINT('',(-10.0,0.0,-142.0));
#302=PRODUCT_CONTEXT('',#62,'mechanical');
#303=PRODUCT_DEFINITION_FORMATION_WITH_SPECIFIED_SOURCE(' ','NONE',#176,.NOT_KNOWN.);
#304=CARTESIAN_POINT('',(0.0,0.0,0.0));
#305=DIRECTION('',(0.0,0.0,1.0));
#306=DIRECTION('',(1.0,0.0,0.0));
#307=PRODUCT_CONTEXT('',#67,'mechanical');
#308=PRODUCT_DEFINITION_FORMATION_WITH_SPECIFIED_SOURCE(' ','NONE',#179,.NOT_KNOWN.);
#309=CARTESIAN_POINT('',(0.0,0.0,0.0));
#310=DIRECTION('',(0.0,0.0,1.0));
#311=DIRECTION('',(1.0,0.0,0.0));
#312= (NAMED_UNIT(#187)LENGTH_UNIT()SI_UNIT(.MILLI.,.METRE.));
#313=SURFACE_SIDE_STYLE('',(#446));
#314=EDGE_LOOP('',(#447,#448,#449));
#315=AXIS2_PLACEMENT_3D('',#450,#451,#452);
#316=SURFACE_SIDE_STYLE('',(#453));
#317=EDGE_LOOP('',(#454,#455,#456));
#318=AXIS2_PLACEMENT_3D('',#457,#458,#459);
#319=PRE_DEFINED_MARKER('');
#320=COLOUR_RGB('',0.800000011920929,0.800000011920929,0.800000011920929);
#321=PRE_DEFINED_MARKER('');
#322=COLOUR_RGB('',0.498039215803146,0.498039215803146,0.498039215803146);
#323=DRAUGHTING_PRE_DEFINED_CURVE_FONT('continuous');
#324=COLOUR_RGB('',0.800000011920929,0.800000011920929,0.800000011920929);
#325=AXIS2_PLACEMENT_3D('',#460,#461,#462);
#326=DRAUGHTING_PRE_DEFINED_CURVE_FONT('continuous');
#327=COLOUR_RGB('',0.800000011920929,0.800000011920929,0.800000011920929);
#328=AXIS2_PLACEMENT_3D('',#463,#464,#465);
#329=PRE_DEFINED_MARKER('');
#330=COLOUR_RGB('',0.498039215803146,0.498039215803146,0.498039215803146);
#331=SURFACE_SIDE_STYLE('',(#466));
#332=EDGE_LOOP('',(#467,#468,#469,#470,#471));
#333=AXIS2_PLACEMENT_3D('',#472,#473,#474);
#334=DRAUGHTING_PRE_DEFINED_CURVE_FONT('continuous');
#335=COLOUR_RGB('',0.800000011920929,0.800000011920929,0.800000011920929);
#336=CARTESIAN_POINT('',(-5.0,-8.66025403784439,-156.0));
#337=VECTOR('',#475,1.0);
#338=PRE_DEFINED_MARKER('');
#339=COLOUR_RGB('',0.498039215803146,0.498039215803146,0.498039215803146);
#340=PRE_DEFINED_MARKER('');
#341=COLOUR_RGB('',0.800000011920929,0.800000011920929,0.800000011920929);
#342=DRAUGHTING_PRE_DEFINED_CURVE_FONT('continuous');
#343=COLOUR_RGB('',0.498039215803146,0.498039215803146,0.498039215803146);
#344=AXIS2_PLACEMENT_3D('',#476,#477,#478);
#345=SURFACE_SIDE_STYLE('',(#479));
#346=EDGE_LOOP('',(#480,#481,#482,#483,#484));
#347=AXIS2_PLACEMENT_3D('',#485,#486,#487);
#348=DRAUGHTING_PRE_DEFINED_CURVE_FONT('continuous');
#349=COLOUR_RGB('',0.498039215803146,0.498039215803146,0.498039215803146);
#350=CARTESIAN_POINT('',(-10.0,-1.22460635382238E-015,-96.0));
#351=VECTOR('',#488,1.0);
#352=PRE_DEFINED_MARKER('');
#353=COLOUR_RGB('',0.498039215803146,0.498039215803146,0.498039215803146);
#354=DRAUGHTING_PRE_DEFINED_CURVE_FONT('continuous');
#355=COLOUR_RGB('',0.498039215803146,0.498039215803146,0.498039215803146);
#356=AXIS2_PLACEMENT_3D('',#489,#490,#491);
#357=DRAUGHTING_PRE_DEFINED_CURVE_FONT('continuous');
#358=COLOUR_RGB('',0.498039215803146,0.498039215803146,0.498039215803146);
#359=AXIS2_PLACEMENT_3D('',#492,#493,#494);
#360=SURFACE_SIDE_STYLE('',(#495));
#361=EDGE_LOOP('',(#496,#497));
#362=AXIS2_PLACEMENT_3D('',#498,#499,#500);
#363=PRE_DEFINED_MARKER('');
#364=COLOUR_RGB('',0.800000011920929,0.800000011920929,0.800000011920929);
#365=DRAUGHTING_PRE_DEFINED_CURVE_FONT('continuous');
#366=COLOUR_RGB('',0.498039215803146,0.498039215803146,0.498039215803146);
#367=CARTESIAN_POINT('',(10.0,1.22460635382238E-015,-96.0));
#368=VECTOR('',#501,1.0);
#369=DRAUGHTING_PRE_DEFINED_CURVE_FONT('continuous');
#370=COLOUR_RGB('',0.498039215803146,0.498039215803146,0.498039215803146);
#371=AXIS2_PLACEMENT_3D('',#502,#503,#504);
#372=SURFACE_SIDE_STYLE('',(#505));
#373=EDGE_LOOP('',(#506,#507,#508,#509,#510));
#374=AXIS2_PLACEMENT_3D('',#511,#512,#513);
#375=DRAUGHTING_PRE_DEFINED_CURVE_FONT('continuous');
#376=COLOUR_RGB('',0.800000011920929,0.800000011920929,0.800000011920929);
#377=AXIS2_PLACEMENT_3D('',#514,#515,#516);
#378=DRAUGHTING_PRE_DEFINED_CURVE_FONT('continuous');
#379=COLOUR_RGB('',0.800000011920929,0.800000011920929,0.800000011920929);
#380=CARTESIAN_POINT('',(5.0,8.66025403784439,-156.0));
#381=VECTOR('',#517,1.0);
#382=DRAUGHTING_PRE_DEFINED_CURVE_FONT('continuous');
#383=COLOUR_RGB('',0.498039215803146,0.498039215803146,0.498039215803146);
#384=AXIS2_PLACEMENT_3D('',#518,#519,#520);
#385=PRE_DEFINED_MARKER('');
#386=COLOUR_RGB('',0.800000011920929,0.800000011920929,0.800000011920929);
#387=DRAUGHTING_PRE_DEFINED_CURVE_FONT('continuous');
#388=COLOUR_RGB('',0.800000011920929,0.800000011920929,0.800000011920929);
#389=AXIS2_PLACEMENT_3D('',#521,#522,#523);
#390=DRAUGHTING_PRE_DEFINED_CURVE_FONT('continuous');
#391=COLOUR_RGB('',0.498039215803146,0.498039215803146,0.498039215803146);
#392=AXIS2_PLACEMENT_3D('',#524,#525,#526);
#393=SURFACE_SIDE_STYLE('',(#527));
#394=EDGE_LOOP('',(#528,#529,#530,#531,#532));
#395=AXIS2_PLACEMENT_3D('',#533,#534,#535);
#396=SURFACE_SIDE_STYLE('',(#536));
#397=EDGE_LOOP('',(#537,#538,#539,#540,#541));
#398=AXIS2_PLACEMENT_3D('',#542,#543,#544);
#399=SURFACE_SIDE_STYLE('',(#545));
#400=EDGE_LOOP('',(#546,#547,#548,#549,#550));
#401=AXIS2_PLACEMENT_3D('',#551,#552,#553);
#402=DRAUGHTING_PRE_DEFINED_CURVE_FONT('continuous');
#403=COLOUR_RGB('',0.800000011920929,0.800000011920929,0.800000011920929);
#404=AXIS2_PLACEMENT_3D('',#554,#555,#556);
#405=PRE_DEFINED_MARKER('');
#406=COLOUR_RGB('',0.800000011920929,0.800000011920929,0.800000011920929);
#407=DRAUGHTING_PRE_DEFINED_CURVE_FONT('continuous');
#408=COLOUR_RGB('',0.498039215803146,0.498039215803146,0.498039215803146);
#409=CARTESIAN_POINT('',(-1.16337603613126E-015,9.5,-0.5));
#410=VECTOR('',#557,1.0);
#411=SURFACE_SIDE_STYLE('',(#558));
#412=SURFACE_SIDE_STYLE('',(#559));
#413=EDGE_LOOP('',(#560,#561));
#414=AXIS2_PLACEMENT_3D('',#562,#563,#564);
#415=DRAUGHTING_PRE_DEFINED_CURVE_FONT('continuous');
#416=COLOUR_RGB('',0.498039215803146,0.498039215803146,0.498039215803146);
#417=AXIS2_PLACEMENT_3D('',#565,#566,#567);
#418=PRE_DEFINED_MARKER('');
#419=COLOUR_RGB('',0.498039215803146,0.498039215803146,0.498039215803146);
#420=DRAUGHTING_PRE_DEFINED_CURVE_FONT('continuous');
#421=COLOUR_RGB('',0.498039215803146,0.498039215803146,0.498039215803146);
#422=CARTESIAN_POINT('',(1.16337603613126E-015,-9.5,-0.5));
#423=VECTOR('',#568,1.0);
#424=DRAUGHTING_PRE_DEFINED_CURVE_FONT('continuous');
#425=COLOUR_RGB('',0.498039215803146,0.498039215803146,0.498039215803146);
#426=AXIS2_PLACEMENT_3D('',#569,#570,#571);
#427=SURFACE_SIDE_STYLE('',(#572));
#428=PRE_DEFINED_MARKER('');
#429=COLOUR_RGB('',0.800000011920929,0.800000011920929,0.800000011920929);
#430=DRAUGHTING_PRE_DEFINED_CURVE_FONT('continuous');
#431=COLOUR_RGB('',0.800000011920929,0.800000011920929,0.800000011920929);
#432=AXIS2_PLACEMENT_3D('',#573,#574,#575);
#433=PRE_DEFINED_MARKER('');
#434=COLOUR_RGB('',0.498039215803146,0.498039215803146,0.498039215803146);
#435=PRE_DEFINED_MARKER('');
#436=COLOUR_RGB('',0.498039215803146,0.498039215803146,0.498039215803146);
#437=SURFACE_SIDE_STYLE('',(#576));
#438=EDGE_LOOP('',(#577,#578));
#439=AXIS2_PLACEMENT_3D('',#579,#580,#581);
#440=DRAUGHTING_PRE_DEFINED_CURVE_FONT('continuous');
#441=COLOUR_RGB('',0.800000011920929,0.800000011920929,0.800000011920929);
#442=AXIS2_PLACEMENT_3D('',#582,#583,#584);
#443=PRE_DEFINED_MARKER('');
#444=COLOUR_RGB('',0.498039215803146,0.498039215803146,0.498039215803146);
#446=SURFACE_STYLE_FILL_AREA(#585);
#447=ORIENTED_EDGE('',*,*,#125,.F.);
#448=ORIENTED_EDGE('',*,*,#165,.T.);
#449=ORIENTED_EDGE('',*,*,#89,.T.);
#450=CARTESIAN_POINT('',(0.0,0.0,-170.0));
#451=DIRECTION('',(0.0,1.0,0.0));
#452=DIRECTION('',(0.0,0.0,-1.0));
#453=SURFACE_STYLE_FILL_AREA(#586);
#454=ORIENTED_EDGE('',*,*,#125,.T.);
#455=ORIENTED_EDGE('',*,*,#91,.T.);
#456=ORIENTED_EDGE('',*,*,#133,.T.);
#457=CARTESIAN_POINT('',(0.0,0.0,-170.0));
#458=DIRECTION('',(0.0,1.0,0.0));
#459=DIRECTION('',(0.0,0.0,-1.0));
#460=CARTESIAN_POINT('',(0.0,0.0,-170.0));
#461=DIRECTION('',(0.0,0.0,-1.0));
#462=DIRECTION('',(0.5,0.866025403784439,0.0));
#463=CARTESIAN_POINT('',(0.0,0.0,-170.0));
#464=DIRECTION('',(0.0,0.0,-1.0));
#465=DIRECTION('',(0.5,0.866025403784439,0.0));
#466=SURFACE_STYLE_FILL_AREA(#587);
#467=ORIENTED_EDGE('',*,*,#127,.F.);
#468=ORIENTED_EDGE('',*,*,#173,.T.);
#469=ORIENTED_EDGE('',*,*,#97,.F.);
#470=ORIENTED_EDGE('',*,*,#165,.F.);
#471=ORIENTED_EDGE('',*,*,#133,.F.);
#472=CARTESIAN_POINT('',(0.0,0.0,-156.0));
#473=DIRECTION('',(-0.0,-0.0,1.0));
#474=DIRECTION('',(0.5,0.866025403784439,0.0));
#475=DIRECTION('',(-0.0,-0.0,1.0));
#476=CARTESIAN_POINT('',(0.0,0.0,-1.0));
#477=DIRECTION('',(0.0,0.0,-1.0));
#478=DIRECTION('',(0.0,1.0,0.0));
#479=SURFACE_STYLE_FILL_AREA(#588);
#480=ORIENTED_EDGE('',*,*,#107,.T.);
#481=ORIENTED_EDGE('',*,*,#153,.F.);
#482=ORIENTED_EDGE('',*,*,#119,.T.);
#483=ORIENTED_EDGE('',*,*,#113,.T.);
#484=ORIENTED_EDGE('',*,*,#103,.T.);
#485=CARTESIAN_POINT('',(0.0,0.0,-96.0));
#486=DIRECTION('',(-0.0,-0.0,1.0));
#487=DIRECTION('',(-1.0,0.0,0.0));
#488=DIRECTION('',(0.0,0.0,-1.0));
#489=CARTESIAN_POINT('',(0.0,0.0,-1.0));
#490=DIRECTION('',(0.0,0.0,-1.0));
#491=DIRECTION('',(0.0,1.0,0.0));
#492=CARTESIAN_POINT('',(0.0,0.0,-1.0));
#493=DIRECTION('',(0.0,0.0,-1.0));
#494=DIRECTION('',(0.0,1.0,0.0));
#495=SURFACE_STYLE_FILL_AREA(#589);
#496=ORIENTED_EDGE('',*,*,#173,.F.);
#497=ORIENTED_EDGE('',*,*,#143,.F.);
#498=CARTESIAN_POINT('',(2.5,4.33012701892219,-142.0));
#499=DIRECTION('',(0.0,0.0,1.0));
#500=DIRECTION('',(-0.5,-0.866025403784439,0.0));
#501=DIRECTION('',(-0.0,-0.0,1.0));
#502=CARTESIAN_POINT('',(0.0,0.0,-142.0));
#503=DIRECTION('',(0.0,0.0,-1.0));
#504=DIRECTION('',(-1.0,0.0,0.0));
#505=SURFACE_STYLE_FILL_AREA(#590);
#506=ORIENTED_EDGE('',*,*,#107,.F.);
#507=ORIENTED_EDGE('',*,*,#159,.T.);
#508=ORIENTED_EDGE('',*,*,#111,.T.);
#509=ORIENTED_EDGE('',*,*,#119,.F.);
#510=ORIENTED_EDGE('',*,*,#121,.F.);
#511=CARTESIAN_POINT('',(0.0,0.0,-96.0));
#512=DIRECTION('',(-0.0,-0.0,1.0));
#513=DIRECTION('',(-1.0,0.0,0.0));
#514=CARTESIAN_POINT('',(0.0,0.0,-170.0));
#515=DIRECTION('',(1.0,0.0,1.22460635382238E-016));
#516=DIRECTION('',(-1.22460635382238E-016,0.0,1.0));
#517=DIRECTION('',(0.0,0.0,-1.0));
#518=CARTESIAN_POINT('',(0.0,0.0,0.0));
#519=DIRECTION('',(0.0,0.0,-1.0));
#520=DIRECTION('',(0.0,1.0,0.0));
#521=CARTESIAN_POINT('',(0.0,0.0,-170.0));
#522=DIRECTION('',(0.0,0.0,-1.0));
#523=DIRECTION('',(0.5,0.866025403784439,0.0));
#524=CARTESIAN_POINT('',(0.0,0.0,0.0));
#525=DIRECTION('',(0.0,0.0,-1.0));
#526=DIRECTION('',(0.0,1.0,0.0));
#527=SURFACE_STYLE_FILL_AREA(#591);
#528=ORIENTED_EDGE('',*,*,#147,.F.);
#529=ORIENTED_EDGE('',*,*,#129,.T.);
#530=ORIENTED_EDGE('',*,*,#157,.F.);
#531=ORIENTED_EDGE('',*,*,#113,.F.);
#532=ORIENTED_EDGE('',*,*,#111,.F.);
#533=CARTESIAN_POINT('',(0.0,0.0,-0.5));
#534=DIRECTION('',(0.0,-0.0,-1.0));
#535=DIRECTION('',(0.0,1.0,0.0));
#536=SURFACE_STYLE_FILL_AREA(#592);
#537=ORIENTED_EDGE('',*,*,#127,.T.);
#538=ORIENTED_EDGE('',*,*,#91,.F.);
#539=ORIENTED_EDGE('',*,*,#89,.F.);
#540=ORIENTED_EDGE('',*,*,#97,.T.);
#541=ORIENTED_EDGE('',*,*,#143,.T.);
#542=CARTESIAN_POINT('',(0.0,0.0,-156.0));
#543=DIRECTION('',(-0.0,-0.0,1.0));
#544=DIRECTION('',(0.5,0.866025403784439,0.0));
#545=SURFACE_STYLE_FILL_AREA(#593);
#546=ORIENTED_EDGE('',*,*,#147,.T.);
#547=ORIENTED_EDGE('',*,*,#159,.F.);
#548=ORIENTED_EDGE('',*,*,#103,.F.);
#549=ORIENTED_EDGE('',*,*,#157,.T.);
#550=ORIENTED_EDGE('',*,*,#135,.T.);
#551=CARTESIAN_POINT('',(0.0,0.0,-0.5));
#552=DIRECTION('',(0.0,-0.0,-1.0));
#553=DIRECTION('',(0.0,1.0,0.0));
#554=CARTESIAN_POINT('',(0.0,0.0,-142.0));
#555=DIRECTION('',(0.0,0.0,-1.0));
#556=DIRECTION('',(0.5,0.866025403784439,0.0));
#557=DIRECTION('',(-8.65927457071936E-017,0.707106781186548,-0.707106781186548));
#558=SURFACE_STYLE_FILL_AREA(#594);
#559=SURFACE_STYLE_FILL_AREA(#595);
#560=ORIENTED_EDGE('',*,*,#129,.F.);
#561=ORIENTED_EDGE('',*,*,#135,.F.);
#562=CARTESIAN_POINT('',(0.0,4.5,0.0));
#563=DIRECTION('',(-0.0,0.0,1.0));
#564=DIRECTION('',(0.0,-1.0,0.0));
#565=CARTESIAN_POINT('',(0.0,0.0,-142.0));
#566=DIRECTION('',(0.0,0.0,-1.0));
#567=DIRECTION('',(-1.0,0.0,0.0));
#568=DIRECTION('',(-8.65927457071936E-017,0.707106781186548,0.707106781186548));
#569=CARTESIAN_POINT('',(0.0,0.0,-1.0));
#570=DIRECTION('',(0.0,0.0,-1.0));
#571=DIRECTION('',(0.0,1.0,0.0));
#572=SURFACE_STYLE_FILL_AREA(#596);
#573=CARTESIAN_POINT('',(0.0,0.0,-170.0));
#574=DIRECTION('',(0.0,0.0,-1.0));
#575=DIRECTION('',(0.5,0.866025403784439,0.0));
#576=SURFACE_STYLE_FILL_AREA(#597);
#577=ORIENTED_EDGE('',*,*,#121,.T.);
#578=ORIENTED_EDGE('',*,*,#153,.T.);
#579=CARTESIAN_POINT('',(-5.0,0.0,-142.0));
#580=DIRECTION('',(0.0,0.0,-1.0));
#581=DIRECTION('',(-1.0,0.0,0.0));
#582=CARTESIAN_POINT('',(0.0,0.0,-142.0));
#583=DIRECTION('',(0.0,0.0,-1.0));
#584=DIRECTION('',(0.5,0.866025403784439,0.0));
#585=FILL_AREA_STYLE('',(#598));
#586=FILL_AREA_STYLE('',(#599));
#587=FILL_AREA_STYLE('',(#600));
#588=FILL_AREA_STYLE('',(#601));
#589=FILL_AREA_STYLE('',(#602));
#590=FILL_AREA_STYLE('',(#603));
#591=FILL_AREA_STYLE('',(#604));
#592=FILL_AREA_STYLE('',(#605));
#593=FILL_AREA_STYLE('',(#606));
#594=FILL_AREA_STYLE('',(#607));
#595=FILL_AREA_STYLE('',(#608));
#596=FILL_AREA_STYLE('',(#609));
#597=FILL_AREA_STYLE('',(#610));
#598=FILL_AREA_STYLE_COLOUR('',#611);
#599=FILL_AREA_STYLE_COLOUR('',#612);
#600=FILL_AREA_STYLE_COLOUR('',#613);
#601=FILL_AREA_STYLE_COLOUR('',#614);
#602=FILL_AREA_STYLE_COLOUR('',#615);
#603=FILL_AREA_STYLE_COLOUR('',#616);
#604=FILL_AREA_STYLE_COLOUR('',#617);
#605=FILL_AREA_STYLE_COLOUR('',#618);
#606=FILL_AREA_STYLE_COLOUR('',#619);
#607=FILL_AREA_STYLE_COLOUR('',#620);
#608=FILL_AREA_STYLE_COLOUR('',#621);
#609=FILL_AREA_STYLE_COLOUR('',#622);
#610=FILL_AREA_STYLE_COLOUR('',#623);
#611=COLOUR_RGB('',0.800000011920929,0.800000011920929,0.800000011920929);
#612=COLOUR_RGB('',0.800000011920929,0.800000011920929,0.800000011920929);
#613=COLOUR_RGB('',0.800000011920929,0.800000011920929,0.800000011920929);
#614=COLOUR_RGB('',0.498039215803146,0.498039215803146,0.498039215803146);
#615=COLOUR_RGB('',0.800000011920929,0.800000011920929,0.800000011920929);
#616=COLOUR_RGB('',0.498039215803146,0.498039215803146,0.498039215803146);
#617=COLOUR_RGB('',0.498039215803146,0.498039215803146,0.498039215803146);
#618=COLOUR_RGB('',0.800000011920929,0.800000011920929,0.800000011920929);
#619=COLOUR_RGB('',0.498039215803146,0.498039215803146,0.498039215803146);
#620=COLOUR_RGB('',0.800000011920929,0.800000011920929,0.800000011920929);
#621=COLOUR_RGB('',0.498039215803146,0.498039215803146,0.498039215803146);
#622=COLOUR_RGB('',0.498039215803146,0.498039215803146,0.498039215803146);
#623=COLOUR_RGB('',0.498039215803146,0.498039215803146,0.498039215803146);
#624=AXIS2_PLACEMENT_3D('PCS',#625,#626,#627);
#625=CARTESIAN_POINT('',(0.0,0.0,0.0));
#626=DIRECTION('',(0.0,0.0,1.0));
#627=DIRECTION('',(1.0,0.0,0.0));
#628=AXIS2_PLACEMENT_3D('MCS',#629,#630,#631);
#629=CARTESIAN_POINT('',(0.0,0.0,-50.0));
#630=DIRECTION('',(0.0,0.0,1.0));
#631=DIRECTION('',(1.0,0.0,0.0));
#632=AXIS2_PLACEMENT_3D('CIP',#633,#634,#635);
#633=CARTESIAN_POINT('',(0.0,0.0,-180.0));
#634=DIRECTION('',(0.0,0.0,1.0));
#635=DIRECTION('',(1.0,0.0,0.0));
#636=CONSTRUCTIVE_GEOMETRY_REPRESENTATION_RELATIONSHIP('coordinate systems',$,#66,#637);
#637=CONSTRUCTIVE_GEOMETRY_REPRESENTATION('coordinate systems',(#624,#628,#632),#10);
ENDSEC;
END-ISO-10303-21;
