ISO-10303-21;
HEADER;
FILE_DESCRIPTION(('no description'),'unknown implementation level');
FILE_NAME('8518106.stp','  ',('CIM GmbH Aachen'),('CADClick - KiM GmbH - www.kimweb.de'),'unknown preprocess','ACIS','unknown authorization');
FILE_SCHEMA(('automotive_design'));
ENDSEC;
DATA;
#1=MECHANICAL_DESIGN_GEOMETRIC_PRESENTATION_REPRESENTATION(' ',(#14,#15,#16,#17,#18,#19,#20,#21,#22,#23,#24,#25,#26,#27,#28,#29,#30,#31,#32,#33,#34,#35,#36,#37,#38,#39,#40,#41,#42,#43,#44,#45,#46,#47,#48,#49,#50,#51,#52,#53,#54,#55,#56,#57,#58,#59,#60,#61),#10);
#2=PRODUCT_DEFINITION_CONTEXT('',#62,'design');
#3=APPLICATION_PROTOCOL_DEFINITION('INTERNATIONAL STANDARD','automotive_design',1994,#62);
#4=PRODUCT_CATEGORY_RELATIONSHIP('NONE','NONE',#63,#64);
#5=SHAPE_DEFINITION_REPRESENTATION(#65,#66);
#6=PRODUCT_DEFINITION_CONTEXT('',#67,'design');
#7=APPLICATION_PROTOCOL_DEFINITION('INTERNATIONAL STANDARD','automotive_design',1994,#67);
#8=PRODUCT_CATEGORY_RELATIONSHIP('NONE','NONE',#68,#69);
#9=SHAPE_DEFINITION_REPRESENTATION(#70,#71);
#10= (GEOMETRIC_REPRESENTATION_CONTEXT(3)GLOBAL_UNCERTAINTY_ASSIGNED_CONTEXT((#74))GLOBAL_UNIT_ASSIGNED_CONTEXT((#76,#77,#78))REPRESENTATION_CONTEXT('NONE','WORKSPACE'));
#14=STYLED_ITEM('',(#80),#81);
#15=STYLED_ITEM('',(#82),#83);
#16=STYLED_ITEM('',(#84),#85);
#17=STYLED_ITEM('',(#86),#87);
#18=STYLED_ITEM('',(#88),#89);
#19=STYLED_ITEM('',(#90),#91);
#20=STYLED_ITEM('',(#92),#93);
#21=STYLED_ITEM('',(#94),#95);
#22=STYLED_ITEM('',(#96),#97);
#23=STYLED_ITEM('',(#98),#99);
#24=STYLED_ITEM('',(#100),#101);
#25=STYLED_ITEM('',(#102),#103);
#26=STYLED_ITEM('',(#104),#105);
#27=STYLED_ITEM('',(#106),#107);
#28=STYLED_ITEM('',(#108),#109);
#29=STYLED_ITEM('',(#110),#111);
#30=STYLED_ITEM('',(#112),#113);
#31=STYLED_ITEM('',(#114),#115);
#32=STYLED_ITEM('',(#116),#117);
#33=STYLED_ITEM('',(#118),#119);
#34=STYLED_ITEM('',(#120),#121);
#35=STYLED_ITEM('',(#122),#123);
#36=STYLED_ITEM('',(#124),#125);
#37=STYLED_ITEM('',(#126),#127);
#38=STYLED_ITEM('',(#128),#129);
#39=STYLED_ITEM('',(#130),#131);
#40=STYLED_ITEM('',(#132),#133);
#41=STYLED_ITEM('',(#134),#135);
#42=STYLED_ITEM('',(#136),#137);
#43=STYLED_ITEM('',(#138),#139);
#44=STYLED_ITEM('',(#140),#141);
#45=STYLED_ITEM('',(#142),#143);
#46=STYLED_ITEM('',(#144),#145);
#47=STYLED_ITEM('',(#146),#147);
#48=STYLED_ITEM('',(#148),#149);
#49=STYLED_ITEM('',(#150),#151);
#50=STYLED_ITEM('',(#152),#153);
#51=STYLED_ITEM('',(#154),#155);
#52=STYLED_ITEM('',(#156),#157);
#53=STYLED_ITEM('',(#158),#159);
#54=STYLED_ITEM('',(#160),#161);
#55=STYLED_ITEM('',(#162),#163);
#56=STYLED_ITEM('',(#164),#165);
#57=STYLED_ITEM('',(#166),#167);
#58=STYLED_ITEM('',(#168),#169);
#59=STYLED_ITEM('',(#170),#171);
#60=STYLED_ITEM('',(#172),#173);
#61=STYLED_ITEM('',(#174),#175);
#62=APPLICATION_CONTEXT(' ');
#63=PRODUCT_CATEGORY('part','NONE');
#64=PRODUCT_RELATED_PRODUCT_CATEGORY('detail',' ',(#176));
#65=PRODUCT_DEFINITION_SHAPE('NONE','NONE',#177);
#66=ADVANCED_BREP_SHAPE_REPRESENTATION('1',(#161,#178),#10);
#67=APPLICATION_CONTEXT(' ');
#68=PRODUCT_CATEGORY('part','NONE');
#69=PRODUCT_RELATED_PRODUCT_CATEGORY('detail',' ',(#179));
#70=PRODUCT_DEFINITION_SHAPE('NONE','NONE',#180);
#71=ADVANCED_BREP_SHAPE_REPRESENTATION('2',(#81,#181),#10);
#74=UNCERTAINTY_MEASURE_WITH_UNIT(LENGTH_MEASURE(1.0E-006),#76,'','');
#76= (CONVERSION_BASED_UNIT('MILLIMETRE',#184)LENGTH_UNIT()NAMED_UNIT(#187));
#77= (NAMED_UNIT(#189)PLANE_ANGLE_UNIT()SI_UNIT($,.RADIAN.));
#78= (NAMED_UNIT(#189)SOLID_ANGLE_UNIT()SI_UNIT($,.STERADIAN.));
#80=PRESENTATION_STYLE_ASSIGNMENT((#195));
#81=MANIFOLD_SOLID_BREP('2',#196);
#82=PRESENTATION_STYLE_ASSIGNMENT((#197));
#83=ADVANCED_FACE('',(#198),#199,.T.);
#84=PRESENTATION_STYLE_ASSIGNMENT((#200));
#85=EDGE_CURVE('',#129,#127,#201,.T.);
#86=PRESENTATION_STYLE_ASSIGNMENT((#202));
#87=EDGE_CURVE('',#169,#123,#203,.T.);
#88=PRESENTATION_STYLE_ASSIGNMENT((#204));
#89=VERTEX_POINT('',#205);
#90=PRESENTATION_STYLE_ASSIGNMENT((#206));
#91=ADVANCED_FACE('',(#207),#208,.T.);
#92=PRESENTATION_STYLE_ASSIGNMENT((#209));
#93=EDGE_CURVE('',#169,#171,#210,.T.);
#94=PRESENTATION_STYLE_ASSIGNMENT((#211));
#95=VERTEX_POINT('',#212);
#96=PRESENTATION_STYLE_ASSIGNMENT((#213));
#97=EDGE_CURVE('',#109,#89,#214,.T.);
#98=PRESENTATION_STYLE_ASSIGNMENT((#215));
#99=ADVANCED_FACE('',(#216),#217,.T.);
#100=PRESENTATION_STYLE_ASSIGNMENT((#218));
#101=EDGE_CURVE('',#89,#129,#219,.T.);
#102=PRESENTATION_STYLE_ASSIGNMENT((#220));
#103=EDGE_CURVE('',#121,#165,#221,.T.);
#104=PRESENTATION_STYLE_ASSIGNMENT((#222));
#105=VERTEX_POINT('',#223);
#106=PRESENTATION_STYLE_ASSIGNMENT((#224));
#107=EDGE_CURVE('',#105,#171,#225,.T.);
#108=PRESENTATION_STYLE_ASSIGNMENT((#226));
#109=VERTEX_POINT('',#227);
#110=PRESENTATION_STYLE_ASSIGNMENT((#228));
#111=EDGE_CURVE('',#173,#127,#229,.T.);
#112=PRESENTATION_STYLE_ASSIGNMENT((#230));
#113=ADVANCED_FACE('',(#231),#232,.T.);
#114=PRESENTATION_STYLE_ASSIGNMENT((#233));
#115=ADVANCED_FACE('',(#234),#235,.T.);
#116=PRESENTATION_STYLE_ASSIGNMENT((#236));
#117=EDGE_CURVE('',#143,#89,#237,.T.);
#118=PRESENTATION_STYLE_ASSIGNMENT((#238));
#119=EDGE_CURVE('',#173,#109,#239,.T.);
#120=PRESENTATION_STYLE_ASSIGNMENT((#240));
#121=VERTEX_POINT('',#241);
#122=PRESENTATION_STYLE_ASSIGNMENT((#242));
#123=VERTEX_POINT('',#243);
#124=PRESENTATION_STYLE_ASSIGNMENT((#244));
#125=EDGE_CURVE('',#105,#169,#245,.T.);
#126=PRESENTATION_STYLE_ASSIGNMENT((#246));
#127=VERTEX_POINT('',#247);
#128=PRESENTATION_STYLE_ASSIGNMENT((#248));
#129=VERTEX_POINT('',#249);
#130=PRESENTATION_STYLE_ASSIGNMENT((#250));
#131=EDGE_CURVE('',#165,#105,#251,.T.);
#132=PRESENTATION_STYLE_ASSIGNMENT((#252));
#133=ADVANCED_FACE('',(#253),#254,.T.);
#134=PRESENTATION_STYLE_ASSIGNMENT((#255));
#135=ADVANCED_FACE('',(#256),#257,.T.);
#136=PRESENTATION_STYLE_ASSIGNMENT((#258));
#137=EDGE_CURVE('',#95,#143,#259,.T.);
#138=PRESENTATION_STYLE_ASSIGNMENT((#260));
#139=ADVANCED_FACE('',(#261),#262,.T.);
#140=PRESENTATION_STYLE_ASSIGNMENT((#263));
#141=EDGE_CURVE('',#159,#95,#264,.T.);
#142=PRESENTATION_STYLE_ASSIGNMENT((#265));
#143=VERTEX_POINT('',#266);
#144=PRESENTATION_STYLE_ASSIGNMENT((#267));
#145=EDGE_CURVE('',#121,#123,#268,.T.);
#146=PRESENTATION_STYLE_ASSIGNMENT((#269));
#147=EDGE_CURVE('',#127,#173,#270,.T.);
#148=PRESENTATION_STYLE_ASSIGNMENT((#271));
#149=EDGE_CURVE('',#123,#121,#272,.T.);
#150=PRESENTATION_STYLE_ASSIGNMENT((#273));
#151=ADVANCED_FACE('',(#274),#275,.T.);
#152=PRESENTATION_STYLE_ASSIGNMENT((#276));
#153=EDGE_CURVE('',#129,#159,#277,.T.);
#154=PRESENTATION_STYLE_ASSIGNMENT((#278));
#155=EDGE_CURVE('',#143,#95,#279,.T.);
#156=PRESENTATION_STYLE_ASSIGNMENT((#280));
#157=ADVANCED_FACE('',(#281),#282,.T.);
#158=PRESENTATION_STYLE_ASSIGNMENT((#283));
#159=VERTEX_POINT('',#284);
#160=PRESENTATION_STYLE_ASSIGNMENT((#285));
#161=MANIFOLD_SOLID_BREP('1',#286);
#162=PRESENTATION_STYLE_ASSIGNMENT((#287));
#163=ADVANCED_FACE('',(#288),#289,.T.);
#164=PRESENTATION_STYLE_ASSIGNMENT((#290));
#165=VERTEX_POINT('',#291);
#166=PRESENTATION_STYLE_ASSIGNMENT((#292));
#167=EDGE_CURVE('',#159,#109,#293,.T.);
#168=PRESENTATION_STYLE_ASSIGNMENT((#294));
#169=VERTEX_POINT('',#295);
#170=PRESENTATION_STYLE_ASSIGNMENT((#296));
#171=VERTEX_POINT('',#297);
#172=PRESENTATION_STYLE_ASSIGNMENT((#298));
#173=VERTEX_POINT('',#299);
#174=PRESENTATION_STYLE_ASSIGNMENT((#300));
#175=EDGE_CURVE('',#171,#165,#301,.T.);
#176=PRODUCT('1','1','PART-1-DESC',(#302));
#177=PRODUCT_DEFINITION('NONE','NONE',#303,#2);
#178=AXIS2_PLACEMENT_3D('',#304,#305,#306);
#179=PRODUCT('2','2','PART-2-DESC',(#307));
#180=PRODUCT_DEFINITION('NONE','NONE',#308,#6);
#181=AXIS2_PLACEMENT_3D('',#309,#310,#311);
#184=LENGTH_MEASURE_WITH_UNIT(LENGTH_MEASURE(1.0),#312);
#187=DIMENSIONAL_EXPONENTS(1.0,0.0,0.0,0.0,0.0,0.0,0.0);
#189=DIMENSIONAL_EXPONENTS(0.0,0.0,0.0,0.0,0.0,0.0,0.0);
#195=SURFACE_STYLE_USAGE(.BOTH.,#313);
#196=CLOSED_SHELL('',(#139,#151,#135,#83,#163));
#197=SURFACE_STYLE_USAGE(.BOTH.,#314);
#198=FACE_OUTER_BOUND('',#315,.T.);
#199=PLANE('',#316);
#200=CURVE_STYLE('',#317,POSITIVE_LENGTH_MEASURE(1.0E-006),#318);
#201=LINE('',#319,#320);
#202=CURVE_STYLE('',#321,POSITIVE_LENGTH_MEASURE(1.0E-006),#322);
#203=LINE('',#323,#324);
#204=POINT_STYLE(' ',#325,POSITIVE_LENGTH_MEASURE(1.0E-006),#326);
#205=CARTESIAN_POINT('',(3.0,3.67381906146713E-016,-0.399999999999999));
#206=SURFACE_STYLE_USAGE(.BOTH.,#327);
#207=FACE_OUTER_BOUND('',#328,.T.);
#208=PLANE('',#329);
#209=CURVE_STYLE('',#330,POSITIVE_LENGTH_MEASURE(1.0E-006),#331);
#210=CIRCLE('',#332,3.0);
#211=POINT_STYLE(' ',#333,POSITIVE_LENGTH_MEASURE(1.0E-006),#334);
#212=CARTESIAN_POINT('',(-3.0,0.0,-38.0));
#213=CURVE_STYLE('',#335,POSITIVE_LENGTH_MEASURE(1.0E-006),#336);
#214=CIRCLE('',#337,3.0);
#215=SURFACE_STYLE_USAGE(.BOTH.,#338);
#216=FACE_OUTER_BOUND('',#339,.T.);
#217=CYLINDRICAL_SURFACE('',#340,3.0);
#218=CURVE_STYLE('',#341,POSITIVE_LENGTH_MEASURE(1.0E-006),#342);
#219=CIRCLE('',#343,3.0);
#220=CURVE_STYLE('',#344,POSITIVE_LENGTH_MEASURE(1.0E-006),#345);
#221=LINE('',#346,#347);
#222=POINT_STYLE(' ',#348,POSITIVE_LENGTH_MEASURE(1.0E-006),#349);
#223=CARTESIAN_POINT('',(0.0,-3.0,-47.0));
#224=CURVE_STYLE('',#350,POSITIVE_LENGTH_MEASURE(1.0E-006),#351);
#225=CIRCLE('',#352,3.00000000000001);
#226=POINT_STYLE(' ',#353,POSITIVE_LENGTH_MEASURE(1.0E-006),#354);
#227=CARTESIAN_POINT('',(0.0,3.0,-0.399999999999999));
#228=CURVE_STYLE('',#355,POSITIVE_LENGTH_MEASURE(1.0E-006),#356);
#229=CIRCLE('',#357,2.6);
#230=SURFACE_STYLE_USAGE(.BOTH.,#358);
#231=FACE_OUTER_BOUND('',#359,.T.);
#232=CONICAL_SURFACE('',#360,2.8,0.78539816339745);
#233=SURFACE_STYLE_USAGE(.BOTH.,#361);
#234=FACE_OUTER_BOUND('',#362,.T.);
#235=CYLINDRICAL_SURFACE('',#363,3.0);
#236=CURVE_STYLE('',#364,POSITIVE_LENGTH_MEASURE(1.0E-006),#365);
#237=LINE('',#366,#367);
#238=CURVE_STYLE('',#368,POSITIVE_LENGTH_MEASURE(1.0E-006),#369);
#239=LINE('',#370,#371);
#240=POINT_STYLE(' ',#372,POSITIVE_LENGTH_MEASURE(1.0E-006),#373);
#241=CARTESIAN_POINT('',(1.5,2.59807621135332,-38.0));
#242=POINT_STYLE(' ',#374,POSITIVE_LENGTH_MEASURE(1.0E-006),#375);
#243=CARTESIAN_POINT('',(-1.5,-2.59807621135332,-38.0));
#244=CURVE_STYLE('',#376,POSITIVE_LENGTH_MEASURE(1.0E-006),#377);
#245=CIRCLE('',#378,3.0);
#246=POINT_STYLE(' ',#379,POSITIVE_LENGTH_MEASURE(1.0E-006),#380);
#247=CARTESIAN_POINT('',(3.18397651993818E-016,-2.6,0.0));
#248=POINT_STYLE(' ',#381,POSITIVE_LENGTH_MEASURE(1.0E-006),#382);
#249=CARTESIAN_POINT('',(3.67381906146713E-016,-3.0,-0.399999999999999));
#250=CURVE_STYLE('',#383,POSITIVE_LENGTH_MEASURE(1.0E-006),#384);
#251=CIRCLE('',#385,3.0);
#252=SURFACE_STYLE_USAGE(.BOTH.,#386);
#253=FACE_OUTER_BOUND('',#387,.T.);
#254=PLANE('',#388);
#255=SURFACE_STYLE_USAGE(.BOTH.,#389);
#256=FACE_OUTER_BOUND('',#390,.T.);
#257=SPHERICAL_SURFACE('',#391,3.00000000000001);
#258=CURVE_STYLE('',#392,POSITIVE_LENGTH_MEASURE(1.0E-006),#393);
#259=CIRCLE('',#394,3.0);
#260=SURFACE_STYLE_USAGE(.BOTH.,#395);
#261=FACE_OUTER_BOUND('',#396,.T.);
#262=CYLINDRICAL_SURFACE('',#397,3.0);
#263=CURVE_STYLE('',#398,POSITIVE_LENGTH_MEASURE(1.0E-006),#399);
#264=LINE('',#400,#401);
#265=POINT_STYLE(' ',#402,POSITIVE_LENGTH_MEASURE(1.0E-006),#403);
#266=CARTESIAN_POINT('',(3.0,3.67381906146713E-016,-38.0));
#267=CURVE_STYLE('',#404,POSITIVE_LENGTH_MEASURE(1.0E-006),#405);
#268=CIRCLE('',#406,3.0);
#269=CURVE_STYLE('',#407,POSITIVE_LENGTH_MEASURE(1.0E-006),#408);
#270=CIRCLE('',#409,2.6);
#271=CURVE_STYLE('',#410,POSITIVE_LENGTH_MEASURE(1.0E-006),#411);
#272=CIRCLE('',#412,3.0);
#273=SURFACE_STYLE_USAGE(.BOTH.,#413);
#274=FACE_OUTER_BOUND('',#414,.T.);
#275=SPHERICAL_SURFACE('',#415,3.00000000000001);
#276=CURVE_STYLE('',#416,POSITIVE_LENGTH_MEASURE(1.0E-006),#417);
#277=CIRCLE('',#418,3.0);
#278=CURVE_STYLE('',#419,POSITIVE_LENGTH_MEASURE(1.0E-006),#420);
#279=CIRCLE('',#421,3.0);
#280=SURFACE_STYLE_USAGE(.BOTH.,#422);
#281=FACE_OUTER_BOUND('',#423,.T.);
#282=CONICAL_SURFACE('',#424,2.8,0.78539816339745);
#283=POINT_STYLE(' ',#425,POSITIVE_LENGTH_MEASURE(1.0E-006),#426);
#284=CARTESIAN_POINT('',(-3.0,-3.67381906146713E-016,-0.399999999999999));
#285=SURFACE_STYLE_USAGE(.BOTH.,#427);
#286=CLOSED_SHELL('',(#115,#113,#133,#157,#99,#91));
#287=SURFACE_STYLE_USAGE(.BOTH.,#428);
#288=FACE_OUTER_BOUND('',#429,.T.);
#289=CYLINDRICAL_SURFACE('',#430,3.0);
#290=POINT_STYLE(' ',#431,POSITIVE_LENGTH_MEASURE(1.0E-006),#432);
#291=CARTESIAN_POINT('',(1.5,2.59807621135332,-47.0));
#292=CURVE_STYLE('',#433,POSITIVE_LENGTH_MEASURE(1.0E-006),#434);
#293=CIRCLE('',#435,3.0);
#294=POINT_STYLE(' ',#436,POSITIVE_LENGTH_MEASURE(1.0E-006),#437);
#295=CARTESIAN_POINT('',(-1.5,-2.59807621135332,-47.0));
#296=POINT_STYLE(' ',#438,POSITIVE_LENGTH_MEASURE(1.0E-006),#439);
#297=CARTESIAN_POINT('',(0.0,3.0,-47.0));
#298=POINT_STYLE(' ',#440,POSITIVE_LENGTH_MEASURE(1.0E-006),#441);
#299=CARTESIAN_POINT('',(0.0,2.6,0.0));
#300=CURVE_STYLE('',#442,POSITIVE_LENGTH_MEASURE(1.0E-006),#443);
#301=CIRCLE('',#444,3.0);
#302=PRODUCT_CONTEXT('',#62,'mechanical');
#303=PRODUCT_DEFINITION_FORMATION_WITH_SPECIFIED_SOURCE(' ','NONE',#176,.NOT_KNOWN.);
#304=CARTESIAN_POINT('',(0.0,0.0,0.0));
#305=DIRECTION('',(0.0,0.0,1.0));
#306=DIRECTION('',(1.0,0.0,0.0));
#307=PRODUCT_CONTEXT('',#67,'mechanical');
#308=PRODUCT_DEFINITION_FORMATION_WITH_SPECIFIED_SOURCE(' ','NONE',#179,.NOT_KNOWN.);
#309=CARTESIAN_POINT('',(0.0,0.0,0.0));
#310=DIRECTION('',(0.0,0.0,1.0));
#311=DIRECTION('',(1.0,0.0,0.0));
#312= (NAMED_UNIT(#187)LENGTH_UNIT()SI_UNIT(.MILLI.,.METRE.));
#313=SURFACE_SIDE_STYLE('',(#446));
#314=SURFACE_SIDE_STYLE('',(#447));
#315=EDGE_LOOP('',(#448,#449));
#316=AXIS2_PLACEMENT_3D('',#450,#451,#452);
#317=DRAUGHTING_PRE_DEFINED_CURVE_FONT('continuous');
#318=COLOUR_RGB('',0.498039215803146,0.498039215803146,0.498039215803146);
#319=CARTESIAN_POINT('',(3.42889779070266E-016,-2.8,-0.199999999999996));
#320=VECTOR('',#453,1.0);
#321=DRAUGHTING_PRE_DEFINED_CURVE_FONT('continuous');
#322=COLOUR_RGB('',0.800000011920929,0.800000011920929,0.800000011920929);
#323=CARTESIAN_POINT('',(-1.5,-2.59807621135332,-42.5));
#324=VECTOR('',#454,1.0);
#325=PRE_DEFINED_MARKER('');
#326=COLOUR_RGB('',0.498039215803146,0.498039215803146,0.498039215803146);
#327=SURFACE_SIDE_STYLE('',(#455));
#328=EDGE_LOOP('',(#456,#457));
#329=AXIS2_PLACEMENT_3D('',#458,#459,#460);
#330=DRAUGHTING_PRE_DEFINED_CURVE_FONT('continuous');
#331=COLOUR_RGB('',0.800000011920929,0.800000011920929,0.800000011920929);
#332=AXIS2_PLACEMENT_3D('',#461,#462,#463);
#333=PRE_DEFINED_MARKER('');
#334=COLOUR_RGB('',0.498039215803146,0.498039215803146,0.498039215803146);
#335=DRAUGHTING_PRE_DEFINED_CURVE_FONT('continuous');
#336=COLOUR_RGB('',0.498039215803146,0.498039215803146,0.498039215803146);
#337=AXIS2_PLACEMENT_3D('',#464,#465,#466);
#338=SURFACE_SIDE_STYLE('',(#467));
#339=EDGE_LOOP('',(#468,#469,#470,#471,#472));
#340=AXIS2_PLACEMENT_3D('',#473,#474,#475);
#341=DRAUGHTING_PRE_DEFINED_CURVE_FONT('continuous');
#342=COLOUR_RGB('',0.498039215803146,0.498039215803146,0.498039215803146);
#343=AXIS2_PLACEMENT_3D('',#476,#477,#478);
#344=DRAUGHTING_PRE_DEFINED_CURVE_FONT('continuous');
#345=COLOUR_RGB('',0.800000011920929,0.800000011920929,0.800000011920929);
#346=CARTESIAN_POINT('',(1.5,2.59807621135332,-42.5));
#347=VECTOR('',#479,1.0);
#348=PRE_DEFINED_MARKER('');
#349=COLOUR_RGB('',0.800000011920929,0.800000011920929,0.800000011920929);
#350=DRAUGHTING_PRE_DEFINED_CURVE_FONT('continuous');
#351=COLOUR_RGB('',0.800000011920929,0.800000011920929,0.800000011920929);
#352=AXIS2_PLACEMENT_3D('',#480,#481,#482);
#353=PRE_DEFINED_MARKER('');
#354=COLOUR_RGB('',0.498039215803146,0.498039215803146,0.498039215803146);
#355=DRAUGHTING_PRE_DEFINED_CURVE_FONT('continuous');
#356=COLOUR_RGB('',0.498039215803146,0.498039215803146,0.498039215803146);
#357=AXIS2_PLACEMENT_3D('',#483,#484,#485);
#358=SURFACE_SIDE_STYLE('',(#486));
#359=EDGE_LOOP('',(#487,#488,#489,#490,#491));
#360=AXIS2_PLACEMENT_3D('',#492,#493,#494);
#361=SURFACE_SIDE_STYLE('',(#495));
#362=EDGE_LOOP('',(#496,#497,#498,#499,#500));
#363=AXIS2_PLACEMENT_3D('',#501,#502,#503);
#364=DRAUGHTING_PRE_DEFINED_CURVE_FONT('continuous');
#365=COLOUR_RGB('',0.498039215803146,0.498039215803146,0.498039215803146);
#366=CARTESIAN_POINT('',(3.0,3.67381906146713E-016,-37.0));
#367=VECTOR('',#504,1.0);
#368=DRAUGHTING_PRE_DEFINED_CURVE_FONT('continuous');
#369=COLOUR_RGB('',0.498039215803146,0.498039215803146,0.498039215803146);
#370=CARTESIAN_POINT('',(-3.42889779070266E-016,2.8,-0.199999999999996));
#371=VECTOR('',#505,1.0);
#372=PRE_DEFINED_MARKER('');
#373=COLOUR_RGB('',0.800000011920929,0.800000011920929,0.800000011920929);
#374=PRE_DEFINED_MARKER('');
#375=COLOUR_RGB('',0.800000011920929,0.800000011920929,0.800000011920929);
#376=DRAUGHTING_PRE_DEFINED_CURVE_FONT('continuous');
#377=COLOUR_RGB('',0.800000011920929,0.800000011920929,0.800000011920929);
#378=AXIS2_PLACEMENT_3D('',#506,#507,#508);
#379=PRE_DEFINED_MARKER('');
#380=COLOUR_RGB('',0.498039215803146,0.498039215803146,0.498039215803146);
#381=PRE_DEFINED_MARKER('');
#382=COLOUR_RGB('',0.498039215803146,0.498039215803146,0.498039215803146);
#383=DRAUGHTING_PRE_DEFINED_CURVE_FONT('continuous');
#384=COLOUR_RGB('',0.800000011920929,0.800000011920929,0.800000011920929);
#385=AXIS2_PLACEMENT_3D('',#509,#510,#511);
#386=SURFACE_SIDE_STYLE('',(#512));
#387=EDGE_LOOP('',(#513,#514));
#388=AXIS2_PLACEMENT_3D('',#515,#516,#517);
#389=SURFACE_SIDE_STYLE('',(#518));
#390=EDGE_LOOP('',(#519,#520,#521));
#391=AXIS2_PLACEMENT_3D('',#522,#523,#524);
#392=DRAUGHTING_PRE_DEFINED_CURVE_FONT('continuous');
#393=COLOUR_RGB('',0.498039215803146,0.498039215803146,0.498039215803146);
#394=AXIS2_PLACEMENT_3D('',#525,#526,#527);
#395=SURFACE_SIDE_STYLE('',(#528));
#396=EDGE_LOOP('',(#529,#530,#531,#532,#533));
#397=AXIS2_PLACEMENT_3D('',#534,#535,#536);
#398=DRAUGHTING_PRE_DEFINED_CURVE_FONT('continuous');
#399=COLOUR_RGB('',0.498039215803146,0.498039215803146,0.498039215803146);
#400=CARTESIAN_POINT('',(-3.0,-3.67381906146713E-016,-37.0));
#401=VECTOR('',#537,1.0);
#402=PRE_DEFINED_MARKER('');
#403=COLOUR_RGB('',0.498039215803146,0.498039215803146,0.498039215803146);
#404=DRAUGHTING_PRE_DEFINED_CURVE_FONT('continuous');
#405=COLOUR_RGB('',0.800000011920929,0.800000011920929,0.800000011920929);
#406=AXIS2_PLACEMENT_3D('',#538,#539,#540);
#407=DRAUGHTING_PRE_DEFINED_CURVE_FONT('continuous');
#408=COLOUR_RGB('',0.498039215803146,0.498039215803146,0.498039215803146);
#409=AXIS2_PLACEMENT_3D('',#541,#542,#543);
#410=DRAUGHTING_PRE_DEFINED_CURVE_FONT('continuous');
#411=COLOUR_RGB('',0.800000011920929,0.800000011920929,0.800000011920929);
#412=AXIS2_PLACEMENT_3D('',#544,#545,#546);
#413=SURFACE_SIDE_STYLE('',(#547));
#414=EDGE_LOOP('',(#548,#549,#550));
#415=AXIS2_PLACEMENT_3D('',#551,#552,#553);
#416=DRAUGHTING_PRE_DEFINED_CURVE_FONT('continuous');
#417=COLOUR_RGB('',0.498039215803146,0.498039215803146,0.498039215803146);
#418=AXIS2_PLACEMENT_3D('',#554,#555,#556);
#419=DRAUGHTING_PRE_DEFINED_CURVE_FONT('continuous');
#420=COLOUR_RGB('',0.498039215803146,0.498039215803146,0.498039215803146);
#421=AXIS2_PLACEMENT_3D('',#557,#558,#559);
#422=SURFACE_SIDE_STYLE('',(#560));
#423=EDGE_LOOP('',(#561,#562,#563,#564,#565));
#424=AXIS2_PLACEMENT_3D('',#566,#567,#568);
#425=PRE_DEFINED_MARKER('');
#426=COLOUR_RGB('',0.498039215803146,0.498039215803146,0.498039215803146);
#427=SURFACE_SIDE_STYLE('',(#569));
#428=SURFACE_SIDE_STYLE('',(#570));
#429=EDGE_LOOP('',(#571,#572,#573,#574,#575));
#430=AXIS2_PLACEMENT_3D('',#576,#577,#578);
#431=PRE_DEFINED_MARKER('');
#432=COLOUR_RGB('',0.800000011920929,0.800000011920929,0.800000011920929);
#433=DRAUGHTING_PRE_DEFINED_CURVE_FONT('continuous');
#434=COLOUR_RGB('',0.498039215803146,0.498039215803146,0.498039215803146);
#435=AXIS2_PLACEMENT_3D('',#579,#580,#581);
#436=PRE_DEFINED_MARKER('');
#437=COLOUR_RGB('',0.800000011920929,0.800000011920929,0.800000011920929);
#438=PRE_DEFINED_MARKER('');
#439=COLOUR_RGB('',0.800000011920929,0.800000011920929,0.800000011920929);
#440=PRE_DEFINED_MARKER('');
#441=COLOUR_RGB('',0.498039215803146,0.498039215803146,0.498039215803146);
#442=DRAUGHTING_PRE_DEFINED_CURVE_FONT('continuous');
#443=COLOUR_RGB('',0.800000011920929,0.800000011920929,0.800000011920929);
#444=AXIS2_PLACEMENT_3D('',#582,#583,#584);
#446=SURFACE_STYLE_FILL_AREA(#585);
#447=SURFACE_STYLE_FILL_AREA(#586);
#448=ORIENTED_EDGE('',*,*,#145,.F.);
#449=ORIENTED_EDGE('',*,*,#149,.F.);
#450=CARTESIAN_POINT('',(0.75,1.29903810567666,-38.0));
#451=DIRECTION('',(0.0,0.0,1.0));
#452=DIRECTION('',(-0.5,-0.866025403784439,0.0));
#453=DIRECTION('',(-8.65927457071937E-017,0.707106781186549,0.707106781186546));
#454=DIRECTION('',(-0.0,-0.0,1.0));
#455=SURFACE_STYLE_FILL_AREA(#587);
#456=ORIENTED_EDGE('',*,*,#137,.T.);
#457=ORIENTED_EDGE('',*,*,#155,.T.);
#458=CARTESIAN_POINT('',(-1.5,0.0,-38.0));
#459=DIRECTION('',(0.0,0.0,-1.0));
#460=DIRECTION('',(-1.0,0.0,0.0));
#461=CARTESIAN_POINT('',(0.0,0.0,-47.0));
#462=DIRECTION('',(0.0,0.0,-1.0));
#463=DIRECTION('',(0.5,0.866025403784439,0.0));
#464=CARTESIAN_POINT('',(0.0,0.0,-0.399999999999999));
#465=DIRECTION('',(0.0,0.0,-1.0));
#466=DIRECTION('',(0.0,1.0,0.0));
#467=SURFACE_STYLE_FILL_AREA(#588);
#468=ORIENTED_EDGE('',*,*,#141,.T.);
#469=ORIENTED_EDGE('',*,*,#155,.F.);
#470=ORIENTED_EDGE('',*,*,#117,.T.);
#471=ORIENTED_EDGE('',*,*,#101,.T.);
#472=ORIENTED_EDGE('',*,*,#153,.T.);
#473=CARTESIAN_POINT('',(0.0,0.0,-37.0));
#474=DIRECTION('',(-0.0,-0.0,1.0));
#475=DIRECTION('',(-1.0,0.0,0.0));
#476=CARTESIAN_POINT('',(0.0,0.0,-0.399999999999999));
#477=DIRECTION('',(0.0,0.0,-1.0));
#478=DIRECTION('',(0.0,1.0,0.0));
#479=DIRECTION('',(0.0,0.0,-1.0));
#480=CARTESIAN_POINT('',(0.0,0.0,-47.0));
#481=DIRECTION('',(1.0,0.0,1.22460635382238E-016));
#482=DIRECTION('',(-1.22460635382238E-016,0.0,1.0));
#483=CARTESIAN_POINT('',(0.0,0.0,0.0));
#484=DIRECTION('',(0.0,0.0,-1.0));
#485=DIRECTION('',(0.0,1.0,0.0));
#486=SURFACE_STYLE_FILL_AREA(#589);
#487=ORIENTED_EDGE('',*,*,#119,.F.);
#488=ORIENTED_EDGE('',*,*,#111,.T.);
#489=ORIENTED_EDGE('',*,*,#85,.F.);
#490=ORIENTED_EDGE('',*,*,#101,.F.);
#491=ORIENTED_EDGE('',*,*,#97,.F.);
#492=CARTESIAN_POINT('',(0.0,0.0,-0.199999999999996));
#493=DIRECTION('',(0.0,-0.0,-1.0));
#494=DIRECTION('',(0.0,1.0,0.0));
#495=SURFACE_STYLE_FILL_AREA(#590);
#496=ORIENTED_EDGE('',*,*,#141,.F.);
#497=ORIENTED_EDGE('',*,*,#167,.T.);
#498=ORIENTED_EDGE('',*,*,#97,.T.);
#499=ORIENTED_EDGE('',*,*,#117,.F.);
#500=ORIENTED_EDGE('',*,*,#137,.F.);
#501=CARTESIAN_POINT('',(0.0,0.0,-37.0));
#502=DIRECTION('',(-0.0,-0.0,1.0));
#503=DIRECTION('',(-1.0,0.0,0.0));
#504=DIRECTION('',(-0.0,-0.0,1.0));
#505=DIRECTION('',(-8.65927457071937E-017,0.707106781186549,-0.707106781186546));
#506=CARTESIAN_POINT('',(0.0,0.0,-47.0));
#507=DIRECTION('',(0.0,0.0,-1.0));
#508=DIRECTION('',(0.5,0.866025403784439,0.0));
#509=CARTESIAN_POINT('',(0.0,0.0,-47.0));
#510=DIRECTION('',(0.0,0.0,-1.0));
#511=DIRECTION('',(0.5,0.866025403784439,0.0));
#512=SURFACE_STYLE_FILL_AREA(#591);
#513=ORIENTED_EDGE('',*,*,#111,.F.);
#514=ORIENTED_EDGE('',*,*,#147,.F.);
#515=CARTESIAN_POINT('',(0.0,1.3,0.0));
#516=DIRECTION('',(-0.0,0.0,1.0));
#517=DIRECTION('',(0.0,-1.0,0.0));
#518=SURFACE_STYLE_FILL_AREA(#592);
#519=ORIENTED_EDGE('',*,*,#107,.T.);
#520=ORIENTED_EDGE('',*,*,#175,.T.);
#521=ORIENTED_EDGE('',*,*,#131,.T.);
#522=CARTESIAN_POINT('',(0.0,0.0,-47.0));
#523=DIRECTION('',(0.0,1.0,0.0));
#524=DIRECTION('',(0.0,0.0,-1.0));
#525=CARTESIAN_POINT('',(0.0,0.0,-38.0));
#526=DIRECTION('',(0.0,0.0,-1.0));
#527=DIRECTION('',(-1.0,0.0,0.0));
#528=SURFACE_STYLE_FILL_AREA(#593);
#529=ORIENTED_EDGE('',*,*,#103,.F.);
#530=ORIENTED_EDGE('',*,*,#145,.T.);
#531=ORIENTED_EDGE('',*,*,#87,.F.);
#532=ORIENTED_EDGE('',*,*,#125,.F.);
#533=ORIENTED_EDGE('',*,*,#131,.F.);
#534=CARTESIAN_POINT('',(0.0,0.0,-42.5));
#535=DIRECTION('',(-0.0,-0.0,1.0));
#536=DIRECTION('',(0.5,0.866025403784439,0.0));
#537=DIRECTION('',(0.0,0.0,-1.0));
#538=CARTESIAN_POINT('',(0.0,0.0,-38.0));
#539=DIRECTION('',(0.0,0.0,-1.0));
#540=DIRECTION('',(0.5,0.866025403784439,0.0));
#541=CARTESIAN_POINT('',(0.0,0.0,0.0));
#542=DIRECTION('',(0.0,0.0,-1.0));
#543=DIRECTION('',(0.0,1.0,0.0));
#544=CARTESIAN_POINT('',(0.0,0.0,-38.0));
#545=DIRECTION('',(0.0,0.0,-1.0));
#546=DIRECTION('',(0.5,0.866025403784439,0.0));
#547=SURFACE_STYLE_FILL_AREA(#594);
#548=ORIENTED_EDGE('',*,*,#107,.F.);
#549=ORIENTED_EDGE('',*,*,#125,.T.);
#550=ORIENTED_EDGE('',*,*,#93,.T.);
#551=CARTESIAN_POINT('',(0.0,0.0,-47.0));
#552=DIRECTION('',(0.0,1.0,0.0));
#553=DIRECTION('',(0.0,0.0,-1.0));
#554=CARTESIAN_POINT('',(0.0,0.0,-0.399999999999999));
#555=DIRECTION('',(0.0,0.0,-1.0));
#556=DIRECTION('',(0.0,1.0,0.0));
#557=CARTESIAN_POINT('',(0.0,0.0,-38.0));
#558=DIRECTION('',(0.0,0.0,-1.0));
#559=DIRECTION('',(-1.0,0.0,0.0));
#560=SURFACE_STYLE_FILL_AREA(#595);
#561=ORIENTED_EDGE('',*,*,#119,.T.);
#562=ORIENTED_EDGE('',*,*,#167,.F.);
#563=ORIENTED_EDGE('',*,*,#153,.F.);
#564=ORIENTED_EDGE('',*,*,#85,.T.);
#565=ORIENTED_EDGE('',*,*,#147,.T.);
#566=CARTESIAN_POINT('',(0.0,0.0,-0.199999999999996));
#567=DIRECTION('',(0.0,-0.0,-1.0));
#568=DIRECTION('',(0.0,1.0,0.0));
#569=SURFACE_STYLE_FILL_AREA(#596);
#570=SURFACE_STYLE_FILL_AREA(#597);
#571=ORIENTED_EDGE('',*,*,#103,.T.);
#572=ORIENTED_EDGE('',*,*,#175,.F.);
#573=ORIENTED_EDGE('',*,*,#93,.F.);
#574=ORIENTED_EDGE('',*,*,#87,.T.);
#575=ORIENTED_EDGE('',*,*,#149,.T.);
#576=CARTESIAN_POINT('',(0.0,0.0,-42.5));
#577=DIRECTION('',(-0.0,-0.0,1.0));
#578=DIRECTION('',(0.5,0.866025403784439,0.0));
#579=CARTESIAN_POINT('',(0.0,0.0,-0.399999999999999));
#580=DIRECTION('',(0.0,0.0,-1.0));
#581=DIRECTION('',(0.0,1.0,0.0));
#582=CARTESIAN_POINT('',(0.0,0.0,-47.0));
#583=DIRECTION('',(0.0,0.0,-1.0));
#584=DIRECTION('',(0.5,0.866025403784439,0.0));
#585=FILL_AREA_STYLE('',(#598));
#586=FILL_AREA_STYLE('',(#599));
#587=FILL_AREA_STYLE('',(#600));
#588=FILL_AREA_STYLE('',(#601));
#589=FILL_AREA_STYLE('',(#602));
#590=FILL_AREA_STYLE('',(#603));
#591=FILL_AREA_STYLE('',(#604));
#592=FILL_AREA_STYLE('',(#605));
#593=FILL_AREA_STYLE('',(#606));
#594=FILL_AREA_STYLE('',(#607));
#595=FILL_AREA_STYLE('',(#608));
#596=FILL_AREA_STYLE('',(#609));
#597=FILL_AREA_STYLE('',(#610));
#598=FILL_AREA_STYLE_COLOUR('',#611);
#599=FILL_AREA_STYLE_COLOUR('',#612);
#600=FILL_AREA_STYLE_COLOUR('',#613);
#601=FILL_AREA_STYLE_COLOUR('',#614);
#602=FILL_AREA_STYLE_COLOUR('',#615);
#603=FILL_AREA_STYLE_COLOUR('',#616);
#604=FILL_AREA_STYLE_COLOUR('',#617);
#605=FILL_AREA_STYLE_COLOUR('',#618);
#606=FILL_AREA_STYLE_COLOUR('',#619);
#607=FILL_AREA_STYLE_COLOUR('',#620);
#608=FILL_AREA_STYLE_COLOUR('',#621);
#609=FILL_AREA_STYLE_COLOUR('',#622);
#610=FILL_AREA_STYLE_COLOUR('',#623);
#611=COLOUR_RGB('',0.800000011920929,0.800000011920929,0.800000011920929);
#612=COLOUR_RGB('',0.800000011920929,0.800000011920929,0.800000011920929);
#613=COLOUR_RGB('',0.498039215803146,0.498039215803146,0.498039215803146);
#614=COLOUR_RGB('',0.498039215803146,0.498039215803146,0.498039215803146);
#615=COLOUR_RGB('',0.498039215803146,0.498039215803146,0.498039215803146);
#616=COLOUR_RGB('',0.498039215803146,0.498039215803146,0.498039215803146);
#617=COLOUR_RGB('',0.498039215803146,0.498039215803146,0.498039215803146);
#618=COLOUR_RGB('',0.800000011920929,0.800000011920929,0.800000011920929);
#619=COLOUR_RGB('',0.800000011920929,0.800000011920929,0.800000011920929);
#620=COLOUR_RGB('',0.800000011920929,0.800000011920929,0.800000011920929);
#621=COLOUR_RGB('',0.498039215803146,0.498039215803146,0.498039215803146);
#622=COLOUR_RGB('',0.498039215803146,0.498039215803146,0.498039215803146);
#623=COLOUR_RGB('',0.800000011920929,0.800000011920929,0.800000011920929);
#624=AXIS2_PLACEMENT_3D('PCS',#625,#626,#627);
#625=CARTESIAN_POINT('',(0.0,0.0,0.0));
#626=DIRECTION('',(0.0,0.0,1.0));
#627=DIRECTION('',(1.0,0.0,0.0));
#628=AXIS2_PLACEMENT_3D('MCS',#629,#630,#631);
#629=CARTESIAN_POINT('',(0.0,0.0,-36.0));
#630=DIRECTION('',(0.0,0.0,1.0));
#631=DIRECTION('',(1.0,0.0,0.0));
#632=AXIS2_PLACEMENT_3D('CIP',#633,#634,#635);
#633=CARTESIAN_POINT('',(0.0,0.0,-50.0));
#634=DIRECTION('',(0.0,0.0,1.0));
#635=DIRECTION('',(1.0,0.0,0.0));
#636=CONSTRUCTIVE_GEOMETRY_REPRESENTATION_RELATIONSHIP('coordinate systems',$,#66,#637);
#637=CONSTRUCTIVE_GEOMETRY_REPRESENTATION('coordinate systems',(#624,#628,#632),#10);
ENDSEC;
END-ISO-10303-21;
