ISO-10303-21;
HEADER;
FILE_DESCRIPTION(('no description'),'unknown implementation level');
FILE_NAME('8518112.stp','  ',('CIM GmbH Aachen'),('CADClick - KiM GmbH - www.kimweb.de'),'unknown preprocess','ACIS','unknown authorization');
FILE_SCHEMA(('automotive_design'));
ENDSEC;
DATA;
#1=MECHANICAL_DESIGN_GEOMETRIC_PRESENTATION_REPRESENTATION(' ',(#14,#15,#16,#17,#18,#19,#20,#21,#22,#23,#24,#25,#26,#27,#28,#29,#30,#31,#32,#33,#34,#35,#36,#37,#38,#39,#40,#41,#42,#43,#44,#45,#46,#47,#48,#49,#50,#51,#52,#53,#54,#55,#56,#57,#58,#59,#60,#61),#10);
#2=PRODUCT_DEFINITION_CONTEXT('',#62,'design');
#3=APPLICATION_PROTOCOL_DEFINITION('INTERNATIONAL STANDARD','automotive_design',1994,#62);
#4=PRODUCT_CATEGORY_RELATIONSHIP('NONE','NONE',#63,#64);
#5=SHAPE_DEFINITION_REPRESENTATION(#65,#66);
#6=PRODUCT_DEFINITION_CONTEXT('',#67,'design');
#7=APPLICATION_PROTOCOL_DEFINITION('INTERNATIONAL STANDARD','automotive_design',1994,#67);
#8=PRODUCT_CATEGORY_RELATIONSHIP('NONE','NONE',#68,#69);
#9=SHAPE_DEFINITION_REPRESENTATION(#70,#71);
#10= (GEOMETRIC_REPRESENTATION_CONTEXT(3)GLOBAL_UNCERTAINTY_ASSIGNED_CONTEXT((#74))GLOBAL_UNIT_ASSIGNED_CONTEXT((#76,#77,#78))REPRESENTATION_CONTEXT('NONE','WORKSPACE'));
#14=STYLED_ITEM('',(#80),#81);
#15=STYLED_ITEM('',(#82),#83);
#16=STYLED_ITEM('',(#84),#85);
#17=STYLED_ITEM('',(#86),#87);
#18=STYLED_ITEM('',(#88),#89);
#19=STYLED_ITEM('',(#90),#91);
#20=STYLED_ITEM('',(#92),#93);
#21=STYLED_ITEM('',(#94),#95);
#22=STYLED_ITEM('',(#96),#97);
#23=STYLED_ITEM('',(#98),#99);
#24=STYLED_ITEM('',(#100),#101);
#25=STYLED_ITEM('',(#102),#103);
#26=STYLED_ITEM('',(#104),#105);
#27=STYLED_ITEM('',(#106),#107);
#28=STYLED_ITEM('',(#108),#109);
#29=STYLED_ITEM('',(#110),#111);
#30=STYLED_ITEM('',(#112),#113);
#31=STYLED_ITEM('',(#114),#115);
#32=STYLED_ITEM('',(#116),#117);
#33=STYLED_ITEM('',(#118),#119);
#34=STYLED_ITEM('',(#120),#121);
#35=STYLED_ITEM('',(#122),#123);
#36=STYLED_ITEM('',(#124),#125);
#37=STYLED_ITEM('',(#126),#127);
#38=STYLED_ITEM('',(#128),#129);
#39=STYLED_ITEM('',(#130),#131);
#40=STYLED_ITEM('',(#132),#133);
#41=STYLED_ITEM('',(#134),#135);
#42=STYLED_ITEM('',(#136),#137);
#43=STYLED_ITEM('',(#138),#139);
#44=STYLED_ITEM('',(#140),#141);
#45=STYLED_ITEM('',(#142),#143);
#46=STYLED_ITEM('',(#144),#145);
#47=STYLED_ITEM('',(#146),#147);
#48=STYLED_ITEM('',(#148),#149);
#49=STYLED_ITEM('',(#150),#151);
#50=STYLED_ITEM('',(#152),#153);
#51=STYLED_ITEM('',(#154),#155);
#52=STYLED_ITEM('',(#156),#157);
#53=STYLED_ITEM('',(#158),#159);
#54=STYLED_ITEM('',(#160),#161);
#55=STYLED_ITEM('',(#162),#163);
#56=STYLED_ITEM('',(#164),#165);
#57=STYLED_ITEM('',(#166),#167);
#58=STYLED_ITEM('',(#168),#169);
#59=STYLED_ITEM('',(#170),#171);
#60=STYLED_ITEM('',(#172),#173);
#61=STYLED_ITEM('',(#174),#175);
#62=APPLICATION_CONTEXT(' ');
#63=PRODUCT_CATEGORY('part','NONE');
#64=PRODUCT_RELATED_PRODUCT_CATEGORY('detail',' ',(#176));
#65=PRODUCT_DEFINITION_SHAPE('NONE','NONE',#177);
#66=ADVANCED_BREP_SHAPE_REPRESENTATION('1',(#115,#178),#10);
#67=APPLICATION_CONTEXT(' ');
#68=PRODUCT_CATEGORY('part','NONE');
#69=PRODUCT_RELATED_PRODUCT_CATEGORY('detail',' ',(#179));
#70=PRODUCT_DEFINITION_SHAPE('NONE','NONE',#180);
#71=ADVANCED_BREP_SHAPE_REPRESENTATION('2',(#97,#181),#10);
#74=UNCERTAINTY_MEASURE_WITH_UNIT(LENGTH_MEASURE(1.0E-006),#76,'','');
#76= (CONVERSION_BASED_UNIT('MILLIMETRE',#184)LENGTH_UNIT()NAMED_UNIT(#187));
#77= (NAMED_UNIT(#189)PLANE_ANGLE_UNIT()SI_UNIT($,.RADIAN.));
#78= (NAMED_UNIT(#189)SOLID_ANGLE_UNIT()SI_UNIT($,.STERADIAN.));
#80=PRESENTATION_STYLE_ASSIGNMENT((#195));
#81=EDGE_CURVE('',#169,#109,#196,.T.);
#82=PRESENTATION_STYLE_ASSIGNMENT((#197));
#83=EDGE_CURVE('',#175,#131,#198,.T.);
#84=PRESENTATION_STYLE_ASSIGNMENT((#199));
#85=VERTEX_POINT('',#200);
#86=PRESENTATION_STYLE_ASSIGNMENT((#201));
#87=ADVANCED_FACE('',(#202),#203,.T.);
#88=PRESENTATION_STYLE_ASSIGNMENT((#204));
#89=EDGE_CURVE('',#173,#133,#205,.T.);
#90=PRESENTATION_STYLE_ASSIGNMENT((#206));
#91=EDGE_CURVE('',#163,#169,#207,.T.);
#92=PRESENTATION_STYLE_ASSIGNMENT((#208));
#93=EDGE_CURVE('',#137,#123,#209,.T.);
#94=PRESENTATION_STYLE_ASSIGNMENT((#210));
#95=EDGE_CURVE('',#173,#135,#211,.T.);
#96=PRESENTATION_STYLE_ASSIGNMENT((#212));
#97=MANIFOLD_SOLID_BREP('2',#213);
#98=PRESENTATION_STYLE_ASSIGNMENT((#214));
#99=EDGE_CURVE('',#109,#85,#215,.T.);
#100=PRESENTATION_STYLE_ASSIGNMENT((#216));
#101=EDGE_CURVE('',#133,#103,#217,.T.);
#102=PRESENTATION_STYLE_ASSIGNMENT((#218));
#103=VERTEX_POINT('',#219);
#104=PRESENTATION_STYLE_ASSIGNMENT((#220));
#105=ADVANCED_FACE('',(#221),#222,.T.);
#106=PRESENTATION_STYLE_ASSIGNMENT((#223));
#107=ADVANCED_FACE('',(#224),#225,.T.);
#108=PRESENTATION_STYLE_ASSIGNMENT((#226));
#109=VERTEX_POINT('',#227);
#110=PRESENTATION_STYLE_ASSIGNMENT((#228));
#111=VERTEX_POINT('',#229);
#112=PRESENTATION_STYLE_ASSIGNMENT((#230));
#113=EDGE_CURVE('',#127,#163,#231,.T.);
#114=PRESENTATION_STYLE_ASSIGNMENT((#232));
#115=MANIFOLD_SOLID_BREP('1',#233);
#116=PRESENTATION_STYLE_ASSIGNMENT((#234));
#117=ADVANCED_FACE('',(#235),#236,.T.);
#118=PRESENTATION_STYLE_ASSIGNMENT((#237));
#119=ADVANCED_FACE('',(#238),#239,.T.);
#120=PRESENTATION_STYLE_ASSIGNMENT((#240));
#121=EDGE_CURVE('',#109,#111,#241,.T.);
#122=PRESENTATION_STYLE_ASSIGNMENT((#242));
#123=VERTEX_POINT('',#243);
#124=PRESENTATION_STYLE_ASSIGNMENT((#244));
#125=EDGE_CURVE('',#127,#111,#245,.T.);
#126=PRESENTATION_STYLE_ASSIGNMENT((#246));
#127=VERTEX_POINT('',#247);
#128=PRESENTATION_STYLE_ASSIGNMENT((#248));
#129=ADVANCED_FACE('',(#249),#250,.T.);
#130=PRESENTATION_STYLE_ASSIGNMENT((#251));
#131=VERTEX_POINT('',#252);
#132=PRESENTATION_STYLE_ASSIGNMENT((#253));
#133=VERTEX_POINT('',#254);
#134=PRESENTATION_STYLE_ASSIGNMENT((#255));
#135=VERTEX_POINT('',#256);
#136=PRESENTATION_STYLE_ASSIGNMENT((#257));
#137=VERTEX_POINT('',#258);
#138=PRESENTATION_STYLE_ASSIGNMENT((#259));
#139=EDGE_CURVE('',#175,#103,#260,.T.);
#140=PRESENTATION_STYLE_ASSIGNMENT((#261));
#141=EDGE_CURVE('',#135,#131,#262,.T.);
#142=PRESENTATION_STYLE_ASSIGNMENT((#263));
#143=EDGE_CURVE('',#137,#85,#264,.T.);
#144=PRESENTATION_STYLE_ASSIGNMENT((#265));
#145=ADVANCED_FACE('',(#266),#267,.T.);
#146=PRESENTATION_STYLE_ASSIGNMENT((#268));
#147=EDGE_CURVE('',#133,#135,#269,.T.);
#148=PRESENTATION_STYLE_ASSIGNMENT((#270));
#149=ADVANCED_FACE('',(#271),#272,.T.);
#150=PRESENTATION_STYLE_ASSIGNMENT((#273));
#151=EDGE_CURVE('',#169,#123,#274,.T.);
#152=PRESENTATION_STYLE_ASSIGNMENT((#275));
#153=EDGE_CURVE('',#111,#127,#276,.T.);
#154=PRESENTATION_STYLE_ASSIGNMENT((#277));
#155=ADVANCED_FACE('',(#278),#279,.T.);
#156=PRESENTATION_STYLE_ASSIGNMENT((#280));
#157=EDGE_CURVE('',#131,#173,#281,.T.);
#158=PRESENTATION_STYLE_ASSIGNMENT((#282));
#159=ADVANCED_FACE('',(#283),#284,.T.);
#160=PRESENTATION_STYLE_ASSIGNMENT((#285));
#161=ADVANCED_FACE('',(#286),#287,.T.);
#162=PRESENTATION_STYLE_ASSIGNMENT((#288));
#163=VERTEX_POINT('',#289);
#164=PRESENTATION_STYLE_ASSIGNMENT((#290));
#165=EDGE_CURVE('',#103,#175,#291,.T.);
#166=PRESENTATION_STYLE_ASSIGNMENT((#292));
#167=EDGE_CURVE('',#85,#163,#293,.T.);
#168=PRESENTATION_STYLE_ASSIGNMENT((#294));
#169=VERTEX_POINT('',#295);
#170=PRESENTATION_STYLE_ASSIGNMENT((#296));
#171=EDGE_CURVE('',#123,#137,#297,.T.);
#172=PRESENTATION_STYLE_ASSIGNMENT((#298));
#173=VERTEX_POINT('',#299);
#174=PRESENTATION_STYLE_ASSIGNMENT((#300));
#175=VERTEX_POINT('',#301);
#176=PRODUCT('1','1','PART-1-DESC',(#302));
#177=PRODUCT_DEFINITION('NONE','NONE',#303,#2);
#178=AXIS2_PLACEMENT_3D('',#304,#305,#306);
#179=PRODUCT('2','2','PART-2-DESC',(#307));
#180=PRODUCT_DEFINITION('NONE','NONE',#308,#6);
#181=AXIS2_PLACEMENT_3D('',#309,#310,#311);
#184=LENGTH_MEASURE_WITH_UNIT(LENGTH_MEASURE(1.0),#312);
#187=DIMENSIONAL_EXPONENTS(1.0,0.0,0.0,0.0,0.0,0.0,0.0);
#189=DIMENSIONAL_EXPONENTS(0.0,0.0,0.0,0.0,0.0,0.0,0.0);
#195=CURVE_STYLE('',#313,POSITIVE_LENGTH_MEASURE(1.0E-006),#314);
#196=CIRCLE('',#315,6.0);
#197=CURVE_STYLE('',#316,POSITIVE_LENGTH_MEASURE(1.0E-006),#317);
#198=LINE('',#318,#319);
#199=POINT_STYLE(' ',#320,POSITIVE_LENGTH_MEASURE(1.0E-006),#321);
#200=CARTESIAN_POINT('',(0.0,6.0,-0.600000000000001));
#201=SURFACE_STYLE_USAGE(.BOTH.,#322);
#202=FACE_OUTER_BOUND('',#323,.T.);
#203=PLANE('',#324);
#204=CURVE_STYLE('',#325,POSITIVE_LENGTH_MEASURE(1.0E-006),#326);
#205=CIRCLE('',#327,6.0);
#206=CURVE_STYLE('',#328,POSITIVE_LENGTH_MEASURE(1.0E-006),#329);
#207=CIRCLE('',#330,6.0);
#208=CURVE_STYLE('',#331,POSITIVE_LENGTH_MEASURE(1.0E-006),#332);
#209=CIRCLE('',#333,5.4);
#210=CURVE_STYLE('',#334,POSITIVE_LENGTH_MEASURE(1.0E-006),#335);
#211=CIRCLE('',#336,5.99999999999999);
#212=SURFACE_STYLE_USAGE(.BOTH.,#337);
#213=CLOSED_SHELL('',(#155,#117,#145,#159,#129));
#214=CURVE_STYLE('',#338,POSITIVE_LENGTH_MEASURE(1.0E-006),#339);
#215=CIRCLE('',#340,6.0);
#216=CURVE_STYLE('',#341,POSITIVE_LENGTH_MEASURE(1.0E-006),#342);
#217=LINE('',#343,#344);
#218=POINT_STYLE(' ',#345,POSITIVE_LENGTH_MEASURE(1.0E-006),#346);
#219=CARTESIAN_POINT('',(-3.0,-5.19615242270663,-58.0));
#220=SURFACE_STYLE_USAGE(.BOTH.,#347);
#221=FACE_OUTER_BOUND('',#348,.T.);
#222=PLANE('',#349);
#223=SURFACE_STYLE_USAGE(.BOTH.,#350);
#224=FACE_OUTER_BOUND('',#351,.T.);
#225=CONICAL_SURFACE('',#352,5.7,0.785398163397447);
#226=POINT_STYLE(' ',#353,POSITIVE_LENGTH_MEASURE(1.0E-006),#354);
#227=CARTESIAN_POINT('',(-6.0,-7.34763812293426E-016,-0.600000000000001));
#228=POINT_STYLE(' ',#355,POSITIVE_LENGTH_MEASURE(1.0E-006),#356);
#229=CARTESIAN_POINT('',(-6.0,0.0,-58.0));
#230=CURVE_STYLE('',#357,POSITIVE_LENGTH_MEASURE(1.0E-006),#358);
#231=LINE('',#359,#360);
#232=SURFACE_STYLE_USAGE(.BOTH.,#361);
#233=CLOSED_SHELL('',(#119,#149,#105,#107,#161,#87));
#234=SURFACE_STYLE_USAGE(.BOTH.,#362);
#235=FACE_OUTER_BOUND('',#363,.T.);
#236=SPHERICAL_SURFACE('',#364,5.99999999999999);
#237=SURFACE_STYLE_USAGE(.BOTH.,#365);
#238=FACE_OUTER_BOUND('',#366,.T.);
#239=CYLINDRICAL_SURFACE('',#367,6.0);
#240=CURVE_STYLE('',#368,POSITIVE_LENGTH_MEASURE(1.0E-006),#369);
#241=LINE('',#370,#371);
#242=POINT_STYLE(' ',#372,POSITIVE_LENGTH_MEASURE(1.0E-006),#373);
#243=CARTESIAN_POINT('',(6.61287431064084E-016,-5.4,0.0));
#244=CURVE_STYLE('',#374,POSITIVE_LENGTH_MEASURE(1.0E-006),#375);
#245=CIRCLE('',#376,6.0);
#246=POINT_STYLE(' ',#377,POSITIVE_LENGTH_MEASURE(1.0E-006),#378);
#247=CARTESIAN_POINT('',(6.0,7.34763812293426E-016,-58.0));
#248=SURFACE_STYLE_USAGE(.BOTH.,#379);
#249=FACE_OUTER_BOUND('',#380,.T.);
#250=CYLINDRICAL_SURFACE('',#381,6.0);
#251=POINT_STYLE(' ',#382,POSITIVE_LENGTH_MEASURE(1.0E-006),#383);
#252=CARTESIAN_POINT('',(3.0,5.19615242270663,-74.0));
#253=POINT_STYLE(' ',#384,POSITIVE_LENGTH_MEASURE(1.0E-006),#385);
#254=CARTESIAN_POINT('',(-3.0,-5.19615242270663,-74.0));
#255=POINT_STYLE(' ',#386,POSITIVE_LENGTH_MEASURE(1.0E-006),#387);
#256=CARTESIAN_POINT('',(-1.74027029774831E-030,6.0,-74.0));
#257=POINT_STYLE(' ',#388,POSITIVE_LENGTH_MEASURE(1.0E-006),#389);
#258=CARTESIAN_POINT('',(0.0,5.4,0.0));
#259=CURVE_STYLE('',#390,POSITIVE_LENGTH_MEASURE(1.0E-006),#391);
#260=CIRCLE('',#392,6.0);
#261=CURVE_STYLE('',#393,POSITIVE_LENGTH_MEASURE(1.0E-006),#394);
#262=CIRCLE('',#395,6.0);
#263=CURVE_STYLE('',#396,POSITIVE_LENGTH_MEASURE(1.0E-006),#397);
#264=LINE('',#398,#399);
#265=SURFACE_STYLE_USAGE(.BOTH.,#400);
#266=FACE_OUTER_BOUND('',#401,.T.);
#267=SPHERICAL_SURFACE('',#402,5.99999999999999);
#268=CURVE_STYLE('',#403,POSITIVE_LENGTH_MEASURE(1.0E-006),#404);
#269=CIRCLE('',#405,6.0);
#270=SURFACE_STYLE_USAGE(.BOTH.,#406);
#271=FACE_OUTER_BOUND('',#407,.T.);
#272=CONICAL_SURFACE('',#408,5.7,0.785398163397447);
#273=CURVE_STYLE('',#409,POSITIVE_LENGTH_MEASURE(1.0E-006),#410);
#274=LINE('',#411,#412);
#275=CURVE_STYLE('',#413,POSITIVE_LENGTH_MEASURE(1.0E-006),#414);
#276=CIRCLE('',#415,6.0);
#277=SURFACE_STYLE_USAGE(.BOTH.,#416);
#278=FACE_OUTER_BOUND('',#417,.T.);
#279=CYLINDRICAL_SURFACE('',#418,6.0);
#280=CURVE_STYLE('',#419,POSITIVE_LENGTH_MEASURE(1.0E-006),#420);
#281=CIRCLE('',#421,6.0);
#282=SURFACE_STYLE_USAGE(.BOTH.,#422);
#283=FACE_OUTER_BOUND('',#423,.T.);
#284=PLANE('',#424);
#285=SURFACE_STYLE_USAGE(.BOTH.,#425);
#286=FACE_OUTER_BOUND('',#426,.T.);
#287=CYLINDRICAL_SURFACE('',#427,6.0);
#288=POINT_STYLE(' ',#428,POSITIVE_LENGTH_MEASURE(1.0E-006),#429);
#289=CARTESIAN_POINT('',(6.0,7.34763812293426E-016,-0.600000000000001));
#290=CURVE_STYLE('',#430,POSITIVE_LENGTH_MEASURE(1.0E-006),#431);
#291=CIRCLE('',#432,6.0);
#292=CURVE_STYLE('',#433,POSITIVE_LENGTH_MEASURE(1.0E-006),#434);
#293=CIRCLE('',#435,6.0);
#294=POINT_STYLE(' ',#436,POSITIVE_LENGTH_MEASURE(1.0E-006),#437);
#295=CARTESIAN_POINT('',(7.34763812293426E-016,-6.0,-0.600000000000001));
#296=CURVE_STYLE('',#438,POSITIVE_LENGTH_MEASURE(1.0E-006),#439);
#297=CIRCLE('',#440,5.4);
#298=POINT_STYLE(' ',#441,POSITIVE_LENGTH_MEASURE(1.0E-006),#442);
#299=CARTESIAN_POINT('',(-1.74027029774831E-030,-6.0,-74.0));
#300=POINT_STYLE(' ',#443,POSITIVE_LENGTH_MEASURE(1.0E-006),#444);
#301=CARTESIAN_POINT('',(3.0,5.19615242270663,-58.0));
#302=PRODUCT_CONTEXT('',#62,'mechanical');
#303=PRODUCT_DEFINITION_FORMATION_WITH_SPECIFIED_SOURCE(' ','NONE',#176,.NOT_KNOWN.);
#304=CARTESIAN_POINT('',(0.0,0.0,0.0));
#305=DIRECTION('',(0.0,0.0,1.0));
#306=DIRECTION('',(1.0,0.0,0.0));
#307=PRODUCT_CONTEXT('',#67,'mechanical');
#308=PRODUCT_DEFINITION_FORMATION_WITH_SPECIFIED_SOURCE(' ','NONE',#179,.NOT_KNOWN.);
#309=CARTESIAN_POINT('',(0.0,0.0,0.0));
#310=DIRECTION('',(0.0,0.0,1.0));
#311=DIRECTION('',(1.0,0.0,0.0));
#312= (NAMED_UNIT(#187)LENGTH_UNIT()SI_UNIT(.MILLI.,.METRE.));
#313=DRAUGHTING_PRE_DEFINED_CURVE_FONT('continuous');
#314=COLOUR_RGB('',0.498039215803146,0.498039215803146,0.498039215803146);
#315=AXIS2_PLACEMENT_3D('',#446,#447,#448);
#316=DRAUGHTING_PRE_DEFINED_CURVE_FONT('continuous');
#317=COLOUR_RGB('',0.800000011920929,0.800000011920929,0.800000011920929);
#318=CARTESIAN_POINT('',(3.0,5.19615242270663,-66.0));
#319=VECTOR('',#449,1.0);
#320=PRE_DEFINED_MARKER('');
#321=COLOUR_RGB('',0.498039215803146,0.498039215803146,0.498039215803146);
#322=SURFACE_SIDE_STYLE('',(#450));
#323=EDGE_LOOP('',(#451,#452));
#324=AXIS2_PLACEMENT_3D('',#453,#454,#455);
#325=DRAUGHTING_PRE_DEFINED_CURVE_FONT('continuous');
#326=COLOUR_RGB('',0.800000011920929,0.800000011920929,0.800000011920929);
#327=AXIS2_PLACEMENT_3D('',#456,#457,#458);
#328=DRAUGHTING_PRE_DEFINED_CURVE_FONT('continuous');
#329=COLOUR_RGB('',0.498039215803146,0.498039215803146,0.498039215803146);
#330=AXIS2_PLACEMENT_3D('',#459,#460,#461);
#331=DRAUGHTING_PRE_DEFINED_CURVE_FONT('continuous');
#332=COLOUR_RGB('',0.498039215803146,0.498039215803146,0.498039215803146);
#333=AXIS2_PLACEMENT_3D('',#462,#463,#464);
#334=DRAUGHTING_PRE_DEFINED_CURVE_FONT('continuous');
#335=COLOUR_RGB('',0.800000011920929,0.800000011920929,0.800000011920929);
#336=AXIS2_PLACEMENT_3D('',#465,#466,#467);
#337=SURFACE_SIDE_STYLE('',(#468));
#338=DRAUGHTING_PRE_DEFINED_CURVE_FONT('continuous');
#339=COLOUR_RGB('',0.498039215803146,0.498039215803146,0.498039215803146);
#340=AXIS2_PLACEMENT_3D('',#469,#470,#471);
#341=DRAUGHTING_PRE_DEFINED_CURVE_FONT('continuous');
#342=COLOUR_RGB('',0.800000011920929,0.800000011920929,0.800000011920929);
#343=CARTESIAN_POINT('',(-3.0,-5.19615242270663,-66.0));
#344=VECTOR('',#472,1.0);
#345=PRE_DEFINED_MARKER('');
#346=COLOUR_RGB('',0.800000011920929,0.800000011920929,0.800000011920929);
#347=SURFACE_SIDE_STYLE('',(#473));
#348=EDGE_LOOP('',(#474,#475));
#349=AXIS2_PLACEMENT_3D('',#476,#477,#478);
#350=SURFACE_SIDE_STYLE('',(#479));
#351=EDGE_LOOP('',(#480,#481,#482,#483,#484));
#352=AXIS2_PLACEMENT_3D('',#485,#486,#487);
#353=PRE_DEFINED_MARKER('');
#354=COLOUR_RGB('',0.498039215803146,0.498039215803146,0.498039215803146);
#355=PRE_DEFINED_MARKER('');
#356=COLOUR_RGB('',0.498039215803146,0.498039215803146,0.498039215803146);
#357=DRAUGHTING_PRE_DEFINED_CURVE_FONT('continuous');
#358=COLOUR_RGB('',0.498039215803146,0.498039215803146,0.498039215803146);
#359=CARTESIAN_POINT('',(6.0,7.34763812293426E-016,-51.5));
#360=VECTOR('',#488,1.0);
#361=SURFACE_SIDE_STYLE('',(#489));
#362=SURFACE_SIDE_STYLE('',(#490));
#363=EDGE_LOOP('',(#491,#492,#493));
#364=AXIS2_PLACEMENT_3D('',#494,#495,#496);
#365=SURFACE_SIDE_STYLE('',(#497));
#366=EDGE_LOOP('',(#498,#499,#500,#501,#502));
#367=AXIS2_PLACEMENT_3D('',#503,#504,#505);
#368=DRAUGHTING_PRE_DEFINED_CURVE_FONT('continuous');
#369=COLOUR_RGB('',0.498039215803146,0.498039215803146,0.498039215803146);
#370=CARTESIAN_POINT('',(-6.0,-7.34763812293426E-016,-51.5));
#371=VECTOR('',#506,1.0);
#372=PRE_DEFINED_MARKER('');
#373=COLOUR_RGB('',0.498039215803146,0.498039215803146,0.498039215803146);
#374=DRAUGHTING_PRE_DEFINED_CURVE_FONT('continuous');
#375=COLOUR_RGB('',0.498039215803146,0.498039215803146,0.498039215803146);
#376=AXIS2_PLACEMENT_3D('',#507,#508,#509);
#377=PRE_DEFINED_MARKER('');
#378=COLOUR_RGB('',0.498039215803146,0.498039215803146,0.498039215803146);
#379=SURFACE_SIDE_STYLE('',(#510));
#380=EDGE_LOOP('',(#511,#512,#513,#514,#515));
#381=AXIS2_PLACEMENT_3D('',#516,#517,#518);
#382=PRE_DEFINED_MARKER('');
#383=COLOUR_RGB('',0.800000011920929,0.800000011920929,0.800000011920929);
#384=PRE_DEFINED_MARKER('');
#385=COLOUR_RGB('',0.800000011920929,0.800000011920929,0.800000011920929);
#386=PRE_DEFINED_MARKER('');
#387=COLOUR_RGB('',0.800000011920929,0.800000011920929,0.800000011920929);
#388=PRE_DEFINED_MARKER('');
#389=COLOUR_RGB('',0.498039215803146,0.498039215803146,0.498039215803146);
#390=DRAUGHTING_PRE_DEFINED_CURVE_FONT('continuous');
#391=COLOUR_RGB('',0.800000011920929,0.800000011920929,0.800000011920929);
#392=AXIS2_PLACEMENT_3D('',#519,#520,#521);
#393=DRAUGHTING_PRE_DEFINED_CURVE_FONT('continuous');
#394=COLOUR_RGB('',0.800000011920929,0.800000011920929,0.800000011920929);
#395=AXIS2_PLACEMENT_3D('',#522,#523,#524);
#396=DRAUGHTING_PRE_DEFINED_CURVE_FONT('continuous');
#397=COLOUR_RGB('',0.498039215803146,0.498039215803146,0.498039215803146);
#398=CARTESIAN_POINT('',(-6.98025621678755E-016,5.7,-0.300000000000004));
#399=VECTOR('',#525,1.0);
#400=SURFACE_SIDE_STYLE('',(#526));
#401=EDGE_LOOP('',(#527,#528,#529));
#402=AXIS2_PLACEMENT_3D('',#530,#531,#532);
#403=DRAUGHTING_PRE_DEFINED_CURVE_FONT('continuous');
#404=COLOUR_RGB('',0.800000011920929,0.800000011920929,0.800000011920929);
#405=AXIS2_PLACEMENT_3D('',#533,#534,#535);
#406=SURFACE_SIDE_STYLE('',(#536));
#407=EDGE_LOOP('',(#537,#538,#539,#540,#541));
#408=AXIS2_PLACEMENT_3D('',#542,#543,#544);
#409=DRAUGHTING_PRE_DEFINED_CURVE_FONT('continuous');
#410=COLOUR_RGB('',0.498039215803146,0.498039215803146,0.498039215803146);
#411=CARTESIAN_POINT('',(6.98025621678755E-016,-5.7,-0.300000000000004));
#412=VECTOR('',#545,1.0);
#413=DRAUGHTING_PRE_DEFINED_CURVE_FONT('continuous');
#414=COLOUR_RGB('',0.498039215803146,0.498039215803146,0.498039215803146);
#415=AXIS2_PLACEMENT_3D('',#546,#547,#548);
#416=SURFACE_SIDE_STYLE('',(#549));
#417=EDGE_LOOP('',(#550,#551,#552,#553,#554));
#418=AXIS2_PLACEMENT_3D('',#555,#556,#557);
#419=DRAUGHTING_PRE_DEFINED_CURVE_FONT('continuous');
#420=COLOUR_RGB('',0.800000011920929,0.800000011920929,0.800000011920929);
#421=AXIS2_PLACEMENT_3D('',#558,#559,#560);
#422=SURFACE_SIDE_STYLE('',(#561));
#423=EDGE_LOOP('',(#562,#563));
#424=AXIS2_PLACEMENT_3D('',#564,#565,#566);
#425=SURFACE_SIDE_STYLE('',(#567));
#426=EDGE_LOOP('',(#568,#569,#570,#571,#572));
#427=AXIS2_PLACEMENT_3D('',#573,#574,#575);
#428=PRE_DEFINED_MARKER('');
#429=COLOUR_RGB('',0.498039215803146,0.498039215803146,0.498039215803146);
#430=DRAUGHTING_PRE_DEFINED_CURVE_FONT('continuous');
#431=COLOUR_RGB('',0.800000011920929,0.800000011920929,0.800000011920929);
#432=AXIS2_PLACEMENT_3D('',#576,#577,#578);
#433=DRAUGHTING_PRE_DEFINED_CURVE_FONT('continuous');
#434=COLOUR_RGB('',0.498039215803146,0.498039215803146,0.498039215803146);
#435=AXIS2_PLACEMENT_3D('',#579,#580,#581);
#436=PRE_DEFINED_MARKER('');
#437=COLOUR_RGB('',0.498039215803146,0.498039215803146,0.498039215803146);
#438=DRAUGHTING_PRE_DEFINED_CURVE_FONT('continuous');
#439=COLOUR_RGB('',0.498039215803146,0.498039215803146,0.498039215803146);
#440=AXIS2_PLACEMENT_3D('',#582,#583,#584);
#441=PRE_DEFINED_MARKER('');
#442=COLOUR_RGB('',0.800000011920929,0.800000011920929,0.800000011920929);
#443=PRE_DEFINED_MARKER('');
#444=COLOUR_RGB('',0.800000011920929,0.800000011920929,0.800000011920929);
#446=CARTESIAN_POINT('',(0.0,0.0,-0.600000000000001));
#447=DIRECTION('',(0.0,0.0,-1.0));
#448=DIRECTION('',(0.0,1.0,0.0));
#449=DIRECTION('',(0.0,0.0,-1.0));
#450=SURFACE_STYLE_FILL_AREA(#585);
#451=ORIENTED_EDGE('',*,*,#153,.T.);
#452=ORIENTED_EDGE('',*,*,#125,.T.);
#453=CARTESIAN_POINT('',(-3.0,0.0,-58.0));
#454=DIRECTION('',(0.0,0.0,-1.0));
#455=DIRECTION('',(-1.0,0.0,0.0));
#456=CARTESIAN_POINT('',(0.0,0.0,-74.0));
#457=DIRECTION('',(0.0,0.0,-1.0));
#458=DIRECTION('',(0.5,0.866025403784439,0.0));
#459=CARTESIAN_POINT('',(0.0,0.0,-0.600000000000001));
#460=DIRECTION('',(0.0,0.0,-1.0));
#461=DIRECTION('',(0.0,1.0,0.0));
#462=CARTESIAN_POINT('',(0.0,0.0,0.0));
#463=DIRECTION('',(0.0,0.0,-1.0));
#464=DIRECTION('',(0.0,1.0,0.0));
#465=CARTESIAN_POINT('',(0.0,0.0,-74.0));
#466=DIRECTION('',(1.0,0.0,1.22460635382238E-016));
#467=DIRECTION('',(-1.22460635382238E-016,0.0,1.0));
#468=SURFACE_STYLE_FILL_AREA(#586);
#469=CARTESIAN_POINT('',(0.0,0.0,-0.600000000000001));
#470=DIRECTION('',(0.0,0.0,-1.0));
#471=DIRECTION('',(0.0,1.0,0.0));
#472=DIRECTION('',(-0.0,-0.0,1.0));
#473=SURFACE_STYLE_FILL_AREA(#587);
#474=ORIENTED_EDGE('',*,*,#93,.F.);
#475=ORIENTED_EDGE('',*,*,#171,.F.);
#476=CARTESIAN_POINT('',(0.0,2.7,0.0));
#477=DIRECTION('',(-0.0,0.0,1.0));
#478=DIRECTION('',(0.0,-1.0,0.0));
#479=SURFACE_STYLE_FILL_AREA(#588);
#480=ORIENTED_EDGE('',*,*,#143,.T.);
#481=ORIENTED_EDGE('',*,*,#99,.F.);
#482=ORIENTED_EDGE('',*,*,#81,.F.);
#483=ORIENTED_EDGE('',*,*,#151,.T.);
#484=ORIENTED_EDGE('',*,*,#171,.T.);
#485=CARTESIAN_POINT('',(0.0,0.0,-0.300000000000004));
#486=DIRECTION('',(0.0,-0.0,-1.0));
#487=DIRECTION('',(0.0,1.0,0.0));
#488=DIRECTION('',(-0.0,-0.0,1.0));
#489=SURFACE_STYLE_FILL_AREA(#589);
#490=SURFACE_STYLE_FILL_AREA(#590);
#491=ORIENTED_EDGE('',*,*,#95,.F.);
#492=ORIENTED_EDGE('',*,*,#89,.T.);
#493=ORIENTED_EDGE('',*,*,#147,.T.);
#494=CARTESIAN_POINT('',(0.0,0.0,-74.0));
#495=DIRECTION('',(0.0,1.0,0.0));
#496=DIRECTION('',(0.0,0.0,-1.0));
#497=SURFACE_STYLE_FILL_AREA(#591);
#498=ORIENTED_EDGE('',*,*,#121,.F.);
#499=ORIENTED_EDGE('',*,*,#99,.T.);
#500=ORIENTED_EDGE('',*,*,#167,.T.);
#501=ORIENTED_EDGE('',*,*,#113,.F.);
#502=ORIENTED_EDGE('',*,*,#153,.F.);
#503=CARTESIAN_POINT('',(0.0,0.0,-51.5));
#504=DIRECTION('',(-0.0,-0.0,1.0));
#505=DIRECTION('',(-1.0,0.0,0.0));
#506=DIRECTION('',(0.0,0.0,-1.0));
#507=CARTESIAN_POINT('',(0.0,0.0,-58.0));
#508=DIRECTION('',(0.0,0.0,-1.0));
#509=DIRECTION('',(-1.0,0.0,0.0));
#510=SURFACE_STYLE_FILL_AREA(#592);
#511=ORIENTED_EDGE('',*,*,#83,.T.);
#512=ORIENTED_EDGE('',*,*,#141,.F.);
#513=ORIENTED_EDGE('',*,*,#147,.F.);
#514=ORIENTED_EDGE('',*,*,#101,.T.);
#515=ORIENTED_EDGE('',*,*,#165,.T.);
#516=CARTESIAN_POINT('',(0.0,0.0,-66.0));
#517=DIRECTION('',(-0.0,-0.0,1.0));
#518=DIRECTION('',(0.5,0.866025403784439,0.0));
#519=CARTESIAN_POINT('',(0.0,0.0,-58.0));
#520=DIRECTION('',(0.0,0.0,-1.0));
#521=DIRECTION('',(0.5,0.866025403784439,0.0));
#522=CARTESIAN_POINT('',(0.0,0.0,-74.0));
#523=DIRECTION('',(0.0,0.0,-1.0));
#524=DIRECTION('',(0.5,0.866025403784439,0.0));
#525=DIRECTION('',(-8.65927457071934E-017,0.707106781186546,-0.707106781186549));
#526=SURFACE_STYLE_FILL_AREA(#593);
#527=ORIENTED_EDGE('',*,*,#95,.T.);
#528=ORIENTED_EDGE('',*,*,#141,.T.);
#529=ORIENTED_EDGE('',*,*,#157,.T.);
#530=CARTESIAN_POINT('',(0.0,0.0,-74.0));
#531=DIRECTION('',(0.0,1.0,0.0));
#532=DIRECTION('',(0.0,0.0,-1.0));
#533=CARTESIAN_POINT('',(0.0,0.0,-74.0));
#534=DIRECTION('',(0.0,0.0,-1.0));
#535=DIRECTION('',(0.5,0.866025403784439,0.0));
#536=SURFACE_STYLE_FILL_AREA(#594);
#537=ORIENTED_EDGE('',*,*,#143,.F.);
#538=ORIENTED_EDGE('',*,*,#93,.T.);
#539=ORIENTED_EDGE('',*,*,#151,.F.);
#540=ORIENTED_EDGE('',*,*,#91,.F.);
#541=ORIENTED_EDGE('',*,*,#167,.F.);
#542=CARTESIAN_POINT('',(0.0,0.0,-0.300000000000004));
#543=DIRECTION('',(0.0,-0.0,-1.0));
#544=DIRECTION('',(0.0,1.0,0.0));
#545=DIRECTION('',(-8.65927457071934E-017,0.707106781186546,0.707106781186549));
#546=CARTESIAN_POINT('',(0.0,0.0,-58.0));
#547=DIRECTION('',(0.0,0.0,-1.0));
#548=DIRECTION('',(-1.0,0.0,0.0));
#549=SURFACE_STYLE_FILL_AREA(#595);
#550=ORIENTED_EDGE('',*,*,#83,.F.);
#551=ORIENTED_EDGE('',*,*,#139,.T.);
#552=ORIENTED_EDGE('',*,*,#101,.F.);
#553=ORIENTED_EDGE('',*,*,#89,.F.);
#554=ORIENTED_EDGE('',*,*,#157,.F.);
#555=CARTESIAN_POINT('',(0.0,0.0,-66.0));
#556=DIRECTION('',(-0.0,-0.0,1.0));
#557=DIRECTION('',(0.5,0.866025403784439,0.0));
#558=CARTESIAN_POINT('',(0.0,0.0,-74.0));
#559=DIRECTION('',(0.0,0.0,-1.0));
#560=DIRECTION('',(0.5,0.866025403784439,0.0));
#561=SURFACE_STYLE_FILL_AREA(#596);
#562=ORIENTED_EDGE('',*,*,#139,.F.);
#563=ORIENTED_EDGE('',*,*,#165,.F.);
#564=CARTESIAN_POINT('',(1.5,2.59807621135332,-58.0));
#565=DIRECTION('',(0.0,0.0,1.0));
#566=DIRECTION('',(-0.5,-0.866025403784439,0.0));
#567=SURFACE_STYLE_FILL_AREA(#597);
#568=ORIENTED_EDGE('',*,*,#121,.T.);
#569=ORIENTED_EDGE('',*,*,#125,.F.);
#570=ORIENTED_EDGE('',*,*,#113,.T.);
#571=ORIENTED_EDGE('',*,*,#91,.T.);
#572=ORIENTED_EDGE('',*,*,#81,.T.);
#573=CARTESIAN_POINT('',(0.0,0.0,-51.5));
#574=DIRECTION('',(-0.0,-0.0,1.0));
#575=DIRECTION('',(-1.0,0.0,0.0));
#576=CARTESIAN_POINT('',(0.0,0.0,-58.0));
#577=DIRECTION('',(0.0,0.0,-1.0));
#578=DIRECTION('',(0.5,0.866025403784439,0.0));
#579=CARTESIAN_POINT('',(0.0,0.0,-0.600000000000001));
#580=DIRECTION('',(0.0,0.0,-1.0));
#581=DIRECTION('',(0.0,1.0,0.0));
#582=CARTESIAN_POINT('',(0.0,0.0,0.0));
#583=DIRECTION('',(0.0,0.0,-1.0));
#584=DIRECTION('',(0.0,1.0,0.0));
#585=FILL_AREA_STYLE('',(#598));
#586=FILL_AREA_STYLE('',(#599));
#587=FILL_AREA_STYLE('',(#600));
#588=FILL_AREA_STYLE('',(#601));
#589=FILL_AREA_STYLE('',(#602));
#590=FILL_AREA_STYLE('',(#603));
#591=FILL_AREA_STYLE('',(#604));
#592=FILL_AREA_STYLE('',(#605));
#593=FILL_AREA_STYLE('',(#606));
#594=FILL_AREA_STYLE('',(#607));
#595=FILL_AREA_STYLE('',(#608));
#596=FILL_AREA_STYLE('',(#609));
#597=FILL_AREA_STYLE('',(#610));
#598=FILL_AREA_STYLE_COLOUR('',#611);
#599=FILL_AREA_STYLE_COLOUR('',#612);
#600=FILL_AREA_STYLE_COLOUR('',#613);
#601=FILL_AREA_STYLE_COLOUR('',#614);
#602=FILL_AREA_STYLE_COLOUR('',#615);
#603=FILL_AREA_STYLE_COLOUR('',#616);
#604=FILL_AREA_STYLE_COLOUR('',#617);
#605=FILL_AREA_STYLE_COLOUR('',#618);
#606=FILL_AREA_STYLE_COLOUR('',#619);
#607=FILL_AREA_STYLE_COLOUR('',#620);
#608=FILL_AREA_STYLE_COLOUR('',#621);
#609=FILL_AREA_STYLE_COLOUR('',#622);
#610=FILL_AREA_STYLE_COLOUR('',#623);
#611=COLOUR_RGB('',0.498039215803146,0.498039215803146,0.498039215803146);
#612=COLOUR_RGB('',0.800000011920929,0.800000011920929,0.800000011920929);
#613=COLOUR_RGB('',0.498039215803146,0.498039215803146,0.498039215803146);
#614=COLOUR_RGB('',0.498039215803146,0.498039215803146,0.498039215803146);
#615=COLOUR_RGB('',0.498039215803146,0.498039215803146,0.498039215803146);
#616=COLOUR_RGB('',0.800000011920929,0.800000011920929,0.800000011920929);
#617=COLOUR_RGB('',0.498039215803146,0.498039215803146,0.498039215803146);
#618=COLOUR_RGB('',0.800000011920929,0.800000011920929,0.800000011920929);
#619=COLOUR_RGB('',0.800000011920929,0.800000011920929,0.800000011920929);
#620=COLOUR_RGB('',0.498039215803146,0.498039215803146,0.498039215803146);
#621=COLOUR_RGB('',0.800000011920929,0.800000011920929,0.800000011920929);
#622=COLOUR_RGB('',0.800000011920929,0.800000011920929,0.800000011920929);
#623=COLOUR_RGB('',0.498039215803146,0.498039215803146,0.498039215803146);
#624=AXIS2_PLACEMENT_3D('PCS',#625,#626,#627);
#625=CARTESIAN_POINT('',(0.0,0.0,0.0));
#626=DIRECTION('',(0.0,0.0,1.0));
#627=DIRECTION('',(1.0,0.0,0.0));
#628=AXIS2_PLACEMENT_3D('MCS',#629,#630,#631);
#629=CARTESIAN_POINT('',(0.0,0.0,-45.0));
#630=DIRECTION('',(0.0,0.0,1.0));
#631=DIRECTION('',(1.0,0.0,0.0));
#632=AXIS2_PLACEMENT_3D('CIP',#633,#634,#635);
#633=CARTESIAN_POINT('',(0.0,0.0,-80.0));
#634=DIRECTION('',(0.0,0.0,1.0));
#635=DIRECTION('',(1.0,0.0,0.0));
#636=CONSTRUCTIVE_GEOMETRY_REPRESENTATION_RELATIONSHIP('coordinate systems',$,#66,#637);
#637=CONSTRUCTIVE_GEOMETRY_REPRESENTATION('coordinate systems',(#624,#628,#632),#10);
ENDSEC;
END-ISO-10303-21;
