ISO-10303-21;
HEADER;
FILE_DESCRIPTION(('no description'),'unknown implementation level');
FILE_NAME('8518116.stp','  ',('CIM GmbH Aachen'),('CADClick - KiM GmbH - www.kimweb.de'),'unknown preprocess','ACIS','unknown authorization');
FILE_SCHEMA(('automotive_design'));
ENDSEC;
DATA;
#1=MECHANICAL_DESIGN_GEOMETRIC_PRESENTATION_REPRESENTATION(' ',(#14,#15,#16,#17,#18,#19,#20,#21,#22,#23,#24,#25,#26,#27,#28,#29,#30,#31,#32,#33,#34,#35,#36,#37,#38,#39,#40,#41,#42,#43,#44,#45,#46,#47,#48,#49,#50,#51,#52,#53,#54,#55,#56,#57,#58,#59,#60,#61),#10);
#2=PRODUCT_DEFINITION_CONTEXT('',#62,'design');
#3=APPLICATION_PROTOCOL_DEFINITION('INTERNATIONAL STANDARD','automotive_design',1994,#62);
#4=PRODUCT_CATEGORY_RELATIONSHIP('NONE','NONE',#63,#64);
#5=SHAPE_DEFINITION_REPRESENTATION(#65,#66);
#6=PRODUCT_DEFINITION_CONTEXT('',#67,'design');
#7=APPLICATION_PROTOCOL_DEFINITION('INTERNATIONAL STANDARD','automotive_design',1994,#67);
#8=PRODUCT_CATEGORY_RELATIONSHIP('NONE','NONE',#68,#69);
#9=SHAPE_DEFINITION_REPRESENTATION(#70,#71);
#10= (GEOMETRIC_REPRESENTATION_CONTEXT(3)GLOBAL_UNCERTAINTY_ASSIGNED_CONTEXT((#74))GLOBAL_UNIT_ASSIGNED_CONTEXT((#76,#77,#78))REPRESENTATION_CONTEXT('NONE','WORKSPACE'));
#14=STYLED_ITEM('',(#80),#81);
#15=STYLED_ITEM('',(#82),#83);
#16=STYLED_ITEM('',(#84),#85);
#17=STYLED_ITEM('',(#86),#87);
#18=STYLED_ITEM('',(#88),#89);
#19=STYLED_ITEM('',(#90),#91);
#20=STYLED_ITEM('',(#92),#93);
#21=STYLED_ITEM('',(#94),#95);
#22=STYLED_ITEM('',(#96),#97);
#23=STYLED_ITEM('',(#98),#99);
#24=STYLED_ITEM('',(#100),#101);
#25=STYLED_ITEM('',(#102),#103);
#26=STYLED_ITEM('',(#104),#105);
#27=STYLED_ITEM('',(#106),#107);
#28=STYLED_ITEM('',(#108),#109);
#29=STYLED_ITEM('',(#110),#111);
#30=STYLED_ITEM('',(#112),#113);
#31=STYLED_ITEM('',(#114),#115);
#32=STYLED_ITEM('',(#116),#117);
#33=STYLED_ITEM('',(#118),#119);
#34=STYLED_ITEM('',(#120),#121);
#35=STYLED_ITEM('',(#122),#123);
#36=STYLED_ITEM('',(#124),#125);
#37=STYLED_ITEM('',(#126),#127);
#38=STYLED_ITEM('',(#128),#129);
#39=STYLED_ITEM('',(#130),#131);
#40=STYLED_ITEM('',(#132),#133);
#41=STYLED_ITEM('',(#134),#135);
#42=STYLED_ITEM('',(#136),#137);
#43=STYLED_ITEM('',(#138),#139);
#44=STYLED_ITEM('',(#140),#141);
#45=STYLED_ITEM('',(#142),#143);
#46=STYLED_ITEM('',(#144),#145);
#47=STYLED_ITEM('',(#146),#147);
#48=STYLED_ITEM('',(#148),#149);
#49=STYLED_ITEM('',(#150),#151);
#50=STYLED_ITEM('',(#152),#153);
#51=STYLED_ITEM('',(#154),#155);
#52=STYLED_ITEM('',(#156),#157);
#53=STYLED_ITEM('',(#158),#159);
#54=STYLED_ITEM('',(#160),#161);
#55=STYLED_ITEM('',(#162),#163);
#56=STYLED_ITEM('',(#164),#165);
#57=STYLED_ITEM('',(#166),#167);
#58=STYLED_ITEM('',(#168),#169);
#59=STYLED_ITEM('',(#170),#171);
#60=STYLED_ITEM('',(#172),#173);
#61=STYLED_ITEM('',(#174),#175);
#62=APPLICATION_CONTEXT(' ');
#63=PRODUCT_CATEGORY('part','NONE');
#64=PRODUCT_RELATED_PRODUCT_CATEGORY('detail',' ',(#176));
#65=PRODUCT_DEFINITION_SHAPE('NONE','NONE',#177);
#66=ADVANCED_BREP_SHAPE_REPRESENTATION('1',(#119,#178),#10);
#67=APPLICATION_CONTEXT(' ');
#68=PRODUCT_CATEGORY('part','NONE');
#69=PRODUCT_RELATED_PRODUCT_CATEGORY('detail',' ',(#179));
#70=PRODUCT_DEFINITION_SHAPE('NONE','NONE',#180);
#71=ADVANCED_BREP_SHAPE_REPRESENTATION('2',(#131,#181),#10);
#74=UNCERTAINTY_MEASURE_WITH_UNIT(LENGTH_MEASURE(1.0E-006),#76,'','');
#76= (CONVERSION_BASED_UNIT('MILLIMETRE',#184)LENGTH_UNIT()NAMED_UNIT(#187));
#77= (NAMED_UNIT(#189)PLANE_ANGLE_UNIT()SI_UNIT($,.RADIAN.));
#78= (NAMED_UNIT(#189)SOLID_ANGLE_UNIT()SI_UNIT($,.STERADIAN.));
#80=PRESENTATION_STYLE_ASSIGNMENT((#195));
#81=VERTEX_POINT('',#196);
#82=PRESENTATION_STYLE_ASSIGNMENT((#197));
#83=ADVANCED_FACE('',(#198),#199,.T.);
#84=PRESENTATION_STYLE_ASSIGNMENT((#200));
#85=VERTEX_POINT('',#201);
#86=PRESENTATION_STYLE_ASSIGNMENT((#202));
#87=VERTEX_POINT('',#203);
#88=PRESENTATION_STYLE_ASSIGNMENT((#204));
#89=EDGE_CURVE('',#149,#81,#205,.T.);
#90=PRESENTATION_STYLE_ASSIGNMENT((#206));
#91=VERTEX_POINT('',#207);
#92=PRESENTATION_STYLE_ASSIGNMENT((#208));
#93=EDGE_CURVE('',#91,#167,#209,.T.);
#94=PRESENTATION_STYLE_ASSIGNMENT((#210));
#95=ADVANCED_FACE('',(#211),#212,.T.);
#96=PRESENTATION_STYLE_ASSIGNMENT((#213));
#97=EDGE_CURVE('',#107,#101,#214,.T.);
#98=PRESENTATION_STYLE_ASSIGNMENT((#215));
#99=EDGE_CURVE('',#101,#145,#216,.T.);
#100=PRESENTATION_STYLE_ASSIGNMENT((#217));
#101=VERTEX_POINT('',#218);
#102=PRESENTATION_STYLE_ASSIGNMENT((#219));
#103=VERTEX_POINT('',#220);
#104=PRESENTATION_STYLE_ASSIGNMENT((#221));
#105=EDGE_CURVE('',#145,#101,#222,.T.);
#106=PRESENTATION_STYLE_ASSIGNMENT((#223));
#107=VERTEX_POINT('',#224);
#108=PRESENTATION_STYLE_ASSIGNMENT((#225));
#109=EDGE_CURVE('',#165,#91,#226,.T.);
#110=PRESENTATION_STYLE_ASSIGNMENT((#227));
#111=ADVANCED_FACE('',(#228),#229,.T.);
#112=PRESENTATION_STYLE_ASSIGNMENT((#230));
#113=ADVANCED_FACE('',(#231),#232,.T.);
#114=PRESENTATION_STYLE_ASSIGNMENT((#233));
#115=VERTEX_POINT('',#234);
#116=PRESENTATION_STYLE_ASSIGNMENT((#235));
#117=EDGE_CURVE('',#85,#103,#236,.T.);
#118=PRESENTATION_STYLE_ASSIGNMENT((#237));
#119=MANIFOLD_SOLID_BREP('1',#238);
#120=PRESENTATION_STYLE_ASSIGNMENT((#239));
#121=EDGE_CURVE('',#141,#147,#240,.T.);
#122=PRESENTATION_STYLE_ASSIGNMENT((#241));
#123=EDGE_CURVE('',#141,#115,#242,.T.);
#124=PRESENTATION_STYLE_ASSIGNMENT((#243));
#125=EDGE_CURVE('',#91,#165,#244,.T.);
#126=PRESENTATION_STYLE_ASSIGNMENT((#245));
#127=EDGE_CURVE('',#115,#167,#246,.T.);
#128=PRESENTATION_STYLE_ASSIGNMENT((#247));
#129=ADVANCED_FACE('',(#248),#249,.T.);
#130=PRESENTATION_STYLE_ASSIGNMENT((#250));
#131=MANIFOLD_SOLID_BREP('2',#251);
#132=PRESENTATION_STYLE_ASSIGNMENT((#252));
#133=EDGE_CURVE('',#145,#87,#253,.T.);
#134=PRESENTATION_STYLE_ASSIGNMENT((#254));
#135=EDGE_CURVE('',#147,#115,#255,.T.);
#136=PRESENTATION_STYLE_ASSIGNMENT((#256));
#137=ADVANCED_FACE('',(#257),#258,.T.);
#138=PRESENTATION_STYLE_ASSIGNMENT((#259));
#139=EDGE_CURVE('',#85,#87,#260,.T.);
#140=PRESENTATION_STYLE_ASSIGNMENT((#261));
#141=VERTEX_POINT('',#262);
#142=PRESENTATION_STYLE_ASSIGNMENT((#263));
#143=EDGE_CURVE('',#107,#85,#264,.T.);
#144=PRESENTATION_STYLE_ASSIGNMENT((#265));
#145=VERTEX_POINT('',#266);
#146=PRESENTATION_STYLE_ASSIGNMENT((#267));
#147=VERTEX_POINT('',#268);
#148=PRESENTATION_STYLE_ASSIGNMENT((#269));
#149=VERTEX_POINT('',#270);
#150=PRESENTATION_STYLE_ASSIGNMENT((#271));
#151=ADVANCED_FACE('',(#272),#273,.T.);
#152=PRESENTATION_STYLE_ASSIGNMENT((#274));
#153=EDGE_CURVE('',#87,#81,#275,.T.);
#154=PRESENTATION_STYLE_ASSIGNMENT((#276));
#155=ADVANCED_FACE('',(#277),#278,.T.);
#156=PRESENTATION_STYLE_ASSIGNMENT((#279));
#157=EDGE_CURVE('',#103,#149,#280,.T.);
#158=PRESENTATION_STYLE_ASSIGNMENT((#281));
#159=EDGE_CURVE('',#81,#107,#282,.T.);
#160=PRESENTATION_STYLE_ASSIGNMENT((#283));
#161=EDGE_CURVE('',#149,#103,#284,.T.);
#162=PRESENTATION_STYLE_ASSIGNMENT((#285));
#163=ADVANCED_FACE('',(#286),#287,.T.);
#164=PRESENTATION_STYLE_ASSIGNMENT((#288));
#165=VERTEX_POINT('',#289);
#166=PRESENTATION_STYLE_ASSIGNMENT((#290));
#167=VERTEX_POINT('',#291);
#168=PRESENTATION_STYLE_ASSIGNMENT((#292));
#169=EDGE_CURVE('',#167,#141,#293,.T.);
#170=PRESENTATION_STYLE_ASSIGNMENT((#294));
#171=EDGE_CURVE('',#147,#165,#295,.T.);
#172=PRESENTATION_STYLE_ASSIGNMENT((#296));
#173=ADVANCED_FACE('',(#297),#298,.T.);
#174=PRESENTATION_STYLE_ASSIGNMENT((#299));
#175=ADVANCED_FACE('',(#300),#301,.T.);
#176=PRODUCT('1','1','PART-1-DESC',(#302));
#177=PRODUCT_DEFINITION('NONE','NONE',#303,#2);
#178=AXIS2_PLACEMENT_3D('',#304,#305,#306);
#179=PRODUCT('2','2','PART-2-DESC',(#307));
#180=PRODUCT_DEFINITION('NONE','NONE',#308,#6);
#181=AXIS2_PLACEMENT_3D('',#309,#310,#311);
#184=LENGTH_MEASURE_WITH_UNIT(LENGTH_MEASURE(1.0),#312);
#187=DIMENSIONAL_EXPONENTS(1.0,0.0,0.0,0.0,0.0,0.0,0.0);
#189=DIMENSIONAL_EXPONENTS(0.0,0.0,0.0,0.0,0.0,0.0,0.0);
#195=POINT_STYLE(' ',#313,POSITIVE_LENGTH_MEASURE(1.0E-006),#314);
#196=CARTESIAN_POINT('',(8.0,9.79685083057902E-016,-0.799999999999997));
#197=SURFACE_STYLE_USAGE(.BOTH.,#315);
#198=FACE_OUTER_BOUND('',#316,.T.);
#199=CYLINDRICAL_SURFACE('',#317,8.0);
#200=POINT_STYLE(' ',#318,POSITIVE_LENGTH_MEASURE(1.0E-006),#319);
#201=CARTESIAN_POINT('',(-8.0,-9.79685083057902E-016,-0.799999999999997));
#202=POINT_STYLE(' ',#320,POSITIVE_LENGTH_MEASURE(1.0E-006),#321);
#203=CARTESIAN_POINT('',(0.0,8.0,-0.799999999999997));
#204=CURVE_STYLE('',#322,POSITIVE_LENGTH_MEASURE(1.0E-006),#323);
#205=LINE('',#324,#325);
#206=POINT_STYLE(' ',#326,POSITIVE_LENGTH_MEASURE(1.0E-006),#327);
#207=CARTESIAN_POINT('',(4.0,6.92820323027551,-70.0));
#208=CURVE_STYLE('',#328,POSITIVE_LENGTH_MEASURE(1.0E-006),#329);
#209=LINE('',#330,#331);
#210=SURFACE_STYLE_USAGE(.BOTH.,#332);
#211=FACE_OUTER_BOUND('',#333,.T.);
#212=CONICAL_SURFACE('',#334,7.6,0.78539816339745);
#213=CURVE_STYLE('',#335,POSITIVE_LENGTH_MEASURE(1.0E-006),#336);
#214=LINE('',#337,#338);
#215=CURVE_STYLE('',#339,POSITIVE_LENGTH_MEASURE(1.0E-006),#340);
#216=CIRCLE('',#341,7.2);
#217=POINT_STYLE(' ',#342,POSITIVE_LENGTH_MEASURE(1.0E-006),#343);
#218=CARTESIAN_POINT('',(8.81716574752112E-016,-7.2,0.0));
#219=POINT_STYLE(' ',#344,POSITIVE_LENGTH_MEASURE(1.0E-006),#345);
#220=CARTESIAN_POINT('',(-8.0,0.0,-70.0));
#221=CURVE_STYLE('',#346,POSITIVE_LENGTH_MEASURE(1.0E-006),#347);
#222=CIRCLE('',#348,7.2);
#223=POINT_STYLE(' ',#349,POSITIVE_LENGTH_MEASURE(1.0E-006),#350);
#224=CARTESIAN_POINT('',(9.79685083057902E-016,-8.0,-0.799999999999997));
#225=CURVE_STYLE('',#351,POSITIVE_LENGTH_MEASURE(1.0E-006),#352);
#226=CIRCLE('',#353,8.0);
#227=SURFACE_STYLE_USAGE(.BOTH.,#354);
#228=FACE_OUTER_BOUND('',#355,.T.);
#229=SPHERICAL_SURFACE('',#356,8.00000000000001);
#230=SURFACE_STYLE_USAGE(.BOTH.,#357);
#231=FACE_OUTER_BOUND('',#358,.T.);
#232=CYLINDRICAL_SURFACE('',#359,8.0);
#233=POINT_STYLE(' ',#360,POSITIVE_LENGTH_MEASURE(1.0E-006),#361);
#234=CARTESIAN_POINT('',(0.0,8.0,-92.0));
#235=CURVE_STYLE('',#362,POSITIVE_LENGTH_MEASURE(1.0E-006),#363);
#236=LINE('',#364,#365);
#237=SURFACE_STYLE_USAGE(.BOTH.,#366);
#238=CLOSED_SHELL('',(#83,#129,#155,#95,#151,#137));
#239=CURVE_STYLE('',#367,POSITIVE_LENGTH_MEASURE(1.0E-006),#368);
#240=CIRCLE('',#369,8.0);
#241=CURVE_STYLE('',#370,POSITIVE_LENGTH_MEASURE(1.0E-006),#371);
#242=CIRCLE('',#372,8.00000000000001);
#243=CURVE_STYLE('',#373,POSITIVE_LENGTH_MEASURE(1.0E-006),#374);
#244=CIRCLE('',#375,8.0);
#245=CURVE_STYLE('',#376,POSITIVE_LENGTH_MEASURE(1.0E-006),#377);
#246=CIRCLE('',#378,8.0);
#247=SURFACE_STYLE_USAGE(.BOTH.,#379);
#248=FACE_OUTER_BOUND('',#380,.T.);
#249=CONICAL_SURFACE('',#381,7.6,0.78539816339745);
#250=SURFACE_STYLE_USAGE(.BOTH.,#382);
#251=CLOSED_SHELL('',(#163,#175,#111,#173,#113));
#252=CURVE_STYLE('',#383,POSITIVE_LENGTH_MEASURE(1.0E-006),#384);
#253=LINE('',#385,#386);
#254=CURVE_STYLE('',#387,POSITIVE_LENGTH_MEASURE(1.0E-006),#388);
#255=CIRCLE('',#389,8.0);
#256=SURFACE_STYLE_USAGE(.BOTH.,#390);
#257=FACE_OUTER_BOUND('',#391,.T.);
#258=PLANE('',#392);
#259=CURVE_STYLE('',#393,POSITIVE_LENGTH_MEASURE(1.0E-006),#394);
#260=CIRCLE('',#395,8.0);
#261=POINT_STYLE(' ',#396,POSITIVE_LENGTH_MEASURE(1.0E-006),#397);
#262=CARTESIAN_POINT('',(0.0,-8.0,-92.0));
#263=CURVE_STYLE('',#398,POSITIVE_LENGTH_MEASURE(1.0E-006),#399);
#264=CIRCLE('',#400,8.0);
#265=POINT_STYLE(' ',#401,POSITIVE_LENGTH_MEASURE(1.0E-006),#402);
#266=CARTESIAN_POINT('',(0.0,7.2,0.0));
#267=POINT_STYLE(' ',#403,POSITIVE_LENGTH_MEASURE(1.0E-006),#404);
#268=CARTESIAN_POINT('',(-4.0,-6.92820323027551,-92.0));
#269=POINT_STYLE(' ',#405,POSITIVE_LENGTH_MEASURE(1.0E-006),#406);
#270=CARTESIAN_POINT('',(8.0,9.79685083057902E-016,-70.0));
#271=SURFACE_STYLE_USAGE(.BOTH.,#407);
#272=FACE_OUTER_BOUND('',#408,.T.);
#273=CYLINDRICAL_SURFACE('',#409,8.0);
#274=CURVE_STYLE('',#410,POSITIVE_LENGTH_MEASURE(1.0E-006),#411);
#275=CIRCLE('',#412,8.0);
#276=SURFACE_STYLE_USAGE(.BOTH.,#413);
#277=FACE_OUTER_BOUND('',#414,.T.);
#278=PLANE('',#415);
#279=CURVE_STYLE('',#416,POSITIVE_LENGTH_MEASURE(1.0E-006),#417);
#280=CIRCLE('',#418,8.0);
#281=CURVE_STYLE('',#419,POSITIVE_LENGTH_MEASURE(1.0E-006),#420);
#282=CIRCLE('',#421,8.0);
#283=CURVE_STYLE('',#422,POSITIVE_LENGTH_MEASURE(1.0E-006),#423);
#284=CIRCLE('',#424,8.0);
#285=SURFACE_STYLE_USAGE(.BOTH.,#425);
#286=FACE_OUTER_BOUND('',#426,.T.);
#287=CYLINDRICAL_SURFACE('',#427,8.0);
#288=POINT_STYLE(' ',#428,POSITIVE_LENGTH_MEASURE(1.0E-006),#429);
#289=CARTESIAN_POINT('',(-4.0,-6.92820323027551,-70.0));
#290=POINT_STYLE(' ',#430,POSITIVE_LENGTH_MEASURE(1.0E-006),#431);
#291=CARTESIAN_POINT('',(4.0,6.92820323027551,-92.0));
#292=CURVE_STYLE('',#432,POSITIVE_LENGTH_MEASURE(1.0E-006),#433);
#293=CIRCLE('',#434,8.0);
#294=CURVE_STYLE('',#435,POSITIVE_LENGTH_MEASURE(1.0E-006),#436);
#295=LINE('',#437,#438);
#296=SURFACE_STYLE_USAGE(.BOTH.,#439);
#297=FACE_OUTER_BOUND('',#440,.T.);
#298=PLANE('',#441);
#299=SURFACE_STYLE_USAGE(.BOTH.,#442);
#300=FACE_OUTER_BOUND('',#443,.T.);
#301=SPHERICAL_SURFACE('',#444,8.00000000000001);
#302=PRODUCT_CONTEXT('',#62,'mechanical');
#303=PRODUCT_DEFINITION_FORMATION_WITH_SPECIFIED_SOURCE(' ','NONE',#176,.NOT_KNOWN.);
#304=CARTESIAN_POINT('',(0.0,0.0,0.0));
#305=DIRECTION('',(0.0,0.0,1.0));
#306=DIRECTION('',(1.0,0.0,0.0));
#307=PRODUCT_CONTEXT('',#67,'mechanical');
#308=PRODUCT_DEFINITION_FORMATION_WITH_SPECIFIED_SOURCE(' ','NONE',#179,.NOT_KNOWN.);
#309=CARTESIAN_POINT('',(0.0,0.0,0.0));
#310=DIRECTION('',(0.0,0.0,1.0));
#311=DIRECTION('',(1.0,0.0,0.0));
#312= (NAMED_UNIT(#187)LENGTH_UNIT()SI_UNIT(.MILLI.,.METRE.));
#313=PRE_DEFINED_MARKER('');
#314=COLOUR_RGB('',0.498039215803146,0.498039215803146,0.498039215803146);
#315=SURFACE_SIDE_STYLE('',(#446));
#316=EDGE_LOOP('',(#447,#448,#449,#450,#451));
#317=AXIS2_PLACEMENT_3D('',#452,#453,#454);
#318=PRE_DEFINED_MARKER('');
#319=COLOUR_RGB('',0.498039215803146,0.498039215803146,0.498039215803146);
#320=PRE_DEFINED_MARKER('');
#321=COLOUR_RGB('',0.498039215803146,0.498039215803146,0.498039215803146);
#322=DRAUGHTING_PRE_DEFINED_CURVE_FONT('continuous');
#323=COLOUR_RGB('',0.498039215803146,0.498039215803146,0.498039215803146);
#324=CARTESIAN_POINT('',(8.0,9.79685083057902E-016,-59.0));
#325=VECTOR('',#455,1.0);
#326=PRE_DEFINED_MARKER('');
#327=COLOUR_RGB('',0.800000011920929,0.800000011920929,0.800000011920929);
#328=DRAUGHTING_PRE_DEFINED_CURVE_FONT('continuous');
#329=COLOUR_RGB('',0.800000011920929,0.800000011920929,0.800000011920929);
#330=CARTESIAN_POINT('',(4.0,6.92820323027551,-81.0));
#331=VECTOR('',#456,1.0);
#332=SURFACE_SIDE_STYLE('',(#457));
#333=EDGE_LOOP('',(#458,#459,#460,#461,#462));
#334=AXIS2_PLACEMENT_3D('',#463,#464,#465);
#335=DRAUGHTING_PRE_DEFINED_CURVE_FONT('continuous');
#336=COLOUR_RGB('',0.498039215803146,0.498039215803146,0.498039215803146);
#337=CARTESIAN_POINT('',(9.30700828905007E-016,-7.6,-0.399999999999999));
#338=VECTOR('',#466,1.0);
#339=DRAUGHTING_PRE_DEFINED_CURVE_FONT('continuous');
#340=COLOUR_RGB('',0.498039215803146,0.498039215803146,0.498039215803146);
#341=AXIS2_PLACEMENT_3D('',#467,#468,#469);
#342=PRE_DEFINED_MARKER('');
#343=COLOUR_RGB('',0.498039215803146,0.498039215803146,0.498039215803146);
#344=PRE_DEFINED_MARKER('');
#345=COLOUR_RGB('',0.498039215803146,0.498039215803146,0.498039215803146);
#346=DRAUGHTING_PRE_DEFINED_CURVE_FONT('continuous');
#347=COLOUR_RGB('',0.498039215803146,0.498039215803146,0.498039215803146);
#348=AXIS2_PLACEMENT_3D('',#470,#471,#472);
#349=PRE_DEFINED_MARKER('');
#350=COLOUR_RGB('',0.498039215803146,0.498039215803146,0.498039215803146);
#351=DRAUGHTING_PRE_DEFINED_CURVE_FONT('continuous');
#352=COLOUR_RGB('',0.800000011920929,0.800000011920929,0.800000011920929);
#353=AXIS2_PLACEMENT_3D('',#473,#474,#475);
#354=SURFACE_SIDE_STYLE('',(#476));
#355=EDGE_LOOP('',(#477,#478,#479));
#356=AXIS2_PLACEMENT_3D('',#480,#481,#482);
#357=SURFACE_SIDE_STYLE('',(#483));
#358=EDGE_LOOP('',(#484,#485,#486,#487,#488));
#359=AXIS2_PLACEMENT_3D('',#489,#490,#491);
#360=PRE_DEFINED_MARKER('');
#361=COLOUR_RGB('',0.800000011920929,0.800000011920929,0.800000011920929);
#362=DRAUGHTING_PRE_DEFINED_CURVE_FONT('continuous');
#363=COLOUR_RGB('',0.498039215803146,0.498039215803146,0.498039215803146);
#364=CARTESIAN_POINT('',(-8.0,-9.79685083057902E-016,-59.0));
#365=VECTOR('',#492,1.0);
#366=SURFACE_SIDE_STYLE('',(#493));
#367=DRAUGHTING_PRE_DEFINED_CURVE_FONT('continuous');
#368=COLOUR_RGB('',0.800000011920929,0.800000011920929,0.800000011920929);
#369=AXIS2_PLACEMENT_3D('',#494,#495,#496);
#370=DRAUGHTING_PRE_DEFINED_CURVE_FONT('continuous');
#371=COLOUR_RGB('',0.800000011920929,0.800000011920929,0.800000011920929);
#372=AXIS2_PLACEMENT_3D('',#497,#498,#499);
#373=DRAUGHTING_PRE_DEFINED_CURVE_FONT('continuous');
#374=COLOUR_RGB('',0.800000011920929,0.800000011920929,0.800000011920929);
#375=AXIS2_PLACEMENT_3D('',#500,#501,#502);
#376=DRAUGHTING_PRE_DEFINED_CURVE_FONT('continuous');
#377=COLOUR_RGB('',0.800000011920929,0.800000011920929,0.800000011920929);
#378=AXIS2_PLACEMENT_3D('',#503,#504,#505);
#379=SURFACE_SIDE_STYLE('',(#506));
#380=EDGE_LOOP('',(#507,#508,#509,#510,#511));
#381=AXIS2_PLACEMENT_3D('',#512,#513,#514);
#382=SURFACE_SIDE_STYLE('',(#515));
#383=DRAUGHTING_PRE_DEFINED_CURVE_FONT('continuous');
#384=COLOUR_RGB('',0.498039215803146,0.498039215803146,0.498039215803146);
#385=CARTESIAN_POINT('',(-9.30700828905007E-016,7.6,-0.399999999999999));
#386=VECTOR('',#516,1.0);
#387=DRAUGHTING_PRE_DEFINED_CURVE_FONT('continuous');
#388=COLOUR_RGB('',0.800000011920929,0.800000011920929,0.800000011920929);
#389=AXIS2_PLACEMENT_3D('',#517,#518,#519);
#390=SURFACE_SIDE_STYLE('',(#520));
#391=EDGE_LOOP('',(#521,#522));
#392=AXIS2_PLACEMENT_3D('',#523,#524,#525);
#393=DRAUGHTING_PRE_DEFINED_CURVE_FONT('continuous');
#394=COLOUR_RGB('',0.498039215803146,0.498039215803146,0.498039215803146);
#395=AXIS2_PLACEMENT_3D('',#526,#527,#528);
#396=PRE_DEFINED_MARKER('');
#397=COLOUR_RGB('',0.800000011920929,0.800000011920929,0.800000011920929);
#398=DRAUGHTING_PRE_DEFINED_CURVE_FONT('continuous');
#399=COLOUR_RGB('',0.498039215803146,0.498039215803146,0.498039215803146);
#400=AXIS2_PLACEMENT_3D('',#529,#530,#531);
#401=PRE_DEFINED_MARKER('');
#402=COLOUR_RGB('',0.498039215803146,0.498039215803146,0.498039215803146);
#403=PRE_DEFINED_MARKER('');
#404=COLOUR_RGB('',0.800000011920929,0.800000011920929,0.800000011920929);
#405=PRE_DEFINED_MARKER('');
#406=COLOUR_RGB('',0.498039215803146,0.498039215803146,0.498039215803146);
#407=SURFACE_SIDE_STYLE('',(#532));
#408=EDGE_LOOP('',(#533,#534,#535,#536,#537));
#409=AXIS2_PLACEMENT_3D('',#538,#539,#540);
#410=DRAUGHTING_PRE_DEFINED_CURVE_FONT('continuous');
#411=COLOUR_RGB('',0.498039215803146,0.498039215803146,0.498039215803146);
#412=AXIS2_PLACEMENT_3D('',#541,#542,#543);
#413=SURFACE_SIDE_STYLE('',(#544));
#414=EDGE_LOOP('',(#545,#546));
#415=AXIS2_PLACEMENT_3D('',#547,#548,#549);
#416=DRAUGHTING_PRE_DEFINED_CURVE_FONT('continuous');
#417=COLOUR_RGB('',0.498039215803146,0.498039215803146,0.498039215803146);
#418=AXIS2_PLACEMENT_3D('',#550,#551,#552);
#419=DRAUGHTING_PRE_DEFINED_CURVE_FONT('continuous');
#420=COLOUR_RGB('',0.498039215803146,0.498039215803146,0.498039215803146);
#421=AXIS2_PLACEMENT_3D('',#553,#554,#555);
#422=DRAUGHTING_PRE_DEFINED_CURVE_FONT('continuous');
#423=COLOUR_RGB('',0.498039215803146,0.498039215803146,0.498039215803146);
#424=AXIS2_PLACEMENT_3D('',#556,#557,#558);
#425=SURFACE_SIDE_STYLE('',(#559));
#426=EDGE_LOOP('',(#560,#561,#562,#563,#564));
#427=AXIS2_PLACEMENT_3D('',#565,#566,#567);
#428=PRE_DEFINED_MARKER('');
#429=COLOUR_RGB('',0.800000011920929,0.800000011920929,0.800000011920929);
#430=PRE_DEFINED_MARKER('');
#431=COLOUR_RGB('',0.800000011920929,0.800000011920929,0.800000011920929);
#432=DRAUGHTING_PRE_DEFINED_CURVE_FONT('continuous');
#433=COLOUR_RGB('',0.800000011920929,0.800000011920929,0.800000011920929);
#434=AXIS2_PLACEMENT_3D('',#568,#569,#570);
#435=DRAUGHTING_PRE_DEFINED_CURVE_FONT('continuous');
#436=COLOUR_RGB('',0.800000011920929,0.800000011920929,0.800000011920929);
#437=CARTESIAN_POINT('',(-4.0,-6.92820323027551,-81.0));
#438=VECTOR('',#571,1.0);
#439=SURFACE_SIDE_STYLE('',(#572));
#440=EDGE_LOOP('',(#573,#574));
#441=AXIS2_PLACEMENT_3D('',#575,#576,#577);
#442=SURFACE_SIDE_STYLE('',(#578));
#443=EDGE_LOOP('',(#579,#580,#581));
#444=AXIS2_PLACEMENT_3D('',#582,#583,#584);
#446=SURFACE_STYLE_FILL_AREA(#585);
#447=ORIENTED_EDGE('',*,*,#117,.F.);
#448=ORIENTED_EDGE('',*,*,#139,.T.);
#449=ORIENTED_EDGE('',*,*,#153,.T.);
#450=ORIENTED_EDGE('',*,*,#89,.F.);
#451=ORIENTED_EDGE('',*,*,#157,.F.);
#452=CARTESIAN_POINT('',(0.0,0.0,-59.0));
#453=DIRECTION('',(-0.0,-0.0,1.0));
#454=DIRECTION('',(-1.0,0.0,0.0));
#455=DIRECTION('',(-0.0,-0.0,1.0));
#456=DIRECTION('',(0.0,0.0,-1.0));
#457=SURFACE_STYLE_FILL_AREA(#586);
#458=ORIENTED_EDGE('',*,*,#133,.T.);
#459=ORIENTED_EDGE('',*,*,#139,.F.);
#460=ORIENTED_EDGE('',*,*,#143,.F.);
#461=ORIENTED_EDGE('',*,*,#97,.T.);
#462=ORIENTED_EDGE('',*,*,#99,.T.);
#463=CARTESIAN_POINT('',(0.0,0.0,-0.399999999999999));
#464=DIRECTION('',(0.0,-0.0,-1.0));
#465=DIRECTION('',(0.0,1.0,0.0));
#466=DIRECTION('',(-8.65927457071937E-017,0.707106781186549,0.707106781186546));
#467=CARTESIAN_POINT('',(0.0,0.0,0.0));
#468=DIRECTION('',(0.0,0.0,-1.0));
#469=DIRECTION('',(0.0,1.0,0.0));
#470=CARTESIAN_POINT('',(0.0,0.0,0.0));
#471=DIRECTION('',(0.0,0.0,-1.0));
#472=DIRECTION('',(0.0,1.0,0.0));
#473=CARTESIAN_POINT('',(0.0,0.0,-70.0));
#474=DIRECTION('',(0.0,0.0,-1.0));
#475=DIRECTION('',(0.5,0.866025403784439,0.0));
#476=SURFACE_STYLE_FILL_AREA(#587);
#477=ORIENTED_EDGE('',*,*,#123,.T.);
#478=ORIENTED_EDGE('',*,*,#127,.T.);
#479=ORIENTED_EDGE('',*,*,#169,.T.);
#480=CARTESIAN_POINT('',(0.0,0.0,-92.0));
#481=DIRECTION('',(0.0,1.0,0.0));
#482=DIRECTION('',(0.0,0.0,-1.0));
#483=SURFACE_STYLE_FILL_AREA(#588);
#484=ORIENTED_EDGE('',*,*,#93,.T.);
#485=ORIENTED_EDGE('',*,*,#127,.F.);
#486=ORIENTED_EDGE('',*,*,#135,.F.);
#487=ORIENTED_EDGE('',*,*,#171,.T.);
#488=ORIENTED_EDGE('',*,*,#109,.T.);
#489=CARTESIAN_POINT('',(0.0,0.0,-81.0));
#490=DIRECTION('',(-0.0,-0.0,1.0));
#491=DIRECTION('',(0.5,0.866025403784439,0.0));
#492=DIRECTION('',(0.0,0.0,-1.0));
#493=SURFACE_STYLE_FILL_AREA(#589);
#494=CARTESIAN_POINT('',(0.0,0.0,-92.0));
#495=DIRECTION('',(0.0,0.0,-1.0));
#496=DIRECTION('',(0.5,0.866025403784439,0.0));
#497=CARTESIAN_POINT('',(0.0,0.0,-92.0));
#498=DIRECTION('',(1.0,0.0,1.22460635382238E-016));
#499=DIRECTION('',(-1.22460635382238E-016,0.0,1.0));
#500=CARTESIAN_POINT('',(0.0,0.0,-70.0));
#501=DIRECTION('',(0.0,0.0,-1.0));
#502=DIRECTION('',(0.5,0.866025403784439,0.0));
#503=CARTESIAN_POINT('',(0.0,0.0,-92.0));
#504=DIRECTION('',(0.0,0.0,-1.0));
#505=DIRECTION('',(0.5,0.866025403784439,0.0));
#506=SURFACE_STYLE_FILL_AREA(#590);
#507=ORIENTED_EDGE('',*,*,#133,.F.);
#508=ORIENTED_EDGE('',*,*,#105,.T.);
#509=ORIENTED_EDGE('',*,*,#97,.F.);
#510=ORIENTED_EDGE('',*,*,#159,.F.);
#511=ORIENTED_EDGE('',*,*,#153,.F.);
#512=CARTESIAN_POINT('',(0.0,0.0,-0.399999999999999));
#513=DIRECTION('',(0.0,-0.0,-1.0));
#514=DIRECTION('',(0.0,1.0,0.0));
#515=SURFACE_STYLE_FILL_AREA(#591);
#516=DIRECTION('',(-8.65927457071937E-017,0.707106781186549,-0.707106781186546));
#517=CARTESIAN_POINT('',(0.0,0.0,-92.0));
#518=DIRECTION('',(0.0,0.0,-1.0));
#519=DIRECTION('',(0.5,0.866025403784439,0.0));
#520=SURFACE_STYLE_FILL_AREA(#592);
#521=ORIENTED_EDGE('',*,*,#157,.T.);
#522=ORIENTED_EDGE('',*,*,#161,.T.);
#523=CARTESIAN_POINT('',(-4.0,0.0,-70.0));
#524=DIRECTION('',(0.0,0.0,-1.0));
#525=DIRECTION('',(-1.0,0.0,0.0));
#526=CARTESIAN_POINT('',(0.0,0.0,-0.799999999999997));
#527=DIRECTION('',(0.0,0.0,-1.0));
#528=DIRECTION('',(0.0,1.0,0.0));
#529=CARTESIAN_POINT('',(0.0,0.0,-0.799999999999997));
#530=DIRECTION('',(0.0,0.0,-1.0));
#531=DIRECTION('',(0.0,1.0,0.0));
#532=SURFACE_STYLE_FILL_AREA(#593);
#533=ORIENTED_EDGE('',*,*,#117,.T.);
#534=ORIENTED_EDGE('',*,*,#161,.F.);
#535=ORIENTED_EDGE('',*,*,#89,.T.);
#536=ORIENTED_EDGE('',*,*,#159,.T.);
#537=ORIENTED_EDGE('',*,*,#143,.T.);
#538=CARTESIAN_POINT('',(0.0,0.0,-59.0));
#539=DIRECTION('',(-0.0,-0.0,1.0));
#540=DIRECTION('',(-1.0,0.0,0.0));
#541=CARTESIAN_POINT('',(0.0,0.0,-0.799999999999997));
#542=DIRECTION('',(0.0,0.0,-1.0));
#543=DIRECTION('',(0.0,1.0,0.0));
#544=SURFACE_STYLE_FILL_AREA(#594);
#545=ORIENTED_EDGE('',*,*,#105,.F.);
#546=ORIENTED_EDGE('',*,*,#99,.F.);
#547=CARTESIAN_POINT('',(0.0,3.6,0.0));
#548=DIRECTION('',(-0.0,0.0,1.0));
#549=DIRECTION('',(0.0,-1.0,0.0));
#550=CARTESIAN_POINT('',(0.0,0.0,-70.0));
#551=DIRECTION('',(0.0,0.0,-1.0));
#552=DIRECTION('',(-1.0,0.0,0.0));
#553=CARTESIAN_POINT('',(0.0,0.0,-0.799999999999997));
#554=DIRECTION('',(0.0,0.0,-1.0));
#555=DIRECTION('',(0.0,1.0,0.0));
#556=CARTESIAN_POINT('',(0.0,0.0,-70.0));
#557=DIRECTION('',(0.0,0.0,-1.0));
#558=DIRECTION('',(-1.0,0.0,0.0));
#559=SURFACE_STYLE_FILL_AREA(#595);
#560=ORIENTED_EDGE('',*,*,#93,.F.);
#561=ORIENTED_EDGE('',*,*,#125,.T.);
#562=ORIENTED_EDGE('',*,*,#171,.F.);
#563=ORIENTED_EDGE('',*,*,#121,.F.);
#564=ORIENTED_EDGE('',*,*,#169,.F.);
#565=CARTESIAN_POINT('',(0.0,0.0,-81.0));
#566=DIRECTION('',(-0.0,-0.0,1.0));
#567=DIRECTION('',(0.5,0.866025403784439,0.0));
#568=CARTESIAN_POINT('',(0.0,0.0,-92.0));
#569=DIRECTION('',(0.0,0.0,-1.0));
#570=DIRECTION('',(0.5,0.866025403784439,0.0));
#571=DIRECTION('',(-0.0,-0.0,1.0));
#572=SURFACE_STYLE_FILL_AREA(#596);
#573=ORIENTED_EDGE('',*,*,#125,.F.);
#574=ORIENTED_EDGE('',*,*,#109,.F.);
#575=CARTESIAN_POINT('',(2.0,3.46410161513775,-70.0));
#576=DIRECTION('',(0.0,0.0,1.0));
#577=DIRECTION('',(-0.5,-0.866025403784439,0.0));
#578=SURFACE_STYLE_FILL_AREA(#597);
#579=ORIENTED_EDGE('',*,*,#123,.F.);
#580=ORIENTED_EDGE('',*,*,#121,.T.);
#581=ORIENTED_EDGE('',*,*,#135,.T.);
#582=CARTESIAN_POINT('',(0.0,0.0,-92.0));
#583=DIRECTION('',(0.0,1.0,0.0));
#584=DIRECTION('',(0.0,0.0,-1.0));
#585=FILL_AREA_STYLE('',(#598));
#586=FILL_AREA_STYLE('',(#599));
#587=FILL_AREA_STYLE('',(#600));
#588=FILL_AREA_STYLE('',(#601));
#589=FILL_AREA_STYLE('',(#602));
#590=FILL_AREA_STYLE('',(#603));
#591=FILL_AREA_STYLE('',(#604));
#592=FILL_AREA_STYLE('',(#605));
#593=FILL_AREA_STYLE('',(#606));
#594=FILL_AREA_STYLE('',(#607));
#595=FILL_AREA_STYLE('',(#608));
#596=FILL_AREA_STYLE('',(#609));
#597=FILL_AREA_STYLE('',(#610));
#598=FILL_AREA_STYLE_COLOUR('',#611);
#599=FILL_AREA_STYLE_COLOUR('',#612);
#600=FILL_AREA_STYLE_COLOUR('',#613);
#601=FILL_AREA_STYLE_COLOUR('',#614);
#602=FILL_AREA_STYLE_COLOUR('',#615);
#603=FILL_AREA_STYLE_COLOUR('',#616);
#604=FILL_AREA_STYLE_COLOUR('',#617);
#605=FILL_AREA_STYLE_COLOUR('',#618);
#606=FILL_AREA_STYLE_COLOUR('',#619);
#607=FILL_AREA_STYLE_COLOUR('',#620);
#608=FILL_AREA_STYLE_COLOUR('',#621);
#609=FILL_AREA_STYLE_COLOUR('',#622);
#610=FILL_AREA_STYLE_COLOUR('',#623);
#611=COLOUR_RGB('',0.498039215803146,0.498039215803146,0.498039215803146);
#612=COLOUR_RGB('',0.498039215803146,0.498039215803146,0.498039215803146);
#613=COLOUR_RGB('',0.800000011920929,0.800000011920929,0.800000011920929);
#614=COLOUR_RGB('',0.800000011920929,0.800000011920929,0.800000011920929);
#615=COLOUR_RGB('',0.498039215803146,0.498039215803146,0.498039215803146);
#616=COLOUR_RGB('',0.498039215803146,0.498039215803146,0.498039215803146);
#617=COLOUR_RGB('',0.800000011920929,0.800000011920929,0.800000011920929);
#618=COLOUR_RGB('',0.498039215803146,0.498039215803146,0.498039215803146);
#619=COLOUR_RGB('',0.498039215803146,0.498039215803146,0.498039215803146);
#620=COLOUR_RGB('',0.498039215803146,0.498039215803146,0.498039215803146);
#621=COLOUR_RGB('',0.800000011920929,0.800000011920929,0.800000011920929);
#622=COLOUR_RGB('',0.800000011920929,0.800000011920929,0.800000011920929);
#623=COLOUR_RGB('',0.800000011920929,0.800000011920929,0.800000011920929);
#624=AXIS2_PLACEMENT_3D('PCS',#625,#626,#627);
#625=CARTESIAN_POINT('',(0.0,0.0,0.0));
#626=DIRECTION('',(0.0,0.0,1.0));
#627=DIRECTION('',(1.0,0.0,0.0));
#628=AXIS2_PLACEMENT_3D('MCS',#629,#630,#631);
#629=CARTESIAN_POINT('',(0.0,0.0,-48.0));
#630=DIRECTION('',(0.0,0.0,1.0));
#631=DIRECTION('',(1.0,0.0,0.0));
#632=AXIS2_PLACEMENT_3D('CIP',#633,#634,#635);
#633=CARTESIAN_POINT('',(0.0,0.0,-100.0));
#634=DIRECTION('',(0.0,0.0,1.0));
#635=DIRECTION('',(1.0,0.0,0.0));
#636=CONSTRUCTIVE_GEOMETRY_REPRESENTATION_RELATIONSHIP('coordinate systems',$,#66,#637);
#637=CONSTRUCTIVE_GEOMETRY_REPRESENTATION('coordinate systems',(#624,#628,#632),#10);
ENDSEC;
END-ISO-10303-21;
