ISO-10303-21;
HEADER;
FILE_DESCRIPTION(('no description'),'unknown implementation level');
FILE_NAME('8518120.stp','  ',('CIM GmbH Aachen'),('CADClick - KiM GmbH - www.kimweb.de'),'unknown preprocess','ACIS','unknown authorization');
FILE_SCHEMA(('automotive_design'));
ENDSEC;
DATA;
#1=MECHANICAL_DESIGN_GEOMETRIC_PRESENTATION_REPRESENTATION(' ',(#14,#15,#16,#17,#18,#19,#20,#21,#22,#23,#24,#25,#26,#27,#28,#29,#30,#31,#32,#33,#34,#35,#36,#37,#38,#39,#40,#41,#42,#43,#44,#45,#46,#47,#48,#49,#50,#51,#52,#53,#54,#55,#56,#57,#58,#59,#60,#61),#10);
#2=PRODUCT_DEFINITION_CONTEXT('',#62,'design');
#3=APPLICATION_PROTOCOL_DEFINITION('INTERNATIONAL STANDARD','automotive_design',1994,#62);
#4=PRODUCT_CATEGORY_RELATIONSHIP('NONE','NONE',#63,#64);
#5=SHAPE_DEFINITION_REPRESENTATION(#65,#66);
#6=PRODUCT_DEFINITION_CONTEXT('',#67,'design');
#7=APPLICATION_PROTOCOL_DEFINITION('INTERNATIONAL STANDARD','automotive_design',1994,#67);
#8=PRODUCT_CATEGORY_RELATIONSHIP('NONE','NONE',#68,#69);
#9=SHAPE_DEFINITION_REPRESENTATION(#70,#71);
#10= (GEOMETRIC_REPRESENTATION_CONTEXT(3)GLOBAL_UNCERTAINTY_ASSIGNED_CONTEXT((#74))GLOBAL_UNIT_ASSIGNED_CONTEXT((#76,#77,#78))REPRESENTATION_CONTEXT('NONE','WORKSPACE'));
#14=STYLED_ITEM('',(#80),#81);
#15=STYLED_ITEM('',(#82),#83);
#16=STYLED_ITEM('',(#84),#85);
#17=STYLED_ITEM('',(#86),#87);
#18=STYLED_ITEM('',(#88),#89);
#19=STYLED_ITEM('',(#90),#91);
#20=STYLED_ITEM('',(#92),#93);
#21=STYLED_ITEM('',(#94),#95);
#22=STYLED_ITEM('',(#96),#97);
#23=STYLED_ITEM('',(#98),#99);
#24=STYLED_ITEM('',(#100),#101);
#25=STYLED_ITEM('',(#102),#103);
#26=STYLED_ITEM('',(#104),#105);
#27=STYLED_ITEM('',(#106),#107);
#28=STYLED_ITEM('',(#108),#109);
#29=STYLED_ITEM('',(#110),#111);
#30=STYLED_ITEM('',(#112),#113);
#31=STYLED_ITEM('',(#114),#115);
#32=STYLED_ITEM('',(#116),#117);
#33=STYLED_ITEM('',(#118),#119);
#34=STYLED_ITEM('',(#120),#121);
#35=STYLED_ITEM('',(#122),#123);
#36=STYLED_ITEM('',(#124),#125);
#37=STYLED_ITEM('',(#126),#127);
#38=STYLED_ITEM('',(#128),#129);
#39=STYLED_ITEM('',(#130),#131);
#40=STYLED_ITEM('',(#132),#133);
#41=STYLED_ITEM('',(#134),#135);
#42=STYLED_ITEM('',(#136),#137);
#43=STYLED_ITEM('',(#138),#139);
#44=STYLED_ITEM('',(#140),#141);
#45=STYLED_ITEM('',(#142),#143);
#46=STYLED_ITEM('',(#144),#145);
#47=STYLED_ITEM('',(#146),#147);
#48=STYLED_ITEM('',(#148),#149);
#49=STYLED_ITEM('',(#150),#151);
#50=STYLED_ITEM('',(#152),#153);
#51=STYLED_ITEM('',(#154),#155);
#52=STYLED_ITEM('',(#156),#157);
#53=STYLED_ITEM('',(#158),#159);
#54=STYLED_ITEM('',(#160),#161);
#55=STYLED_ITEM('',(#162),#163);
#56=STYLED_ITEM('',(#164),#165);
#57=STYLED_ITEM('',(#166),#167);
#58=STYLED_ITEM('',(#168),#169);
#59=STYLED_ITEM('',(#170),#171);
#60=STYLED_ITEM('',(#172),#173);
#61=STYLED_ITEM('',(#174),#175);
#62=APPLICATION_CONTEXT(' ');
#63=PRODUCT_CATEGORY('part','NONE');
#64=PRODUCT_RELATED_PRODUCT_CATEGORY('detail',' ',(#176));
#65=PRODUCT_DEFINITION_SHAPE('NONE','NONE',#177);
#66=ADVANCED_BREP_SHAPE_REPRESENTATION('1',(#109,#178),#10);
#67=APPLICATION_CONTEXT(' ');
#68=PRODUCT_CATEGORY('part','NONE');
#69=PRODUCT_RELATED_PRODUCT_CATEGORY('detail',' ',(#179));
#70=PRODUCT_DEFINITION_SHAPE('NONE','NONE',#180);
#71=ADVANCED_BREP_SHAPE_REPRESENTATION('2',(#151,#181),#10);
#74=UNCERTAINTY_MEASURE_WITH_UNIT(LENGTH_MEASURE(1.0E-006),#76,'','');
#76= (CONVERSION_BASED_UNIT('MILLIMETRE',#184)LENGTH_UNIT()NAMED_UNIT(#187));
#77= (NAMED_UNIT(#189)PLANE_ANGLE_UNIT()SI_UNIT($,.RADIAN.));
#78= (NAMED_UNIT(#189)SOLID_ANGLE_UNIT()SI_UNIT($,.STERADIAN.));
#80=PRESENTATION_STYLE_ASSIGNMENT((#195));
#81=VERTEX_POINT('',#196);
#82=PRESENTATION_STYLE_ASSIGNMENT((#197));
#83=EDGE_CURVE('',#155,#91,#198,.T.);
#84=PRESENTATION_STYLE_ASSIGNMENT((#199));
#85=EDGE_CURVE('',#173,#155,#200,.T.);
#86=PRESENTATION_STYLE_ASSIGNMENT((#201));
#87=EDGE_CURVE('',#119,#139,#202,.T.);
#88=PRESENTATION_STYLE_ASSIGNMENT((#203));
#89=EDGE_CURVE('',#173,#171,#204,.T.);
#90=PRESENTATION_STYLE_ASSIGNMENT((#205));
#91=VERTEX_POINT('',#206);
#92=PRESENTATION_STYLE_ASSIGNMENT((#207));
#93=EDGE_CURVE('',#139,#173,#208,.T.);
#94=PRESENTATION_STYLE_ASSIGNMENT((#209));
#95=ADVANCED_FACE('',(#210),#211,.T.);
#96=PRESENTATION_STYLE_ASSIGNMENT((#212));
#97=VERTEX_POINT('',#213);
#98=PRESENTATION_STYLE_ASSIGNMENT((#214));
#99=VERTEX_POINT('',#215);
#100=PRESENTATION_STYLE_ASSIGNMENT((#216));
#101=VERTEX_POINT('',#217);
#102=PRESENTATION_STYLE_ASSIGNMENT((#218));
#103=ADVANCED_FACE('',(#219),#220,.T.);
#104=PRESENTATION_STYLE_ASSIGNMENT((#221));
#105=EDGE_CURVE('',#81,#139,#222,.T.);
#106=PRESENTATION_STYLE_ASSIGNMENT((#223));
#107=EDGE_CURVE('',#91,#81,#224,.T.);
#108=PRESENTATION_STYLE_ASSIGNMENT((#225));
#109=MANIFOLD_SOLID_BREP('1',#226);
#110=PRESENTATION_STYLE_ASSIGNMENT((#227));
#111=ADVANCED_FACE('',(#228),#229,.T.);
#112=PRESENTATION_STYLE_ASSIGNMENT((#230));
#113=ADVANCED_FACE('',(#231),#232,.T.);
#114=PRESENTATION_STYLE_ASSIGNMENT((#233));
#115=ADVANCED_FACE('',(#234),#235,.T.);
#116=PRESENTATION_STYLE_ASSIGNMENT((#236));
#117=EDGE_CURVE('',#97,#157,#237,.T.);
#118=PRESENTATION_STYLE_ASSIGNMENT((#238));
#119=VERTEX_POINT('',#239);
#120=PRESENTATION_STYLE_ASSIGNMENT((#240));
#121=EDGE_CURVE('',#145,#119,#241,.T.);
#122=PRESENTATION_STYLE_ASSIGNMENT((#242));
#123=EDGE_CURVE('',#81,#91,#243,.T.);
#124=PRESENTATION_STYLE_ASSIGNMENT((#244));
#125=EDGE_CURVE('',#157,#99,#245,.T.);
#126=PRESENTATION_STYLE_ASSIGNMENT((#246));
#127=EDGE_CURVE('',#99,#101,#247,.T.);
#128=PRESENTATION_STYLE_ASSIGNMENT((#248));
#129=ADVANCED_FACE('',(#249),#250,.T.);
#130=PRESENTATION_STYLE_ASSIGNMENT((#251));
#131=ADVANCED_FACE('',(#252),#253,.T.);
#132=PRESENTATION_STYLE_ASSIGNMENT((#254));
#133=EDGE_CURVE('',#101,#157,#255,.T.);
#134=PRESENTATION_STYLE_ASSIGNMENT((#256));
#135=ADVANCED_FACE('',(#257),#258,.T.);
#136=PRESENTATION_STYLE_ASSIGNMENT((#259));
#137=ADVANCED_FACE('',(#260),#261,.T.);
#138=PRESENTATION_STYLE_ASSIGNMENT((#262));
#139=VERTEX_POINT('',#263);
#140=PRESENTATION_STYLE_ASSIGNMENT((#264));
#141=ADVANCED_FACE('',(#265),#266,.T.);
#142=PRESENTATION_STYLE_ASSIGNMENT((#267));
#143=VERTEX_POINT('',#268);
#144=PRESENTATION_STYLE_ASSIGNMENT((#269));
#145=VERTEX_POINT('',#270);
#146=PRESENTATION_STYLE_ASSIGNMENT((#271));
#147=VERTEX_POINT('',#272);
#148=PRESENTATION_STYLE_ASSIGNMENT((#273));
#149=EDGE_CURVE('',#171,#145,#274,.T.);
#150=PRESENTATION_STYLE_ASSIGNMENT((#275));
#151=MANIFOLD_SOLID_BREP('2',#276);
#152=PRESENTATION_STYLE_ASSIGNMENT((#277));
#153=EDGE_CURVE('',#143,#97,#278,.T.);
#154=PRESENTATION_STYLE_ASSIGNMENT((#279));
#155=VERTEX_POINT('',#280);
#156=PRESENTATION_STYLE_ASSIGNMENT((#281));
#157=VERTEX_POINT('',#282);
#158=PRESENTATION_STYLE_ASSIGNMENT((#283));
#159=EDGE_CURVE('',#147,#143,#284,.T.);
#160=PRESENTATION_STYLE_ASSIGNMENT((#285));
#161=EDGE_CURVE('',#97,#143,#286,.T.);
#162=PRESENTATION_STYLE_ASSIGNMENT((#287));
#163=EDGE_CURVE('',#147,#101,#288,.T.);
#164=PRESENTATION_STYLE_ASSIGNMENT((#289));
#165=ADVANCED_FACE('',(#290),#291,.T.);
#166=PRESENTATION_STYLE_ASSIGNMENT((#292));
#167=EDGE_CURVE('',#155,#119,#293,.T.);
#168=PRESENTATION_STYLE_ASSIGNMENT((#294));
#169=EDGE_CURVE('',#145,#171,#295,.T.);
#170=PRESENTATION_STYLE_ASSIGNMENT((#296));
#171=VERTEX_POINT('',#297);
#172=PRESENTATION_STYLE_ASSIGNMENT((#298));
#173=VERTEX_POINT('',#299);
#174=PRESENTATION_STYLE_ASSIGNMENT((#300));
#175=EDGE_CURVE('',#99,#147,#301,.T.);
#176=PRODUCT('1','1','PART-1-DESC',(#302));
#177=PRODUCT_DEFINITION('NONE','NONE',#303,#2);
#178=AXIS2_PLACEMENT_3D('',#304,#305,#306);
#179=PRODUCT('2','2','PART-2-DESC',(#307));
#180=PRODUCT_DEFINITION('NONE','NONE',#308,#6);
#181=AXIS2_PLACEMENT_3D('',#309,#310,#311);
#184=LENGTH_MEASURE_WITH_UNIT(LENGTH_MEASURE(1.0),#312);
#187=DIMENSIONAL_EXPONENTS(1.0,0.0,0.0,0.0,0.0,0.0,0.0);
#189=DIMENSIONAL_EXPONENTS(0.0,0.0,0.0,0.0,0.0,0.0,0.0);
#195=POINT_STYLE(' ',#313,POSITIVE_LENGTH_MEASURE(1.0E-006),#314);
#196=CARTESIAN_POINT('',(10.0,1.22460635382238E-015,-72.0));
#197=CURVE_STYLE('',#315,POSITIVE_LENGTH_MEASURE(1.0E-006),#316);
#198=LINE('',#317,#318);
#199=CURVE_STYLE('',#319,POSITIVE_LENGTH_MEASURE(1.0E-006),#320);
#200=CIRCLE('',#321,10.0);
#201=CURVE_STYLE('',#322,POSITIVE_LENGTH_MEASURE(1.0E-006),#323);
#202=CIRCLE('',#324,10.0);
#203=CURVE_STYLE('',#325,POSITIVE_LENGTH_MEASURE(1.0E-006),#326);
#204=LINE('',#327,#328);
#205=POINT_STYLE(' ',#329,POSITIVE_LENGTH_MEASURE(1.0E-006),#330);
#206=CARTESIAN_POINT('',(-10.0,0.0,-72.0));
#207=CURVE_STYLE('',#331,POSITIVE_LENGTH_MEASURE(1.0E-006),#332);
#208=CIRCLE('',#333,10.0);
#209=SURFACE_STYLE_USAGE(.BOTH.,#334);
#210=FACE_OUTER_BOUND('',#335,.T.);
#211=PLANE('',#336);
#212=POINT_STYLE(' ',#337,POSITIVE_LENGTH_MEASURE(1.0E-006),#338);
#213=CARTESIAN_POINT('',(5.0,8.66025403784439,-72.0));
#214=POINT_STYLE(' ',#339,POSITIVE_LENGTH_MEASURE(1.0E-006),#340);
#215=CARTESIAN_POINT('',(-1.74027029774831E-030,-10.0,-100.0));
#216=POINT_STYLE(' ',#341,POSITIVE_LENGTH_MEASURE(1.0E-006),#342);
#217=CARTESIAN_POINT('',(-1.74027029774831E-030,10.0,-100.0));
#218=SURFACE_STYLE_USAGE(.BOTH.,#343);
#219=FACE_OUTER_BOUND('',#344,.T.);
#220=PLANE('',#345);
#221=CURVE_STYLE('',#346,POSITIVE_LENGTH_MEASURE(1.0E-006),#347);
#222=LINE('',#348,#349);
#223=CURVE_STYLE('',#350,POSITIVE_LENGTH_MEASURE(1.0E-006),#351);
#224=CIRCLE('',#352,10.0);
#225=SURFACE_STYLE_USAGE(.BOTH.,#353);
#226=CLOSED_SHELL('',(#141,#165,#129,#137,#115,#103));
#227=SURFACE_STYLE_USAGE(.BOTH.,#354);
#228=FACE_OUTER_BOUND('',#355,.T.);
#229=SPHERICAL_SURFACE('',#356,9.99999999999999);
#230=SURFACE_STYLE_USAGE(.BOTH.,#357);
#231=FACE_OUTER_BOUND('',#358,.T.);
#232=CYLINDRICAL_SURFACE('',#359,10.0);
#233=SURFACE_STYLE_USAGE(.BOTH.,#360);
#234=FACE_OUTER_BOUND('',#361,.T.);
#235=CYLINDRICAL_SURFACE('',#362,10.0);
#236=CURVE_STYLE('',#363,POSITIVE_LENGTH_MEASURE(1.0E-006),#364);
#237=LINE('',#365,#366);
#238=POINT_STYLE(' ',#367,POSITIVE_LENGTH_MEASURE(1.0E-006),#368);
#239=CARTESIAN_POINT('',(0.0,10.0,-1.0));
#240=CURVE_STYLE('',#369,POSITIVE_LENGTH_MEASURE(1.0E-006),#370);
#241=LINE('',#371,#372);
#242=CURVE_STYLE('',#373,POSITIVE_LENGTH_MEASURE(1.0E-006),#374);
#243=CIRCLE('',#375,10.0);
#244=CURVE_STYLE('',#376,POSITIVE_LENGTH_MEASURE(1.0E-006),#377);
#245=CIRCLE('',#378,10.0);
#246=CURVE_STYLE('',#379,POSITIVE_LENGTH_MEASURE(1.0E-006),#380);
#247=CIRCLE('',#381,9.99999999999999);
#248=SURFACE_STYLE_USAGE(.BOTH.,#382);
#249=FACE_OUTER_BOUND('',#383,.T.);
#250=PLANE('',#384);
#251=SURFACE_STYLE_USAGE(.BOTH.,#385);
#252=FACE_OUTER_BOUND('',#386,.T.);
#253=CYLINDRICAL_SURFACE('',#387,10.0);
#254=CURVE_STYLE('',#388,POSITIVE_LENGTH_MEASURE(1.0E-006),#389);
#255=CIRCLE('',#390,10.0);
#256=SURFACE_STYLE_USAGE(.BOTH.,#391);
#257=FACE_OUTER_BOUND('',#392,.T.);
#258=SPHERICAL_SURFACE('',#393,9.99999999999999);
#259=SURFACE_STYLE_USAGE(.BOTH.,#394);
#260=FACE_OUTER_BOUND('',#395,.T.);
#261=CONICAL_SURFACE('',#396,9.5,0.785398163397448);
#262=POINT_STYLE(' ',#397,POSITIVE_LENGTH_MEASURE(1.0E-006),#398);
#263=CARTESIAN_POINT('',(10.0,1.22460635382238E-015,-1.0));
#264=SURFACE_STYLE_USAGE(.BOTH.,#399);
#265=FACE_OUTER_BOUND('',#400,.T.);
#266=CYLINDRICAL_SURFACE('',#401,10.0);
#267=POINT_STYLE(' ',#402,POSITIVE_LENGTH_MEASURE(1.0E-006),#403);
#268=CARTESIAN_POINT('',(-5.0,-8.66025403784439,-72.0));
#269=POINT_STYLE(' ',#404,POSITIVE_LENGTH_MEASURE(1.0E-006),#405);
#270=CARTESIAN_POINT('',(0.0,9.0,0.0));
#271=POINT_STYLE(' ',#406,POSITIVE_LENGTH_MEASURE(1.0E-006),#407);
#272=CARTESIAN_POINT('',(-5.0,-8.66025403784439,-100.0));
#273=CURVE_STYLE('',#408,POSITIVE_LENGTH_MEASURE(1.0E-006),#409);
#274=CIRCLE('',#410,9.0);
#275=SURFACE_STYLE_USAGE(.BOTH.,#411);
#276=CLOSED_SHELL('',(#131,#135,#111,#95,#113));
#277=CURVE_STYLE('',#412,POSITIVE_LENGTH_MEASURE(1.0E-006),#413);
#278=CIRCLE('',#414,10.0);
#279=POINT_STYLE(' ',#415,POSITIVE_LENGTH_MEASURE(1.0E-006),#416);
#280=CARTESIAN_POINT('',(-10.0,-1.22460635382238E-015,-1.0));
#281=POINT_STYLE(' ',#417,POSITIVE_LENGTH_MEASURE(1.0E-006),#418);
#282=CARTESIAN_POINT('',(5.0,8.66025403784439,-100.0));
#283=CURVE_STYLE('',#419,POSITIVE_LENGTH_MEASURE(1.0E-006),#420);
#284=LINE('',#421,#422);
#285=CURVE_STYLE('',#423,POSITIVE_LENGTH_MEASURE(1.0E-006),#424);
#286=CIRCLE('',#425,10.0);
#287=CURVE_STYLE('',#426,POSITIVE_LENGTH_MEASURE(1.0E-006),#427);
#288=CIRCLE('',#428,10.0);
#289=SURFACE_STYLE_USAGE(.BOTH.,#429);
#290=FACE_OUTER_BOUND('',#430,.T.);
#291=CONICAL_SURFACE('',#431,9.5,0.785398163397448);
#292=CURVE_STYLE('',#432,POSITIVE_LENGTH_MEASURE(1.0E-006),#433);
#293=CIRCLE('',#434,10.0);
#294=CURVE_STYLE('',#435,POSITIVE_LENGTH_MEASURE(1.0E-006),#436);
#295=CIRCLE('',#437,9.0);
#296=POINT_STYLE(' ',#438,POSITIVE_LENGTH_MEASURE(1.0E-006),#439);
#297=CARTESIAN_POINT('',(1.10214571844014E-015,-9.0,0.0));
#298=POINT_STYLE(' ',#440,POSITIVE_LENGTH_MEASURE(1.0E-006),#441);
#299=CARTESIAN_POINT('',(1.22460635382238E-015,-10.0,-1.0));
#300=CURVE_STYLE('',#442,POSITIVE_LENGTH_MEASURE(1.0E-006),#443);
#301=CIRCLE('',#444,10.0);
#302=PRODUCT_CONTEXT('',#62,'mechanical');
#303=PRODUCT_DEFINITION_FORMATION_WITH_SPECIFIED_SOURCE(' ','NONE',#176,.NOT_KNOWN.);
#304=CARTESIAN_POINT('',(0.0,0.0,0.0));
#305=DIRECTION('',(0.0,0.0,1.0));
#306=DIRECTION('',(1.0,0.0,0.0));
#307=PRODUCT_CONTEXT('',#67,'mechanical');
#308=PRODUCT_DEFINITION_FORMATION_WITH_SPECIFIED_SOURCE(' ','NONE',#179,.NOT_KNOWN.);
#309=CARTESIAN_POINT('',(0.0,0.0,0.0));
#310=DIRECTION('',(0.0,0.0,1.0));
#311=DIRECTION('',(1.0,0.0,0.0));
#312= (NAMED_UNIT(#187)LENGTH_UNIT()SI_UNIT(.MILLI.,.METRE.));
#313=PRE_DEFINED_MARKER('');
#314=COLOUR_RGB('',0.498039215803146,0.498039215803146,0.498039215803146);
#315=DRAUGHTING_PRE_DEFINED_CURVE_FONT('continuous');
#316=COLOUR_RGB('',0.498039215803146,0.498039215803146,0.498039215803146);
#317=CARTESIAN_POINT('',(-10.0,-1.22460635382238E-015,-61.0));
#318=VECTOR('',#446,1.0);
#319=DRAUGHTING_PRE_DEFINED_CURVE_FONT('continuous');
#320=COLOUR_RGB('',0.498039215803146,0.498039215803146,0.498039215803146);
#321=AXIS2_PLACEMENT_3D('',#447,#448,#449);
#322=DRAUGHTING_PRE_DEFINED_CURVE_FONT('continuous');
#323=COLOUR_RGB('',0.498039215803146,0.498039215803146,0.498039215803146);
#324=AXIS2_PLACEMENT_3D('',#450,#451,#452);
#325=DRAUGHTING_PRE_DEFINED_CURVE_FONT('continuous');
#326=COLOUR_RGB('',0.498039215803146,0.498039215803146,0.498039215803146);
#327=CARTESIAN_POINT('',(1.16337603613126E-015,-9.5,-0.5));
#328=VECTOR('',#453,1.0);
#329=PRE_DEFINED_MARKER('');
#330=COLOUR_RGB('',0.498039215803146,0.498039215803146,0.498039215803146);
#331=DRAUGHTING_PRE_DEFINED_CURVE_FONT('continuous');
#332=COLOUR_RGB('',0.498039215803146,0.498039215803146,0.498039215803146);
#333=AXIS2_PLACEMENT_3D('',#454,#455,#456);
#334=SURFACE_SIDE_STYLE('',(#457));
#335=EDGE_LOOP('',(#458,#459));
#336=AXIS2_PLACEMENT_3D('',#460,#461,#462);
#337=PRE_DEFINED_MARKER('');
#338=COLOUR_RGB('',0.800000011920929,0.800000011920929,0.800000011920929);
#339=PRE_DEFINED_MARKER('');
#340=COLOUR_RGB('',0.800000011920929,0.800000011920929,0.800000011920929);
#341=PRE_DEFINED_MARKER('');
#342=COLOUR_RGB('',0.800000011920929,0.800000011920929,0.800000011920929);
#343=SURFACE_SIDE_STYLE('',(#463));
#344=EDGE_LOOP('',(#464,#465));
#345=AXIS2_PLACEMENT_3D('',#466,#467,#468);
#346=DRAUGHTING_PRE_DEFINED_CURVE_FONT('continuous');
#347=COLOUR_RGB('',0.498039215803146,0.498039215803146,0.498039215803146);
#348=CARTESIAN_POINT('',(10.0,1.22460635382238E-015,-61.0));
#349=VECTOR('',#469,1.0);
#350=DRAUGHTING_PRE_DEFINED_CURVE_FONT('continuous');
#351=COLOUR_RGB('',0.498039215803146,0.498039215803146,0.498039215803146);
#352=AXIS2_PLACEMENT_3D('',#470,#471,#472);
#353=SURFACE_SIDE_STYLE('',(#473));
#354=SURFACE_SIDE_STYLE('',(#474));
#355=EDGE_LOOP('',(#475,#476,#477));
#356=AXIS2_PLACEMENT_3D('',#478,#479,#480);
#357=SURFACE_SIDE_STYLE('',(#481));
#358=EDGE_LOOP('',(#482,#483,#484,#485,#486));
#359=AXIS2_PLACEMENT_3D('',#487,#488,#489);
#360=SURFACE_SIDE_STYLE('',(#490));
#361=EDGE_LOOP('',(#491,#492,#493,#494,#495));
#362=AXIS2_PLACEMENT_3D('',#496,#497,#498);
#363=DRAUGHTING_PRE_DEFINED_CURVE_FONT('continuous');
#364=COLOUR_RGB('',0.800000011920929,0.800000011920929,0.800000011920929);
#365=CARTESIAN_POINT('',(5.0,8.66025403784439,-86.0));
#366=VECTOR('',#499,1.0);
#367=PRE_DEFINED_MARKER('');
#368=COLOUR_RGB('',0.498039215803146,0.498039215803146,0.498039215803146);
#369=DRAUGHTING_PRE_DEFINED_CURVE_FONT('continuous');
#370=COLOUR_RGB('',0.498039215803146,0.498039215803146,0.498039215803146);
#371=CARTESIAN_POINT('',(-1.16337603613126E-015,9.5,-0.5));
#372=VECTOR('',#500,1.0);
#373=DRAUGHTING_PRE_DEFINED_CURVE_FONT('continuous');
#374=COLOUR_RGB('',0.498039215803146,0.498039215803146,0.498039215803146);
#375=AXIS2_PLACEMENT_3D('',#501,#502,#503);
#376=DRAUGHTING_PRE_DEFINED_CURVE_FONT('continuous');
#377=COLOUR_RGB('',0.800000011920929,0.800000011920929,0.800000011920929);
#378=AXIS2_PLACEMENT_3D('',#504,#505,#506);
#379=DRAUGHTING_PRE_DEFINED_CURVE_FONT('continuous');
#380=COLOUR_RGB('',0.800000011920929,0.800000011920929,0.800000011920929);
#381=AXIS2_PLACEMENT_3D('',#507,#508,#509);
#382=SURFACE_SIDE_STYLE('',(#510));
#383=EDGE_LOOP('',(#511,#512));
#384=AXIS2_PLACEMENT_3D('',#513,#514,#515);
#385=SURFACE_SIDE_STYLE('',(#516));
#386=EDGE_LOOP('',(#517,#518,#519,#520,#521));
#387=AXIS2_PLACEMENT_3D('',#522,#523,#524);
#388=DRAUGHTING_PRE_DEFINED_CURVE_FONT('continuous');
#389=COLOUR_RGB('',0.800000011920929,0.800000011920929,0.800000011920929);
#390=AXIS2_PLACEMENT_3D('',#525,#526,#527);
#391=SURFACE_SIDE_STYLE('',(#528));
#392=EDGE_LOOP('',(#529,#530,#531));
#393=AXIS2_PLACEMENT_3D('',#532,#533,#534);
#394=SURFACE_SIDE_STYLE('',(#535));
#395=EDGE_LOOP('',(#536,#537,#538,#539,#540));
#396=AXIS2_PLACEMENT_3D('',#541,#542,#543);
#397=PRE_DEFINED_MARKER('');
#398=COLOUR_RGB('',0.498039215803146,0.498039215803146,0.498039215803146);
#399=SURFACE_SIDE_STYLE('',(#544));
#400=EDGE_LOOP('',(#545,#546,#547,#548,#549));
#401=AXIS2_PLACEMENT_3D('',#550,#551,#552);
#402=PRE_DEFINED_MARKER('');
#403=COLOUR_RGB('',0.800000011920929,0.800000011920929,0.800000011920929);
#404=PRE_DEFINED_MARKER('');
#405=COLOUR_RGB('',0.498039215803146,0.498039215803146,0.498039215803146);
#406=PRE_DEFINED_MARKER('');
#407=COLOUR_RGB('',0.800000011920929,0.800000011920929,0.800000011920929);
#408=DRAUGHTING_PRE_DEFINED_CURVE_FONT('continuous');
#409=COLOUR_RGB('',0.498039215803146,0.498039215803146,0.498039215803146);
#410=AXIS2_PLACEMENT_3D('',#553,#554,#555);
#411=SURFACE_SIDE_STYLE('',(#556));
#412=DRAUGHTING_PRE_DEFINED_CURVE_FONT('continuous');
#413=COLOUR_RGB('',0.800000011920929,0.800000011920929,0.800000011920929);
#414=AXIS2_PLACEMENT_3D('',#557,#558,#559);
#415=PRE_DEFINED_MARKER('');
#416=COLOUR_RGB('',0.498039215803146,0.498039215803146,0.498039215803146);
#417=PRE_DEFINED_MARKER('');
#418=COLOUR_RGB('',0.800000011920929,0.800000011920929,0.800000011920929);
#419=DRAUGHTING_PRE_DEFINED_CURVE_FONT('continuous');
#420=COLOUR_RGB('',0.800000011920929,0.800000011920929,0.800000011920929);
#421=CARTESIAN_POINT('',(-5.0,-8.66025403784439,-86.0));
#422=VECTOR('',#560,1.0);
#423=DRAUGHTING_PRE_DEFINED_CURVE_FONT('continuous');
#424=COLOUR_RGB('',0.800000011920929,0.800000011920929,0.800000011920929);
#425=AXIS2_PLACEMENT_3D('',#561,#562,#563);
#426=DRAUGHTING_PRE_DEFINED_CURVE_FONT('continuous');
#427=COLOUR_RGB('',0.800000011920929,0.800000011920929,0.800000011920929);
#428=AXIS2_PLACEMENT_3D('',#564,#565,#566);
#429=SURFACE_SIDE_STYLE('',(#567));
#430=EDGE_LOOP('',(#568,#569,#570,#571,#572));
#431=AXIS2_PLACEMENT_3D('',#573,#574,#575);
#432=DRAUGHTING_PRE_DEFINED_CURVE_FONT('continuous');
#433=COLOUR_RGB('',0.498039215803146,0.498039215803146,0.498039215803146);
#434=AXIS2_PLACEMENT_3D('',#576,#577,#578);
#435=DRAUGHTING_PRE_DEFINED_CURVE_FONT('continuous');
#436=COLOUR_RGB('',0.498039215803146,0.498039215803146,0.498039215803146);
#437=AXIS2_PLACEMENT_3D('',#579,#580,#581);
#438=PRE_DEFINED_MARKER('');
#439=COLOUR_RGB('',0.498039215803146,0.498039215803146,0.498039215803146);
#440=PRE_DEFINED_MARKER('');
#441=COLOUR_RGB('',0.498039215803146,0.498039215803146,0.498039215803146);
#442=DRAUGHTING_PRE_DEFINED_CURVE_FONT('continuous');
#443=COLOUR_RGB('',0.800000011920929,0.800000011920929,0.800000011920929);
#444=AXIS2_PLACEMENT_3D('',#582,#583,#584);
#446=DIRECTION('',(0.0,0.0,-1.0));
#447=CARTESIAN_POINT('',(0.0,0.0,-1.0));
#448=DIRECTION('',(0.0,0.0,-1.0));
#449=DIRECTION('',(0.0,1.0,0.0));
#450=CARTESIAN_POINT('',(0.0,0.0,-1.0));
#451=DIRECTION('',(0.0,0.0,-1.0));
#452=DIRECTION('',(0.0,1.0,0.0));
#453=DIRECTION('',(-8.65927457071936E-017,0.707106781186548,0.707106781186548));
#454=CARTESIAN_POINT('',(0.0,0.0,-1.0));
#455=DIRECTION('',(0.0,0.0,-1.0));
#456=DIRECTION('',(0.0,1.0,0.0));
#457=SURFACE_STYLE_FILL_AREA(#585);
#458=ORIENTED_EDGE('',*,*,#161,.F.);
#459=ORIENTED_EDGE('',*,*,#153,.F.);
#460=CARTESIAN_POINT('',(2.5,4.33012701892219,-72.0));
#461=DIRECTION('',(0.0,0.0,1.0));
#462=DIRECTION('',(-0.5,-0.866025403784439,0.0));
#463=SURFACE_STYLE_FILL_AREA(#586);
#464=ORIENTED_EDGE('',*,*,#107,.T.);
#465=ORIENTED_EDGE('',*,*,#123,.T.);
#466=CARTESIAN_POINT('',(-5.0,0.0,-72.0));
#467=DIRECTION('',(0.0,0.0,-1.0));
#468=DIRECTION('',(-1.0,0.0,0.0));
#469=DIRECTION('',(-0.0,-0.0,1.0));
#470=CARTESIAN_POINT('',(0.0,0.0,-72.0));
#471=DIRECTION('',(0.0,0.0,-1.0));
#472=DIRECTION('',(-1.0,0.0,0.0));
#473=SURFACE_STYLE_FILL_AREA(#587);
#474=SURFACE_STYLE_FILL_AREA(#588);
#475=ORIENTED_EDGE('',*,*,#127,.T.);
#476=ORIENTED_EDGE('',*,*,#133,.T.);
#477=ORIENTED_EDGE('',*,*,#125,.T.);
#478=CARTESIAN_POINT('',(0.0,0.0,-100.0));
#479=DIRECTION('',(0.0,1.0,0.0));
#480=DIRECTION('',(0.0,0.0,-1.0));
#481=SURFACE_STYLE_FILL_AREA(#589);
#482=ORIENTED_EDGE('',*,*,#117,.T.);
#483=ORIENTED_EDGE('',*,*,#133,.F.);
#484=ORIENTED_EDGE('',*,*,#163,.F.);
#485=ORIENTED_EDGE('',*,*,#159,.T.);
#486=ORIENTED_EDGE('',*,*,#153,.T.);
#487=CARTESIAN_POINT('',(0.0,0.0,-86.0));
#488=DIRECTION('',(-0.0,-0.0,1.0));
#489=DIRECTION('',(0.5,0.866025403784439,0.0));
#490=SURFACE_STYLE_FILL_AREA(#590);
#491=ORIENTED_EDGE('',*,*,#83,.T.);
#492=ORIENTED_EDGE('',*,*,#123,.F.);
#493=ORIENTED_EDGE('',*,*,#105,.T.);
#494=ORIENTED_EDGE('',*,*,#93,.T.);
#495=ORIENTED_EDGE('',*,*,#85,.T.);
#496=CARTESIAN_POINT('',(0.0,0.0,-61.0));
#497=DIRECTION('',(-0.0,-0.0,1.0));
#498=DIRECTION('',(-1.0,0.0,0.0));
#499=DIRECTION('',(0.0,0.0,-1.0));
#500=DIRECTION('',(-8.65927457071936E-017,0.707106781186548,-0.707106781186548));
#501=CARTESIAN_POINT('',(0.0,0.0,-72.0));
#502=DIRECTION('',(0.0,0.0,-1.0));
#503=DIRECTION('',(-1.0,0.0,0.0));
#504=CARTESIAN_POINT('',(0.0,0.0,-100.0));
#505=DIRECTION('',(0.0,0.0,-1.0));
#506=DIRECTION('',(0.5,0.866025403784439,0.0));
#507=CARTESIAN_POINT('',(0.0,0.0,-100.0));
#508=DIRECTION('',(1.0,0.0,1.22460635382238E-016));
#509=DIRECTION('',(-1.22460635382238E-016,0.0,1.0));
#510=SURFACE_STYLE_FILL_AREA(#591);
#511=ORIENTED_EDGE('',*,*,#169,.F.);
#512=ORIENTED_EDGE('',*,*,#149,.F.);
#513=CARTESIAN_POINT('',(0.0,4.5,0.0));
#514=DIRECTION('',(-0.0,0.0,1.0));
#515=DIRECTION('',(0.0,-1.0,0.0));
#516=SURFACE_STYLE_FILL_AREA(#592);
#517=ORIENTED_EDGE('',*,*,#117,.F.);
#518=ORIENTED_EDGE('',*,*,#161,.T.);
#519=ORIENTED_EDGE('',*,*,#159,.F.);
#520=ORIENTED_EDGE('',*,*,#175,.F.);
#521=ORIENTED_EDGE('',*,*,#125,.F.);
#522=CARTESIAN_POINT('',(0.0,0.0,-86.0));
#523=DIRECTION('',(-0.0,-0.0,1.0));
#524=DIRECTION('',(0.5,0.866025403784439,0.0));
#525=CARTESIAN_POINT('',(0.0,0.0,-100.0));
#526=DIRECTION('',(0.0,0.0,-1.0));
#527=DIRECTION('',(0.5,0.866025403784439,0.0));
#528=SURFACE_STYLE_FILL_AREA(#593);
#529=ORIENTED_EDGE('',*,*,#127,.F.);
#530=ORIENTED_EDGE('',*,*,#175,.T.);
#531=ORIENTED_EDGE('',*,*,#163,.T.);
#532=CARTESIAN_POINT('',(0.0,0.0,-100.0));
#533=DIRECTION('',(0.0,1.0,0.0));
#534=DIRECTION('',(0.0,0.0,-1.0));
#535=SURFACE_STYLE_FILL_AREA(#594);
#536=ORIENTED_EDGE('',*,*,#121,.T.);
#537=ORIENTED_EDGE('',*,*,#167,.F.);
#538=ORIENTED_EDGE('',*,*,#85,.F.);
#539=ORIENTED_EDGE('',*,*,#89,.T.);
#540=ORIENTED_EDGE('',*,*,#149,.T.);
#541=CARTESIAN_POINT('',(0.0,0.0,-0.5));
#542=DIRECTION('',(0.0,-0.0,-1.0));
#543=DIRECTION('',(0.0,1.0,0.0));
#544=SURFACE_STYLE_FILL_AREA(#595);
#545=ORIENTED_EDGE('',*,*,#83,.F.);
#546=ORIENTED_EDGE('',*,*,#167,.T.);
#547=ORIENTED_EDGE('',*,*,#87,.T.);
#548=ORIENTED_EDGE('',*,*,#105,.F.);
#549=ORIENTED_EDGE('',*,*,#107,.F.);
#550=CARTESIAN_POINT('',(0.0,0.0,-61.0));
#551=DIRECTION('',(-0.0,-0.0,1.0));
#552=DIRECTION('',(-1.0,0.0,0.0));
#553=CARTESIAN_POINT('',(0.0,0.0,0.0));
#554=DIRECTION('',(0.0,0.0,-1.0));
#555=DIRECTION('',(0.0,1.0,0.0));
#556=SURFACE_STYLE_FILL_AREA(#596);
#557=CARTESIAN_POINT('',(0.0,0.0,-72.0));
#558=DIRECTION('',(0.0,0.0,-1.0));
#559=DIRECTION('',(0.5,0.866025403784439,0.0));
#560=DIRECTION('',(-0.0,-0.0,1.0));
#561=CARTESIAN_POINT('',(0.0,0.0,-72.0));
#562=DIRECTION('',(0.0,0.0,-1.0));
#563=DIRECTION('',(0.5,0.866025403784439,0.0));
#564=CARTESIAN_POINT('',(0.0,0.0,-100.0));
#565=DIRECTION('',(0.0,0.0,-1.0));
#566=DIRECTION('',(0.5,0.866025403784439,0.0));
#567=SURFACE_STYLE_FILL_AREA(#597);
#568=ORIENTED_EDGE('',*,*,#121,.F.);
#569=ORIENTED_EDGE('',*,*,#169,.T.);
#570=ORIENTED_EDGE('',*,*,#89,.F.);
#571=ORIENTED_EDGE('',*,*,#93,.F.);
#572=ORIENTED_EDGE('',*,*,#87,.F.);
#573=CARTESIAN_POINT('',(0.0,0.0,-0.5));
#574=DIRECTION('',(0.0,-0.0,-1.0));
#575=DIRECTION('',(0.0,1.0,0.0));
#576=CARTESIAN_POINT('',(0.0,0.0,-1.0));
#577=DIRECTION('',(0.0,0.0,-1.0));
#578=DIRECTION('',(0.0,1.0,0.0));
#579=CARTESIAN_POINT('',(0.0,0.0,0.0));
#580=DIRECTION('',(0.0,0.0,-1.0));
#581=DIRECTION('',(0.0,1.0,0.0));
#582=CARTESIAN_POINT('',(0.0,0.0,-100.0));
#583=DIRECTION('',(0.0,0.0,-1.0));
#584=DIRECTION('',(0.5,0.866025403784439,0.0));
#585=FILL_AREA_STYLE('',(#598));
#586=FILL_AREA_STYLE('',(#599));
#587=FILL_AREA_STYLE('',(#600));
#588=FILL_AREA_STYLE('',(#601));
#589=FILL_AREA_STYLE('',(#602));
#590=FILL_AREA_STYLE('',(#603));
#591=FILL_AREA_STYLE('',(#604));
#592=FILL_AREA_STYLE('',(#605));
#593=FILL_AREA_STYLE('',(#606));
#594=FILL_AREA_STYLE('',(#607));
#595=FILL_AREA_STYLE('',(#608));
#596=FILL_AREA_STYLE('',(#609));
#597=FILL_AREA_STYLE('',(#610));
#598=FILL_AREA_STYLE_COLOUR('',#611);
#599=FILL_AREA_STYLE_COLOUR('',#612);
#600=FILL_AREA_STYLE_COLOUR('',#613);
#601=FILL_AREA_STYLE_COLOUR('',#614);
#602=FILL_AREA_STYLE_COLOUR('',#615);
#603=FILL_AREA_STYLE_COLOUR('',#616);
#604=FILL_AREA_STYLE_COLOUR('',#617);
#605=FILL_AREA_STYLE_COLOUR('',#618);
#606=FILL_AREA_STYLE_COLOUR('',#619);
#607=FILL_AREA_STYLE_COLOUR('',#620);
#608=FILL_AREA_STYLE_COLOUR('',#621);
#609=FILL_AREA_STYLE_COLOUR('',#622);
#610=FILL_AREA_STYLE_COLOUR('',#623);
#611=COLOUR_RGB('',0.800000011920929,0.800000011920929,0.800000011920929);
#612=COLOUR_RGB('',0.498039215803146,0.498039215803146,0.498039215803146);
#613=COLOUR_RGB('',0.498039215803146,0.498039215803146,0.498039215803146);
#614=COLOUR_RGB('',0.800000011920929,0.800000011920929,0.800000011920929);
#615=COLOUR_RGB('',0.800000011920929,0.800000011920929,0.800000011920929);
#616=COLOUR_RGB('',0.498039215803146,0.498039215803146,0.498039215803146);
#617=COLOUR_RGB('',0.498039215803146,0.498039215803146,0.498039215803146);
#618=COLOUR_RGB('',0.800000011920929,0.800000011920929,0.800000011920929);
#619=COLOUR_RGB('',0.800000011920929,0.800000011920929,0.800000011920929);
#620=COLOUR_RGB('',0.498039215803146,0.498039215803146,0.498039215803146);
#621=COLOUR_RGB('',0.498039215803146,0.498039215803146,0.498039215803146);
#622=COLOUR_RGB('',0.800000011920929,0.800000011920929,0.800000011920929);
#623=COLOUR_RGB('',0.498039215803146,0.498039215803146,0.498039215803146);
#624=AXIS2_PLACEMENT_3D('PCS',#625,#626,#627);
#625=CARTESIAN_POINT('',(0.0,0.0,0.0));
#626=DIRECTION('',(0.0,0.0,1.0));
#627=DIRECTION('',(1.0,0.0,0.0));
#628=AXIS2_PLACEMENT_3D('MCS',#629,#630,#631);
#629=CARTESIAN_POINT('',(0.0,0.0,-50.0));
#630=DIRECTION('',(0.0,0.0,1.0));
#631=DIRECTION('',(1.0,0.0,0.0));
#632=AXIS2_PLACEMENT_3D('CIP',#633,#634,#635);
#633=CARTESIAN_POINT('',(0.0,0.0,-110.0));
#634=DIRECTION('',(0.0,0.0,1.0));
#635=DIRECTION('',(1.0,0.0,0.0));
#636=CONSTRUCTIVE_GEOMETRY_REPRESENTATION_RELATIONSHIP('coordinate systems',$,#66,#637);
#637=CONSTRUCTIVE_GEOMETRY_REPRESENTATION('coordinate systems',(#624,#628,#632),#10);
ENDSEC;
END-ISO-10303-21;
