ISO-10303-21;
HEADER;
FILE_DESCRIPTION(('no description'),'unknown implementation level');
FILE_NAME('8521712.stp','  ',('CIM GmbH Aachen'),('CADClick - KiM GmbH - www.kimweb.de'),'unknown preprocess','ACIS','unknown authorization');
FILE_SCHEMA(('automotive_design'));
ENDSEC;
DATA;
#1=MECHANICAL_DESIGN_GEOMETRIC_PRESENTATION_REPRESENTATION(' ',(#14,#15,#16,#17,#18,#19,#20,#21,#22,#23,#24,#25,#26,#27,#28,#29,#30,#31,#32,#33,#34,#35,#36,#37,#38,#39,#40,#41,#42,#43,#44,#45,#46,#47,#48,#49,#50,#51,#52,#53,#54,#55,#56,#57,#58,#59,#60,#61),#10);
#2=PRODUCT_DEFINITION_CONTEXT('',#62,'design');
#3=APPLICATION_PROTOCOL_DEFINITION('INTERNATIONAL STANDARD','automotive_design',1994,#62);
#4=PRODUCT_CATEGORY_RELATIONSHIP('NONE','NONE',#63,#64);
#5=SHAPE_DEFINITION_REPRESENTATION(#65,#66);
#6=PRODUCT_DEFINITION_CONTEXT('',#67,'design');
#7=APPLICATION_PROTOCOL_DEFINITION('INTERNATIONAL STANDARD','automotive_design',1994,#67);
#8=PRODUCT_CATEGORY_RELATIONSHIP('NONE','NONE',#68,#69);
#9=SHAPE_DEFINITION_REPRESENTATION(#70,#71);
#10= (GEOMETRIC_REPRESENTATION_CONTEXT(3)GLOBAL_UNCERTAINTY_ASSIGNED_CONTEXT((#74))GLOBAL_UNIT_ASSIGNED_CONTEXT((#76,#77,#78))REPRESENTATION_CONTEXT('NONE','WORKSPACE'));
#14=STYLED_ITEM('',(#80),#81);
#15=STYLED_ITEM('',(#82),#83);
#16=STYLED_ITEM('',(#84),#85);
#17=STYLED_ITEM('',(#86),#87);
#18=STYLED_ITEM('',(#88),#89);
#19=STYLED_ITEM('',(#90),#91);
#20=STYLED_ITEM('',(#92),#93);
#21=STYLED_ITEM('',(#94),#95);
#22=STYLED_ITEM('',(#96),#97);
#23=STYLED_ITEM('',(#98),#99);
#24=STYLED_ITEM('',(#100),#101);
#25=STYLED_ITEM('',(#102),#103);
#26=STYLED_ITEM('',(#104),#105);
#27=STYLED_ITEM('',(#106),#107);
#28=STYLED_ITEM('',(#108),#109);
#29=STYLED_ITEM('',(#110),#111);
#30=STYLED_ITEM('',(#112),#113);
#31=STYLED_ITEM('',(#114),#115);
#32=STYLED_ITEM('',(#116),#117);
#33=STYLED_ITEM('',(#118),#119);
#34=STYLED_ITEM('',(#120),#121);
#35=STYLED_ITEM('',(#122),#123);
#36=STYLED_ITEM('',(#124),#125);
#37=STYLED_ITEM('',(#126),#127);
#38=STYLED_ITEM('',(#128),#129);
#39=STYLED_ITEM('',(#130),#131);
#40=STYLED_ITEM('',(#132),#133);
#41=STYLED_ITEM('',(#134),#135);
#42=STYLED_ITEM('',(#136),#137);
#43=STYLED_ITEM('',(#138),#139);
#44=STYLED_ITEM('',(#140),#141);
#45=STYLED_ITEM('',(#142),#143);
#46=STYLED_ITEM('',(#144),#145);
#47=STYLED_ITEM('',(#146),#147);
#48=STYLED_ITEM('',(#148),#149);
#49=STYLED_ITEM('',(#150),#151);
#50=STYLED_ITEM('',(#152),#153);
#51=STYLED_ITEM('',(#154),#155);
#52=STYLED_ITEM('',(#156),#157);
#53=STYLED_ITEM('',(#158),#159);
#54=STYLED_ITEM('',(#160),#161);
#55=STYLED_ITEM('',(#162),#163);
#56=STYLED_ITEM('',(#164),#165);
#57=STYLED_ITEM('',(#166),#167);
#58=STYLED_ITEM('',(#168),#169);
#59=STYLED_ITEM('',(#170),#171);
#60=STYLED_ITEM('',(#172),#173);
#61=STYLED_ITEM('',(#174),#175);
#62=APPLICATION_CONTEXT(' ');
#63=PRODUCT_CATEGORY('part','NONE');
#64=PRODUCT_RELATED_PRODUCT_CATEGORY('detail',' ',(#176));
#65=PRODUCT_DEFINITION_SHAPE('NONE','NONE',#177);
#66=ADVANCED_BREP_SHAPE_REPRESENTATION('1',(#127,#178),#10);
#67=APPLICATION_CONTEXT(' ');
#68=PRODUCT_CATEGORY('part','NONE');
#69=PRODUCT_RELATED_PRODUCT_CATEGORY('detail',' ',(#179));
#70=PRODUCT_DEFINITION_SHAPE('NONE','NONE',#180);
#71=ADVANCED_BREP_SHAPE_REPRESENTATION('2',(#175,#181),#10);
#74=UNCERTAINTY_MEASURE_WITH_UNIT(LENGTH_MEASURE(1.0E-006),#76,'','');
#76= (CONVERSION_BASED_UNIT('MILLIMETRE',#184)LENGTH_UNIT()NAMED_UNIT(#187));
#77= (NAMED_UNIT(#189)PLANE_ANGLE_UNIT()SI_UNIT($,.RADIAN.));
#78= (NAMED_UNIT(#189)SOLID_ANGLE_UNIT()SI_UNIT($,.STERADIAN.));
#80=PRESENTATION_STYLE_ASSIGNMENT((#195));
#81=EDGE_CURVE('',#155,#137,#196,.T.);
#82=PRESENTATION_STYLE_ASSIGNMENT((#197));
#83=EDGE_CURVE('',#103,#133,#198,.T.);
#84=PRESENTATION_STYLE_ASSIGNMENT((#199));
#85=ADVANCED_FACE('',(#200),#201,.T.);
#86=PRESENTATION_STYLE_ASSIGNMENT((#202));
#87=VERTEX_POINT('',#203);
#88=PRESENTATION_STYLE_ASSIGNMENT((#204));
#89=ADVANCED_FACE('',(#205),#206,.T.);
#90=PRESENTATION_STYLE_ASSIGNMENT((#207));
#91=ADVANCED_FACE('',(#208),#209,.T.);
#92=PRESENTATION_STYLE_ASSIGNMENT((#210));
#93=ADVANCED_FACE('',(#211),#212,.T.);
#94=PRESENTATION_STYLE_ASSIGNMENT((#213));
#95=ADVANCED_FACE('',(#214),#215,.T.);
#96=PRESENTATION_STYLE_ASSIGNMENT((#216));
#97=VERTEX_POINT('',#217);
#98=PRESENTATION_STYLE_ASSIGNMENT((#218));
#99=EDGE_CURVE('',#169,#119,#219,.T.);
#100=PRESENTATION_STYLE_ASSIGNMENT((#220));
#101=EDGE_CURVE('',#87,#161,#221,.T.);
#102=PRESENTATION_STYLE_ASSIGNMENT((#222));
#103=VERTEX_POINT('',#223);
#104=PRESENTATION_STYLE_ASSIGNMENT((#224));
#105=EDGE_CURVE('',#149,#137,#225,.T.);
#106=PRESENTATION_STYLE_ASSIGNMENT((#226));
#107=EDGE_CURVE('',#163,#169,#227,.T.);
#108=PRESENTATION_STYLE_ASSIGNMENT((#228));
#109=ADVANCED_FACE('',(#229),#230,.T.);
#110=PRESENTATION_STYLE_ASSIGNMENT((#231));
#111=ADVANCED_FACE('',(#232),#233,.T.);
#112=PRESENTATION_STYLE_ASSIGNMENT((#234));
#113=VERTEX_POINT('',#235);
#114=PRESENTATION_STYLE_ASSIGNMENT((#236));
#115=ADVANCED_FACE('',(#237),#238,.T.);
#116=PRESENTATION_STYLE_ASSIGNMENT((#239));
#117=ADVANCED_FACE('',(#240),#241,.T.);
#118=PRESENTATION_STYLE_ASSIGNMENT((#242));
#119=VERTEX_POINT('',#243);
#120=PRESENTATION_STYLE_ASSIGNMENT((#244));
#121=EDGE_CURVE('',#119,#133,#245,.T.);
#122=PRESENTATION_STYLE_ASSIGNMENT((#246));
#123=EDGE_CURVE('',#165,#155,#247,.T.);
#124=PRESENTATION_STYLE_ASSIGNMENT((#248));
#125=EDGE_CURVE('',#165,#167,#249,.T.);
#126=PRESENTATION_STYLE_ASSIGNMENT((#250));
#127=MANIFOLD_SOLID_BREP('1',#251);
#128=PRESENTATION_STYLE_ASSIGNMENT((#252));
#129=EDGE_CURVE('',#113,#165,#253,.T.);
#130=PRESENTATION_STYLE_ASSIGNMENT((#254));
#131=EDGE_CURVE('',#155,#167,#255,.T.);
#132=PRESENTATION_STYLE_ASSIGNMENT((#256));
#133=VERTEX_POINT('',#257);
#134=PRESENTATION_STYLE_ASSIGNMENT((#258));
#135=EDGE_CURVE('',#161,#97,#259,.T.);
#136=PRESENTATION_STYLE_ASSIGNMENT((#260));
#137=VERTEX_POINT('',#261);
#138=PRESENTATION_STYLE_ASSIGNMENT((#262));
#139=EDGE_CURVE('',#167,#113,#263,.T.);
#140=PRESENTATION_STYLE_ASSIGNMENT((#264));
#141=EDGE_CURVE('',#163,#103,#265,.T.);
#142=PRESENTATION_STYLE_ASSIGNMENT((#266));
#143=EDGE_CURVE('',#137,#149,#267,.T.);
#144=PRESENTATION_STYLE_ASSIGNMENT((#268));
#145=EDGE_CURVE('',#161,#87,#269,.T.);
#146=PRESENTATION_STYLE_ASSIGNMENT((#270));
#147=EDGE_CURVE('',#97,#163,#271,.T.);
#148=PRESENTATION_STYLE_ASSIGNMENT((#272));
#149=VERTEX_POINT('',#273);
#150=PRESENTATION_STYLE_ASSIGNMENT((#274));
#151=ADVANCED_FACE('',(#275),#276,.T.);
#152=PRESENTATION_STYLE_ASSIGNMENT((#277));
#153=EDGE_CURVE('',#149,#113,#278,.T.);
#154=PRESENTATION_STYLE_ASSIGNMENT((#279));
#155=VERTEX_POINT('',#280);
#156=PRESENTATION_STYLE_ASSIGNMENT((#281));
#157=EDGE_CURVE('',#119,#169,#282,.T.);
#158=PRESENTATION_STYLE_ASSIGNMENT((#283));
#159=ADVANCED_FACE('',(#284),#285,.T.);
#160=PRESENTATION_STYLE_ASSIGNMENT((#286));
#161=VERTEX_POINT('',#287);
#162=PRESENTATION_STYLE_ASSIGNMENT((#288));
#163=VERTEX_POINT('',#289);
#164=PRESENTATION_STYLE_ASSIGNMENT((#290));
#165=VERTEX_POINT('',#291);
#166=PRESENTATION_STYLE_ASSIGNMENT((#292));
#167=VERTEX_POINT('',#293);
#168=PRESENTATION_STYLE_ASSIGNMENT((#294));
#169=VERTEX_POINT('',#295);
#170=PRESENTATION_STYLE_ASSIGNMENT((#296));
#171=EDGE_CURVE('',#103,#87,#297,.T.);
#172=PRESENTATION_STYLE_ASSIGNMENT((#298));
#173=EDGE_CURVE('',#133,#97,#299,.T.);
#174=PRESENTATION_STYLE_ASSIGNMENT((#300));
#175=MANIFOLD_SOLID_BREP('2',#301);
#176=PRODUCT('1','1','PART-1-DESC',(#302));
#177=PRODUCT_DEFINITION('NONE','NONE',#303,#2);
#178=AXIS2_PLACEMENT_3D('',#304,#305,#306);
#179=PRODUCT('2','2','PART-2-DESC',(#307));
#180=PRODUCT_DEFINITION('NONE','NONE',#308,#6);
#181=AXIS2_PLACEMENT_3D('',#309,#310,#311);
#184=LENGTH_MEASURE_WITH_UNIT(LENGTH_MEASURE(1.0),#312);
#187=DIMENSIONAL_EXPONENTS(1.0,0.0,0.0,0.0,0.0,0.0,0.0);
#189=DIMENSIONAL_EXPONENTS(0.0,0.0,0.0,0.0,0.0,0.0,0.0);
#195=CURVE_STYLE('',#313,POSITIVE_LENGTH_MEASURE(1.0E-006),#314);
#196=LINE('',#315,#316);
#197=CURVE_STYLE('',#317,POSITIVE_LENGTH_MEASURE(1.0E-006),#318);
#198=CIRCLE('',#319,6.0);
#199=SURFACE_STYLE_USAGE(.BOTH.,#320);
#200=FACE_OUTER_BOUND('',#321,.T.);
#201=CYLINDRICAL_SURFACE('',#322,6.0);
#202=POINT_STYLE(' ',#323,POSITIVE_LENGTH_MEASURE(1.0E-006),#324);
#203=CARTESIAN_POINT('',(-6.0,0.0,-58.0));
#204=SURFACE_STYLE_USAGE(.BOTH.,#325);
#205=FACE_OUTER_BOUND('',#326,.T.);
#206=SPHERICAL_SURFACE('',#327,5.99999999999999);
#207=SURFACE_STYLE_USAGE(.BOTH.,#328);
#208=FACE_OUTER_BOUND('',#329,.T.);
#209=SPHERICAL_SURFACE('',#330,5.99999999999999);
#210=SURFACE_STYLE_USAGE(.BOTH.,#331);
#211=FACE_OUTER_BOUND('',#332,.T.);
#212=PLANE('',#333);
#213=SURFACE_STYLE_USAGE(.BOTH.,#334);
#214=FACE_OUTER_BOUND('',#335,.T.);
#215=CYLINDRICAL_SURFACE('',#336,6.0);
#216=POINT_STYLE(' ',#337,POSITIVE_LENGTH_MEASURE(1.0E-006),#338);
#217=CARTESIAN_POINT('',(6.0,7.34763812293426E-016,-0.600000000000001));
#218=CURVE_STYLE('',#339,POSITIVE_LENGTH_MEASURE(1.0E-006),#340);
#219=CIRCLE('',#341,5.4);
#220=CURVE_STYLE('',#342,POSITIVE_LENGTH_MEASURE(1.0E-006),#343);
#221=CIRCLE('',#344,6.0);
#222=POINT_STYLE(' ',#345,POSITIVE_LENGTH_MEASURE(1.0E-006),#346);
#223=CARTESIAN_POINT('',(-6.0,-7.34763812293426E-016,-0.600000000000001));
#224=CURVE_STYLE('',#347,POSITIVE_LENGTH_MEASURE(1.0E-006),#348);
#225=CIRCLE('',#349,6.0);
#226=CURVE_STYLE('',#350,POSITIVE_LENGTH_MEASURE(1.0E-006),#351);
#227=LINE('',#352,#353);
#228=SURFACE_STYLE_USAGE(.BOTH.,#354);
#229=FACE_OUTER_BOUND('',#355,.T.);
#230=CYLINDRICAL_SURFACE('',#356,6.0);
#231=SURFACE_STYLE_USAGE(.BOTH.,#357);
#232=FACE_OUTER_BOUND('',#358,.T.);
#233=PLANE('',#359);
#234=POINT_STYLE(' ',#360,POSITIVE_LENGTH_MEASURE(1.0E-006),#361);
#235=CARTESIAN_POINT('',(3.0,5.19615242270663,-74.0));
#236=SURFACE_STYLE_USAGE(.BOTH.,#362);
#237=FACE_OUTER_BOUND('',#363,.T.);
#238=CYLINDRICAL_SURFACE('',#364,6.0);
#239=SURFACE_STYLE_USAGE(.BOTH.,#365);
#240=FACE_OUTER_BOUND('',#366,.T.);
#241=CONICAL_SURFACE('',#367,5.7,0.785398163397447);
#242=POINT_STYLE(' ',#368,POSITIVE_LENGTH_MEASURE(1.0E-006),#369);
#243=CARTESIAN_POINT('',(0.0,5.4,0.0));
#244=CURVE_STYLE('',#370,POSITIVE_LENGTH_MEASURE(1.0E-006),#371);
#245=LINE('',#372,#373);
#246=CURVE_STYLE('',#374,POSITIVE_LENGTH_MEASURE(1.0E-006),#375);
#247=CIRCLE('',#376,6.0);
#248=CURVE_STYLE('',#377,POSITIVE_LENGTH_MEASURE(1.0E-006),#378);
#249=CIRCLE('',#379,5.99999999999999);
#250=SURFACE_STYLE_USAGE(.BOTH.,#380);
#251=CLOSED_SHELL('',(#95,#117,#111,#151,#115,#159));
#252=CURVE_STYLE('',#381,POSITIVE_LENGTH_MEASURE(1.0E-006),#382);
#253=CIRCLE('',#383,6.0);
#254=CURVE_STYLE('',#384,POSITIVE_LENGTH_MEASURE(1.0E-006),#385);
#255=CIRCLE('',#386,6.0);
#256=POINT_STYLE(' ',#387,POSITIVE_LENGTH_MEASURE(1.0E-006),#388);
#257=CARTESIAN_POINT('',(0.0,6.0,-0.600000000000001));
#258=CURVE_STYLE('',#389,POSITIVE_LENGTH_MEASURE(1.0E-006),#390);
#259=LINE('',#391,#392);
#260=POINT_STYLE(' ',#393,POSITIVE_LENGTH_MEASURE(1.0E-006),#394);
#261=CARTESIAN_POINT('',(-3.0,-5.19615242270663,-58.0));
#262=CURVE_STYLE('',#395,POSITIVE_LENGTH_MEASURE(1.0E-006),#396);
#263=CIRCLE('',#397,6.0);
#264=CURVE_STYLE('',#398,POSITIVE_LENGTH_MEASURE(1.0E-006),#399);
#265=CIRCLE('',#400,6.0);
#266=CURVE_STYLE('',#401,POSITIVE_LENGTH_MEASURE(1.0E-006),#402);
#267=CIRCLE('',#403,6.0);
#268=CURVE_STYLE('',#404,POSITIVE_LENGTH_MEASURE(1.0E-006),#405);
#269=CIRCLE('',#406,6.0);
#270=CURVE_STYLE('',#407,POSITIVE_LENGTH_MEASURE(1.0E-006),#408);
#271=CIRCLE('',#409,6.0);
#272=POINT_STYLE(' ',#410,POSITIVE_LENGTH_MEASURE(1.0E-006),#411);
#273=CARTESIAN_POINT('',(3.0,5.19615242270663,-58.0));
#274=SURFACE_STYLE_USAGE(.BOTH.,#412);
#275=FACE_OUTER_BOUND('',#413,.T.);
#276=CONICAL_SURFACE('',#414,5.7,0.785398163397447);
#277=CURVE_STYLE('',#415,POSITIVE_LENGTH_MEASURE(1.0E-006),#416);
#278=LINE('',#417,#418);
#279=POINT_STYLE(' ',#419,POSITIVE_LENGTH_MEASURE(1.0E-006),#420);
#280=CARTESIAN_POINT('',(-3.0,-5.19615242270663,-74.0));
#281=CURVE_STYLE('',#421,POSITIVE_LENGTH_MEASURE(1.0E-006),#422);
#282=CIRCLE('',#423,5.4);
#283=SURFACE_STYLE_USAGE(.BOTH.,#424);
#284=FACE_OUTER_BOUND('',#425,.T.);
#285=PLANE('',#426);
#286=POINT_STYLE(' ',#427,POSITIVE_LENGTH_MEASURE(1.0E-006),#428);
#287=CARTESIAN_POINT('',(6.0,7.34763812293426E-016,-58.0));
#288=POINT_STYLE(' ',#429,POSITIVE_LENGTH_MEASURE(1.0E-006),#430);
#289=CARTESIAN_POINT('',(7.34763812293426E-016,-6.0,-0.600000000000001));
#290=POINT_STYLE(' ',#431,POSITIVE_LENGTH_MEASURE(1.0E-006),#432);
#291=CARTESIAN_POINT('',(-1.74027029774831E-030,-6.0,-74.0));
#292=POINT_STYLE(' ',#433,POSITIVE_LENGTH_MEASURE(1.0E-006),#434);
#293=CARTESIAN_POINT('',(-1.74027029774831E-030,6.0,-74.0));
#294=POINT_STYLE(' ',#435,POSITIVE_LENGTH_MEASURE(1.0E-006),#436);
#295=CARTESIAN_POINT('',(6.61287431064084E-016,-5.4,0.0));
#296=CURVE_STYLE('',#437,POSITIVE_LENGTH_MEASURE(1.0E-006),#438);
#297=LINE('',#439,#440);
#298=CURVE_STYLE('',#441,POSITIVE_LENGTH_MEASURE(1.0E-006),#442);
#299=CIRCLE('',#443,6.0);
#300=SURFACE_STYLE_USAGE(.BOTH.,#444);
#301=CLOSED_SHELL('',(#109,#91,#89,#93,#85));
#302=PRODUCT_CONTEXT('',#62,'mechanical');
#303=PRODUCT_DEFINITION_FORMATION_WITH_SPECIFIED_SOURCE(' ','NONE',#176,.NOT_KNOWN.);
#304=CARTESIAN_POINT('',(0.0,0.0,0.0));
#305=DIRECTION('',(0.0,0.0,1.0));
#306=DIRECTION('',(1.0,0.0,0.0));
#307=PRODUCT_CONTEXT('',#67,'mechanical');
#308=PRODUCT_DEFINITION_FORMATION_WITH_SPECIFIED_SOURCE(' ','NONE',#179,.NOT_KNOWN.);
#309=CARTESIAN_POINT('',(0.0,0.0,0.0));
#310=DIRECTION('',(0.0,0.0,1.0));
#311=DIRECTION('',(1.0,0.0,0.0));
#312= (NAMED_UNIT(#187)LENGTH_UNIT()SI_UNIT(.MILLI.,.METRE.));
#313=DRAUGHTING_PRE_DEFINED_CURVE_FONT('continuous');
#314=COLOUR_RGB('',0.800000011920929,0.800000011920929,0.800000011920929);
#315=CARTESIAN_POINT('',(-3.0,-5.19615242270663,-66.0));
#316=VECTOR('',#446,1.0);
#317=DRAUGHTING_PRE_DEFINED_CURVE_FONT('continuous');
#318=COLOUR_RGB('',0.498039215803146,0.498039215803146,0.498039215803146);
#319=AXIS2_PLACEMENT_3D('',#447,#448,#449);
#320=SURFACE_SIDE_STYLE('',(#450));
#321=EDGE_LOOP('',(#451,#452,#453,#454,#455));
#322=AXIS2_PLACEMENT_3D('',#456,#457,#458);
#323=PRE_DEFINED_MARKER('');
#324=COLOUR_RGB('',0.498039215803146,0.498039215803146,0.498039215803146);
#325=SURFACE_SIDE_STYLE('',(#459));
#326=EDGE_LOOP('',(#460,#461,#462));
#327=AXIS2_PLACEMENT_3D('',#463,#464,#465);
#328=SURFACE_SIDE_STYLE('',(#466));
#329=EDGE_LOOP('',(#467,#468,#469));
#330=AXIS2_PLACEMENT_3D('',#470,#471,#472);
#331=SURFACE_SIDE_STYLE('',(#473));
#332=EDGE_LOOP('',(#474,#475));
#333=AXIS2_PLACEMENT_3D('',#476,#477,#478);
#334=SURFACE_SIDE_STYLE('',(#479));
#335=EDGE_LOOP('',(#480,#481,#482,#483,#484));
#336=AXIS2_PLACEMENT_3D('',#485,#486,#487);
#337=PRE_DEFINED_MARKER('');
#338=COLOUR_RGB('',0.498039215803146,0.498039215803146,0.498039215803146);
#339=DRAUGHTING_PRE_DEFINED_CURVE_FONT('continuous');
#340=COLOUR_RGB('',0.498039215803146,0.498039215803146,0.498039215803146);
#341=AXIS2_PLACEMENT_3D('',#488,#489,#490);
#342=DRAUGHTING_PRE_DEFINED_CURVE_FONT('continuous');
#343=COLOUR_RGB('',0.498039215803146,0.498039215803146,0.498039215803146);
#344=AXIS2_PLACEMENT_3D('',#491,#492,#493);
#345=PRE_DEFINED_MARKER('');
#346=COLOUR_RGB('',0.498039215803146,0.498039215803146,0.498039215803146);
#347=DRAUGHTING_PRE_DEFINED_CURVE_FONT('continuous');
#348=COLOUR_RGB('',0.800000011920929,0.800000011920929,0.800000011920929);
#349=AXIS2_PLACEMENT_3D('',#494,#495,#496);
#350=DRAUGHTING_PRE_DEFINED_CURVE_FONT('continuous');
#351=COLOUR_RGB('',0.498039215803146,0.498039215803146,0.498039215803146);
#352=CARTESIAN_POINT('',(6.98025621678755E-016,-5.7,-0.300000000000004));
#353=VECTOR('',#497,1.0);
#354=SURFACE_SIDE_STYLE('',(#498));
#355=EDGE_LOOP('',(#499,#500,#501,#502,#503));
#356=AXIS2_PLACEMENT_3D('',#504,#505,#506);
#357=SURFACE_SIDE_STYLE('',(#507));
#358=EDGE_LOOP('',(#508,#509));
#359=AXIS2_PLACEMENT_3D('',#510,#511,#512);
#360=PRE_DEFINED_MARKER('');
#361=COLOUR_RGB('',0.800000011920929,0.800000011920929,0.800000011920929);
#362=SURFACE_SIDE_STYLE('',(#513));
#363=EDGE_LOOP('',(#514,#515,#516,#517,#518));
#364=AXIS2_PLACEMENT_3D('',#519,#520,#521);
#365=SURFACE_SIDE_STYLE('',(#522));
#366=EDGE_LOOP('',(#523,#524,#525,#526,#527));
#367=AXIS2_PLACEMENT_3D('',#528,#529,#530);
#368=PRE_DEFINED_MARKER('');
#369=COLOUR_RGB('',0.498039215803146,0.498039215803146,0.498039215803146);
#370=DRAUGHTING_PRE_DEFINED_CURVE_FONT('continuous');
#371=COLOUR_RGB('',0.498039215803146,0.498039215803146,0.498039215803146);
#372=CARTESIAN_POINT('',(-6.98025621678755E-016,5.7,-0.300000000000004));
#373=VECTOR('',#531,1.0);
#374=DRAUGHTING_PRE_DEFINED_CURVE_FONT('continuous');
#375=COLOUR_RGB('',0.800000011920929,0.800000011920929,0.800000011920929);
#376=AXIS2_PLACEMENT_3D('',#532,#533,#534);
#377=DRAUGHTING_PRE_DEFINED_CURVE_FONT('continuous');
#378=COLOUR_RGB('',0.800000011920929,0.800000011920929,0.800000011920929);
#379=AXIS2_PLACEMENT_3D('',#535,#536,#537);
#380=SURFACE_SIDE_STYLE('',(#538));
#381=DRAUGHTING_PRE_DEFINED_CURVE_FONT('continuous');
#382=COLOUR_RGB('',0.800000011920929,0.800000011920929,0.800000011920929);
#383=AXIS2_PLACEMENT_3D('',#539,#540,#541);
#384=DRAUGHTING_PRE_DEFINED_CURVE_FONT('continuous');
#385=COLOUR_RGB('',0.800000011920929,0.800000011920929,0.800000011920929);
#386=AXIS2_PLACEMENT_3D('',#542,#543,#544);
#387=PRE_DEFINED_MARKER('');
#388=COLOUR_RGB('',0.498039215803146,0.498039215803146,0.498039215803146);
#389=DRAUGHTING_PRE_DEFINED_CURVE_FONT('continuous');
#390=COLOUR_RGB('',0.498039215803146,0.498039215803146,0.498039215803146);
#391=CARTESIAN_POINT('',(6.0,7.34763812293426E-016,-51.5));
#392=VECTOR('',#545,1.0);
#393=PRE_DEFINED_MARKER('');
#394=COLOUR_RGB('',0.800000011920929,0.800000011920929,0.800000011920929);
#395=DRAUGHTING_PRE_DEFINED_CURVE_FONT('continuous');
#396=COLOUR_RGB('',0.800000011920929,0.800000011920929,0.800000011920929);
#397=AXIS2_PLACEMENT_3D('',#546,#547,#548);
#398=DRAUGHTING_PRE_DEFINED_CURVE_FONT('continuous');
#399=COLOUR_RGB('',0.498039215803146,0.498039215803146,0.498039215803146);
#400=AXIS2_PLACEMENT_3D('',#549,#550,#551);
#401=DRAUGHTING_PRE_DEFINED_CURVE_FONT('continuous');
#402=COLOUR_RGB('',0.800000011920929,0.800000011920929,0.800000011920929);
#403=AXIS2_PLACEMENT_3D('',#552,#553,#554);
#404=DRAUGHTING_PRE_DEFINED_CURVE_FONT('continuous');
#405=COLOUR_RGB('',0.498039215803146,0.498039215803146,0.498039215803146);
#406=AXIS2_PLACEMENT_3D('',#555,#556,#557);
#407=DRAUGHTING_PRE_DEFINED_CURVE_FONT('continuous');
#408=COLOUR_RGB('',0.498039215803146,0.498039215803146,0.498039215803146);
#409=AXIS2_PLACEMENT_3D('',#558,#559,#560);
#410=PRE_DEFINED_MARKER('');
#411=COLOUR_RGB('',0.800000011920929,0.800000011920929,0.800000011920929);
#412=SURFACE_SIDE_STYLE('',(#561));
#413=EDGE_LOOP('',(#562,#563,#564,#565,#566));
#414=AXIS2_PLACEMENT_3D('',#567,#568,#569);
#415=DRAUGHTING_PRE_DEFINED_CURVE_FONT('continuous');
#416=COLOUR_RGB('',0.800000011920929,0.800000011920929,0.800000011920929);
#417=CARTESIAN_POINT('',(3.0,5.19615242270663,-66.0));
#418=VECTOR('',#570,1.0);
#419=PRE_DEFINED_MARKER('');
#420=COLOUR_RGB('',0.800000011920929,0.800000011920929,0.800000011920929);
#421=DRAUGHTING_PRE_DEFINED_CURVE_FONT('continuous');
#422=COLOUR_RGB('',0.498039215803146,0.498039215803146,0.498039215803146);
#423=AXIS2_PLACEMENT_3D('',#571,#572,#573);
#424=SURFACE_SIDE_STYLE('',(#574));
#425=EDGE_LOOP('',(#575,#576));
#426=AXIS2_PLACEMENT_3D('',#577,#578,#579);
#427=PRE_DEFINED_MARKER('');
#428=COLOUR_RGB('',0.498039215803146,0.498039215803146,0.498039215803146);
#429=PRE_DEFINED_MARKER('');
#430=COLOUR_RGB('',0.498039215803146,0.498039215803146,0.498039215803146);
#431=PRE_DEFINED_MARKER('');
#432=COLOUR_RGB('',0.800000011920929,0.800000011920929,0.800000011920929);
#433=PRE_DEFINED_MARKER('');
#434=COLOUR_RGB('',0.800000011920929,0.800000011920929,0.800000011920929);
#435=PRE_DEFINED_MARKER('');
#436=COLOUR_RGB('',0.498039215803146,0.498039215803146,0.498039215803146);
#437=DRAUGHTING_PRE_DEFINED_CURVE_FONT('continuous');
#438=COLOUR_RGB('',0.498039215803146,0.498039215803146,0.498039215803146);
#439=CARTESIAN_POINT('',(-6.0,-7.34763812293426E-016,-51.5));
#440=VECTOR('',#580,1.0);
#441=DRAUGHTING_PRE_DEFINED_CURVE_FONT('continuous');
#442=COLOUR_RGB('',0.498039215803146,0.498039215803146,0.498039215803146);
#443=AXIS2_PLACEMENT_3D('',#581,#582,#583);
#444=SURFACE_SIDE_STYLE('',(#584));
#446=DIRECTION('',(-0.0,-0.0,1.0));
#447=CARTESIAN_POINT('',(0.0,0.0,-0.600000000000001));
#448=DIRECTION('',(0.0,0.0,-1.0));
#449=DIRECTION('',(0.0,1.0,0.0));
#450=SURFACE_STYLE_FILL_AREA(#585);
#451=ORIENTED_EDGE('',*,*,#153,.T.);
#452=ORIENTED_EDGE('',*,*,#139,.F.);
#453=ORIENTED_EDGE('',*,*,#131,.F.);
#454=ORIENTED_EDGE('',*,*,#81,.T.);
#455=ORIENTED_EDGE('',*,*,#143,.T.);
#456=CARTESIAN_POINT('',(0.0,0.0,-66.0));
#457=DIRECTION('',(-0.0,-0.0,1.0));
#458=DIRECTION('',(0.5,0.866025403784439,0.0));
#459=SURFACE_STYLE_FILL_AREA(#586);
#460=ORIENTED_EDGE('',*,*,#125,.T.);
#461=ORIENTED_EDGE('',*,*,#139,.T.);
#462=ORIENTED_EDGE('',*,*,#129,.T.);
#463=CARTESIAN_POINT('',(0.0,0.0,-74.0));
#464=DIRECTION('',(0.0,1.0,0.0));
#465=DIRECTION('',(0.0,0.0,-1.0));
#466=SURFACE_STYLE_FILL_AREA(#587);
#467=ORIENTED_EDGE('',*,*,#125,.F.);
#468=ORIENTED_EDGE('',*,*,#123,.T.);
#469=ORIENTED_EDGE('',*,*,#131,.T.);
#470=CARTESIAN_POINT('',(0.0,0.0,-74.0));
#471=DIRECTION('',(0.0,1.0,0.0));
#472=DIRECTION('',(0.0,0.0,-1.0));
#473=SURFACE_STYLE_FILL_AREA(#588);
#474=ORIENTED_EDGE('',*,*,#105,.F.);
#475=ORIENTED_EDGE('',*,*,#143,.F.);
#476=CARTESIAN_POINT('',(1.5,2.59807621135332,-58.0));
#477=DIRECTION('',(0.0,0.0,1.0));
#478=DIRECTION('',(-0.5,-0.866025403784439,0.0));
#479=SURFACE_STYLE_FILL_AREA(#589);
#480=ORIENTED_EDGE('',*,*,#171,.F.);
#481=ORIENTED_EDGE('',*,*,#83,.T.);
#482=ORIENTED_EDGE('',*,*,#173,.T.);
#483=ORIENTED_EDGE('',*,*,#135,.F.);
#484=ORIENTED_EDGE('',*,*,#101,.F.);
#485=CARTESIAN_POINT('',(0.0,0.0,-51.5));
#486=DIRECTION('',(-0.0,-0.0,1.0));
#487=DIRECTION('',(-1.0,0.0,0.0));
#488=CARTESIAN_POINT('',(0.0,0.0,0.0));
#489=DIRECTION('',(0.0,0.0,-1.0));
#490=DIRECTION('',(0.0,1.0,0.0));
#491=CARTESIAN_POINT('',(0.0,0.0,-58.0));
#492=DIRECTION('',(0.0,0.0,-1.0));
#493=DIRECTION('',(-1.0,0.0,0.0));
#494=CARTESIAN_POINT('',(0.0,0.0,-58.0));
#495=DIRECTION('',(0.0,0.0,-1.0));
#496=DIRECTION('',(0.5,0.866025403784439,0.0));
#497=DIRECTION('',(-8.65927457071934E-017,0.707106781186546,0.707106781186549));
#498=SURFACE_STYLE_FILL_AREA(#590);
#499=ORIENTED_EDGE('',*,*,#153,.F.);
#500=ORIENTED_EDGE('',*,*,#105,.T.);
#501=ORIENTED_EDGE('',*,*,#81,.F.);
#502=ORIENTED_EDGE('',*,*,#123,.F.);
#503=ORIENTED_EDGE('',*,*,#129,.F.);
#504=CARTESIAN_POINT('',(0.0,0.0,-66.0));
#505=DIRECTION('',(-0.0,-0.0,1.0));
#506=DIRECTION('',(0.5,0.866025403784439,0.0));
#507=SURFACE_STYLE_FILL_AREA(#591);
#508=ORIENTED_EDGE('',*,*,#157,.F.);
#509=ORIENTED_EDGE('',*,*,#99,.F.);
#510=CARTESIAN_POINT('',(0.0,2.7,0.0));
#511=DIRECTION('',(-0.0,0.0,1.0));
#512=DIRECTION('',(0.0,-1.0,0.0));
#513=SURFACE_STYLE_FILL_AREA(#592);
#514=ORIENTED_EDGE('',*,*,#171,.T.);
#515=ORIENTED_EDGE('',*,*,#145,.F.);
#516=ORIENTED_EDGE('',*,*,#135,.T.);
#517=ORIENTED_EDGE('',*,*,#147,.T.);
#518=ORIENTED_EDGE('',*,*,#141,.T.);
#519=CARTESIAN_POINT('',(0.0,0.0,-51.5));
#520=DIRECTION('',(-0.0,-0.0,1.0));
#521=DIRECTION('',(-1.0,0.0,0.0));
#522=SURFACE_STYLE_FILL_AREA(#593);
#523=ORIENTED_EDGE('',*,*,#121,.F.);
#524=ORIENTED_EDGE('',*,*,#157,.T.);
#525=ORIENTED_EDGE('',*,*,#107,.F.);
#526=ORIENTED_EDGE('',*,*,#147,.F.);
#527=ORIENTED_EDGE('',*,*,#173,.F.);
#528=CARTESIAN_POINT('',(0.0,0.0,-0.300000000000004));
#529=DIRECTION('',(0.0,-0.0,-1.0));
#530=DIRECTION('',(0.0,1.0,0.0));
#531=DIRECTION('',(-8.65927457071934E-017,0.707106781186546,-0.707106781186549));
#532=CARTESIAN_POINT('',(0.0,0.0,-74.0));
#533=DIRECTION('',(0.0,0.0,-1.0));
#534=DIRECTION('',(0.5,0.866025403784439,0.0));
#535=CARTESIAN_POINT('',(0.0,0.0,-74.0));
#536=DIRECTION('',(1.0,0.0,1.22460635382238E-016));
#537=DIRECTION('',(-1.22460635382238E-016,0.0,1.0));
#538=SURFACE_STYLE_FILL_AREA(#594);
#539=CARTESIAN_POINT('',(0.0,0.0,-74.0));
#540=DIRECTION('',(0.0,0.0,-1.0));
#541=DIRECTION('',(0.5,0.866025403784439,0.0));
#542=CARTESIAN_POINT('',(0.0,0.0,-74.0));
#543=DIRECTION('',(0.0,0.0,-1.0));
#544=DIRECTION('',(0.5,0.866025403784439,0.0));
#545=DIRECTION('',(-0.0,-0.0,1.0));
#546=CARTESIAN_POINT('',(0.0,0.0,-74.0));
#547=DIRECTION('',(0.0,0.0,-1.0));
#548=DIRECTION('',(0.5,0.866025403784439,0.0));
#549=CARTESIAN_POINT('',(0.0,0.0,-0.600000000000001));
#550=DIRECTION('',(0.0,0.0,-1.0));
#551=DIRECTION('',(0.0,1.0,0.0));
#552=CARTESIAN_POINT('',(0.0,0.0,-58.0));
#553=DIRECTION('',(0.0,0.0,-1.0));
#554=DIRECTION('',(0.5,0.866025403784439,0.0));
#555=CARTESIAN_POINT('',(0.0,0.0,-58.0));
#556=DIRECTION('',(0.0,0.0,-1.0));
#557=DIRECTION('',(-1.0,0.0,0.0));
#558=CARTESIAN_POINT('',(0.0,0.0,-0.600000000000001));
#559=DIRECTION('',(0.0,0.0,-1.0));
#560=DIRECTION('',(0.0,1.0,0.0));
#561=SURFACE_STYLE_FILL_AREA(#595);
#562=ORIENTED_EDGE('',*,*,#121,.T.);
#563=ORIENTED_EDGE('',*,*,#83,.F.);
#564=ORIENTED_EDGE('',*,*,#141,.F.);
#565=ORIENTED_EDGE('',*,*,#107,.T.);
#566=ORIENTED_EDGE('',*,*,#99,.T.);
#567=CARTESIAN_POINT('',(0.0,0.0,-0.300000000000004));
#568=DIRECTION('',(0.0,-0.0,-1.0));
#569=DIRECTION('',(0.0,1.0,0.0));
#570=DIRECTION('',(0.0,0.0,-1.0));
#571=CARTESIAN_POINT('',(0.0,0.0,0.0));
#572=DIRECTION('',(0.0,0.0,-1.0));
#573=DIRECTION('',(0.0,1.0,0.0));
#574=SURFACE_STYLE_FILL_AREA(#596);
#575=ORIENTED_EDGE('',*,*,#101,.T.);
#576=ORIENTED_EDGE('',*,*,#145,.T.);
#577=CARTESIAN_POINT('',(-3.0,0.0,-58.0));
#578=DIRECTION('',(0.0,0.0,-1.0));
#579=DIRECTION('',(-1.0,0.0,0.0));
#580=DIRECTION('',(0.0,0.0,-1.0));
#581=CARTESIAN_POINT('',(0.0,0.0,-0.600000000000001));
#582=DIRECTION('',(0.0,0.0,-1.0));
#583=DIRECTION('',(0.0,1.0,0.0));
#584=SURFACE_STYLE_FILL_AREA(#597);
#585=FILL_AREA_STYLE('',(#598));
#586=FILL_AREA_STYLE('',(#599));
#587=FILL_AREA_STYLE('',(#600));
#588=FILL_AREA_STYLE('',(#601));
#589=FILL_AREA_STYLE('',(#602));
#590=FILL_AREA_STYLE('',(#603));
#591=FILL_AREA_STYLE('',(#604));
#592=FILL_AREA_STYLE('',(#605));
#593=FILL_AREA_STYLE('',(#606));
#594=FILL_AREA_STYLE('',(#607));
#595=FILL_AREA_STYLE('',(#608));
#596=FILL_AREA_STYLE('',(#609));
#597=FILL_AREA_STYLE('',(#610));
#598=FILL_AREA_STYLE_COLOUR('',#611);
#599=FILL_AREA_STYLE_COLOUR('',#612);
#600=FILL_AREA_STYLE_COLOUR('',#613);
#601=FILL_AREA_STYLE_COLOUR('',#614);
#602=FILL_AREA_STYLE_COLOUR('',#615);
#603=FILL_AREA_STYLE_COLOUR('',#616);
#604=FILL_AREA_STYLE_COLOUR('',#617);
#605=FILL_AREA_STYLE_COLOUR('',#618);
#606=FILL_AREA_STYLE_COLOUR('',#619);
#607=FILL_AREA_STYLE_COLOUR('',#620);
#608=FILL_AREA_STYLE_COLOUR('',#621);
#609=FILL_AREA_STYLE_COLOUR('',#622);
#610=FILL_AREA_STYLE_COLOUR('',#623);
#611=COLOUR_RGB('',0.800000011920929,0.800000011920929,0.800000011920929);
#612=COLOUR_RGB('',0.800000011920929,0.800000011920929,0.800000011920929);
#613=COLOUR_RGB('',0.800000011920929,0.800000011920929,0.800000011920929);
#614=COLOUR_RGB('',0.800000011920929,0.800000011920929,0.800000011920929);
#615=COLOUR_RGB('',0.498039215803146,0.498039215803146,0.498039215803146);
#616=COLOUR_RGB('',0.800000011920929,0.800000011920929,0.800000011920929);
#617=COLOUR_RGB('',0.498039215803146,0.498039215803146,0.498039215803146);
#618=COLOUR_RGB('',0.498039215803146,0.498039215803146,0.498039215803146);
#619=COLOUR_RGB('',0.498039215803146,0.498039215803146,0.498039215803146);
#620=COLOUR_RGB('',0.498039215803146,0.498039215803146,0.498039215803146);
#621=COLOUR_RGB('',0.498039215803146,0.498039215803146,0.498039215803146);
#622=COLOUR_RGB('',0.498039215803146,0.498039215803146,0.498039215803146);
#623=COLOUR_RGB('',0.800000011920929,0.800000011920929,0.800000011920929);
#624=AXIS2_PLACEMENT_3D('PCS',#625,#626,#627);
#625=CARTESIAN_POINT('',(0.0,0.0,0.0));
#626=DIRECTION('',(0.0,0.0,1.0));
#627=DIRECTION('',(1.0,0.0,0.0));
#628=AXIS2_PLACEMENT_3D('MCS',#629,#630,#631);
#629=CARTESIAN_POINT('',(0.0,0.0,-45.0));
#630=DIRECTION('',(0.0,0.0,1.0));
#631=DIRECTION('',(1.0,0.0,0.0));
#632=AXIS2_PLACEMENT_3D('CIP',#633,#634,#635);
#633=CARTESIAN_POINT('',(0.0,0.0,-80.0));
#634=DIRECTION('',(0.0,0.0,1.0));
#635=DIRECTION('',(1.0,0.0,0.0));
#636=CONSTRUCTIVE_GEOMETRY_REPRESENTATION_RELATIONSHIP('coordinate systems',$,#66,#637);
#637=CONSTRUCTIVE_GEOMETRY_REPRESENTATION('coordinate systems',(#624,#628,#632),#10);
ENDSEC;
END-ISO-10303-21;
