ISO-10303-21;
HEADER;
FILE_DESCRIPTION(('no description'),'unknown implementation level');
FILE_NAME('8521716.stp','  ',('CIM GmbH Aachen'),('CADClick - KiM GmbH - www.kimweb.de'),'unknown preprocess','ACIS','unknown authorization');
FILE_SCHEMA(('automotive_design'));
ENDSEC;
DATA;
#1=MECHANICAL_DESIGN_GEOMETRIC_PRESENTATION_REPRESENTATION(' ',(#14,#15,#16,#17,#18,#19,#20,#21,#22,#23,#24,#25,#26,#27,#28,#29,#30,#31,#32,#33,#34,#35,#36,#37,#38,#39,#40,#41,#42,#43,#44,#45,#46,#47,#48,#49,#50,#51,#52,#53,#54,#55,#56,#57,#58,#59,#60,#61),#10);
#2=PRODUCT_DEFINITION_CONTEXT('',#62,'design');
#3=APPLICATION_PROTOCOL_DEFINITION('INTERNATIONAL STANDARD','automotive_design',1994,#62);
#4=PRODUCT_CATEGORY_RELATIONSHIP('NONE','NONE',#63,#64);
#5=SHAPE_DEFINITION_REPRESENTATION(#65,#66);
#6=PRODUCT_DEFINITION_CONTEXT('',#67,'design');
#7=APPLICATION_PROTOCOL_DEFINITION('INTERNATIONAL STANDARD','automotive_design',1994,#67);
#8=PRODUCT_CATEGORY_RELATIONSHIP('NONE','NONE',#68,#69);
#9=SHAPE_DEFINITION_REPRESENTATION(#70,#71);
#10= (GEOMETRIC_REPRESENTATION_CONTEXT(3)GLOBAL_UNCERTAINTY_ASSIGNED_CONTEXT((#74))GLOBAL_UNIT_ASSIGNED_CONTEXT((#76,#77,#78))REPRESENTATION_CONTEXT('NONE','WORKSPACE'));
#14=STYLED_ITEM('',(#80),#81);
#15=STYLED_ITEM('',(#82),#83);
#16=STYLED_ITEM('',(#84),#85);
#17=STYLED_ITEM('',(#86),#87);
#18=STYLED_ITEM('',(#88),#89);
#19=STYLED_ITEM('',(#90),#91);
#20=STYLED_ITEM('',(#92),#93);
#21=STYLED_ITEM('',(#94),#95);
#22=STYLED_ITEM('',(#96),#97);
#23=STYLED_ITEM('',(#98),#99);
#24=STYLED_ITEM('',(#100),#101);
#25=STYLED_ITEM('',(#102),#103);
#26=STYLED_ITEM('',(#104),#105);
#27=STYLED_ITEM('',(#106),#107);
#28=STYLED_ITEM('',(#108),#109);
#29=STYLED_ITEM('',(#110),#111);
#30=STYLED_ITEM('',(#112),#113);
#31=STYLED_ITEM('',(#114),#115);
#32=STYLED_ITEM('',(#116),#117);
#33=STYLED_ITEM('',(#118),#119);
#34=STYLED_ITEM('',(#120),#121);
#35=STYLED_ITEM('',(#122),#123);
#36=STYLED_ITEM('',(#124),#125);
#37=STYLED_ITEM('',(#126),#127);
#38=STYLED_ITEM('',(#128),#129);
#39=STYLED_ITEM('',(#130),#131);
#40=STYLED_ITEM('',(#132),#133);
#41=STYLED_ITEM('',(#134),#135);
#42=STYLED_ITEM('',(#136),#137);
#43=STYLED_ITEM('',(#138),#139);
#44=STYLED_ITEM('',(#140),#141);
#45=STYLED_ITEM('',(#142),#143);
#46=STYLED_ITEM('',(#144),#145);
#47=STYLED_ITEM('',(#146),#147);
#48=STYLED_ITEM('',(#148),#149);
#49=STYLED_ITEM('',(#150),#151);
#50=STYLED_ITEM('',(#152),#153);
#51=STYLED_ITEM('',(#154),#155);
#52=STYLED_ITEM('',(#156),#157);
#53=STYLED_ITEM('',(#158),#159);
#54=STYLED_ITEM('',(#160),#161);
#55=STYLED_ITEM('',(#162),#163);
#56=STYLED_ITEM('',(#164),#165);
#57=STYLED_ITEM('',(#166),#167);
#58=STYLED_ITEM('',(#168),#169);
#59=STYLED_ITEM('',(#170),#171);
#60=STYLED_ITEM('',(#172),#173);
#61=STYLED_ITEM('',(#174),#175);
#62=APPLICATION_CONTEXT(' ');
#63=PRODUCT_CATEGORY('part','NONE');
#64=PRODUCT_RELATED_PRODUCT_CATEGORY('detail',' ',(#176));
#65=PRODUCT_DEFINITION_SHAPE('NONE','NONE',#177);
#66=ADVANCED_BREP_SHAPE_REPRESENTATION('1',(#83,#178),#10);
#67=APPLICATION_CONTEXT(' ');
#68=PRODUCT_CATEGORY('part','NONE');
#69=PRODUCT_RELATED_PRODUCT_CATEGORY('detail',' ',(#179));
#70=PRODUCT_DEFINITION_SHAPE('NONE','NONE',#180);
#71=ADVANCED_BREP_SHAPE_REPRESENTATION('2',(#175,#181),#10);
#74=UNCERTAINTY_MEASURE_WITH_UNIT(LENGTH_MEASURE(1.0E-006),#76,'','');
#76= (CONVERSION_BASED_UNIT('MILLIMETRE',#184)LENGTH_UNIT()NAMED_UNIT(#187));
#77= (NAMED_UNIT(#189)PLANE_ANGLE_UNIT()SI_UNIT($,.RADIAN.));
#78= (NAMED_UNIT(#189)SOLID_ANGLE_UNIT()SI_UNIT($,.STERADIAN.));
#80=PRESENTATION_STYLE_ASSIGNMENT((#195));
#81=VERTEX_POINT('',#196);
#82=PRESENTATION_STYLE_ASSIGNMENT((#197));
#83=MANIFOLD_SOLID_BREP('1',#198);
#84=PRESENTATION_STYLE_ASSIGNMENT((#199));
#85=VERTEX_POINT('',#200);
#86=PRESENTATION_STYLE_ASSIGNMENT((#201));
#87=EDGE_CURVE('',#125,#89,#202,.T.);
#88=PRESENTATION_STYLE_ASSIGNMENT((#203));
#89=VERTEX_POINT('',#204);
#90=PRESENTATION_STYLE_ASSIGNMENT((#205));
#91=VERTEX_POINT('',#206);
#92=PRESENTATION_STYLE_ASSIGNMENT((#207));
#93=VERTEX_POINT('',#208);
#94=PRESENTATION_STYLE_ASSIGNMENT((#209));
#95=EDGE_CURVE('',#141,#147,#210,.T.);
#96=PRESENTATION_STYLE_ASSIGNMENT((#211));
#97=EDGE_CURVE('',#143,#93,#212,.T.);
#98=PRESENTATION_STYLE_ASSIGNMENT((#213));
#99=EDGE_CURVE('',#85,#171,#214,.T.);
#100=PRESENTATION_STYLE_ASSIGNMENT((#215));
#101=ADVANCED_FACE('',(#216),#217,.T.);
#102=PRESENTATION_STYLE_ASSIGNMENT((#218));
#103=VERTEX_POINT('',#219);
#104=PRESENTATION_STYLE_ASSIGNMENT((#220));
#105=EDGE_CURVE('',#103,#143,#221,.T.);
#106=PRESENTATION_STYLE_ASSIGNMENT((#222));
#107=VERTEX_POINT('',#223);
#108=PRESENTATION_STYLE_ASSIGNMENT((#224));
#109=EDGE_CURVE('',#171,#85,#225,.T.);
#110=PRESENTATION_STYLE_ASSIGNMENT((#226));
#111=ADVANCED_FACE('',(#227),#228,.T.);
#112=PRESENTATION_STYLE_ASSIGNMENT((#229));
#113=ADVANCED_FACE('',(#230),#231,.T.);
#114=PRESENTATION_STYLE_ASSIGNMENT((#232));
#115=ADVANCED_FACE('',(#233),#234,.T.);
#116=PRESENTATION_STYLE_ASSIGNMENT((#235));
#117=EDGE_CURVE('',#91,#167,#236,.T.);
#118=PRESENTATION_STYLE_ASSIGNMENT((#237));
#119=VERTEX_POINT('',#238);
#120=PRESENTATION_STYLE_ASSIGNMENT((#239));
#121=ADVANCED_FACE('',(#240),#241,.T.);
#122=PRESENTATION_STYLE_ASSIGNMENT((#242));
#123=ADVANCED_FACE('',(#243),#244,.T.);
#124=PRESENTATION_STYLE_ASSIGNMENT((#245));
#125=VERTEX_POINT('',#246);
#126=PRESENTATION_STYLE_ASSIGNMENT((#247));
#127=EDGE_CURVE('',#141,#81,#248,.T.);
#128=PRESENTATION_STYLE_ASSIGNMENT((#249));
#129=ADVANCED_FACE('',(#250),#251,.T.);
#130=PRESENTATION_STYLE_ASSIGNMENT((#252));
#131=EDGE_CURVE('',#125,#167,#253,.T.);
#132=PRESENTATION_STYLE_ASSIGNMENT((#254));
#133=EDGE_CURVE('',#91,#81,#255,.T.);
#134=PRESENTATION_STYLE_ASSIGNMENT((#256));
#135=ADVANCED_FACE('',(#257),#258,.T.);
#136=PRESENTATION_STYLE_ASSIGNMENT((#259));
#137=ADVANCED_FACE('',(#260),#261,.T.);
#138=PRESENTATION_STYLE_ASSIGNMENT((#262));
#139=EDGE_CURVE('',#85,#103,#263,.T.);
#140=PRESENTATION_STYLE_ASSIGNMENT((#264));
#141=VERTEX_POINT('',#265);
#142=PRESENTATION_STYLE_ASSIGNMENT((#266));
#143=VERTEX_POINT('',#267);
#144=PRESENTATION_STYLE_ASSIGNMENT((#268));
#145=EDGE_CURVE('',#107,#103,#269,.T.);
#146=PRESENTATION_STYLE_ASSIGNMENT((#270));
#147=VERTEX_POINT('',#271);
#148=PRESENTATION_STYLE_ASSIGNMENT((#272));
#149=EDGE_CURVE('',#167,#147,#273,.T.);
#150=PRESENTATION_STYLE_ASSIGNMENT((#274));
#151=EDGE_CURVE('',#119,#89,#275,.T.);
#152=PRESENTATION_STYLE_ASSIGNMENT((#276));
#153=ADVANCED_FACE('',(#277),#278,.T.);
#154=PRESENTATION_STYLE_ASSIGNMENT((#279));
#155=EDGE_CURVE('',#147,#119,#280,.T.);
#156=PRESENTATION_STYLE_ASSIGNMENT((#281));
#157=EDGE_CURVE('',#93,#107,#282,.T.);
#158=PRESENTATION_STYLE_ASSIGNMENT((#283));
#159=EDGE_CURVE('',#93,#171,#284,.T.);
#160=PRESENTATION_STYLE_ASSIGNMENT((#285));
#161=EDGE_CURVE('',#89,#125,#286,.T.);
#162=PRESENTATION_STYLE_ASSIGNMENT((#287));
#163=EDGE_CURVE('',#81,#141,#288,.T.);
#164=PRESENTATION_STYLE_ASSIGNMENT((#289));
#165=ADVANCED_FACE('',(#290),#291,.T.);
#166=PRESENTATION_STYLE_ASSIGNMENT((#292));
#167=VERTEX_POINT('',#293);
#168=PRESENTATION_STYLE_ASSIGNMENT((#294));
#169=EDGE_CURVE('',#143,#107,#295,.T.);
#170=PRESENTATION_STYLE_ASSIGNMENT((#296));
#171=VERTEX_POINT('',#297);
#172=PRESENTATION_STYLE_ASSIGNMENT((#298));
#173=EDGE_CURVE('',#119,#91,#299,.T.);
#174=PRESENTATION_STYLE_ASSIGNMENT((#300));
#175=MANIFOLD_SOLID_BREP('2',#301);
#176=PRODUCT('1','1','PART-1-DESC',(#302));
#177=PRODUCT_DEFINITION('NONE','NONE',#303,#2);
#178=AXIS2_PLACEMENT_3D('',#304,#305,#306);
#179=PRODUCT('2','2','PART-2-DESC',(#307));
#180=PRODUCT_DEFINITION('NONE','NONE',#308,#6);
#181=AXIS2_PLACEMENT_3D('',#309,#310,#311);
#184=LENGTH_MEASURE_WITH_UNIT(LENGTH_MEASURE(1.0),#312);
#187=DIMENSIONAL_EXPONENTS(1.0,0.0,0.0,0.0,0.0,0.0,0.0);
#189=DIMENSIONAL_EXPONENTS(0.0,0.0,0.0,0.0,0.0,0.0,0.0);
#195=POINT_STYLE(' ',#313,POSITIVE_LENGTH_MEASURE(1.0E-006),#314);
#196=CARTESIAN_POINT('',(-8.0,0.0,-70.0));
#197=SURFACE_STYLE_USAGE(.BOTH.,#315);
#198=CLOSED_SHELL('',(#137,#113,#121,#153,#115,#165));
#199=POINT_STYLE(' ',#316,POSITIVE_LENGTH_MEASURE(1.0E-006),#317);
#200=CARTESIAN_POINT('',(4.0,6.92820323027551,-70.0));
#201=CURVE_STYLE('',#318,POSITIVE_LENGTH_MEASURE(1.0E-006),#319);
#202=CIRCLE('',#320,7.2);
#203=POINT_STYLE(' ',#321,POSITIVE_LENGTH_MEASURE(1.0E-006),#322);
#204=CARTESIAN_POINT('',(8.81716574752112E-016,-7.2,0.0));
#205=POINT_STYLE(' ',#323,POSITIVE_LENGTH_MEASURE(1.0E-006),#324);
#206=CARTESIAN_POINT('',(-8.0,-9.79685083057902E-016,-0.799999999999997));
#207=POINT_STYLE(' ',#325,POSITIVE_LENGTH_MEASURE(1.0E-006),#326);
#208=CARTESIAN_POINT('',(-4.0,-6.92820323027551,-92.0));
#209=CURVE_STYLE('',#327,POSITIVE_LENGTH_MEASURE(1.0E-006),#328);
#210=LINE('',#329,#330);
#211=CURVE_STYLE('',#331,POSITIVE_LENGTH_MEASURE(1.0E-006),#332);
#212=CIRCLE('',#333,8.0);
#213=CURVE_STYLE('',#334,POSITIVE_LENGTH_MEASURE(1.0E-006),#335);
#214=CIRCLE('',#336,8.0);
#215=SURFACE_STYLE_USAGE(.BOTH.,#337);
#216=FACE_OUTER_BOUND('',#338,.T.);
#217=SPHERICAL_SURFACE('',#339,8.00000000000001);
#218=POINT_STYLE(' ',#340,POSITIVE_LENGTH_MEASURE(1.0E-006),#341);
#219=CARTESIAN_POINT('',(4.0,6.92820323027551,-92.0));
#220=CURVE_STYLE('',#342,POSITIVE_LENGTH_MEASURE(1.0E-006),#343);
#221=CIRCLE('',#344,8.0);
#222=POINT_STYLE(' ',#345,POSITIVE_LENGTH_MEASURE(1.0E-006),#346);
#223=CARTESIAN_POINT('',(0.0,8.0,-92.0));
#224=CURVE_STYLE('',#347,POSITIVE_LENGTH_MEASURE(1.0E-006),#348);
#225=CIRCLE('',#349,8.0);
#226=SURFACE_STYLE_USAGE(.BOTH.,#350);
#227=FACE_OUTER_BOUND('',#351,.T.);
#228=SPHERICAL_SURFACE('',#352,8.00000000000001);
#229=SURFACE_STYLE_USAGE(.BOTH.,#353);
#230=FACE_OUTER_BOUND('',#354,.T.);
#231=CONICAL_SURFACE('',#355,7.6,0.78539816339745);
#232=SURFACE_STYLE_USAGE(.BOTH.,#356);
#233=FACE_OUTER_BOUND('',#357,.T.);
#234=CYLINDRICAL_SURFACE('',#358,8.0);
#235=CURVE_STYLE('',#359,POSITIVE_LENGTH_MEASURE(1.0E-006),#360);
#236=CIRCLE('',#361,8.0);
#237=POINT_STYLE(' ',#362,POSITIVE_LENGTH_MEASURE(1.0E-006),#363);
#238=CARTESIAN_POINT('',(9.79685083057902E-016,-8.0,-0.799999999999997));
#239=SURFACE_STYLE_USAGE(.BOTH.,#364);
#240=FACE_OUTER_BOUND('',#365,.T.);
#241=PLANE('',#366);
#242=SURFACE_STYLE_USAGE(.BOTH.,#367);
#243=FACE_OUTER_BOUND('',#368,.T.);
#244=PLANE('',#369);
#245=POINT_STYLE(' ',#370,POSITIVE_LENGTH_MEASURE(1.0E-006),#371);
#246=CARTESIAN_POINT('',(0.0,7.2,0.0));
#247=CURVE_STYLE('',#372,POSITIVE_LENGTH_MEASURE(1.0E-006),#373);
#248=CIRCLE('',#374,8.0);
#249=SURFACE_STYLE_USAGE(.BOTH.,#375);
#250=FACE_OUTER_BOUND('',#376,.T.);
#251=CYLINDRICAL_SURFACE('',#377,8.0);
#252=CURVE_STYLE('',#378,POSITIVE_LENGTH_MEASURE(1.0E-006),#379);
#253=LINE('',#380,#381);
#254=CURVE_STYLE('',#382,POSITIVE_LENGTH_MEASURE(1.0E-006),#383);
#255=LINE('',#384,#385);
#256=SURFACE_STYLE_USAGE(.BOTH.,#386);
#257=FACE_OUTER_BOUND('',#387,.T.);
#258=CYLINDRICAL_SURFACE('',#388,8.0);
#259=SURFACE_STYLE_USAGE(.BOTH.,#389);
#260=FACE_OUTER_BOUND('',#390,.T.);
#261=CYLINDRICAL_SURFACE('',#391,8.0);
#262=CURVE_STYLE('',#392,POSITIVE_LENGTH_MEASURE(1.0E-006),#393);
#263=LINE('',#394,#395);
#264=POINT_STYLE(' ',#396,POSITIVE_LENGTH_MEASURE(1.0E-006),#397);
#265=CARTESIAN_POINT('',(8.0,9.79685083057902E-016,-70.0));
#266=POINT_STYLE(' ',#398,POSITIVE_LENGTH_MEASURE(1.0E-006),#399);
#267=CARTESIAN_POINT('',(0.0,-8.0,-92.0));
#268=CURVE_STYLE('',#400,POSITIVE_LENGTH_MEASURE(1.0E-006),#401);
#269=CIRCLE('',#402,8.0);
#270=POINT_STYLE(' ',#403,POSITIVE_LENGTH_MEASURE(1.0E-006),#404);
#271=CARTESIAN_POINT('',(8.0,9.79685083057902E-016,-0.799999999999997));
#272=CURVE_STYLE('',#405,POSITIVE_LENGTH_MEASURE(1.0E-006),#406);
#273=CIRCLE('',#407,8.0);
#274=CURVE_STYLE('',#408,POSITIVE_LENGTH_MEASURE(1.0E-006),#409);
#275=LINE('',#410,#411);
#276=SURFACE_STYLE_USAGE(.BOTH.,#412);
#277=FACE_OUTER_BOUND('',#413,.T.);
#278=CONICAL_SURFACE('',#414,7.6,0.78539816339745);
#279=CURVE_STYLE('',#415,POSITIVE_LENGTH_MEASURE(1.0E-006),#416);
#280=CIRCLE('',#417,8.0);
#281=CURVE_STYLE('',#418,POSITIVE_LENGTH_MEASURE(1.0E-006),#419);
#282=CIRCLE('',#420,8.0);
#283=CURVE_STYLE('',#421,POSITIVE_LENGTH_MEASURE(1.0E-006),#422);
#284=LINE('',#423,#424);
#285=CURVE_STYLE('',#425,POSITIVE_LENGTH_MEASURE(1.0E-006),#426);
#286=CIRCLE('',#427,7.2);
#287=CURVE_STYLE('',#428,POSITIVE_LENGTH_MEASURE(1.0E-006),#429);
#288=CIRCLE('',#430,8.0);
#289=SURFACE_STYLE_USAGE(.BOTH.,#431);
#290=FACE_OUTER_BOUND('',#432,.T.);
#291=PLANE('',#433);
#292=POINT_STYLE(' ',#434,POSITIVE_LENGTH_MEASURE(1.0E-006),#435);
#293=CARTESIAN_POINT('',(0.0,8.0,-0.799999999999997));
#294=CURVE_STYLE('',#436,POSITIVE_LENGTH_MEASURE(1.0E-006),#437);
#295=CIRCLE('',#438,8.00000000000001);
#296=POINT_STYLE(' ',#439,POSITIVE_LENGTH_MEASURE(1.0E-006),#440);
#297=CARTESIAN_POINT('',(-4.0,-6.92820323027551,-70.0));
#298=CURVE_STYLE('',#441,POSITIVE_LENGTH_MEASURE(1.0E-006),#442);
#299=CIRCLE('',#443,8.0);
#300=SURFACE_STYLE_USAGE(.BOTH.,#444);
#301=CLOSED_SHELL('',(#129,#111,#101,#123,#135));
#302=PRODUCT_CONTEXT('',#62,'mechanical');
#303=PRODUCT_DEFINITION_FORMATION_WITH_SPECIFIED_SOURCE(' ','NONE',#176,.NOT_KNOWN.);
#304=CARTESIAN_POINT('',(0.0,0.0,0.0));
#305=DIRECTION('',(0.0,0.0,1.0));
#306=DIRECTION('',(1.0,0.0,0.0));
#307=PRODUCT_CONTEXT('',#67,'mechanical');
#308=PRODUCT_DEFINITION_FORMATION_WITH_SPECIFIED_SOURCE(' ','NONE',#179,.NOT_KNOWN.);
#309=CARTESIAN_POINT('',(0.0,0.0,0.0));
#310=DIRECTION('',(0.0,0.0,1.0));
#311=DIRECTION('',(1.0,0.0,0.0));
#312= (NAMED_UNIT(#187)LENGTH_UNIT()SI_UNIT(.MILLI.,.METRE.));
#313=PRE_DEFINED_MARKER('');
#314=COLOUR_RGB('',0.498039215803146,0.498039215803146,0.498039215803146);
#315=SURFACE_SIDE_STYLE('',(#446));
#316=PRE_DEFINED_MARKER('');
#317=COLOUR_RGB('',0.800000011920929,0.800000011920929,0.800000011920929);
#318=DRAUGHTING_PRE_DEFINED_CURVE_FONT('continuous');
#319=COLOUR_RGB('',0.498039215803146,0.498039215803146,0.498039215803146);
#320=AXIS2_PLACEMENT_3D('',#447,#448,#449);
#321=PRE_DEFINED_MARKER('');
#322=COLOUR_RGB('',0.498039215803146,0.498039215803146,0.498039215803146);
#323=PRE_DEFINED_MARKER('');
#324=COLOUR_RGB('',0.498039215803146,0.498039215803146,0.498039215803146);
#325=PRE_DEFINED_MARKER('');
#326=COLOUR_RGB('',0.800000011920929,0.800000011920929,0.800000011920929);
#327=DRAUGHTING_PRE_DEFINED_CURVE_FONT('continuous');
#328=COLOUR_RGB('',0.498039215803146,0.498039215803146,0.498039215803146);
#329=CARTESIAN_POINT('',(8.0,9.79685083057902E-016,-59.0));
#330=VECTOR('',#450,1.0);
#331=DRAUGHTING_PRE_DEFINED_CURVE_FONT('continuous');
#332=COLOUR_RGB('',0.800000011920929,0.800000011920929,0.800000011920929);
#333=AXIS2_PLACEMENT_3D('',#451,#452,#453);
#334=DRAUGHTING_PRE_DEFINED_CURVE_FONT('continuous');
#335=COLOUR_RGB('',0.800000011920929,0.800000011920929,0.800000011920929);
#336=AXIS2_PLACEMENT_3D('',#454,#455,#456);
#337=SURFACE_SIDE_STYLE('',(#457));
#338=EDGE_LOOP('',(#458,#459,#460));
#339=AXIS2_PLACEMENT_3D('',#461,#462,#463);
#340=PRE_DEFINED_MARKER('');
#341=COLOUR_RGB('',0.800000011920929,0.800000011920929,0.800000011920929);
#342=DRAUGHTING_PRE_DEFINED_CURVE_FONT('continuous');
#343=COLOUR_RGB('',0.800000011920929,0.800000011920929,0.800000011920929);
#344=AXIS2_PLACEMENT_3D('',#464,#465,#466);
#345=PRE_DEFINED_MARKER('');
#346=COLOUR_RGB('',0.800000011920929,0.800000011920929,0.800000011920929);
#347=DRAUGHTING_PRE_DEFINED_CURVE_FONT('continuous');
#348=COLOUR_RGB('',0.800000011920929,0.800000011920929,0.800000011920929);
#349=AXIS2_PLACEMENT_3D('',#467,#468,#469);
#350=SURFACE_SIDE_STYLE('',(#470));
#351=EDGE_LOOP('',(#471,#472,#473));
#352=AXIS2_PLACEMENT_3D('',#474,#475,#476);
#353=SURFACE_SIDE_STYLE('',(#477));
#354=EDGE_LOOP('',(#478,#479,#480,#481,#482));
#355=AXIS2_PLACEMENT_3D('',#483,#484,#485);
#356=SURFACE_SIDE_STYLE('',(#486));
#357=EDGE_LOOP('',(#487,#488,#489,#490,#491));
#358=AXIS2_PLACEMENT_3D('',#492,#493,#494);
#359=DRAUGHTING_PRE_DEFINED_CURVE_FONT('continuous');
#360=COLOUR_RGB('',0.498039215803146,0.498039215803146,0.498039215803146);
#361=AXIS2_PLACEMENT_3D('',#495,#496,#497);
#362=PRE_DEFINED_MARKER('');
#363=COLOUR_RGB('',0.498039215803146,0.498039215803146,0.498039215803146);
#364=SURFACE_SIDE_STYLE('',(#498));
#365=EDGE_LOOP('',(#499,#500));
#366=AXIS2_PLACEMENT_3D('',#501,#502,#503);
#367=SURFACE_SIDE_STYLE('',(#504));
#368=EDGE_LOOP('',(#505,#506));
#369=AXIS2_PLACEMENT_3D('',#507,#508,#509);
#370=PRE_DEFINED_MARKER('');
#371=COLOUR_RGB('',0.498039215803146,0.498039215803146,0.498039215803146);
#372=DRAUGHTING_PRE_DEFINED_CURVE_FONT('continuous');
#373=COLOUR_RGB('',0.498039215803146,0.498039215803146,0.498039215803146);
#374=AXIS2_PLACEMENT_3D('',#510,#511,#512);
#375=SURFACE_SIDE_STYLE('',(#513));
#376=EDGE_LOOP('',(#514,#515,#516,#517,#518));
#377=AXIS2_PLACEMENT_3D('',#519,#520,#521);
#378=DRAUGHTING_PRE_DEFINED_CURVE_FONT('continuous');
#379=COLOUR_RGB('',0.498039215803146,0.498039215803146,0.498039215803146);
#380=CARTESIAN_POINT('',(-9.30700828905007E-016,7.6,-0.399999999999999));
#381=VECTOR('',#522,1.0);
#382=DRAUGHTING_PRE_DEFINED_CURVE_FONT('continuous');
#383=COLOUR_RGB('',0.498039215803146,0.498039215803146,0.498039215803146);
#384=CARTESIAN_POINT('',(-8.0,-9.79685083057902E-016,-59.0));
#385=VECTOR('',#523,1.0);
#386=SURFACE_SIDE_STYLE('',(#524));
#387=EDGE_LOOP('',(#525,#526,#527,#528,#529));
#388=AXIS2_PLACEMENT_3D('',#530,#531,#532);
#389=SURFACE_SIDE_STYLE('',(#533));
#390=EDGE_LOOP('',(#534,#535,#536,#537,#538));
#391=AXIS2_PLACEMENT_3D('',#539,#540,#541);
#392=DRAUGHTING_PRE_DEFINED_CURVE_FONT('continuous');
#393=COLOUR_RGB('',0.800000011920929,0.800000011920929,0.800000011920929);
#394=CARTESIAN_POINT('',(4.0,6.92820323027551,-81.0));
#395=VECTOR('',#542,1.0);
#396=PRE_DEFINED_MARKER('');
#397=COLOUR_RGB('',0.498039215803146,0.498039215803146,0.498039215803146);
#398=PRE_DEFINED_MARKER('');
#399=COLOUR_RGB('',0.800000011920929,0.800000011920929,0.800000011920929);
#400=DRAUGHTING_PRE_DEFINED_CURVE_FONT('continuous');
#401=COLOUR_RGB('',0.800000011920929,0.800000011920929,0.800000011920929);
#402=AXIS2_PLACEMENT_3D('',#543,#544,#545);
#403=PRE_DEFINED_MARKER('');
#404=COLOUR_RGB('',0.498039215803146,0.498039215803146,0.498039215803146);
#405=DRAUGHTING_PRE_DEFINED_CURVE_FONT('continuous');
#406=COLOUR_RGB('',0.498039215803146,0.498039215803146,0.498039215803146);
#407=AXIS2_PLACEMENT_3D('',#546,#547,#548);
#408=DRAUGHTING_PRE_DEFINED_CURVE_FONT('continuous');
#409=COLOUR_RGB('',0.498039215803146,0.498039215803146,0.498039215803146);
#410=CARTESIAN_POINT('',(9.30700828905007E-016,-7.6,-0.399999999999999));
#411=VECTOR('',#549,1.0);
#412=SURFACE_SIDE_STYLE('',(#550));
#413=EDGE_LOOP('',(#551,#552,#553,#554,#555));
#414=AXIS2_PLACEMENT_3D('',#556,#557,#558);
#415=DRAUGHTING_PRE_DEFINED_CURVE_FONT('continuous');
#416=COLOUR_RGB('',0.498039215803146,0.498039215803146,0.498039215803146);
#417=AXIS2_PLACEMENT_3D('',#559,#560,#561);
#418=DRAUGHTING_PRE_DEFINED_CURVE_FONT('continuous');
#419=COLOUR_RGB('',0.800000011920929,0.800000011920929,0.800000011920929);
#420=AXIS2_PLACEMENT_3D('',#562,#563,#564);
#421=DRAUGHTING_PRE_DEFINED_CURVE_FONT('continuous');
#422=COLOUR_RGB('',0.800000011920929,0.800000011920929,0.800000011920929);
#423=CARTESIAN_POINT('',(-4.0,-6.92820323027551,-81.0));
#424=VECTOR('',#565,1.0);
#425=DRAUGHTING_PRE_DEFINED_CURVE_FONT('continuous');
#426=COLOUR_RGB('',0.498039215803146,0.498039215803146,0.498039215803146);
#427=AXIS2_PLACEMENT_3D('',#566,#567,#568);
#428=DRAUGHTING_PRE_DEFINED_CURVE_FONT('continuous');
#429=COLOUR_RGB('',0.498039215803146,0.498039215803146,0.498039215803146);
#430=AXIS2_PLACEMENT_3D('',#569,#570,#571);
#431=SURFACE_SIDE_STYLE('',(#572));
#432=EDGE_LOOP('',(#573,#574));
#433=AXIS2_PLACEMENT_3D('',#575,#576,#577);
#434=PRE_DEFINED_MARKER('');
#435=COLOUR_RGB('',0.498039215803146,0.498039215803146,0.498039215803146);
#436=DRAUGHTING_PRE_DEFINED_CURVE_FONT('continuous');
#437=COLOUR_RGB('',0.800000011920929,0.800000011920929,0.800000011920929);
#438=AXIS2_PLACEMENT_3D('',#578,#579,#580);
#439=PRE_DEFINED_MARKER('');
#440=COLOUR_RGB('',0.800000011920929,0.800000011920929,0.800000011920929);
#441=DRAUGHTING_PRE_DEFINED_CURVE_FONT('continuous');
#442=COLOUR_RGB('',0.498039215803146,0.498039215803146,0.498039215803146);
#443=AXIS2_PLACEMENT_3D('',#581,#582,#583);
#444=SURFACE_SIDE_STYLE('',(#584));
#446=SURFACE_STYLE_FILL_AREA(#585);
#447=CARTESIAN_POINT('',(0.0,0.0,0.0));
#448=DIRECTION('',(0.0,0.0,-1.0));
#449=DIRECTION('',(0.0,1.0,0.0));
#450=DIRECTION('',(-0.0,-0.0,1.0));
#451=CARTESIAN_POINT('',(0.0,0.0,-92.0));
#452=DIRECTION('',(0.0,0.0,-1.0));
#453=DIRECTION('',(0.5,0.866025403784439,0.0));
#454=CARTESIAN_POINT('',(0.0,0.0,-70.0));
#455=DIRECTION('',(0.0,0.0,-1.0));
#456=DIRECTION('',(0.5,0.866025403784439,0.0));
#457=SURFACE_STYLE_FILL_AREA(#586);
#458=ORIENTED_EDGE('',*,*,#169,.T.);
#459=ORIENTED_EDGE('',*,*,#145,.T.);
#460=ORIENTED_EDGE('',*,*,#105,.T.);
#461=CARTESIAN_POINT('',(0.0,0.0,-92.0));
#462=DIRECTION('',(0.0,1.0,0.0));
#463=DIRECTION('',(0.0,0.0,-1.0));
#464=CARTESIAN_POINT('',(0.0,0.0,-92.0));
#465=DIRECTION('',(0.0,0.0,-1.0));
#466=DIRECTION('',(0.5,0.866025403784439,0.0));
#467=CARTESIAN_POINT('',(0.0,0.0,-70.0));
#468=DIRECTION('',(0.0,0.0,-1.0));
#469=DIRECTION('',(0.5,0.866025403784439,0.0));
#470=SURFACE_STYLE_FILL_AREA(#587);
#471=ORIENTED_EDGE('',*,*,#169,.F.);
#472=ORIENTED_EDGE('',*,*,#97,.T.);
#473=ORIENTED_EDGE('',*,*,#157,.T.);
#474=CARTESIAN_POINT('',(0.0,0.0,-92.0));
#475=DIRECTION('',(0.0,1.0,0.0));
#476=DIRECTION('',(0.0,0.0,-1.0));
#477=SURFACE_STYLE_FILL_AREA(#588);
#478=ORIENTED_EDGE('',*,*,#131,.F.);
#479=ORIENTED_EDGE('',*,*,#87,.T.);
#480=ORIENTED_EDGE('',*,*,#151,.F.);
#481=ORIENTED_EDGE('',*,*,#155,.F.);
#482=ORIENTED_EDGE('',*,*,#149,.F.);
#483=CARTESIAN_POINT('',(0.0,0.0,-0.399999999999999));
#484=DIRECTION('',(0.0,-0.0,-1.0));
#485=DIRECTION('',(0.0,1.0,0.0));
#486=SURFACE_STYLE_FILL_AREA(#589);
#487=ORIENTED_EDGE('',*,*,#133,.T.);
#488=ORIENTED_EDGE('',*,*,#127,.F.);
#489=ORIENTED_EDGE('',*,*,#95,.T.);
#490=ORIENTED_EDGE('',*,*,#155,.T.);
#491=ORIENTED_EDGE('',*,*,#173,.T.);
#492=CARTESIAN_POINT('',(0.0,0.0,-59.0));
#493=DIRECTION('',(-0.0,-0.0,1.0));
#494=DIRECTION('',(-1.0,0.0,0.0));
#495=CARTESIAN_POINT('',(0.0,0.0,-0.799999999999997));
#496=DIRECTION('',(0.0,0.0,-1.0));
#497=DIRECTION('',(0.0,1.0,0.0));
#498=SURFACE_STYLE_FILL_AREA(#590);
#499=ORIENTED_EDGE('',*,*,#87,.F.);
#500=ORIENTED_EDGE('',*,*,#161,.F.);
#501=CARTESIAN_POINT('',(0.0,3.6,0.0));
#502=DIRECTION('',(-0.0,0.0,1.0));
#503=DIRECTION('',(0.0,-1.0,0.0));
#504=SURFACE_STYLE_FILL_AREA(#591);
#505=ORIENTED_EDGE('',*,*,#99,.F.);
#506=ORIENTED_EDGE('',*,*,#109,.F.);
#507=CARTESIAN_POINT('',(2.0,3.46410161513775,-70.0));
#508=DIRECTION('',(0.0,0.0,1.0));
#509=DIRECTION('',(-0.5,-0.866025403784439,0.0));
#510=CARTESIAN_POINT('',(0.0,0.0,-70.0));
#511=DIRECTION('',(0.0,0.0,-1.0));
#512=DIRECTION('',(-1.0,0.0,0.0));
#513=SURFACE_STYLE_FILL_AREA(#592);
#514=ORIENTED_EDGE('',*,*,#139,.F.);
#515=ORIENTED_EDGE('',*,*,#99,.T.);
#516=ORIENTED_EDGE('',*,*,#159,.F.);
#517=ORIENTED_EDGE('',*,*,#97,.F.);
#518=ORIENTED_EDGE('',*,*,#105,.F.);
#519=CARTESIAN_POINT('',(0.0,0.0,-81.0));
#520=DIRECTION('',(-0.0,-0.0,1.0));
#521=DIRECTION('',(0.5,0.866025403784439,0.0));
#522=DIRECTION('',(-8.65927457071937E-017,0.707106781186549,-0.707106781186546));
#523=DIRECTION('',(0.0,0.0,-1.0));
#524=SURFACE_STYLE_FILL_AREA(#593);
#525=ORIENTED_EDGE('',*,*,#139,.T.);
#526=ORIENTED_EDGE('',*,*,#145,.F.);
#527=ORIENTED_EDGE('',*,*,#157,.F.);
#528=ORIENTED_EDGE('',*,*,#159,.T.);
#529=ORIENTED_EDGE('',*,*,#109,.T.);
#530=CARTESIAN_POINT('',(0.0,0.0,-81.0));
#531=DIRECTION('',(-0.0,-0.0,1.0));
#532=DIRECTION('',(0.5,0.866025403784439,0.0));
#533=SURFACE_STYLE_FILL_AREA(#594);
#534=ORIENTED_EDGE('',*,*,#133,.F.);
#535=ORIENTED_EDGE('',*,*,#117,.T.);
#536=ORIENTED_EDGE('',*,*,#149,.T.);
#537=ORIENTED_EDGE('',*,*,#95,.F.);
#538=ORIENTED_EDGE('',*,*,#163,.F.);
#539=CARTESIAN_POINT('',(0.0,0.0,-59.0));
#540=DIRECTION('',(-0.0,-0.0,1.0));
#541=DIRECTION('',(-1.0,0.0,0.0));
#542=DIRECTION('',(0.0,0.0,-1.0));
#543=CARTESIAN_POINT('',(0.0,0.0,-92.0));
#544=DIRECTION('',(0.0,0.0,-1.0));
#545=DIRECTION('',(0.5,0.866025403784439,0.0));
#546=CARTESIAN_POINT('',(0.0,0.0,-0.799999999999997));
#547=DIRECTION('',(0.0,0.0,-1.0));
#548=DIRECTION('',(0.0,1.0,0.0));
#549=DIRECTION('',(-8.65927457071937E-017,0.707106781186549,0.707106781186546));
#550=SURFACE_STYLE_FILL_AREA(#595);
#551=ORIENTED_EDGE('',*,*,#131,.T.);
#552=ORIENTED_EDGE('',*,*,#117,.F.);
#553=ORIENTED_EDGE('',*,*,#173,.F.);
#554=ORIENTED_EDGE('',*,*,#151,.T.);
#555=ORIENTED_EDGE('',*,*,#161,.T.);
#556=CARTESIAN_POINT('',(0.0,0.0,-0.399999999999999));
#557=DIRECTION('',(0.0,-0.0,-1.0));
#558=DIRECTION('',(0.0,1.0,0.0));
#559=CARTESIAN_POINT('',(0.0,0.0,-0.799999999999997));
#560=DIRECTION('',(0.0,0.0,-1.0));
#561=DIRECTION('',(0.0,1.0,0.0));
#562=CARTESIAN_POINT('',(0.0,0.0,-92.0));
#563=DIRECTION('',(0.0,0.0,-1.0));
#564=DIRECTION('',(0.5,0.866025403784439,0.0));
#565=DIRECTION('',(-0.0,-0.0,1.0));
#566=CARTESIAN_POINT('',(0.0,0.0,0.0));
#567=DIRECTION('',(0.0,0.0,-1.0));
#568=DIRECTION('',(0.0,1.0,0.0));
#569=CARTESIAN_POINT('',(0.0,0.0,-70.0));
#570=DIRECTION('',(0.0,0.0,-1.0));
#571=DIRECTION('',(-1.0,0.0,0.0));
#572=SURFACE_STYLE_FILL_AREA(#596);
#573=ORIENTED_EDGE('',*,*,#163,.T.);
#574=ORIENTED_EDGE('',*,*,#127,.T.);
#575=CARTESIAN_POINT('',(-4.0,0.0,-70.0));
#576=DIRECTION('',(0.0,0.0,-1.0));
#577=DIRECTION('',(-1.0,0.0,0.0));
#578=CARTESIAN_POINT('',(0.0,0.0,-92.0));
#579=DIRECTION('',(1.0,0.0,1.22460635382238E-016));
#580=DIRECTION('',(-1.22460635382238E-016,0.0,1.0));
#581=CARTESIAN_POINT('',(0.0,0.0,-0.799999999999997));
#582=DIRECTION('',(0.0,0.0,-1.0));
#583=DIRECTION('',(0.0,1.0,0.0));
#584=SURFACE_STYLE_FILL_AREA(#597);
#585=FILL_AREA_STYLE('',(#598));
#586=FILL_AREA_STYLE('',(#599));
#587=FILL_AREA_STYLE('',(#600));
#588=FILL_AREA_STYLE('',(#601));
#589=FILL_AREA_STYLE('',(#602));
#590=FILL_AREA_STYLE('',(#603));
#591=FILL_AREA_STYLE('',(#604));
#592=FILL_AREA_STYLE('',(#605));
#593=FILL_AREA_STYLE('',(#606));
#594=FILL_AREA_STYLE('',(#607));
#595=FILL_AREA_STYLE('',(#608));
#596=FILL_AREA_STYLE('',(#609));
#597=FILL_AREA_STYLE('',(#610));
#598=FILL_AREA_STYLE_COLOUR('',#611);
#599=FILL_AREA_STYLE_COLOUR('',#612);
#600=FILL_AREA_STYLE_COLOUR('',#613);
#601=FILL_AREA_STYLE_COLOUR('',#614);
#602=FILL_AREA_STYLE_COLOUR('',#615);
#603=FILL_AREA_STYLE_COLOUR('',#616);
#604=FILL_AREA_STYLE_COLOUR('',#617);
#605=FILL_AREA_STYLE_COLOUR('',#618);
#606=FILL_AREA_STYLE_COLOUR('',#619);
#607=FILL_AREA_STYLE_COLOUR('',#620);
#608=FILL_AREA_STYLE_COLOUR('',#621);
#609=FILL_AREA_STYLE_COLOUR('',#622);
#610=FILL_AREA_STYLE_COLOUR('',#623);
#611=COLOUR_RGB('',0.498039215803146,0.498039215803146,0.498039215803146);
#612=COLOUR_RGB('',0.800000011920929,0.800000011920929,0.800000011920929);
#613=COLOUR_RGB('',0.800000011920929,0.800000011920929,0.800000011920929);
#614=COLOUR_RGB('',0.498039215803146,0.498039215803146,0.498039215803146);
#615=COLOUR_RGB('',0.498039215803146,0.498039215803146,0.498039215803146);
#616=COLOUR_RGB('',0.498039215803146,0.498039215803146,0.498039215803146);
#617=COLOUR_RGB('',0.800000011920929,0.800000011920929,0.800000011920929);
#618=COLOUR_RGB('',0.800000011920929,0.800000011920929,0.800000011920929);
#619=COLOUR_RGB('',0.800000011920929,0.800000011920929,0.800000011920929);
#620=COLOUR_RGB('',0.498039215803146,0.498039215803146,0.498039215803146);
#621=COLOUR_RGB('',0.498039215803146,0.498039215803146,0.498039215803146);
#622=COLOUR_RGB('',0.498039215803146,0.498039215803146,0.498039215803146);
#623=COLOUR_RGB('',0.800000011920929,0.800000011920929,0.800000011920929);
#624=AXIS2_PLACEMENT_3D('PCS',#625,#626,#627);
#625=CARTESIAN_POINT('',(0.0,0.0,0.0));
#626=DIRECTION('',(0.0,0.0,1.0));
#627=DIRECTION('',(1.0,0.0,0.0));
#628=AXIS2_PLACEMENT_3D('MCS',#629,#630,#631);
#629=CARTESIAN_POINT('',(0.0,0.0,-48.0));
#630=DIRECTION('',(0.0,0.0,1.0));
#631=DIRECTION('',(1.0,0.0,0.0));
#632=AXIS2_PLACEMENT_3D('CIP',#633,#634,#635);
#633=CARTESIAN_POINT('',(0.0,0.0,-100.0));
#634=DIRECTION('',(0.0,0.0,1.0));
#635=DIRECTION('',(1.0,0.0,0.0));
#636=CONSTRUCTIVE_GEOMETRY_REPRESENTATION_RELATIONSHIP('coordinate systems',$,#66,#637);
#637=CONSTRUCTIVE_GEOMETRY_REPRESENTATION('coordinate systems',(#624,#628,#632),#10);
ENDSEC;
END-ISO-10303-21;
