ISO-10303-21;
HEADER;
FILE_DESCRIPTION(('no description'),'unknown implementation level');
FILE_NAME('8525210.stp','  ',('CIM GmbH Aachen'),('CADClick - KiM GmbH - www.kimweb.de'),'unknown preprocess','ACIS','unknown authorization');
FILE_SCHEMA(('automotive_design'));
ENDSEC;
DATA;
#1=MECHANICAL_DESIGN_GEOMETRIC_PRESENTATION_REPRESENTATION(' ',(#10,#11,#12,#13,#14,#15,#16,#17,#18,#19,#20,#21,#22,#23,#24,#25,#26,#27,#28,#29,#30,#31,#32,#33,#34,#35,#36,#37,#38,#39,#40,#41,#42,#43,#44,#45,#46,#47,#48,#49,#50,#51,#52),#6);
#2=PRODUCT_DEFINITION_CONTEXT('',#53,'design');
#3=APPLICATION_PROTOCOL_DEFINITION('INTERNATIONAL STANDARD','automotive_design',1994,#53);
#4=PRODUCT_CATEGORY_RELATIONSHIP('NONE','NONE',#54,#55);
#5=SHAPE_DEFINITION_REPRESENTATION(#56,#57);
#6= (GEOMETRIC_REPRESENTATION_CONTEXT(3)GLOBAL_UNCERTAINTY_ASSIGNED_CONTEXT((#60))GLOBAL_UNIT_ASSIGNED_CONTEXT((#62,#63,#64))REPRESENTATION_CONTEXT('NONE','WORKSPACE'));
#10=STYLED_ITEM('',(#66),#67);
#11=STYLED_ITEM('',(#68),#69);
#12=STYLED_ITEM('',(#70),#71);
#13=STYLED_ITEM('',(#72),#73);
#14=STYLED_ITEM('',(#74),#75);
#15=STYLED_ITEM('',(#76),#77);
#16=STYLED_ITEM('',(#78),#79);
#17=STYLED_ITEM('',(#80),#81);
#18=STYLED_ITEM('',(#82),#83);
#19=STYLED_ITEM('',(#84),#85);
#20=STYLED_ITEM('',(#86),#87);
#21=STYLED_ITEM('',(#88),#89);
#22=STYLED_ITEM('',(#90),#91);
#23=STYLED_ITEM('',(#92),#93);
#24=STYLED_ITEM('',(#94),#95);
#25=STYLED_ITEM('',(#96),#97);
#26=STYLED_ITEM('',(#98),#99);
#27=STYLED_ITEM('',(#100),#101);
#28=STYLED_ITEM('',(#102),#103);
#29=STYLED_ITEM('',(#104),#105);
#30=STYLED_ITEM('',(#106),#107);
#31=STYLED_ITEM('',(#108),#109);
#32=STYLED_ITEM('',(#110),#111);
#33=STYLED_ITEM('',(#112),#113);
#34=STYLED_ITEM('',(#114),#115);
#35=STYLED_ITEM('',(#116),#117);
#36=STYLED_ITEM('',(#118),#119);
#37=STYLED_ITEM('',(#120),#121);
#38=STYLED_ITEM('',(#122),#123);
#39=STYLED_ITEM('',(#124),#125);
#40=STYLED_ITEM('',(#126),#127);
#41=STYLED_ITEM('',(#128),#129);
#42=STYLED_ITEM('',(#130),#131);
#43=STYLED_ITEM('',(#132),#133);
#44=STYLED_ITEM('',(#134),#135);
#45=STYLED_ITEM('',(#136),#137);
#46=STYLED_ITEM('',(#138),#139);
#47=STYLED_ITEM('',(#140),#141);
#48=STYLED_ITEM('',(#142),#143);
#49=STYLED_ITEM('',(#144),#145);
#50=STYLED_ITEM('',(#146),#147);
#51=STYLED_ITEM('',(#148),#149);
#52=STYLED_ITEM('',(#150),#151);
#53=APPLICATION_CONTEXT(' ');
#54=PRODUCT_CATEGORY('part','NONE');
#55=PRODUCT_RELATED_PRODUCT_CATEGORY('detail',' ',(#152));
#56=PRODUCT_DEFINITION_SHAPE('NONE','NONE',#153);
#57=ADVANCED_BREP_SHAPE_REPRESENTATION('1',(#73,#154),#6);
#60=UNCERTAINTY_MEASURE_WITH_UNIT(LENGTH_MEASURE(1.0E-006),#62,'','');
#62= (CONVERSION_BASED_UNIT('MILLIMETRE',#157)LENGTH_UNIT()NAMED_UNIT(#160));
#63= (NAMED_UNIT(#162)PLANE_ANGLE_UNIT()SI_UNIT($,.RADIAN.));
#64= (NAMED_UNIT(#162)SOLID_ANGLE_UNIT()SI_UNIT($,.STERADIAN.));
#66=PRESENTATION_STYLE_ASSIGNMENT((#168));
#67=ADVANCED_FACE('',(#169),#170,.T.);
#68=PRESENTATION_STYLE_ASSIGNMENT((#171));
#69=EDGE_CURVE('',#141,#119,#172,.T.);
#70=PRESENTATION_STYLE_ASSIGNMENT((#173));
#71=EDGE_CURVE('',#77,#149,#174,.T.);
#72=PRESENTATION_STYLE_ASSIGNMENT((#175));
#73=MANIFOLD_SOLID_BREP('1',#176);
#74=PRESENTATION_STYLE_ASSIGNMENT((#177));
#75=EDGE_CURVE('',#91,#107,#178,.T.);
#76=PRESENTATION_STYLE_ASSIGNMENT((#179));
#77=VERTEX_POINT('',#180);
#78=PRESENTATION_STYLE_ASSIGNMENT((#181));
#79=VERTEX_POINT('',#182);
#80=PRESENTATION_STYLE_ASSIGNMENT((#183));
#81=EDGE_CURVE('',#141,#91,#184,.T.);
#82=PRESENTATION_STYLE_ASSIGNMENT((#185));
#83=EDGE_CURVE('',#111,#99,#186,.T.);
#84=PRESENTATION_STYLE_ASSIGNMENT((#187));
#85=EDGE_CURVE('',#99,#107,#188,.T.);
#86=PRESENTATION_STYLE_ASSIGNMENT((#189));
#87=EDGE_CURVE('',#149,#99,#190,.T.);
#88=PRESENTATION_STYLE_ASSIGNMENT((#191));
#89=EDGE_CURVE('',#79,#111,#192,.T.);
#90=PRESENTATION_STYLE_ASSIGNMENT((#193));
#91=VERTEX_POINT('',#194);
#92=PRESENTATION_STYLE_ASSIGNMENT((#195));
#93=ADVANCED_FACE('',(#196),#197,.T.);
#94=PRESENTATION_STYLE_ASSIGNMENT((#198));
#95=ADVANCED_FACE('',(#199),#200,.T.);
#96=PRESENTATION_STYLE_ASSIGNMENT((#201));
#97=EDGE_CURVE('',#119,#125,#202,.T.);
#98=PRESENTATION_STYLE_ASSIGNMENT((#203));
#99=VERTEX_POINT('',#204);
#100=PRESENTATION_STYLE_ASSIGNMENT((#205));
#101=EDGE_CURVE('',#121,#119,#206,.T.);
#102=PRESENTATION_STYLE_ASSIGNMENT((#207));
#103=ADVANCED_FACE('',(#208),#209,.T.);
#104=PRESENTATION_STYLE_ASSIGNMENT((#210));
#105=ADVANCED_FACE('',(#211),#212,.T.);
#106=PRESENTATION_STYLE_ASSIGNMENT((#213));
#107=VERTEX_POINT('',#214);
#108=PRESENTATION_STYLE_ASSIGNMENT((#215));
#109=EDGE_CURVE('',#121,#79,#216,.T.);
#110=PRESENTATION_STYLE_ASSIGNMENT((#217));
#111=VERTEX_POINT('',#218);
#112=PRESENTATION_STYLE_ASSIGNMENT((#219));
#113=EDGE_CURVE('',#79,#91,#220,.T.);
#114=PRESENTATION_STYLE_ASSIGNMENT((#221));
#115=ADVANCED_FACE('',(#222),#223,.T.);
#116=PRESENTATION_STYLE_ASSIGNMENT((#224));
#117=EDGE_CURVE('',#111,#77,#225,.T.);
#118=PRESENTATION_STYLE_ASSIGNMENT((#226));
#119=VERTEX_POINT('',#227);
#120=PRESENTATION_STYLE_ASSIGNMENT((#228));
#121=VERTEX_POINT('',#229);
#122=PRESENTATION_STYLE_ASSIGNMENT((#230));
#123=EDGE_CURVE('',#107,#121,#231,.T.);
#124=PRESENTATION_STYLE_ASSIGNMENT((#232));
#125=VERTEX_POINT('',#233);
#126=PRESENTATION_STYLE_ASSIGNMENT((#234));
#127=ADVANCED_FACE('',(#235),#236,.T.);
#128=PRESENTATION_STYLE_ASSIGNMENT((#237));
#129=EDGE_CURVE('',#119,#141,#238,.T.);
#130=PRESENTATION_STYLE_ASSIGNMENT((#239));
#131=ADVANCED_FACE('',(#240),#241,.T.);
#132=PRESENTATION_STYLE_ASSIGNMENT((#242));
#133=EDGE_CURVE('',#137,#141,#243,.T.);
#134=PRESENTATION_STYLE_ASSIGNMENT((#244));
#135=ADVANCED_FACE('',(#245),#246,.T.);
#136=PRESENTATION_STYLE_ASSIGNMENT((#247));
#137=VERTEX_POINT('',#248);
#138=PRESENTATION_STYLE_ASSIGNMENT((#249));
#139=ADVANCED_FACE('',(#250),#251,.T.);
#140=PRESENTATION_STYLE_ASSIGNMENT((#252));
#141=VERTEX_POINT('',#253);
#142=PRESENTATION_STYLE_ASSIGNMENT((#254));
#143=EDGE_CURVE('',#137,#125,#255,.T.);
#144=PRESENTATION_STYLE_ASSIGNMENT((#256));
#145=EDGE_CURVE('',#99,#111,#257,.T.);
#146=PRESENTATION_STYLE_ASSIGNMENT((#258));
#147=EDGE_CURVE('',#149,#77,#259,.T.);
#148=PRESENTATION_STYLE_ASSIGNMENT((#260));
#149=VERTEX_POINT('',#261);
#150=PRESENTATION_STYLE_ASSIGNMENT((#262));
#151=EDGE_CURVE('',#125,#137,#263,.T.);
#152=PRODUCT('1','1','PART-1-DESC',(#264));
#153=PRODUCT_DEFINITION('NONE','NONE',#265,#2);
#154=AXIS2_PLACEMENT_3D('',#266,#267,#268);
#157=LENGTH_MEASURE_WITH_UNIT(LENGTH_MEASURE(1.0),#269);
#160=DIMENSIONAL_EXPONENTS(1.0,0.0,0.0,0.0,0.0,0.0,0.0);
#162=DIMENSIONAL_EXPONENTS(0.0,0.0,0.0,0.0,0.0,0.0,0.0);
#168=SURFACE_STYLE_USAGE(.BOTH.,#270);
#169=FACE_OUTER_BOUND('',#271,.T.);
#170=CYLINDRICAL_SURFACE('',#272,1.25);
#171=CURVE_STYLE('',#273,POSITIVE_LENGTH_MEASURE(1.0E-006),#274);
#172=CIRCLE('',#275,3.0);
#173=CURVE_STYLE('',#276,POSITIVE_LENGTH_MEASURE(1.0E-006),#277);
#174=CIRCLE('',#278,1.25);
#175=SURFACE_STYLE_USAGE(.BOTH.,#279);
#176=CLOSED_SHELL('',(#67,#105,#131,#139,#127,#115,#135,#93,#95,#103));
#177=CURVE_STYLE('',#280,POSITIVE_LENGTH_MEASURE(1.0E-006),#281);
#178=CIRCLE('',#282,3.0);
#179=POINT_STYLE(' ',#283,POSITIVE_LENGTH_MEASURE(1.0E-006),#284);
#180=CARTESIAN_POINT('',(-1.25,0.0,-49.4));
#181=POINT_STYLE(' ',#285,POSITIVE_LENGTH_MEASURE(1.0E-006),#286);
#182=CARTESIAN_POINT('',(-3.0,0.0,-36.0));
#183=CURVE_STYLE('',#287,POSITIVE_LENGTH_MEASURE(1.0E-006),#288);
#184=LINE('',#289,#290);
#185=CURVE_STYLE('',#291,POSITIVE_LENGTH_MEASURE(1.0E-006),#292);
#186=CIRCLE('',#293,1.25);
#187=CURVE_STYLE('',#294,POSITIVE_LENGTH_MEASURE(1.0E-006),#295);
#188=LINE('',#296,#297);
#189=CURVE_STYLE('',#298,POSITIVE_LENGTH_MEASURE(1.0E-006),#299);
#190=LINE('',#300,#301);
#191=CURVE_STYLE('',#302,POSITIVE_LENGTH_MEASURE(1.0E-006),#303);
#192=LINE('',#304,#305);
#193=POINT_STYLE(' ',#306,POSITIVE_LENGTH_MEASURE(1.0E-006),#307);
#194=CARTESIAN_POINT('',(-3.67381906146713E-016,3.0,-36.0));
#195=SURFACE_STYLE_USAGE(.BOTH.,#308);
#196=FACE_OUTER_BOUND('',#309,.T.);
#197=CONICAL_SURFACE('',#310,2.125,0.523598775598299);
#198=SURFACE_STYLE_USAGE(.BOTH.,#311);
#199=FACE_OUTER_BOUND('',#312,.T.);
#200=CYLINDRICAL_SURFACE('',#313,1.25);
#201=CURVE_STYLE('',#314,POSITIVE_LENGTH_MEASURE(1.0E-006),#315);
#202=LINE('',#316,#317);
#203=POINT_STYLE(' ',#318,POSITIVE_LENGTH_MEASURE(1.0E-006),#319);
#204=CARTESIAN_POINT('',(1.25,1.53075794227797E-016,-39.0310889132455));
#205=CURVE_STYLE('',#320,POSITIVE_LENGTH_MEASURE(1.0E-006),#321);
#206=LINE('',#322,#323);
#207=SURFACE_STYLE_USAGE(.BOTH.,#324);
#208=FACE_OUTER_BOUND('',#325,.T.);
#209=PLANE('',#326);
#210=SURFACE_STYLE_USAGE(.BOTH.,#327);
#211=FACE_OUTER_BOUND('',#328,.T.);
#212=CONICAL_SURFACE('',#329,2.125,0.523598775598299);
#213=POINT_STYLE(' ',#330,POSITIVE_LENGTH_MEASURE(1.0E-006),#331);
#214=CARTESIAN_POINT('',(3.0,3.67381906146713E-016,-36.0));
#215=CURVE_STYLE('',#332,POSITIVE_LENGTH_MEASURE(1.0E-006),#333);
#216=CIRCLE('',#334,3.0);
#217=POINT_STYLE(' ',#335,POSITIVE_LENGTH_MEASURE(1.0E-006),#336);
#218=CARTESIAN_POINT('',(-1.25,0.0,-39.0310889132455));
#219=CURVE_STYLE('',#337,POSITIVE_LENGTH_MEASURE(1.0E-006),#338);
#220=CIRCLE('',#339,3.0);
#221=SURFACE_STYLE_USAGE(.BOTH.,#340);
#222=FACE_OUTER_BOUND('',#341,.T.);
#223=CONICAL_SURFACE('',#342,2.8,0.78539816339745);
#224=CURVE_STYLE('',#343,POSITIVE_LENGTH_MEASURE(1.0E-006),#344);
#225=LINE('',#345,#346);
#226=POINT_STYLE(' ',#347,POSITIVE_LENGTH_MEASURE(1.0E-006),#348);
#227=CARTESIAN_POINT('',(3.67381906146713E-016,-3.0,-0.399999999999999));
#228=POINT_STYLE(' ',#349,POSITIVE_LENGTH_MEASURE(1.0E-006),#350);
#229=CARTESIAN_POINT('',(3.67381906146713E-016,-3.0,-36.0));
#230=CURVE_STYLE('',#351,POSITIVE_LENGTH_MEASURE(1.0E-006),#352);
#231=CIRCLE('',#353,3.0);
#232=POINT_STYLE(' ',#354,POSITIVE_LENGTH_MEASURE(1.0E-006),#355);
#233=CARTESIAN_POINT('',(3.18397651993818E-016,-2.6,0.0));
#234=SURFACE_STYLE_USAGE(.BOTH.,#356);
#235=FACE_OUTER_BOUND('',#357,.T.);
#236=PLANE('',#358);
#237=CURVE_STYLE('',#359,POSITIVE_LENGTH_MEASURE(1.0E-006),#360);
#238=CIRCLE('',#361,3.0);
#239=SURFACE_STYLE_USAGE(.BOTH.,#362);
#240=FACE_OUTER_BOUND('',#363,.T.);
#241=CYLINDRICAL_SURFACE('',#364,3.0);
#242=CURVE_STYLE('',#365,POSITIVE_LENGTH_MEASURE(1.0E-006),#366);
#243=LINE('',#367,#368);
#244=SURFACE_STYLE_USAGE(.BOTH.,#369);
#245=FACE_OUTER_BOUND('',#370,.T.);
#246=CYLINDRICAL_SURFACE('',#371,3.0);
#247=POINT_STYLE(' ',#372,POSITIVE_LENGTH_MEASURE(1.0E-006),#373);
#248=CARTESIAN_POINT('',(0.0,2.6,0.0));
#249=SURFACE_STYLE_USAGE(.BOTH.,#374);
#250=FACE_OUTER_BOUND('',#375,.T.);
#251=CONICAL_SURFACE('',#376,2.8,0.78539816339745);
#252=POINT_STYLE(' ',#377,POSITIVE_LENGTH_MEASURE(1.0E-006),#378);
#253=CARTESIAN_POINT('',(0.0,3.0,-0.399999999999999));
#254=CURVE_STYLE('',#379,POSITIVE_LENGTH_MEASURE(1.0E-006),#380);
#255=CIRCLE('',#381,2.6);
#256=CURVE_STYLE('',#382,POSITIVE_LENGTH_MEASURE(1.0E-006),#383);
#257=CIRCLE('',#384,1.25);
#258=CURVE_STYLE('',#385,POSITIVE_LENGTH_MEASURE(1.0E-006),#386);
#259=CIRCLE('',#387,1.25);
#260=POINT_STYLE(' ',#388,POSITIVE_LENGTH_MEASURE(1.0E-006),#389);
#261=CARTESIAN_POINT('',(1.25,1.53075794227797E-016,-49.4));
#262=CURVE_STYLE('',#390,POSITIVE_LENGTH_MEASURE(1.0E-006),#391);
#263=CIRCLE('',#392,2.6);
#264=PRODUCT_CONTEXT('',#53,'mechanical');
#265=PRODUCT_DEFINITION_FORMATION_WITH_SPECIFIED_SOURCE(' ','NONE',#152,.NOT_KNOWN.);
#266=CARTESIAN_POINT('',(0.0,0.0,0.0));
#267=DIRECTION('',(0.0,0.0,1.0));
#268=DIRECTION('',(1.0,0.0,0.0));
#269= (NAMED_UNIT(#160)LENGTH_UNIT()SI_UNIT(.MILLI.,.METRE.));
#270=SURFACE_SIDE_STYLE('',(#394));
#271=EDGE_LOOP('',(#395,#396,#397,#398));
#272=AXIS2_PLACEMENT_3D('',#399,#400,#401);
#273=DRAUGHTING_PRE_DEFINED_CURVE_FONT('continuous');
#274=COLOUR_RGB('',0.498039215803146,0.498039215803146,0.498039215803146);
#275=AXIS2_PLACEMENT_3D('',#402,#403,#404);
#276=DRAUGHTING_PRE_DEFINED_CURVE_FONT('continuous');
#277=COLOUR_RGB('',0.498039215803146,0.498039215803146,0.498039215803146);
#278=AXIS2_PLACEMENT_3D('',#405,#406,#407);
#279=SURFACE_SIDE_STYLE('',(#408));
#280=DRAUGHTING_PRE_DEFINED_CURVE_FONT('continuous');
#281=COLOUR_RGB('',0.498039215803146,0.498039215803146,0.498039215803146);
#282=AXIS2_PLACEMENT_3D('',#409,#410,#411);
#283=PRE_DEFINED_MARKER('');
#284=COLOUR_RGB('',0.498039215803146,0.498039215803146,0.498039215803146);
#285=PRE_DEFINED_MARKER('');
#286=COLOUR_RGB('',0.498039215803146,0.498039215803146,0.498039215803146);
#287=DRAUGHTING_PRE_DEFINED_CURVE_FONT('continuous');
#288=COLOUR_RGB('',0.498039215803146,0.498039215803146,0.498039215803146);
#289=CARTESIAN_POINT('',(-3.67381906146713E-016,3.0,-18.2));
#290=VECTOR('',#412,1.0);
#291=DRAUGHTING_PRE_DEFINED_CURVE_FONT('continuous');
#292=COLOUR_RGB('',0.498039215803146,0.498039215803146,0.498039215803146);
#293=AXIS2_PLACEMENT_3D('',#413,#414,#415);
#294=DRAUGHTING_PRE_DEFINED_CURVE_FONT('continuous');
#295=COLOUR_RGB('',0.498039215803146,0.498039215803146,0.498039215803146);
#296=CARTESIAN_POINT('',(2.125,2.60228850187255E-016,-37.5155444566228));
#297=VECTOR('',#416,1.0);
#298=DRAUGHTING_PRE_DEFINED_CURVE_FONT('continuous');
#299=COLOUR_RGB('',0.498039215803146,0.498039215803146,0.498039215803146);
#300=CARTESIAN_POINT('',(1.25,1.53075794227797E-016,-44.2155444566228));
#301=VECTOR('',#417,1.0);
#302=DRAUGHTING_PRE_DEFINED_CURVE_FONT('continuous');
#303=COLOUR_RGB('',0.498039215803146,0.498039215803146,0.498039215803146);
#304=CARTESIAN_POINT('',(-2.125,-2.60228850187255E-016,-37.5155444566228));
#305=VECTOR('',#418,1.0);
#306=PRE_DEFINED_MARKER('');
#307=COLOUR_RGB('',0.498039215803146,0.498039215803146,0.498039215803146);
#308=SURFACE_SIDE_STYLE('',(#419));
#309=EDGE_LOOP('',(#420,#421,#422,#423,#424));
#310=AXIS2_PLACEMENT_3D('',#425,#426,#427);
#311=SURFACE_SIDE_STYLE('',(#428));
#312=EDGE_LOOP('',(#429,#430,#431,#432));
#313=AXIS2_PLACEMENT_3D('',#433,#434,#435);
#314=DRAUGHTING_PRE_DEFINED_CURVE_FONT('continuous');
#315=COLOUR_RGB('',0.498039215803146,0.498039215803146,0.498039215803146);
#316=CARTESIAN_POINT('',(3.42889779070266E-016,-2.8,-0.199999999999996));
#317=VECTOR('',#436,1.0);
#318=PRE_DEFINED_MARKER('');
#319=COLOUR_RGB('',0.498039215803146,0.498039215803146,0.498039215803146);
#320=DRAUGHTING_PRE_DEFINED_CURVE_FONT('continuous');
#321=COLOUR_RGB('',0.498039215803146,0.498039215803146,0.498039215803146);
#322=CARTESIAN_POINT('',(3.67381906146713E-016,-3.0,-18.2));
#323=VECTOR('',#437,1.0);
#324=SURFACE_SIDE_STYLE('',(#438));
#325=EDGE_LOOP('',(#439,#440));
#326=AXIS2_PLACEMENT_3D('',#441,#442,#443);
#327=SURFACE_SIDE_STYLE('',(#444));
#328=EDGE_LOOP('',(#445,#446,#447,#448,#449));
#329=AXIS2_PLACEMENT_3D('',#450,#451,#452);
#330=PRE_DEFINED_MARKER('');
#331=COLOUR_RGB('',0.498039215803146,0.498039215803146,0.498039215803146);
#332=DRAUGHTING_PRE_DEFINED_CURVE_FONT('continuous');
#333=COLOUR_RGB('',0.498039215803146,0.498039215803146,0.498039215803146);
#334=AXIS2_PLACEMENT_3D('',#453,#454,#455);
#335=PRE_DEFINED_MARKER('');
#336=COLOUR_RGB('',0.498039215803146,0.498039215803146,0.498039215803146);
#337=DRAUGHTING_PRE_DEFINED_CURVE_FONT('continuous');
#338=COLOUR_RGB('',0.498039215803146,0.498039215803146,0.498039215803146);
#339=AXIS2_PLACEMENT_3D('',#456,#457,#458);
#340=SURFACE_SIDE_STYLE('',(#459));
#341=EDGE_LOOP('',(#460,#461,#462,#463));
#342=AXIS2_PLACEMENT_3D('',#464,#465,#466);
#343=DRAUGHTING_PRE_DEFINED_CURVE_FONT('continuous');
#344=COLOUR_RGB('',0.498039215803146,0.498039215803146,0.498039215803146);
#345=CARTESIAN_POINT('',(-1.25,-1.53075794227797E-016,-44.2155444566228));
#346=VECTOR('',#467,1.0);
#347=PRE_DEFINED_MARKER('');
#348=COLOUR_RGB('',0.498039215803146,0.498039215803146,0.498039215803146);
#349=PRE_DEFINED_MARKER('');
#350=COLOUR_RGB('',0.498039215803146,0.498039215803146,0.498039215803146);
#351=DRAUGHTING_PRE_DEFINED_CURVE_FONT('continuous');
#352=COLOUR_RGB('',0.498039215803146,0.498039215803146,0.498039215803146);
#353=AXIS2_PLACEMENT_3D('',#468,#469,#470);
#354=PRE_DEFINED_MARKER('');
#355=COLOUR_RGB('',0.498039215803146,0.498039215803146,0.498039215803146);
#356=SURFACE_SIDE_STYLE('',(#471));
#357=EDGE_LOOP('',(#472,#473));
#358=AXIS2_PLACEMENT_3D('',#474,#475,#476);
#359=DRAUGHTING_PRE_DEFINED_CURVE_FONT('continuous');
#360=COLOUR_RGB('',0.498039215803146,0.498039215803146,0.498039215803146);
#361=AXIS2_PLACEMENT_3D('',#477,#478,#479);
#362=SURFACE_SIDE_STYLE('',(#480));
#363=EDGE_LOOP('',(#481,#482,#483,#484,#485));
#364=AXIS2_PLACEMENT_3D('',#486,#487,#488);
#365=DRAUGHTING_PRE_DEFINED_CURVE_FONT('continuous');
#366=COLOUR_RGB('',0.498039215803146,0.498039215803146,0.498039215803146);
#367=CARTESIAN_POINT('',(-3.42889779070266E-016,2.8,-0.199999999999996));
#368=VECTOR('',#489,1.0);
#369=SURFACE_SIDE_STYLE('',(#490));
#370=EDGE_LOOP('',(#491,#492,#493,#494,#495));
#371=AXIS2_PLACEMENT_3D('',#496,#497,#498);
#372=PRE_DEFINED_MARKER('');
#373=COLOUR_RGB('',0.498039215803146,0.498039215803146,0.498039215803146);
#374=SURFACE_SIDE_STYLE('',(#499));
#375=EDGE_LOOP('',(#500,#501,#502,#503));
#376=AXIS2_PLACEMENT_3D('',#504,#505,#506);
#377=PRE_DEFINED_MARKER('');
#378=COLOUR_RGB('',0.498039215803146,0.498039215803146,0.498039215803146);
#379=DRAUGHTING_PRE_DEFINED_CURVE_FONT('continuous');
#380=COLOUR_RGB('',0.498039215803146,0.498039215803146,0.498039215803146);
#381=AXIS2_PLACEMENT_3D('',#507,#508,#509);
#382=DRAUGHTING_PRE_DEFINED_CURVE_FONT('continuous');
#383=COLOUR_RGB('',0.498039215803146,0.498039215803146,0.498039215803146);
#384=AXIS2_PLACEMENT_3D('',#510,#511,#512);
#385=DRAUGHTING_PRE_DEFINED_CURVE_FONT('continuous');
#386=COLOUR_RGB('',0.498039215803146,0.498039215803146,0.498039215803146);
#387=AXIS2_PLACEMENT_3D('',#513,#514,#515);
#388=PRE_DEFINED_MARKER('');
#389=COLOUR_RGB('',0.498039215803146,0.498039215803146,0.498039215803146);
#390=DRAUGHTING_PRE_DEFINED_CURVE_FONT('continuous');
#391=COLOUR_RGB('',0.498039215803146,0.498039215803146,0.498039215803146);
#392=AXIS2_PLACEMENT_3D('',#516,#517,#518);
#394=SURFACE_STYLE_FILL_AREA(#519);
#395=ORIENTED_EDGE('',*,*,#117,.F.);
#396=ORIENTED_EDGE('',*,*,#83,.T.);
#397=ORIENTED_EDGE('',*,*,#87,.F.);
#398=ORIENTED_EDGE('',*,*,#71,.F.);
#399=CARTESIAN_POINT('',(0.0,0.0,-44.2155444566228));
#400=DIRECTION('',(-0.0,-0.0,1.0));
#401=DIRECTION('',(-1.0,0.0,0.0));
#402=CARTESIAN_POINT('',(0.0,0.0,-0.399999999999999));
#403=DIRECTION('',(0.0,0.0,-1.0));
#404=DIRECTION('',(0.0,1.0,0.0));
#405=CARTESIAN_POINT('',(0.0,0.0,-49.4));
#406=DIRECTION('',(0.0,0.0,-1.0));
#407=DIRECTION('',(-1.0,0.0,0.0));
#408=SURFACE_STYLE_FILL_AREA(#520);
#409=CARTESIAN_POINT('',(0.0,0.0,-36.0));
#410=DIRECTION('',(0.0,0.0,-1.0));
#411=DIRECTION('',(-1.0,0.0,0.0));
#412=DIRECTION('',(0.0,0.0,-1.0));
#413=CARTESIAN_POINT('',(0.0,0.0,-39.0310889132455));
#414=DIRECTION('',(0.0,0.0,-1.0));
#415=DIRECTION('',(-1.0,0.0,0.0));
#416=DIRECTION('',(0.5,6.12303176911189E-017,0.866025403784439));
#417=DIRECTION('',(-0.0,-0.0,1.0));
#418=DIRECTION('',(0.5,6.12303176911189E-017,-0.866025403784439));
#419=SURFACE_STYLE_FILL_AREA(#521);
#420=ORIENTED_EDGE('',*,*,#89,.T.);
#421=ORIENTED_EDGE('',*,*,#145,.F.);
#422=ORIENTED_EDGE('',*,*,#85,.T.);
#423=ORIENTED_EDGE('',*,*,#123,.T.);
#424=ORIENTED_EDGE('',*,*,#109,.T.);
#425=CARTESIAN_POINT('',(0.0,0.0,-37.5155444566228));
#426=DIRECTION('',(-0.0,-0.0,1.0));
#427=DIRECTION('',(-1.0,0.0,0.0));
#428=SURFACE_STYLE_FILL_AREA(#522);
#429=ORIENTED_EDGE('',*,*,#117,.T.);
#430=ORIENTED_EDGE('',*,*,#147,.F.);
#431=ORIENTED_EDGE('',*,*,#87,.T.);
#432=ORIENTED_EDGE('',*,*,#145,.T.);
#433=CARTESIAN_POINT('',(0.0,0.0,-44.2155444566228));
#434=DIRECTION('',(-0.0,-0.0,1.0));
#435=DIRECTION('',(-1.0,0.0,0.0));
#436=DIRECTION('',(-8.65927457071937E-017,0.707106781186549,0.707106781186546));
#437=DIRECTION('',(-0.0,-0.0,1.0));
#438=SURFACE_STYLE_FILL_AREA(#523);
#439=ORIENTED_EDGE('',*,*,#71,.T.);
#440=ORIENTED_EDGE('',*,*,#147,.T.);
#441=CARTESIAN_POINT('',(-0.625,0.0,-49.4));
#442=DIRECTION('',(0.0,0.0,-1.0));
#443=DIRECTION('',(-1.0,0.0,0.0));
#444=SURFACE_STYLE_FILL_AREA(#524);
#445=ORIENTED_EDGE('',*,*,#89,.F.);
#446=ORIENTED_EDGE('',*,*,#113,.T.);
#447=ORIENTED_EDGE('',*,*,#75,.T.);
#448=ORIENTED_EDGE('',*,*,#85,.F.);
#449=ORIENTED_EDGE('',*,*,#83,.F.);
#450=CARTESIAN_POINT('',(0.0,0.0,-37.5155444566228));
#451=DIRECTION('',(-0.0,-0.0,1.0));
#452=DIRECTION('',(-1.0,0.0,0.0));
#453=CARTESIAN_POINT('',(0.0,0.0,-36.0));
#454=DIRECTION('',(0.0,0.0,-1.0));
#455=DIRECTION('',(-1.0,0.0,0.0));
#456=CARTESIAN_POINT('',(0.0,0.0,-36.0));
#457=DIRECTION('',(0.0,0.0,-1.0));
#458=DIRECTION('',(-1.0,0.0,0.0));
#459=SURFACE_STYLE_FILL_AREA(#525);
#460=ORIENTED_EDGE('',*,*,#133,.T.);
#461=ORIENTED_EDGE('',*,*,#129,.F.);
#462=ORIENTED_EDGE('',*,*,#97,.T.);
#463=ORIENTED_EDGE('',*,*,#151,.T.);
#464=CARTESIAN_POINT('',(0.0,0.0,-0.199999999999996));
#465=DIRECTION('',(0.0,-0.0,-1.0));
#466=DIRECTION('',(0.0,1.0,0.0));
#467=DIRECTION('',(0.0,0.0,-1.0));
#468=CARTESIAN_POINT('',(0.0,0.0,-36.0));
#469=DIRECTION('',(0.0,0.0,-1.0));
#470=DIRECTION('',(-1.0,0.0,0.0));
#471=SURFACE_STYLE_FILL_AREA(#526);
#472=ORIENTED_EDGE('',*,*,#143,.F.);
#473=ORIENTED_EDGE('',*,*,#151,.F.);
#474=CARTESIAN_POINT('',(0.0,1.3,0.0));
#475=DIRECTION('',(-0.0,0.0,1.0));
#476=DIRECTION('',(0.0,-1.0,0.0));
#477=CARTESIAN_POINT('',(0.0,0.0,-0.399999999999999));
#478=DIRECTION('',(0.0,0.0,-1.0));
#479=DIRECTION('',(0.0,1.0,0.0));
#480=SURFACE_STYLE_FILL_AREA(#527);
#481=ORIENTED_EDGE('',*,*,#81,.F.);
#482=ORIENTED_EDGE('',*,*,#69,.T.);
#483=ORIENTED_EDGE('',*,*,#101,.F.);
#484=ORIENTED_EDGE('',*,*,#123,.F.);
#485=ORIENTED_EDGE('',*,*,#75,.F.);
#486=CARTESIAN_POINT('',(0.0,0.0,-18.2));
#487=DIRECTION('',(-0.0,-0.0,1.0));
#488=DIRECTION('',(0.0,1.0,0.0));
#489=DIRECTION('',(-8.65927457071937E-017,0.707106781186549,-0.707106781186546));
#490=SURFACE_STYLE_FILL_AREA(#528);
#491=ORIENTED_EDGE('',*,*,#81,.T.);
#492=ORIENTED_EDGE('',*,*,#113,.F.);
#493=ORIENTED_EDGE('',*,*,#109,.F.);
#494=ORIENTED_EDGE('',*,*,#101,.T.);
#495=ORIENTED_EDGE('',*,*,#129,.T.);
#496=CARTESIAN_POINT('',(0.0,0.0,-18.2));
#497=DIRECTION('',(-0.0,-0.0,1.0));
#498=DIRECTION('',(0.0,1.0,0.0));
#499=SURFACE_STYLE_FILL_AREA(#529);
#500=ORIENTED_EDGE('',*,*,#133,.F.);
#501=ORIENTED_EDGE('',*,*,#143,.T.);
#502=ORIENTED_EDGE('',*,*,#97,.F.);
#503=ORIENTED_EDGE('',*,*,#69,.F.);
#504=CARTESIAN_POINT('',(0.0,0.0,-0.199999999999996));
#505=DIRECTION('',(0.0,-0.0,-1.0));
#506=DIRECTION('',(0.0,1.0,0.0));
#507=CARTESIAN_POINT('',(0.0,0.0,0.0));
#508=DIRECTION('',(0.0,0.0,-1.0));
#509=DIRECTION('',(0.0,1.0,0.0));
#510=CARTESIAN_POINT('',(0.0,0.0,-39.0310889132455));
#511=DIRECTION('',(0.0,0.0,-1.0));
#512=DIRECTION('',(-1.0,0.0,0.0));
#513=CARTESIAN_POINT('',(0.0,0.0,-49.4));
#514=DIRECTION('',(0.0,0.0,-1.0));
#515=DIRECTION('',(-1.0,0.0,0.0));
#516=CARTESIAN_POINT('',(0.0,0.0,0.0));
#517=DIRECTION('',(0.0,0.0,-1.0));
#518=DIRECTION('',(0.0,1.0,0.0));
#519=FILL_AREA_STYLE('',(#530));
#520=FILL_AREA_STYLE('',(#531));
#521=FILL_AREA_STYLE('',(#532));
#522=FILL_AREA_STYLE('',(#533));
#523=FILL_AREA_STYLE('',(#534));
#524=FILL_AREA_STYLE('',(#535));
#525=FILL_AREA_STYLE('',(#536));
#526=FILL_AREA_STYLE('',(#537));
#527=FILL_AREA_STYLE('',(#538));
#528=FILL_AREA_STYLE('',(#539));
#529=FILL_AREA_STYLE('',(#540));
#530=FILL_AREA_STYLE_COLOUR('',#541);
#531=FILL_AREA_STYLE_COLOUR('',#542);
#532=FILL_AREA_STYLE_COLOUR('',#543);
#533=FILL_AREA_STYLE_COLOUR('',#544);
#534=FILL_AREA_STYLE_COLOUR('',#545);
#535=FILL_AREA_STYLE_COLOUR('',#546);
#536=FILL_AREA_STYLE_COLOUR('',#547);
#537=FILL_AREA_STYLE_COLOUR('',#548);
#538=FILL_AREA_STYLE_COLOUR('',#549);
#539=FILL_AREA_STYLE_COLOUR('',#550);
#540=FILL_AREA_STYLE_COLOUR('',#551);
#541=COLOUR_RGB('',0.498039215803146,0.498039215803146,0.498039215803146);
#542=COLOUR_RGB('',0.498039215803146,0.498039215803146,0.498039215803146);
#543=COLOUR_RGB('',0.498039215803146,0.498039215803146,0.498039215803146);
#544=COLOUR_RGB('',0.498039215803146,0.498039215803146,0.498039215803146);
#545=COLOUR_RGB('',0.498039215803146,0.498039215803146,0.498039215803146);
#546=COLOUR_RGB('',0.498039215803146,0.498039215803146,0.498039215803146);
#547=COLOUR_RGB('',0.498039215803146,0.498039215803146,0.498039215803146);
#548=COLOUR_RGB('',0.498039215803146,0.498039215803146,0.498039215803146);
#549=COLOUR_RGB('',0.498039215803146,0.498039215803146,0.498039215803146);
#550=COLOUR_RGB('',0.498039215803146,0.498039215803146,0.498039215803146);
#551=COLOUR_RGB('',0.498039215803146,0.498039215803146,0.498039215803146);
#552=AXIS2_PLACEMENT_3D('PCS',#553,#554,#555);
#553=CARTESIAN_POINT('',(0.0,0.0,0.0));
#554=DIRECTION('',(0.0,0.0,1.0));
#555=DIRECTION('',(1.0,0.0,0.0));
#556=AXIS2_PLACEMENT_3D('MCS',#557,#558,#559);
#557=CARTESIAN_POINT('',(0.0,0.0,-36.0));
#558=DIRECTION('',(0.0,0.0,1.0));
#559=DIRECTION('',(1.0,0.0,0.0));
#560=AXIS2_PLACEMENT_3D('CIP',#561,#562,#563);
#561=CARTESIAN_POINT('',(0.0,0.0,-50.0));
#562=DIRECTION('',(0.0,0.0,1.0));
#563=DIRECTION('',(1.0,0.0,0.0));
#564=CONSTRUCTIVE_GEOMETRY_REPRESENTATION_RELATIONSHIP('coordinate systems',$,#57,#565);
#565=CONSTRUCTIVE_GEOMETRY_REPRESENTATION('coordinate systems',(#552,#556,#560),#6);
ENDSEC;
END-ISO-10303-21;
