ISO-10303-21;
HEADER;
FILE_DESCRIPTION(('no description'),'unknown implementation level');
FILE_NAME('8525220.stp','  ',('CIM GmbH Aachen'),('CADClick - KiM GmbH - www.kimweb.de'),'unknown preprocess','ACIS','unknown authorization');
FILE_SCHEMA(('automotive_design'));
ENDSEC;
DATA;
#1=MECHANICAL_DESIGN_GEOMETRIC_PRESENTATION_REPRESENTATION(' ',(#10,#11,#12,#13,#14,#15,#16,#17,#18,#19,#20,#21,#22,#23,#24,#25,#26,#27,#28,#29,#30,#31,#32,#33,#34,#35,#36,#37,#38,#39,#40,#41,#42,#43,#44,#45,#46,#47,#48,#49,#50,#51,#52),#6);
#2=PRODUCT_DEFINITION_CONTEXT('',#53,'design');
#3=APPLICATION_PROTOCOL_DEFINITION('INTERNATIONAL STANDARD','automotive_design',1994,#53);
#4=PRODUCT_CATEGORY_RELATIONSHIP('NONE','NONE',#54,#55);
#5=SHAPE_DEFINITION_REPRESENTATION(#56,#57);
#6= (GEOMETRIC_REPRESENTATION_CONTEXT(3)GLOBAL_UNCERTAINTY_ASSIGNED_CONTEXT((#60))GLOBAL_UNIT_ASSIGNED_CONTEXT((#62,#63,#64))REPRESENTATION_CONTEXT('NONE','WORKSPACE'));
#10=STYLED_ITEM('',(#66),#67);
#11=STYLED_ITEM('',(#68),#69);
#12=STYLED_ITEM('',(#70),#71);
#13=STYLED_ITEM('',(#72),#73);
#14=STYLED_ITEM('',(#74),#75);
#15=STYLED_ITEM('',(#76),#77);
#16=STYLED_ITEM('',(#78),#79);
#17=STYLED_ITEM('',(#80),#81);
#18=STYLED_ITEM('',(#82),#83);
#19=STYLED_ITEM('',(#84),#85);
#20=STYLED_ITEM('',(#86),#87);
#21=STYLED_ITEM('',(#88),#89);
#22=STYLED_ITEM('',(#90),#91);
#23=STYLED_ITEM('',(#92),#93);
#24=STYLED_ITEM('',(#94),#95);
#25=STYLED_ITEM('',(#96),#97);
#26=STYLED_ITEM('',(#98),#99);
#27=STYLED_ITEM('',(#100),#101);
#28=STYLED_ITEM('',(#102),#103);
#29=STYLED_ITEM('',(#104),#105);
#30=STYLED_ITEM('',(#106),#107);
#31=STYLED_ITEM('',(#108),#109);
#32=STYLED_ITEM('',(#110),#111);
#33=STYLED_ITEM('',(#112),#113);
#34=STYLED_ITEM('',(#114),#115);
#35=STYLED_ITEM('',(#116),#117);
#36=STYLED_ITEM('',(#118),#119);
#37=STYLED_ITEM('',(#120),#121);
#38=STYLED_ITEM('',(#122),#123);
#39=STYLED_ITEM('',(#124),#125);
#40=STYLED_ITEM('',(#126),#127);
#41=STYLED_ITEM('',(#128),#129);
#42=STYLED_ITEM('',(#130),#131);
#43=STYLED_ITEM('',(#132),#133);
#44=STYLED_ITEM('',(#134),#135);
#45=STYLED_ITEM('',(#136),#137);
#46=STYLED_ITEM('',(#138),#139);
#47=STYLED_ITEM('',(#140),#141);
#48=STYLED_ITEM('',(#142),#143);
#49=STYLED_ITEM('',(#144),#145);
#50=STYLED_ITEM('',(#146),#147);
#51=STYLED_ITEM('',(#148),#149);
#52=STYLED_ITEM('',(#150),#151);
#53=APPLICATION_CONTEXT(' ');
#54=PRODUCT_CATEGORY('part','NONE');
#55=PRODUCT_RELATED_PRODUCT_CATEGORY('detail',' ',(#152));
#56=PRODUCT_DEFINITION_SHAPE('NONE','NONE',#153);
#57=ADVANCED_BREP_SHAPE_REPRESENTATION('1',(#149,#154),#6);
#60=UNCERTAINTY_MEASURE_WITH_UNIT(LENGTH_MEASURE(1.0E-006),#62,'','');
#62= (CONVERSION_BASED_UNIT('MILLIMETRE',#157)LENGTH_UNIT()NAMED_UNIT(#160));
#63= (NAMED_UNIT(#162)PLANE_ANGLE_UNIT()SI_UNIT($,.RADIAN.));
#64= (NAMED_UNIT(#162)SOLID_ANGLE_UNIT()SI_UNIT($,.STERADIAN.));
#66=PRESENTATION_STYLE_ASSIGNMENT((#168));
#67=VERTEX_POINT('',#169);
#68=PRESENTATION_STYLE_ASSIGNMENT((#170));
#69=VERTEX_POINT('',#171);
#70=PRESENTATION_STYLE_ASSIGNMENT((#172));
#71=ADVANCED_FACE('',(#173),#174,.T.);
#72=PRESENTATION_STYLE_ASSIGNMENT((#175));
#73=VERTEX_POINT('',#176);
#74=PRESENTATION_STYLE_ASSIGNMENT((#177));
#75=EDGE_CURVE('',#143,#109,#178,.T.);
#76=PRESENTATION_STYLE_ASSIGNMENT((#179));
#77=EDGE_CURVE('',#81,#143,#180,.T.);
#78=PRESENTATION_STYLE_ASSIGNMENT((#181));
#79=ADVANCED_FACE('',(#182),#183,.T.);
#80=PRESENTATION_STYLE_ASSIGNMENT((#184));
#81=VERTEX_POINT('',#185);
#82=PRESENTATION_STYLE_ASSIGNMENT((#186));
#83=EDGE_CURVE('',#73,#137,#187,.T.);
#84=PRESENTATION_STYLE_ASSIGNMENT((#188));
#85=ADVANCED_FACE('',(#189),#190,.T.);
#86=PRESENTATION_STYLE_ASSIGNMENT((#191));
#87=VERTEX_POINT('',#192);
#88=PRESENTATION_STYLE_ASSIGNMENT((#193));
#89=VERTEX_POINT('',#194);
#90=PRESENTATION_STYLE_ASSIGNMENT((#195));
#91=VERTEX_POINT('',#196);
#92=PRESENTATION_STYLE_ASSIGNMENT((#197));
#93=ADVANCED_FACE('',(#198),#199,.T.);
#94=PRESENTATION_STYLE_ASSIGNMENT((#200));
#95=EDGE_CURVE('',#69,#73,#201,.T.);
#96=PRESENTATION_STYLE_ASSIGNMENT((#202));
#97=EDGE_CURVE('',#91,#73,#203,.T.);
#98=PRESENTATION_STYLE_ASSIGNMENT((#204));
#99=EDGE_CURVE('',#127,#87,#205,.T.);
#100=PRESENTATION_STYLE_ASSIGNMENT((#206));
#101=VERTEX_POINT('',#207);
#102=PRESENTATION_STYLE_ASSIGNMENT((#208));
#103=EDGE_CURVE('',#109,#87,#209,.T.);
#104=PRESENTATION_STYLE_ASSIGNMENT((#210));
#105=ADVANCED_FACE('',(#211),#212,.T.);
#106=PRESENTATION_STYLE_ASSIGNMENT((#213));
#107=ADVANCED_FACE('',(#214),#215,.T.);
#108=PRESENTATION_STYLE_ASSIGNMENT((#216));
#109=VERTEX_POINT('',#217);
#110=PRESENTATION_STYLE_ASSIGNMENT((#218));
#111=ADVANCED_FACE('',(#219),#220,.T.);
#112=PRESENTATION_STYLE_ASSIGNMENT((#221));
#113=EDGE_CURVE('',#73,#69,#222,.T.);
#114=PRESENTATION_STYLE_ASSIGNMENT((#223));
#115=EDGE_CURVE('',#69,#127,#224,.T.);
#116=PRESENTATION_STYLE_ASSIGNMENT((#225));
#117=EDGE_CURVE('',#89,#67,#226,.T.);
#118=PRESENTATION_STYLE_ASSIGNMENT((#227));
#119=EDGE_CURVE('',#101,#137,#228,.T.);
#120=PRESENTATION_STYLE_ASSIGNMENT((#229));
#121=EDGE_CURVE('',#67,#109,#230,.T.);
#122=PRESENTATION_STYLE_ASSIGNMENT((#231));
#123=EDGE_CURVE('',#67,#89,#232,.T.);
#124=PRESENTATION_STYLE_ASSIGNMENT((#233));
#125=EDGE_CURVE('',#91,#81,#234,.T.);
#126=PRESENTATION_STYLE_ASSIGNMENT((#235));
#127=VERTEX_POINT('',#236);
#128=PRESENTATION_STYLE_ASSIGNMENT((#237));
#129=ADVANCED_FACE('',(#238),#239,.T.);
#130=PRESENTATION_STYLE_ASSIGNMENT((#240));
#131=EDGE_CURVE('',#101,#69,#241,.T.);
#132=PRESENTATION_STYLE_ASSIGNMENT((#242));
#133=EDGE_CURVE('',#143,#89,#243,.T.);
#134=PRESENTATION_STYLE_ASSIGNMENT((#244));
#135=ADVANCED_FACE('',(#245),#246,.T.);
#136=PRESENTATION_STYLE_ASSIGNMENT((#247));
#137=VERTEX_POINT('',#248);
#138=PRESENTATION_STYLE_ASSIGNMENT((#249));
#139=EDGE_CURVE('',#87,#91,#250,.T.);
#140=PRESENTATION_STYLE_ASSIGNMENT((#251));
#141=EDGE_CURVE('',#109,#143,#252,.T.);
#142=PRESENTATION_STYLE_ASSIGNMENT((#253));
#143=VERTEX_POINT('',#254);
#144=PRESENTATION_STYLE_ASSIGNMENT((#255));
#145=EDGE_CURVE('',#81,#127,#256,.T.);
#146=PRESENTATION_STYLE_ASSIGNMENT((#257));
#147=EDGE_CURVE('',#137,#101,#258,.T.);
#148=PRESENTATION_STYLE_ASSIGNMENT((#259));
#149=MANIFOLD_SOLID_BREP('1',#260);
#150=PRESENTATION_STYLE_ASSIGNMENT((#261));
#151=ADVANCED_FACE('',(#262),#263,.T.);
#152=PRODUCT('1','1','PART-1-DESC',(#264));
#153=PRODUCT_DEFINITION('NONE','NONE',#265,#2);
#154=AXIS2_PLACEMENT_3D('',#266,#267,#268);
#157=LENGTH_MEASURE_WITH_UNIT(LENGTH_MEASURE(1.0),#269);
#160=DIMENSIONAL_EXPONENTS(1.0,0.0,0.0,0.0,0.0,0.0,0.0);
#162=DIMENSIONAL_EXPONENTS(0.0,0.0,0.0,0.0,0.0,0.0,0.0);
#168=POINT_STYLE(' ',#270,POSITIVE_LENGTH_MEASURE(1.0E-006),#271);
#169=CARTESIAN_POINT('',(2.5,3.06151588455594E-016,-48.8));
#170=POINT_STYLE(' ',#272,POSITIVE_LENGTH_MEASURE(1.0E-006),#273);
#171=CARTESIAN_POINT('',(0.0,3.0,-0.399999999999999));
#172=SURFACE_STYLE_USAGE(.BOTH.,#274);
#173=FACE_OUTER_BOUND('',#275,.T.);
#174=PLANE('',#276);
#175=POINT_STYLE(' ',#277,POSITIVE_LENGTH_MEASURE(1.0E-006),#278);
#176=CARTESIAN_POINT('',(3.67381906146713E-016,-3.0,-0.399999999999999));
#177=CURVE_STYLE('',#279,POSITIVE_LENGTH_MEASURE(1.0E-006),#280);
#178=CIRCLE('',#281,2.5);
#179=CURVE_STYLE('',#282,POSITIVE_LENGTH_MEASURE(1.0E-006),#283);
#180=LINE('',#284,#285);
#181=SURFACE_STYLE_USAGE(.BOTH.,#286);
#182=FACE_OUTER_BOUND('',#287,.T.);
#183=CYLINDRICAL_SURFACE('',#288,3.0);
#184=POINT_STYLE(' ',#289,POSITIVE_LENGTH_MEASURE(1.0E-006),#290);
#185=CARTESIAN_POINT('',(-3.0,0.0,-36.0));
#186=CURVE_STYLE('',#291,POSITIVE_LENGTH_MEASURE(1.0E-006),#292);
#187=LINE('',#293,#294);
#188=SURFACE_STYLE_USAGE(.BOTH.,#295);
#189=FACE_OUTER_BOUND('',#296,.T.);
#190=CONICAL_SURFACE('',#297,2.75,0.523598775598299);
#191=POINT_STYLE(' ',#298,POSITIVE_LENGTH_MEASURE(1.0E-006),#299);
#192=CARTESIAN_POINT('',(3.0,3.67381906146713E-016,-36.0));
#193=POINT_STYLE(' ',#300,POSITIVE_LENGTH_MEASURE(1.0E-006),#301);
#194=CARTESIAN_POINT('',(-2.5,0.0,-48.8));
#195=POINT_STYLE(' ',#302,POSITIVE_LENGTH_MEASURE(1.0E-006),#303);
#196=CARTESIAN_POINT('',(3.67381906146713E-016,-3.0,-36.0));
#197=SURFACE_STYLE_USAGE(.BOTH.,#304);
#198=FACE_OUTER_BOUND('',#305,.T.);
#199=CYLINDRICAL_SURFACE('',#306,2.5);
#200=CURVE_STYLE('',#307,POSITIVE_LENGTH_MEASURE(1.0E-006),#308);
#201=CIRCLE('',#309,3.0);
#202=CURVE_STYLE('',#310,POSITIVE_LENGTH_MEASURE(1.0E-006),#311);
#203=LINE('',#312,#313);
#204=CURVE_STYLE('',#314,POSITIVE_LENGTH_MEASURE(1.0E-006),#315);
#205=CIRCLE('',#316,3.0);
#206=POINT_STYLE(' ',#317,POSITIVE_LENGTH_MEASURE(1.0E-006),#318);
#207=CARTESIAN_POINT('',(0.0,2.6,0.0));
#208=CURVE_STYLE('',#319,POSITIVE_LENGTH_MEASURE(1.0E-006),#320);
#209=LINE('',#321,#322);
#210=SURFACE_STYLE_USAGE(.BOTH.,#323);
#211=FACE_OUTER_BOUND('',#324,.T.);
#212=CYLINDRICAL_SURFACE('',#325,3.0);
#213=SURFACE_STYLE_USAGE(.BOTH.,#326);
#214=FACE_OUTER_BOUND('',#327,.T.);
#215=PLANE('',#328);
#216=POINT_STYLE(' ',#329,POSITIVE_LENGTH_MEASURE(1.0E-006),#330);
#217=CARTESIAN_POINT('',(2.5,3.06151588455594E-016,-36.8660254037844));
#218=SURFACE_STYLE_USAGE(.BOTH.,#331);
#219=FACE_OUTER_BOUND('',#332,.T.);
#220=CONICAL_SURFACE('',#333,2.8,0.78539816339745);
#221=CURVE_STYLE('',#334,POSITIVE_LENGTH_MEASURE(1.0E-006),#335);
#222=CIRCLE('',#336,3.0);
#223=CURVE_STYLE('',#337,POSITIVE_LENGTH_MEASURE(1.0E-006),#338);
#224=LINE('',#339,#340);
#225=CURVE_STYLE('',#341,POSITIVE_LENGTH_MEASURE(1.0E-006),#342);
#226=CIRCLE('',#343,2.5);
#227=CURVE_STYLE('',#344,POSITIVE_LENGTH_MEASURE(1.0E-006),#345);
#228=CIRCLE('',#346,2.6);
#229=CURVE_STYLE('',#347,POSITIVE_LENGTH_MEASURE(1.0E-006),#348);
#230=LINE('',#349,#350);
#231=CURVE_STYLE('',#351,POSITIVE_LENGTH_MEASURE(1.0E-006),#352);
#232=CIRCLE('',#353,2.5);
#233=CURVE_STYLE('',#354,POSITIVE_LENGTH_MEASURE(1.0E-006),#355);
#234=CIRCLE('',#356,3.0);
#235=POINT_STYLE(' ',#357,POSITIVE_LENGTH_MEASURE(1.0E-006),#358);
#236=CARTESIAN_POINT('',(-3.67381906146713E-016,3.0,-36.0));
#237=SURFACE_STYLE_USAGE(.BOTH.,#359);
#238=FACE_OUTER_BOUND('',#360,.T.);
#239=CONICAL_SURFACE('',#361,2.8,0.78539816339745);
#240=CURVE_STYLE('',#362,POSITIVE_LENGTH_MEASURE(1.0E-006),#363);
#241=LINE('',#364,#365);
#242=CURVE_STYLE('',#366,POSITIVE_LENGTH_MEASURE(1.0E-006),#367);
#243=LINE('',#368,#369);
#244=SURFACE_STYLE_USAGE(.BOTH.,#370);
#245=FACE_OUTER_BOUND('',#371,.T.);
#246=CYLINDRICAL_SURFACE('',#372,2.5);
#247=POINT_STYLE(' ',#373,POSITIVE_LENGTH_MEASURE(1.0E-006),#374);
#248=CARTESIAN_POINT('',(3.18397651993818E-016,-2.6,0.0));
#249=CURVE_STYLE('',#375,POSITIVE_LENGTH_MEASURE(1.0E-006),#376);
#250=CIRCLE('',#377,3.0);
#251=CURVE_STYLE('',#378,POSITIVE_LENGTH_MEASURE(1.0E-006),#379);
#252=CIRCLE('',#380,2.5);
#253=POINT_STYLE(' ',#381,POSITIVE_LENGTH_MEASURE(1.0E-006),#382);
#254=CARTESIAN_POINT('',(-2.5,0.0,-36.8660254037844));
#255=CURVE_STYLE('',#383,POSITIVE_LENGTH_MEASURE(1.0E-006),#384);
#256=CIRCLE('',#385,3.0);
#257=CURVE_STYLE('',#386,POSITIVE_LENGTH_MEASURE(1.0E-006),#387);
#258=CIRCLE('',#388,2.6);
#259=SURFACE_STYLE_USAGE(.BOTH.,#389);
#260=CLOSED_SHELL('',(#93,#85,#79,#129,#107,#111,#105,#151,#135,#71));
#261=SURFACE_STYLE_USAGE(.BOTH.,#390);
#262=FACE_OUTER_BOUND('',#391,.T.);
#263=CONICAL_SURFACE('',#392,2.75,0.523598775598299);
#264=PRODUCT_CONTEXT('',#53,'mechanical');
#265=PRODUCT_DEFINITION_FORMATION_WITH_SPECIFIED_SOURCE(' ','NONE',#152,.NOT_KNOWN.);
#266=CARTESIAN_POINT('',(0.0,0.0,0.0));
#267=DIRECTION('',(0.0,0.0,1.0));
#268=DIRECTION('',(1.0,0.0,0.0));
#269= (NAMED_UNIT(#160)LENGTH_UNIT()SI_UNIT(.MILLI.,.METRE.));
#270=PRE_DEFINED_MARKER('');
#271=COLOUR_RGB('',0.498039215803146,0.498039215803146,0.498039215803146);
#272=PRE_DEFINED_MARKER('');
#273=COLOUR_RGB('',0.498039215803146,0.498039215803146,0.498039215803146);
#274=SURFACE_SIDE_STYLE('',(#394));
#275=EDGE_LOOP('',(#395,#396));
#276=AXIS2_PLACEMENT_3D('',#397,#398,#399);
#277=PRE_DEFINED_MARKER('');
#278=COLOUR_RGB('',0.498039215803146,0.498039215803146,0.498039215803146);
#279=DRAUGHTING_PRE_DEFINED_CURVE_FONT('continuous');
#280=COLOUR_RGB('',0.498039215803146,0.498039215803146,0.498039215803146);
#281=AXIS2_PLACEMENT_3D('',#400,#401,#402);
#282=DRAUGHTING_PRE_DEFINED_CURVE_FONT('continuous');
#283=COLOUR_RGB('',0.498039215803146,0.498039215803146,0.498039215803146);
#284=CARTESIAN_POINT('',(-2.75,-3.36766747301154E-016,-36.4330127018922));
#285=VECTOR('',#403,1.0);
#286=SURFACE_SIDE_STYLE('',(#404));
#287=EDGE_LOOP('',(#405,#406,#407,#408,#409));
#288=AXIS2_PLACEMENT_3D('',#410,#411,#412);
#289=PRE_DEFINED_MARKER('');
#290=COLOUR_RGB('',0.498039215803146,0.498039215803146,0.498039215803146);
#291=DRAUGHTING_PRE_DEFINED_CURVE_FONT('continuous');
#292=COLOUR_RGB('',0.498039215803146,0.498039215803146,0.498039215803146);
#293=CARTESIAN_POINT('',(3.42889779070266E-016,-2.8,-0.199999999999996));
#294=VECTOR('',#413,1.0);
#295=SURFACE_SIDE_STYLE('',(#414));
#296=EDGE_LOOP('',(#415,#416,#417,#418,#419));
#297=AXIS2_PLACEMENT_3D('',#420,#421,#422);
#298=PRE_DEFINED_MARKER('');
#299=COLOUR_RGB('',0.498039215803146,0.498039215803146,0.498039215803146);
#300=PRE_DEFINED_MARKER('');
#301=COLOUR_RGB('',0.498039215803146,0.498039215803146,0.498039215803146);
#302=PRE_DEFINED_MARKER('');
#303=COLOUR_RGB('',0.498039215803146,0.498039215803146,0.498039215803146);
#304=SURFACE_SIDE_STYLE('',(#423));
#305=EDGE_LOOP('',(#424,#425,#426,#427));
#306=AXIS2_PLACEMENT_3D('',#428,#429,#430);
#307=DRAUGHTING_PRE_DEFINED_CURVE_FONT('continuous');
#308=COLOUR_RGB('',0.498039215803146,0.498039215803146,0.498039215803146);
#309=AXIS2_PLACEMENT_3D('',#431,#432,#433);
#310=DRAUGHTING_PRE_DEFINED_CURVE_FONT('continuous');
#311=COLOUR_RGB('',0.498039215803146,0.498039215803146,0.498039215803146);
#312=CARTESIAN_POINT('',(3.67381906146713E-016,-3.0,-18.2));
#313=VECTOR('',#434,1.0);
#314=DRAUGHTING_PRE_DEFINED_CURVE_FONT('continuous');
#315=COLOUR_RGB('',0.498039215803146,0.498039215803146,0.498039215803146);
#316=AXIS2_PLACEMENT_3D('',#435,#436,#437);
#317=PRE_DEFINED_MARKER('');
#318=COLOUR_RGB('',0.498039215803146,0.498039215803146,0.498039215803146);
#319=DRAUGHTING_PRE_DEFINED_CURVE_FONT('continuous');
#320=COLOUR_RGB('',0.498039215803146,0.498039215803146,0.498039215803146);
#321=CARTESIAN_POINT('',(2.75,3.36766747301154E-016,-36.4330127018922));
#322=VECTOR('',#438,1.0);
#323=SURFACE_SIDE_STYLE('',(#439));
#324=EDGE_LOOP('',(#440,#441,#442,#443,#444));
#325=AXIS2_PLACEMENT_3D('',#445,#446,#447);
#326=SURFACE_SIDE_STYLE('',(#448));
#327=EDGE_LOOP('',(#449,#450));
#328=AXIS2_PLACEMENT_3D('',#451,#452,#453);
#329=PRE_DEFINED_MARKER('');
#330=COLOUR_RGB('',0.498039215803146,0.498039215803146,0.498039215803146);
#331=SURFACE_SIDE_STYLE('',(#454));
#332=EDGE_LOOP('',(#455,#456,#457,#458));
#333=AXIS2_PLACEMENT_3D('',#459,#460,#461);
#334=DRAUGHTING_PRE_DEFINED_CURVE_FONT('continuous');
#335=COLOUR_RGB('',0.498039215803146,0.498039215803146,0.498039215803146);
#336=AXIS2_PLACEMENT_3D('',#462,#463,#464);
#337=DRAUGHTING_PRE_DEFINED_CURVE_FONT('continuous');
#338=COLOUR_RGB('',0.498039215803146,0.498039215803146,0.498039215803146);
#339=CARTESIAN_POINT('',(-3.67381906146713E-016,3.0,-18.2));
#340=VECTOR('',#465,1.0);
#341=DRAUGHTING_PRE_DEFINED_CURVE_FONT('continuous');
#342=COLOUR_RGB('',0.498039215803146,0.498039215803146,0.498039215803146);
#343=AXIS2_PLACEMENT_3D('',#466,#467,#468);
#344=DRAUGHTING_PRE_DEFINED_CURVE_FONT('continuous');
#345=COLOUR_RGB('',0.498039215803146,0.498039215803146,0.498039215803146);
#346=AXIS2_PLACEMENT_3D('',#469,#470,#471);
#347=DRAUGHTING_PRE_DEFINED_CURVE_FONT('continuous');
#348=COLOUR_RGB('',0.498039215803146,0.498039215803146,0.498039215803146);
#349=CARTESIAN_POINT('',(2.5,3.06151588455594E-016,-42.8330127018922));
#350=VECTOR('',#472,1.0);
#351=DRAUGHTING_PRE_DEFINED_CURVE_FONT('continuous');
#352=COLOUR_RGB('',0.498039215803146,0.498039215803146,0.498039215803146);
#353=AXIS2_PLACEMENT_3D('',#473,#474,#475);
#354=DRAUGHTING_PRE_DEFINED_CURVE_FONT('continuous');
#355=COLOUR_RGB('',0.498039215803146,0.498039215803146,0.498039215803146);
#356=AXIS2_PLACEMENT_3D('',#476,#477,#478);
#357=PRE_DEFINED_MARKER('');
#358=COLOUR_RGB('',0.498039215803146,0.498039215803146,0.498039215803146);
#359=SURFACE_SIDE_STYLE('',(#479));
#360=EDGE_LOOP('',(#480,#481,#482,#483));
#361=AXIS2_PLACEMENT_3D('',#484,#485,#486);
#362=DRAUGHTING_PRE_DEFINED_CURVE_FONT('continuous');
#363=COLOUR_RGB('',0.498039215803146,0.498039215803146,0.498039215803146);
#364=CARTESIAN_POINT('',(-3.42889779070266E-016,2.8,-0.199999999999996));
#365=VECTOR('',#487,1.0);
#366=DRAUGHTING_PRE_DEFINED_CURVE_FONT('continuous');
#367=COLOUR_RGB('',0.498039215803146,0.498039215803146,0.498039215803146);
#368=CARTESIAN_POINT('',(-2.5,-3.06151588455594E-016,-42.8330127018922));
#369=VECTOR('',#488,1.0);
#370=SURFACE_SIDE_STYLE('',(#489));
#371=EDGE_LOOP('',(#490,#491,#492,#493));
#372=AXIS2_PLACEMENT_3D('',#494,#495,#496);
#373=PRE_DEFINED_MARKER('');
#374=COLOUR_RGB('',0.498039215803146,0.498039215803146,0.498039215803146);
#375=DRAUGHTING_PRE_DEFINED_CURVE_FONT('continuous');
#376=COLOUR_RGB('',0.498039215803146,0.498039215803146,0.498039215803146);
#377=AXIS2_PLACEMENT_3D('',#497,#498,#499);
#378=DRAUGHTING_PRE_DEFINED_CURVE_FONT('continuous');
#379=COLOUR_RGB('',0.498039215803146,0.498039215803146,0.498039215803146);
#380=AXIS2_PLACEMENT_3D('',#500,#501,#502);
#381=PRE_DEFINED_MARKER('');
#382=COLOUR_RGB('',0.498039215803146,0.498039215803146,0.498039215803146);
#383=DRAUGHTING_PRE_DEFINED_CURVE_FONT('continuous');
#384=COLOUR_RGB('',0.498039215803146,0.498039215803146,0.498039215803146);
#385=AXIS2_PLACEMENT_3D('',#503,#504,#505);
#386=DRAUGHTING_PRE_DEFINED_CURVE_FONT('continuous');
#387=COLOUR_RGB('',0.498039215803146,0.498039215803146,0.498039215803146);
#388=AXIS2_PLACEMENT_3D('',#506,#507,#508);
#389=SURFACE_SIDE_STYLE('',(#509));
#390=SURFACE_SIDE_STYLE('',(#510));
#391=EDGE_LOOP('',(#511,#512,#513,#514,#515));
#392=AXIS2_PLACEMENT_3D('',#516,#517,#518);
#394=SURFACE_STYLE_FILL_AREA(#519);
#395=ORIENTED_EDGE('',*,*,#117,.T.);
#396=ORIENTED_EDGE('',*,*,#123,.T.);
#397=CARTESIAN_POINT('',(-1.25,0.0,-48.8));
#398=DIRECTION('',(0.0,0.0,-1.0));
#399=DIRECTION('',(-1.0,0.0,0.0));
#400=CARTESIAN_POINT('',(0.0,0.0,-36.8660254037844));
#401=DIRECTION('',(0.0,0.0,-1.0));
#402=DIRECTION('',(-1.0,0.0,0.0));
#403=DIRECTION('',(0.5,6.12303176911189E-017,-0.866025403784438));
#404=SURFACE_STYLE_FILL_AREA(#520);
#405=ORIENTED_EDGE('',*,*,#115,.F.);
#406=ORIENTED_EDGE('',*,*,#95,.T.);
#407=ORIENTED_EDGE('',*,*,#97,.F.);
#408=ORIENTED_EDGE('',*,*,#139,.F.);
#409=ORIENTED_EDGE('',*,*,#99,.F.);
#410=CARTESIAN_POINT('',(0.0,0.0,-18.2));
#411=DIRECTION('',(-0.0,-0.0,1.0));
#412=DIRECTION('',(0.0,1.0,0.0));
#413=DIRECTION('',(-8.65927457071937E-017,0.707106781186549,0.707106781186546));
#414=SURFACE_STYLE_FILL_AREA(#521);
#415=ORIENTED_EDGE('',*,*,#77,.F.);
#416=ORIENTED_EDGE('',*,*,#145,.T.);
#417=ORIENTED_EDGE('',*,*,#99,.T.);
#418=ORIENTED_EDGE('',*,*,#103,.F.);
#419=ORIENTED_EDGE('',*,*,#75,.F.);
#420=CARTESIAN_POINT('',(0.0,0.0,-36.4330127018922));
#421=DIRECTION('',(-0.0,-0.0,1.0));
#422=DIRECTION('',(-1.0,0.0,0.0));
#423=SURFACE_STYLE_FILL_AREA(#522);
#424=ORIENTED_EDGE('',*,*,#133,.F.);
#425=ORIENTED_EDGE('',*,*,#75,.T.);
#426=ORIENTED_EDGE('',*,*,#121,.F.);
#427=ORIENTED_EDGE('',*,*,#117,.F.);
#428=CARTESIAN_POINT('',(0.0,0.0,-42.8330127018922));
#429=DIRECTION('',(-0.0,-0.0,1.0));
#430=DIRECTION('',(-1.0,0.0,0.0));
#431=CARTESIAN_POINT('',(0.0,0.0,-0.399999999999999));
#432=DIRECTION('',(0.0,0.0,-1.0));
#433=DIRECTION('',(0.0,1.0,0.0));
#434=DIRECTION('',(-0.0,-0.0,1.0));
#435=CARTESIAN_POINT('',(0.0,0.0,-36.0));
#436=DIRECTION('',(0.0,0.0,-1.0));
#437=DIRECTION('',(-1.0,0.0,0.0));
#438=DIRECTION('',(0.5,6.12303176911189E-017,0.866025403784438));
#439=SURFACE_STYLE_FILL_AREA(#523);
#440=ORIENTED_EDGE('',*,*,#115,.T.);
#441=ORIENTED_EDGE('',*,*,#145,.F.);
#442=ORIENTED_EDGE('',*,*,#125,.F.);
#443=ORIENTED_EDGE('',*,*,#97,.T.);
#444=ORIENTED_EDGE('',*,*,#113,.T.);
#445=CARTESIAN_POINT('',(0.0,0.0,-18.2));
#446=DIRECTION('',(-0.0,-0.0,1.0));
#447=DIRECTION('',(0.0,1.0,0.0));
#448=SURFACE_STYLE_FILL_AREA(#524);
#449=ORIENTED_EDGE('',*,*,#119,.F.);
#450=ORIENTED_EDGE('',*,*,#147,.F.);
#451=CARTESIAN_POINT('',(0.0,1.3,0.0));
#452=DIRECTION('',(-0.0,0.0,1.0));
#453=DIRECTION('',(0.0,-1.0,0.0));
#454=SURFACE_STYLE_FILL_AREA(#525);
#455=ORIENTED_EDGE('',*,*,#131,.T.);
#456=ORIENTED_EDGE('',*,*,#113,.F.);
#457=ORIENTED_EDGE('',*,*,#83,.T.);
#458=ORIENTED_EDGE('',*,*,#147,.T.);
#459=CARTESIAN_POINT('',(0.0,0.0,-0.199999999999996));
#460=DIRECTION('',(0.0,-0.0,-1.0));
#461=DIRECTION('',(0.0,1.0,0.0));
#462=CARTESIAN_POINT('',(0.0,0.0,-0.399999999999999));
#463=DIRECTION('',(0.0,0.0,-1.0));
#464=DIRECTION('',(0.0,1.0,0.0));
#465=DIRECTION('',(0.0,0.0,-1.0));
#466=CARTESIAN_POINT('',(0.0,0.0,-48.8));
#467=DIRECTION('',(0.0,0.0,-1.0));
#468=DIRECTION('',(-1.0,0.0,0.0));
#469=CARTESIAN_POINT('',(0.0,0.0,0.0));
#470=DIRECTION('',(0.0,0.0,-1.0));
#471=DIRECTION('',(0.0,1.0,0.0));
#472=DIRECTION('',(-0.0,-0.0,1.0));
#473=CARTESIAN_POINT('',(0.0,0.0,-48.8));
#474=DIRECTION('',(0.0,0.0,-1.0));
#475=DIRECTION('',(-1.0,0.0,0.0));
#476=CARTESIAN_POINT('',(0.0,0.0,-36.0));
#477=DIRECTION('',(0.0,0.0,-1.0));
#478=DIRECTION('',(-1.0,0.0,0.0));
#479=SURFACE_STYLE_FILL_AREA(#526);
#480=ORIENTED_EDGE('',*,*,#131,.F.);
#481=ORIENTED_EDGE('',*,*,#119,.T.);
#482=ORIENTED_EDGE('',*,*,#83,.F.);
#483=ORIENTED_EDGE('',*,*,#95,.F.);
#484=CARTESIAN_POINT('',(0.0,0.0,-0.199999999999996));
#485=DIRECTION('',(0.0,-0.0,-1.0));
#486=DIRECTION('',(0.0,1.0,0.0));
#487=DIRECTION('',(-8.65927457071937E-017,0.707106781186549,-0.707106781186546));
#488=DIRECTION('',(0.0,0.0,-1.0));
#489=SURFACE_STYLE_FILL_AREA(#527);
#490=ORIENTED_EDGE('',*,*,#133,.T.);
#491=ORIENTED_EDGE('',*,*,#123,.F.);
#492=ORIENTED_EDGE('',*,*,#121,.T.);
#493=ORIENTED_EDGE('',*,*,#141,.T.);
#494=CARTESIAN_POINT('',(0.0,0.0,-42.8330127018922));
#495=DIRECTION('',(-0.0,-0.0,1.0));
#496=DIRECTION('',(-1.0,0.0,0.0));
#497=CARTESIAN_POINT('',(0.0,0.0,-36.0));
#498=DIRECTION('',(0.0,0.0,-1.0));
#499=DIRECTION('',(-1.0,0.0,0.0));
#500=CARTESIAN_POINT('',(0.0,0.0,-36.8660254037844));
#501=DIRECTION('',(0.0,0.0,-1.0));
#502=DIRECTION('',(-1.0,0.0,0.0));
#503=CARTESIAN_POINT('',(0.0,0.0,-36.0));
#504=DIRECTION('',(0.0,0.0,-1.0));
#505=DIRECTION('',(-1.0,0.0,0.0));
#506=CARTESIAN_POINT('',(0.0,0.0,0.0));
#507=DIRECTION('',(0.0,0.0,-1.0));
#508=DIRECTION('',(0.0,1.0,0.0));
#509=SURFACE_STYLE_FILL_AREA(#528);
#510=SURFACE_STYLE_FILL_AREA(#529);
#511=ORIENTED_EDGE('',*,*,#77,.T.);
#512=ORIENTED_EDGE('',*,*,#141,.F.);
#513=ORIENTED_EDGE('',*,*,#103,.T.);
#514=ORIENTED_EDGE('',*,*,#139,.T.);
#515=ORIENTED_EDGE('',*,*,#125,.T.);
#516=CARTESIAN_POINT('',(0.0,0.0,-36.4330127018922));
#517=DIRECTION('',(-0.0,-0.0,1.0));
#518=DIRECTION('',(-1.0,0.0,0.0));
#519=FILL_AREA_STYLE('',(#530));
#520=FILL_AREA_STYLE('',(#531));
#521=FILL_AREA_STYLE('',(#532));
#522=FILL_AREA_STYLE('',(#533));
#523=FILL_AREA_STYLE('',(#534));
#524=FILL_AREA_STYLE('',(#535));
#525=FILL_AREA_STYLE('',(#536));
#526=FILL_AREA_STYLE('',(#537));
#527=FILL_AREA_STYLE('',(#538));
#528=FILL_AREA_STYLE('',(#539));
#529=FILL_AREA_STYLE('',(#540));
#530=FILL_AREA_STYLE_COLOUR('',#541);
#531=FILL_AREA_STYLE_COLOUR('',#542);
#532=FILL_AREA_STYLE_COLOUR('',#543);
#533=FILL_AREA_STYLE_COLOUR('',#544);
#534=FILL_AREA_STYLE_COLOUR('',#545);
#535=FILL_AREA_STYLE_COLOUR('',#546);
#536=FILL_AREA_STYLE_COLOUR('',#547);
#537=FILL_AREA_STYLE_COLOUR('',#548);
#538=FILL_AREA_STYLE_COLOUR('',#549);
#539=FILL_AREA_STYLE_COLOUR('',#550);
#540=FILL_AREA_STYLE_COLOUR('',#551);
#541=COLOUR_RGB('',0.498039215803146,0.498039215803146,0.498039215803146);
#542=COLOUR_RGB('',0.498039215803146,0.498039215803146,0.498039215803146);
#543=COLOUR_RGB('',0.498039215803146,0.498039215803146,0.498039215803146);
#544=COLOUR_RGB('',0.498039215803146,0.498039215803146,0.498039215803146);
#545=COLOUR_RGB('',0.498039215803146,0.498039215803146,0.498039215803146);
#546=COLOUR_RGB('',0.498039215803146,0.498039215803146,0.498039215803146);
#547=COLOUR_RGB('',0.498039215803146,0.498039215803146,0.498039215803146);
#548=COLOUR_RGB('',0.498039215803146,0.498039215803146,0.498039215803146);
#549=COLOUR_RGB('',0.498039215803146,0.498039215803146,0.498039215803146);
#550=COLOUR_RGB('',0.498039215803146,0.498039215803146,0.498039215803146);
#551=COLOUR_RGB('',0.498039215803146,0.498039215803146,0.498039215803146);
#552=AXIS2_PLACEMENT_3D('PCS',#553,#554,#555);
#553=CARTESIAN_POINT('',(0.0,0.0,0.0));
#554=DIRECTION('',(0.0,0.0,1.0));
#555=DIRECTION('',(1.0,0.0,0.0));
#556=AXIS2_PLACEMENT_3D('MCS',#557,#558,#559);
#557=CARTESIAN_POINT('',(0.0,0.0,-36.0));
#558=DIRECTION('',(0.0,0.0,1.0));
#559=DIRECTION('',(1.0,0.0,0.0));
#560=AXIS2_PLACEMENT_3D('CIP',#561,#562,#563);
#561=CARTESIAN_POINT('',(0.0,0.0,-50.0));
#562=DIRECTION('',(0.0,0.0,1.0));
#563=DIRECTION('',(1.0,0.0,0.0));
#564=CONSTRUCTIVE_GEOMETRY_REPRESENTATION_RELATIONSHIP('coordinate systems',$,#57,#565);
#565=CONSTRUCTIVE_GEOMETRY_REPRESENTATION('coordinate systems',(#552,#556,#560),#6);
ENDSEC;
END-ISO-10303-21;
