ISO-10303-21;
HEADER;
FILE_DESCRIPTION(('no description'),'unknown implementation level');
FILE_NAME('8553541.stp','  ',('CIM GmbH Aachen'),('CADClick - KiM GmbH - www.kimweb.de'),'unknown preprocess','ACIS','unknown authorization');
FILE_SCHEMA(('automotive_design'));
ENDSEC;
DATA;
#1=MECHANICAL_DESIGN_GEOMETRIC_PRESENTATION_REPRESENTATION(' ',(#14,#15,#16,#17,#18,#19,#20,#21,#22,#23,#24,#25,#26,#27,#28,#29,#30,#31,#32,#33,#34,#35,#36,#37,#38,#39,#40,#41,#42,#43,#44,#45,#46,#47,#48,#49,#50,#51,#52,#53,#54,#55,#56,#57,#58,#59,#60,#61),#10);
#2=PRODUCT_DEFINITION_CONTEXT('',#62,'design');
#3=APPLICATION_PROTOCOL_DEFINITION('INTERNATIONAL STANDARD','automotive_design',1994,#62);
#4=PRODUCT_CATEGORY_RELATIONSHIP('NONE','NONE',#63,#64);
#5=SHAPE_DEFINITION_REPRESENTATION(#65,#66);
#6=PRODUCT_DEFINITION_CONTEXT('',#67,'design');
#7=APPLICATION_PROTOCOL_DEFINITION('INTERNATIONAL STANDARD','automotive_design',1994,#67);
#8=PRODUCT_CATEGORY_RELATIONSHIP('NONE','NONE',#68,#69);
#9=SHAPE_DEFINITION_REPRESENTATION(#70,#71);
#10= (GEOMETRIC_REPRESENTATION_CONTEXT(3)GLOBAL_UNCERTAINTY_ASSIGNED_CONTEXT((#74))GLOBAL_UNIT_ASSIGNED_CONTEXT((#76,#77,#78))REPRESENTATION_CONTEXT('NONE','WORKSPACE'));
#14=STYLED_ITEM('',(#80),#81);
#15=STYLED_ITEM('',(#82),#83);
#16=STYLED_ITEM('',(#84),#85);
#17=STYLED_ITEM('',(#86),#87);
#18=STYLED_ITEM('',(#88),#89);
#19=STYLED_ITEM('',(#90),#91);
#20=STYLED_ITEM('',(#92),#93);
#21=STYLED_ITEM('',(#94),#95);
#22=STYLED_ITEM('',(#96),#97);
#23=STYLED_ITEM('',(#98),#99);
#24=STYLED_ITEM('',(#100),#101);
#25=STYLED_ITEM('',(#102),#103);
#26=STYLED_ITEM('',(#104),#105);
#27=STYLED_ITEM('',(#106),#107);
#28=STYLED_ITEM('',(#108),#109);
#29=STYLED_ITEM('',(#110),#111);
#30=STYLED_ITEM('',(#112),#113);
#31=STYLED_ITEM('',(#114),#115);
#32=STYLED_ITEM('',(#116),#117);
#33=STYLED_ITEM('',(#118),#119);
#34=STYLED_ITEM('',(#120),#121);
#35=STYLED_ITEM('',(#122),#123);
#36=STYLED_ITEM('',(#124),#125);
#37=STYLED_ITEM('',(#126),#127);
#38=STYLED_ITEM('',(#128),#129);
#39=STYLED_ITEM('',(#130),#131);
#40=STYLED_ITEM('',(#132),#133);
#41=STYLED_ITEM('',(#134),#135);
#42=STYLED_ITEM('',(#136),#137);
#43=STYLED_ITEM('',(#138),#139);
#44=STYLED_ITEM('',(#140),#141);
#45=STYLED_ITEM('',(#142),#143);
#46=STYLED_ITEM('',(#144),#145);
#47=STYLED_ITEM('',(#146),#147);
#48=STYLED_ITEM('',(#148),#149);
#49=STYLED_ITEM('',(#150),#151);
#50=STYLED_ITEM('',(#152),#153);
#51=STYLED_ITEM('',(#154),#155);
#52=STYLED_ITEM('',(#156),#157);
#53=STYLED_ITEM('',(#158),#159);
#54=STYLED_ITEM('',(#160),#161);
#55=STYLED_ITEM('',(#162),#163);
#56=STYLED_ITEM('',(#164),#165);
#57=STYLED_ITEM('',(#166),#167);
#58=STYLED_ITEM('',(#168),#169);
#59=STYLED_ITEM('',(#170),#171);
#60=STYLED_ITEM('',(#172),#173);
#61=STYLED_ITEM('',(#174),#175);
#62=APPLICATION_CONTEXT(' ');
#63=PRODUCT_CATEGORY('part','NONE');
#64=PRODUCT_RELATED_PRODUCT_CATEGORY('detail',' ',(#176));
#65=PRODUCT_DEFINITION_SHAPE('NONE','NONE',#177);
#66=ADVANCED_BREP_SHAPE_REPRESENTATION('1',(#117,#178),#10);
#67=APPLICATION_CONTEXT(' ');
#68=PRODUCT_CATEGORY('part','NONE');
#69=PRODUCT_RELATED_PRODUCT_CATEGORY('detail',' ',(#179));
#70=PRODUCT_DEFINITION_SHAPE('NONE','NONE',#180);
#71=ADVANCED_BREP_SHAPE_REPRESENTATION('2',(#165,#181),#10);
#74=UNCERTAINTY_MEASURE_WITH_UNIT(LENGTH_MEASURE(1.0E-006),#76,'','');
#76= (CONVERSION_BASED_UNIT('MILLIMETRE',#184)LENGTH_UNIT()NAMED_UNIT(#187));
#77= (NAMED_UNIT(#189)PLANE_ANGLE_UNIT()SI_UNIT($,.RADIAN.));
#78= (NAMED_UNIT(#189)SOLID_ANGLE_UNIT()SI_UNIT($,.STERADIAN.));
#80=PRESENTATION_STYLE_ASSIGNMENT((#195));
#81=VERTEX_POINT('',#196);
#82=PRESENTATION_STYLE_ASSIGNMENT((#197));
#83=EDGE_CURVE('',#125,#167,#198,.T.);
#84=PRESENTATION_STYLE_ASSIGNMENT((#199));
#85=ADVANCED_FACE('',(#200),#201,.T.);
#86=PRESENTATION_STYLE_ASSIGNMENT((#202));
#87=EDGE_CURVE('',#173,#105,#203,.T.);
#88=PRESENTATION_STYLE_ASSIGNMENT((#204));
#89=ADVANCED_FACE('',(#205),#206,.T.);
#90=PRESENTATION_STYLE_ASSIGNMENT((#207));
#91=ADVANCED_FACE('',(#208),#209,.T.);
#92=PRESENTATION_STYLE_ASSIGNMENT((#210));
#93=EDGE_CURVE('',#161,#109,#211,.T.);
#94=PRESENTATION_STYLE_ASSIGNMENT((#212));
#95=VERTEX_POINT('',#213);
#96=PRESENTATION_STYLE_ASSIGNMENT((#214));
#97=EDGE_CURVE('',#163,#137,#215,.T.);
#98=PRESENTATION_STYLE_ASSIGNMENT((#216));
#99=EDGE_CURVE('',#147,#173,#217,.T.);
#100=PRESENTATION_STYLE_ASSIGNMENT((#218));
#101=VERTEX_POINT('',#219);
#102=PRESENTATION_STYLE_ASSIGNMENT((#220));
#103=ADVANCED_FACE('',(#221),#222,.T.);
#104=PRESENTATION_STYLE_ASSIGNMENT((#223));
#105=VERTEX_POINT('',#224);
#106=PRESENTATION_STYLE_ASSIGNMENT((#225));
#107=ADVANCED_FACE('',(#226),#227,.T.);
#108=PRESENTATION_STYLE_ASSIGNMENT((#228));
#109=VERTEX_POINT('',#229);
#110=PRESENTATION_STYLE_ASSIGNMENT((#230));
#111=ADVANCED_FACE('',(#231),#232,.T.);
#112=PRESENTATION_STYLE_ASSIGNMENT((#233));
#113=EDGE_CURVE('',#105,#109,#234,.T.);
#114=PRESENTATION_STYLE_ASSIGNMENT((#235));
#115=ADVANCED_FACE('',(#236),#237,.T.);
#116=PRESENTATION_STYLE_ASSIGNMENT((#238));
#117=MANIFOLD_SOLID_BREP('1',#239);
#118=PRESENTATION_STYLE_ASSIGNMENT((#240));
#119=ADVANCED_FACE('',(#241),#242,.T.);
#120=PRESENTATION_STYLE_ASSIGNMENT((#243));
#121=VERTEX_POINT('',#244);
#122=PRESENTATION_STYLE_ASSIGNMENT((#245));
#123=EDGE_CURVE('',#137,#163,#246,.T.);
#124=PRESENTATION_STYLE_ASSIGNMENT((#247));
#125=VERTEX_POINT('',#248);
#126=PRESENTATION_STYLE_ASSIGNMENT((#249));
#127=EDGE_CURVE('',#167,#163,#250,.T.);
#128=PRESENTATION_STYLE_ASSIGNMENT((#251));
#129=EDGE_CURVE('',#155,#121,#252,.T.);
#130=PRESENTATION_STYLE_ASSIGNMENT((#253));
#131=EDGE_CURVE('',#101,#81,#254,.T.);
#132=PRESENTATION_STYLE_ASSIGNMENT((#255));
#133=ADVANCED_FACE('',(#256),#257,.T.);
#134=PRESENTATION_STYLE_ASSIGNMENT((#258));
#135=EDGE_CURVE('',#109,#95,#259,.T.);
#136=PRESENTATION_STYLE_ASSIGNMENT((#260));
#137=VERTEX_POINT('',#261);
#138=PRESENTATION_STYLE_ASSIGNMENT((#262));
#139=EDGE_CURVE('',#161,#81,#263,.T.);
#140=PRESENTATION_STYLE_ASSIGNMENT((#264));
#141=EDGE_CURVE('',#137,#121,#265,.T.);
#142=PRESENTATION_STYLE_ASSIGNMENT((#266));
#143=EDGE_CURVE('',#101,#105,#267,.T.);
#144=PRESENTATION_STYLE_ASSIGNMENT((#268));
#145=EDGE_CURVE('',#173,#147,#269,.T.);
#146=PRESENTATION_STYLE_ASSIGNMENT((#270));
#147=VERTEX_POINT('',#271);
#148=PRESENTATION_STYLE_ASSIGNMENT((#272));
#149=EDGE_CURVE('',#95,#101,#273,.T.);
#150=PRESENTATION_STYLE_ASSIGNMENT((#274));
#151=ADVANCED_FACE('',(#275),#276,.T.);
#152=PRESENTATION_STYLE_ASSIGNMENT((#277));
#153=ADVANCED_FACE('',(#278),#279,.T.);
#154=PRESENTATION_STYLE_ASSIGNMENT((#280));
#155=VERTEX_POINT('',#281);
#156=PRESENTATION_STYLE_ASSIGNMENT((#282));
#157=EDGE_CURVE('',#125,#155,#283,.T.);
#158=PRESENTATION_STYLE_ASSIGNMENT((#284));
#159=EDGE_CURVE('',#167,#155,#285,.T.);
#160=PRESENTATION_STYLE_ASSIGNMENT((#286));
#161=VERTEX_POINT('',#287);
#162=PRESENTATION_STYLE_ASSIGNMENT((#288));
#163=VERTEX_POINT('',#289);
#164=PRESENTATION_STYLE_ASSIGNMENT((#290));
#165=MANIFOLD_SOLID_BREP('2',#291);
#166=PRESENTATION_STYLE_ASSIGNMENT((#292));
#167=VERTEX_POINT('',#293);
#168=PRESENTATION_STYLE_ASSIGNMENT((#294));
#169=EDGE_CURVE('',#121,#125,#295,.T.);
#170=PRESENTATION_STYLE_ASSIGNMENT((#296));
#171=EDGE_CURVE('',#95,#147,#297,.T.);
#172=PRESENTATION_STYLE_ASSIGNMENT((#298));
#173=VERTEX_POINT('',#299);
#174=PRESENTATION_STYLE_ASSIGNMENT((#300));
#175=EDGE_CURVE('',#81,#161,#301,.T.);
#176=PRODUCT('1','1','PART-1-DESC',(#302));
#177=PRODUCT_DEFINITION('NONE','NONE',#303,#2);
#178=AXIS2_PLACEMENT_3D('',#304,#305,#306);
#179=PRODUCT('2','2','PART-2-DESC',(#307));
#180=PRODUCT_DEFINITION('NONE','NONE',#308,#6);
#181=AXIS2_PLACEMENT_3D('',#309,#310,#311);
#184=LENGTH_MEASURE_WITH_UNIT(LENGTH_MEASURE(1.0),#312);
#187=DIMENSIONAL_EXPONENTS(1.0,0.0,0.0,0.0,0.0,0.0,0.0);
#189=DIMENSIONAL_EXPONENTS(0.0,0.0,0.0,0.0,0.0,0.0,0.0);
#195=POINT_STYLE(' ',#313,POSITIVE_LENGTH_MEASURE(1.0E-006),#314);
#196=CARTESIAN_POINT('',(-2.0,0.0,-72.0));
#197=CURVE_STYLE('',#315,POSITIVE_LENGTH_MEASURE(1.0E-006),#316);
#198=CIRCLE('',#317,2.0);
#199=SURFACE_STYLE_USAGE(.BOTH.,#318);
#200=FACE_OUTER_BOUND('',#319,.T.);
#201=CYLINDRICAL_SURFACE('',#320,2.0);
#202=CURVE_STYLE('',#321,POSITIVE_LENGTH_MEASURE(1.0E-006),#322);
#203=LINE('',#323,#324);
#204=SURFACE_STYLE_USAGE(.BOTH.,#325);
#205=FACE_OUTER_BOUND('',#326,.T.);
#206=CONICAL_SURFACE('',#327,1.85,0.785398163397447);
#207=SURFACE_STYLE_USAGE(.BOTH.,#328);
#208=FACE_OUTER_BOUND('',#329,.T.);
#209=CONICAL_SURFACE('',#330,1.85,0.785398163397447);
#210=CURVE_STYLE('',#331,POSITIVE_LENGTH_MEASURE(1.0E-006),#332);
#211=LINE('',#333,#334);
#212=POINT_STYLE(' ',#335,POSITIVE_LENGTH_MEASURE(1.0E-006),#336);
#213=CARTESIAN_POINT('',(2.44921270764475E-016,-2.0,-0.300000000000001));
#214=CURVE_STYLE('',#337,POSITIVE_LENGTH_MEASURE(1.0E-006),#338);
#215=CIRCLE('',#339,2.0);
#216=CURVE_STYLE('',#340,POSITIVE_LENGTH_MEASURE(1.0E-006),#341);
#217=CIRCLE('',#342,1.7);
#218=POINT_STYLE(' ',#343,POSITIVE_LENGTH_MEASURE(1.0E-006),#344);
#219=CARTESIAN_POINT('',(-2.0,-2.44921270764475E-016,-0.300000000000004));
#220=SURFACE_STYLE_USAGE(.BOTH.,#345);
#221=FACE_OUTER_BOUND('',#346,.T.);
#222=PLANE('',#347);
#223=POINT_STYLE(' ',#348,POSITIVE_LENGTH_MEASURE(1.0E-006),#349);
#224=CARTESIAN_POINT('',(0.0,2.0,-0.300000000000001));
#225=SURFACE_STYLE_USAGE(.BOTH.,#350);
#226=FACE_OUTER_BOUND('',#351,.T.);
#227=PLANE('',#352);
#228=POINT_STYLE(' ',#353,POSITIVE_LENGTH_MEASURE(1.0E-006),#354);
#229=CARTESIAN_POINT('',(2.0,2.44921270764475E-016,-0.300000000000004));
#230=SURFACE_STYLE_USAGE(.BOTH.,#355);
#231=FACE_OUTER_BOUND('',#356,.T.);
#232=CYLINDRICAL_SURFACE('',#357,2.0);
#233=CURVE_STYLE('',#358,POSITIVE_LENGTH_MEASURE(1.0E-006),#359);
#234=CIRCLE('',#360,2.0);
#235=SURFACE_STYLE_USAGE(.BOTH.,#361);
#236=FACE_OUTER_BOUND('',#362,.T.);
#237=SPHERICAL_SURFACE('',#363,1.99999999999999);
#238=SURFACE_STYLE_USAGE(.BOTH.,#364);
#239=CLOSED_SHELL('',(#111,#89,#103,#91,#133,#107));
#240=SURFACE_STYLE_USAGE(.BOTH.,#365);
#241=FACE_OUTER_BOUND('',#366,.T.);
#242=SPHERICAL_SURFACE('',#367,1.99999999999999);
#243=POINT_STYLE(' ',#368,POSITIVE_LENGTH_MEASURE(1.0E-006),#369);
#244=CARTESIAN_POINT('',(1.0,1.73205080756888,-78.0));
#245=CURVE_STYLE('',#370,POSITIVE_LENGTH_MEASURE(1.0E-006),#371);
#246=CIRCLE('',#372,2.0);
#247=POINT_STYLE(' ',#373,POSITIVE_LENGTH_MEASURE(1.0E-006),#374);
#248=CARTESIAN_POINT('',(-3.48054059549662E-030,-2.0,-78.0));
#249=CURVE_STYLE('',#375,POSITIVE_LENGTH_MEASURE(1.0E-006),#376);
#250=LINE('',#377,#378);
#251=CURVE_STYLE('',#379,POSITIVE_LENGTH_MEASURE(1.0E-006),#380);
#252=CIRCLE('',#381,2.0);
#253=CURVE_STYLE('',#382,POSITIVE_LENGTH_MEASURE(1.0E-006),#383);
#254=LINE('',#384,#385);
#255=SURFACE_STYLE_USAGE(.BOTH.,#386);
#256=FACE_OUTER_BOUND('',#387,.T.);
#257=CYLINDRICAL_SURFACE('',#388,2.0);
#258=CURVE_STYLE('',#389,POSITIVE_LENGTH_MEASURE(1.0E-006),#390);
#259=CIRCLE('',#391,2.0);
#260=POINT_STYLE(' ',#392,POSITIVE_LENGTH_MEASURE(1.0E-006),#393);
#261=CARTESIAN_POINT('',(1.0,1.73205080756888,-72.0));
#262=CURVE_STYLE('',#394,POSITIVE_LENGTH_MEASURE(1.0E-006),#395);
#263=CIRCLE('',#396,2.0);
#264=CURVE_STYLE('',#397,POSITIVE_LENGTH_MEASURE(1.0E-006),#398);
#265=LINE('',#399,#400);
#266=CURVE_STYLE('',#401,POSITIVE_LENGTH_MEASURE(1.0E-006),#402);
#267=CIRCLE('',#403,2.0);
#268=CURVE_STYLE('',#404,POSITIVE_LENGTH_MEASURE(1.0E-006),#405);
#269=CIRCLE('',#406,1.7);
#270=POINT_STYLE(' ',#407,POSITIVE_LENGTH_MEASURE(1.0E-006),#408);
#271=CARTESIAN_POINT('',(2.08183080149804E-016,-1.7,0.0));
#272=CURVE_STYLE('',#409,POSITIVE_LENGTH_MEASURE(1.0E-006),#410);
#273=CIRCLE('',#411,2.0);
#274=SURFACE_STYLE_USAGE(.BOTH.,#412);
#275=FACE_OUTER_BOUND('',#413,.T.);
#276=CYLINDRICAL_SURFACE('',#414,2.0);
#277=SURFACE_STYLE_USAGE(.BOTH.,#415);
#278=FACE_OUTER_BOUND('',#416,.T.);
#279=PLANE('',#417);
#280=POINT_STYLE(' ',#418,POSITIVE_LENGTH_MEASURE(1.0E-006),#419);
#281=CARTESIAN_POINT('',(-3.48054059549662E-030,2.0,-78.0));
#282=CURVE_STYLE('',#420,POSITIVE_LENGTH_MEASURE(1.0E-006),#421);
#283=CIRCLE('',#422,1.99999999999999);
#284=CURVE_STYLE('',#423,POSITIVE_LENGTH_MEASURE(1.0E-006),#424);
#285=CIRCLE('',#425,2.0);
#286=POINT_STYLE(' ',#426,POSITIVE_LENGTH_MEASURE(1.0E-006),#427);
#287=CARTESIAN_POINT('',(2.0,2.44921270764475E-016,-72.0));
#288=POINT_STYLE(' ',#428,POSITIVE_LENGTH_MEASURE(1.0E-006),#429);
#289=CARTESIAN_POINT('',(-0.999999999999999,-1.73205080756888,-72.0));
#290=SURFACE_STYLE_USAGE(.BOTH.,#430);
#291=CLOSED_SHELL('',(#151,#115,#119,#153,#85));
#292=POINT_STYLE(' ',#431,POSITIVE_LENGTH_MEASURE(1.0E-006),#432);
#293=CARTESIAN_POINT('',(-0.999999999999999,-1.73205080756888,-78.0));
#294=CURVE_STYLE('',#433,POSITIVE_LENGTH_MEASURE(1.0E-006),#434);
#295=CIRCLE('',#435,2.0);
#296=CURVE_STYLE('',#436,POSITIVE_LENGTH_MEASURE(1.0E-006),#437);
#297=LINE('',#438,#439);
#298=POINT_STYLE(' ',#440,POSITIVE_LENGTH_MEASURE(1.0E-006),#441);
#299=CARTESIAN_POINT('',(0.0,1.7,0.0));
#300=CURVE_STYLE('',#442,POSITIVE_LENGTH_MEASURE(1.0E-006),#443);
#301=CIRCLE('',#444,2.0);
#302=PRODUCT_CONTEXT('',#62,'mechanical');
#303=PRODUCT_DEFINITION_FORMATION_WITH_SPECIFIED_SOURCE(' ','NONE',#176,.NOT_KNOWN.);
#304=CARTESIAN_POINT('',(0.0,0.0,0.0));
#305=DIRECTION('',(0.0,0.0,1.0));
#306=DIRECTION('',(1.0,0.0,0.0));
#307=PRODUCT_CONTEXT('',#67,'mechanical');
#308=PRODUCT_DEFINITION_FORMATION_WITH_SPECIFIED_SOURCE(' ','NONE',#179,.NOT_KNOWN.);
#309=CARTESIAN_POINT('',(0.0,0.0,0.0));
#310=DIRECTION('',(0.0,0.0,1.0));
#311=DIRECTION('',(1.0,0.0,0.0));
#312= (NAMED_UNIT(#187)LENGTH_UNIT()SI_UNIT(.MILLI.,.METRE.));
#313=PRE_DEFINED_MARKER('');
#314=COLOUR_RGB('',0.498039215803146,0.498039215803146,0.498039215803146);
#315=DRAUGHTING_PRE_DEFINED_CURVE_FONT('continuous');
#316=COLOUR_RGB('',0.800000011920929,0.800000011920929,0.800000011920929);
#317=AXIS2_PLACEMENT_3D('',#446,#447,#448);
#318=SURFACE_SIDE_STYLE('',(#449));
#319=EDGE_LOOP('',(#450,#451,#452,#453,#454));
#320=AXIS2_PLACEMENT_3D('',#455,#456,#457);
#321=DRAUGHTING_PRE_DEFINED_CURVE_FONT('continuous');
#322=COLOUR_RGB('',0.498039215803146,0.498039215803146,0.498039215803146);
#323=CARTESIAN_POINT('',(-2.2655217545714E-016,1.85,-0.150000000000002));
#324=VECTOR('',#458,1.0);
#325=SURFACE_SIDE_STYLE('',(#459));
#326=EDGE_LOOP('',(#460,#461,#462,#463,#464));
#327=AXIS2_PLACEMENT_3D('',#465,#466,#467);
#328=SURFACE_SIDE_STYLE('',(#468));
#329=EDGE_LOOP('',(#469,#470,#471,#472,#473));
#330=AXIS2_PLACEMENT_3D('',#474,#475,#476);
#331=DRAUGHTING_PRE_DEFINED_CURVE_FONT('continuous');
#332=COLOUR_RGB('',0.498039215803146,0.498039215803146,0.498039215803146);
#333=CARTESIAN_POINT('',(2.0,2.44921270764475E-016,-50.0));
#334=VECTOR('',#477,1.0);
#335=PRE_DEFINED_MARKER('');
#336=COLOUR_RGB('',0.498039215803146,0.498039215803146,0.498039215803146);
#337=DRAUGHTING_PRE_DEFINED_CURVE_FONT('continuous');
#338=COLOUR_RGB('',0.800000011920929,0.800000011920929,0.800000011920929);
#339=AXIS2_PLACEMENT_3D('',#478,#479,#480);
#340=DRAUGHTING_PRE_DEFINED_CURVE_FONT('continuous');
#341=COLOUR_RGB('',0.498039215803146,0.498039215803146,0.498039215803146);
#342=AXIS2_PLACEMENT_3D('',#481,#482,#483);
#343=PRE_DEFINED_MARKER('');
#344=COLOUR_RGB('',0.498039215803146,0.498039215803146,0.498039215803146);
#345=SURFACE_SIDE_STYLE('',(#484));
#346=EDGE_LOOP('',(#485,#486));
#347=AXIS2_PLACEMENT_3D('',#487,#488,#489);
#348=PRE_DEFINED_MARKER('');
#349=COLOUR_RGB('',0.498039215803146,0.498039215803146,0.498039215803146);
#350=SURFACE_SIDE_STYLE('',(#490));
#351=EDGE_LOOP('',(#491,#492));
#352=AXIS2_PLACEMENT_3D('',#493,#494,#495);
#353=PRE_DEFINED_MARKER('');
#354=COLOUR_RGB('',0.498039215803146,0.498039215803146,0.498039215803146);
#355=SURFACE_SIDE_STYLE('',(#496));
#356=EDGE_LOOP('',(#497,#498,#499,#500,#501));
#357=AXIS2_PLACEMENT_3D('',#502,#503,#504);
#358=DRAUGHTING_PRE_DEFINED_CURVE_FONT('continuous');
#359=COLOUR_RGB('',0.498039215803146,0.498039215803146,0.498039215803146);
#360=AXIS2_PLACEMENT_3D('',#505,#506,#507);
#361=SURFACE_SIDE_STYLE('',(#508));
#362=EDGE_LOOP('',(#509,#510,#511));
#363=AXIS2_PLACEMENT_3D('',#512,#513,#514);
#364=SURFACE_SIDE_STYLE('',(#515));
#365=SURFACE_SIDE_STYLE('',(#516));
#366=EDGE_LOOP('',(#517,#518,#519));
#367=AXIS2_PLACEMENT_3D('',#520,#521,#522);
#368=PRE_DEFINED_MARKER('');
#369=COLOUR_RGB('',0.800000011920929,0.800000011920929,0.800000011920929);
#370=DRAUGHTING_PRE_DEFINED_CURVE_FONT('continuous');
#371=COLOUR_RGB('',0.800000011920929,0.800000011920929,0.800000011920929);
#372=AXIS2_PLACEMENT_3D('',#523,#524,#525);
#373=PRE_DEFINED_MARKER('');
#374=COLOUR_RGB('',0.800000011920929,0.800000011920929,0.800000011920929);
#375=DRAUGHTING_PRE_DEFINED_CURVE_FONT('continuous');
#376=COLOUR_RGB('',0.800000011920929,0.800000011920929,0.800000011920929);
#377=CARTESIAN_POINT('',(-0.999999999999999,-1.73205080756888,-75.0));
#378=VECTOR('',#526,1.0);
#379=DRAUGHTING_PRE_DEFINED_CURVE_FONT('continuous');
#380=COLOUR_RGB('',0.800000011920929,0.800000011920929,0.800000011920929);
#381=AXIS2_PLACEMENT_3D('',#527,#528,#529);
#382=DRAUGHTING_PRE_DEFINED_CURVE_FONT('continuous');
#383=COLOUR_RGB('',0.498039215803146,0.498039215803146,0.498039215803146);
#384=CARTESIAN_POINT('',(-2.0,-2.44921270764475E-016,-50.0));
#385=VECTOR('',#530,1.0);
#386=SURFACE_SIDE_STYLE('',(#531));
#387=EDGE_LOOP('',(#532,#533,#534,#535,#536));
#388=AXIS2_PLACEMENT_3D('',#537,#538,#539);
#389=DRAUGHTING_PRE_DEFINED_CURVE_FONT('continuous');
#390=COLOUR_RGB('',0.498039215803146,0.498039215803146,0.498039215803146);
#391=AXIS2_PLACEMENT_3D('',#540,#541,#542);
#392=PRE_DEFINED_MARKER('');
#393=COLOUR_RGB('',0.800000011920929,0.800000011920929,0.800000011920929);
#394=DRAUGHTING_PRE_DEFINED_CURVE_FONT('continuous');
#395=COLOUR_RGB('',0.498039215803146,0.498039215803146,0.498039215803146);
#396=AXIS2_PLACEMENT_3D('',#543,#544,#545);
#397=DRAUGHTING_PRE_DEFINED_CURVE_FONT('continuous');
#398=COLOUR_RGB('',0.800000011920929,0.800000011920929,0.800000011920929);
#399=CARTESIAN_POINT('',(0.999999999999999,1.73205080756888,-75.0));
#400=VECTOR('',#546,1.0);
#401=DRAUGHTING_PRE_DEFINED_CURVE_FONT('continuous');
#402=COLOUR_RGB('',0.498039215803146,0.498039215803146,0.498039215803146);
#403=AXIS2_PLACEMENT_3D('',#547,#548,#549);
#404=DRAUGHTING_PRE_DEFINED_CURVE_FONT('continuous');
#405=COLOUR_RGB('',0.498039215803146,0.498039215803146,0.498039215803146);
#406=AXIS2_PLACEMENT_3D('',#550,#551,#552);
#407=PRE_DEFINED_MARKER('');
#408=COLOUR_RGB('',0.498039215803146,0.498039215803146,0.498039215803146);
#409=DRAUGHTING_PRE_DEFINED_CURVE_FONT('continuous');
#410=COLOUR_RGB('',0.498039215803146,0.498039215803146,0.498039215803146);
#411=AXIS2_PLACEMENT_3D('',#553,#554,#555);
#412=SURFACE_SIDE_STYLE('',(#556));
#413=EDGE_LOOP('',(#557,#558,#559,#560,#561));
#414=AXIS2_PLACEMENT_3D('',#562,#563,#564);
#415=SURFACE_SIDE_STYLE('',(#565));
#416=EDGE_LOOP('',(#566,#567));
#417=AXIS2_PLACEMENT_3D('',#568,#569,#570);
#418=PRE_DEFINED_MARKER('');
#419=COLOUR_RGB('',0.800000011920929,0.800000011920929,0.800000011920929);
#420=DRAUGHTING_PRE_DEFINED_CURVE_FONT('continuous');
#421=COLOUR_RGB('',0.800000011920929,0.800000011920929,0.800000011920929);
#422=AXIS2_PLACEMENT_3D('',#571,#572,#573);
#423=DRAUGHTING_PRE_DEFINED_CURVE_FONT('continuous');
#424=COLOUR_RGB('',0.800000011920929,0.800000011920929,0.800000011920929);
#425=AXIS2_PLACEMENT_3D('',#574,#575,#576);
#426=PRE_DEFINED_MARKER('');
#427=COLOUR_RGB('',0.498039215803146,0.498039215803146,0.498039215803146);
#428=PRE_DEFINED_MARKER('');
#429=COLOUR_RGB('',0.800000011920929,0.800000011920929,0.800000011920929);
#430=SURFACE_SIDE_STYLE('',(#577));
#431=PRE_DEFINED_MARKER('');
#432=COLOUR_RGB('',0.800000011920929,0.800000011920929,0.800000011920929);
#433=DRAUGHTING_PRE_DEFINED_CURVE_FONT('continuous');
#434=COLOUR_RGB('',0.800000011920929,0.800000011920929,0.800000011920929);
#435=AXIS2_PLACEMENT_3D('',#578,#579,#580);
#436=DRAUGHTING_PRE_DEFINED_CURVE_FONT('continuous');
#437=COLOUR_RGB('',0.498039215803146,0.498039215803146,0.498039215803146);
#438=CARTESIAN_POINT('',(2.2655217545714E-016,-1.85,-0.150000000000002));
#439=VECTOR('',#581,1.0);
#440=PRE_DEFINED_MARKER('');
#441=COLOUR_RGB('',0.498039215803146,0.498039215803146,0.498039215803146);
#442=DRAUGHTING_PRE_DEFINED_CURVE_FONT('continuous');
#443=COLOUR_RGB('',0.498039215803146,0.498039215803146,0.498039215803146);
#444=AXIS2_PLACEMENT_3D('',#582,#583,#584);
#446=CARTESIAN_POINT('',(0.0,0.0,-78.0));
#447=DIRECTION('',(0.0,0.0,-1.0));
#448=DIRECTION('',(0.5,0.866025403784439,0.0));
#449=SURFACE_STYLE_FILL_AREA(#585);
#450=ORIENTED_EDGE('',*,*,#141,.T.);
#451=ORIENTED_EDGE('',*,*,#129,.F.);
#452=ORIENTED_EDGE('',*,*,#159,.F.);
#453=ORIENTED_EDGE('',*,*,#127,.T.);
#454=ORIENTED_EDGE('',*,*,#97,.T.);
#455=CARTESIAN_POINT('',(0.0,0.0,-75.0));
#456=DIRECTION('',(-0.0,-0.0,1.0));
#457=DIRECTION('',(0.5,0.866025403784439,0.0));
#458=DIRECTION('',(-8.65927457071934E-017,0.707106781186546,-0.707106781186549));
#459=SURFACE_STYLE_FILL_AREA(#586);
#460=ORIENTED_EDGE('',*,*,#87,.F.);
#461=ORIENTED_EDGE('',*,*,#145,.T.);
#462=ORIENTED_EDGE('',*,*,#171,.F.);
#463=ORIENTED_EDGE('',*,*,#135,.F.);
#464=ORIENTED_EDGE('',*,*,#113,.F.);
#465=CARTESIAN_POINT('',(0.0,0.0,-0.150000000000002));
#466=DIRECTION('',(0.0,-0.0,-1.0));
#467=DIRECTION('',(0.0,1.0,0.0));
#468=SURFACE_STYLE_FILL_AREA(#587);
#469=ORIENTED_EDGE('',*,*,#87,.T.);
#470=ORIENTED_EDGE('',*,*,#143,.F.);
#471=ORIENTED_EDGE('',*,*,#149,.F.);
#472=ORIENTED_EDGE('',*,*,#171,.T.);
#473=ORIENTED_EDGE('',*,*,#99,.T.);
#474=CARTESIAN_POINT('',(0.0,0.0,-0.150000000000002));
#475=DIRECTION('',(0.0,-0.0,-1.0));
#476=DIRECTION('',(0.0,1.0,0.0));
#477=DIRECTION('',(-0.0,-0.0,1.0));
#478=CARTESIAN_POINT('',(0.0,0.0,-72.0));
#479=DIRECTION('',(0.0,0.0,-1.0));
#480=DIRECTION('',(0.5,0.866025403784439,0.0));
#481=CARTESIAN_POINT('',(0.0,0.0,0.0));
#482=DIRECTION('',(0.0,0.0,-1.0));
#483=DIRECTION('',(0.0,1.0,0.0));
#484=SURFACE_STYLE_FILL_AREA(#588);
#485=ORIENTED_EDGE('',*,*,#145,.F.);
#486=ORIENTED_EDGE('',*,*,#99,.F.);
#487=CARTESIAN_POINT('',(0.0,0.85,0.0));
#488=DIRECTION('',(-0.0,0.0,1.0));
#489=DIRECTION('',(0.0,-1.0,0.0));
#490=SURFACE_STYLE_FILL_AREA(#589);
#491=ORIENTED_EDGE('',*,*,#175,.T.);
#492=ORIENTED_EDGE('',*,*,#139,.T.);
#493=CARTESIAN_POINT('',(-1.0,0.0,-72.0));
#494=DIRECTION('',(0.0,0.0,-1.0));
#495=DIRECTION('',(-1.0,0.0,0.0));
#496=SURFACE_STYLE_FILL_AREA(#590);
#497=ORIENTED_EDGE('',*,*,#131,.F.);
#498=ORIENTED_EDGE('',*,*,#143,.T.);
#499=ORIENTED_EDGE('',*,*,#113,.T.);
#500=ORIENTED_EDGE('',*,*,#93,.F.);
#501=ORIENTED_EDGE('',*,*,#175,.F.);
#502=CARTESIAN_POINT('',(0.0,0.0,-50.0));
#503=DIRECTION('',(-0.0,-0.0,1.0));
#504=DIRECTION('',(-1.0,0.0,0.0));
#505=CARTESIAN_POINT('',(0.0,0.0,-0.300000000000001));
#506=DIRECTION('',(0.0,0.0,-1.0));
#507=DIRECTION('',(0.0,1.0,0.0));
#508=SURFACE_STYLE_FILL_AREA(#591);
#509=ORIENTED_EDGE('',*,*,#157,.F.);
#510=ORIENTED_EDGE('',*,*,#83,.T.);
#511=ORIENTED_EDGE('',*,*,#159,.T.);
#512=CARTESIAN_POINT('',(0.0,0.0,-78.0));
#513=DIRECTION('',(0.0,1.0,0.0));
#514=DIRECTION('',(0.0,0.0,-1.0));
#515=SURFACE_STYLE_FILL_AREA(#592);
#516=SURFACE_STYLE_FILL_AREA(#593);
#517=ORIENTED_EDGE('',*,*,#157,.T.);
#518=ORIENTED_EDGE('',*,*,#129,.T.);
#519=ORIENTED_EDGE('',*,*,#169,.T.);
#520=CARTESIAN_POINT('',(0.0,0.0,-78.0));
#521=DIRECTION('',(0.0,1.0,0.0));
#522=DIRECTION('',(0.0,0.0,-1.0));
#523=CARTESIAN_POINT('',(0.0,0.0,-72.0));
#524=DIRECTION('',(0.0,0.0,-1.0));
#525=DIRECTION('',(0.5,0.866025403784439,0.0));
#526=DIRECTION('',(-0.0,-0.0,1.0));
#527=CARTESIAN_POINT('',(0.0,0.0,-78.0));
#528=DIRECTION('',(0.0,0.0,-1.0));
#529=DIRECTION('',(0.5,0.866025403784439,0.0));
#530=DIRECTION('',(0.0,0.0,-1.0));
#531=SURFACE_STYLE_FILL_AREA(#594);
#532=ORIENTED_EDGE('',*,*,#131,.T.);
#533=ORIENTED_EDGE('',*,*,#139,.F.);
#534=ORIENTED_EDGE('',*,*,#93,.T.);
#535=ORIENTED_EDGE('',*,*,#135,.T.);
#536=ORIENTED_EDGE('',*,*,#149,.T.);
#537=CARTESIAN_POINT('',(0.0,0.0,-50.0));
#538=DIRECTION('',(-0.0,-0.0,1.0));
#539=DIRECTION('',(-1.0,0.0,0.0));
#540=CARTESIAN_POINT('',(0.0,0.0,-0.300000000000001));
#541=DIRECTION('',(0.0,0.0,-1.0));
#542=DIRECTION('',(0.0,1.0,0.0));
#543=CARTESIAN_POINT('',(0.0,0.0,-72.0));
#544=DIRECTION('',(0.0,0.0,-1.0));
#545=DIRECTION('',(-1.0,0.0,0.0));
#546=DIRECTION('',(0.0,0.0,-1.0));
#547=CARTESIAN_POINT('',(0.0,0.0,-0.300000000000001));
#548=DIRECTION('',(0.0,0.0,-1.0));
#549=DIRECTION('',(0.0,1.0,0.0));
#550=CARTESIAN_POINT('',(0.0,0.0,0.0));
#551=DIRECTION('',(0.0,0.0,-1.0));
#552=DIRECTION('',(0.0,1.0,0.0));
#553=CARTESIAN_POINT('',(0.0,0.0,-0.300000000000001));
#554=DIRECTION('',(0.0,0.0,-1.0));
#555=DIRECTION('',(0.0,1.0,0.0));
#556=SURFACE_STYLE_FILL_AREA(#595);
#557=ORIENTED_EDGE('',*,*,#141,.F.);
#558=ORIENTED_EDGE('',*,*,#123,.T.);
#559=ORIENTED_EDGE('',*,*,#127,.F.);
#560=ORIENTED_EDGE('',*,*,#83,.F.);
#561=ORIENTED_EDGE('',*,*,#169,.F.);
#562=CARTESIAN_POINT('',(0.0,0.0,-75.0));
#563=DIRECTION('',(-0.0,-0.0,1.0));
#564=DIRECTION('',(0.5,0.866025403784439,0.0));
#565=SURFACE_STYLE_FILL_AREA(#596);
#566=ORIENTED_EDGE('',*,*,#123,.F.);
#567=ORIENTED_EDGE('',*,*,#97,.F.);
#568=CARTESIAN_POINT('',(0.5,0.866025403784439,-72.0));
#569=DIRECTION('',(0.0,0.0,1.0));
#570=DIRECTION('',(-0.5,-0.866025403784439,0.0));
#571=CARTESIAN_POINT('',(0.0,0.0,-78.0));
#572=DIRECTION('',(1.0,0.0,1.22460635382238E-016));
#573=DIRECTION('',(-1.22460635382238E-016,0.0,1.0));
#574=CARTESIAN_POINT('',(0.0,0.0,-78.0));
#575=DIRECTION('',(0.0,0.0,-1.0));
#576=DIRECTION('',(0.5,0.866025403784439,0.0));
#577=SURFACE_STYLE_FILL_AREA(#597);
#578=CARTESIAN_POINT('',(0.0,0.0,-78.0));
#579=DIRECTION('',(0.0,0.0,-1.0));
#580=DIRECTION('',(0.5,0.866025403784439,0.0));
#581=DIRECTION('',(-8.65927457071934E-017,0.707106781186546,0.707106781186549));
#582=CARTESIAN_POINT('',(0.0,0.0,-72.0));
#583=DIRECTION('',(0.0,0.0,-1.0));
#584=DIRECTION('',(-1.0,0.0,0.0));
#585=FILL_AREA_STYLE('',(#598));
#586=FILL_AREA_STYLE('',(#599));
#587=FILL_AREA_STYLE('',(#600));
#588=FILL_AREA_STYLE('',(#601));
#589=FILL_AREA_STYLE('',(#602));
#590=FILL_AREA_STYLE('',(#603));
#591=FILL_AREA_STYLE('',(#604));
#592=FILL_AREA_STYLE('',(#605));
#593=FILL_AREA_STYLE('',(#606));
#594=FILL_AREA_STYLE('',(#607));
#595=FILL_AREA_STYLE('',(#608));
#596=FILL_AREA_STYLE('',(#609));
#597=FILL_AREA_STYLE('',(#610));
#598=FILL_AREA_STYLE_COLOUR('',#611);
#599=FILL_AREA_STYLE_COLOUR('',#612);
#600=FILL_AREA_STYLE_COLOUR('',#613);
#601=FILL_AREA_STYLE_COLOUR('',#614);
#602=FILL_AREA_STYLE_COLOUR('',#615);
#603=FILL_AREA_STYLE_COLOUR('',#616);
#604=FILL_AREA_STYLE_COLOUR('',#617);
#605=FILL_AREA_STYLE_COLOUR('',#618);
#606=FILL_AREA_STYLE_COLOUR('',#619);
#607=FILL_AREA_STYLE_COLOUR('',#620);
#608=FILL_AREA_STYLE_COLOUR('',#621);
#609=FILL_AREA_STYLE_COLOUR('',#622);
#610=FILL_AREA_STYLE_COLOUR('',#623);
#611=COLOUR_RGB('',0.800000011920929,0.800000011920929,0.800000011920929);
#612=COLOUR_RGB('',0.498039215803146,0.498039215803146,0.498039215803146);
#613=COLOUR_RGB('',0.498039215803146,0.498039215803146,0.498039215803146);
#614=COLOUR_RGB('',0.498039215803146,0.498039215803146,0.498039215803146);
#615=COLOUR_RGB('',0.498039215803146,0.498039215803146,0.498039215803146);
#616=COLOUR_RGB('',0.498039215803146,0.498039215803146,0.498039215803146);
#617=COLOUR_RGB('',0.800000011920929,0.800000011920929,0.800000011920929);
#618=COLOUR_RGB('',0.498039215803146,0.498039215803146,0.498039215803146);
#619=COLOUR_RGB('',0.800000011920929,0.800000011920929,0.800000011920929);
#620=COLOUR_RGB('',0.498039215803146,0.498039215803146,0.498039215803146);
#621=COLOUR_RGB('',0.800000011920929,0.800000011920929,0.800000011920929);
#622=COLOUR_RGB('',0.800000011920929,0.800000011920929,0.800000011920929);
#623=COLOUR_RGB('',0.800000011920929,0.800000011920929,0.800000011920929);
#624=AXIS2_PLACEMENT_3D('PCS',#625,#626,#627);
#625=CARTESIAN_POINT('',(0.0,0.0,0.0));
#626=DIRECTION('',(0.0,0.0,1.0));
#627=DIRECTION('',(1.0,0.0,0.0));
#628=AXIS2_PLACEMENT_3D('MCS',#629,#630,#631);
#629=CARTESIAN_POINT('',(0.0,0.0,-28.0));
#630=DIRECTION('',(0.0,0.0,1.0));
#631=DIRECTION('',(1.0,0.0,0.0));
#632=AXIS2_PLACEMENT_3D('CIP',#633,#634,#635);
#633=CARTESIAN_POINT('',(0.0,0.0,-80.0));
#634=DIRECTION('',(0.0,0.0,1.0));
#635=DIRECTION('',(1.0,0.0,0.0));
#636=CONSTRUCTIVE_GEOMETRY_REPRESENTATION_RELATIONSHIP('coordinate systems',$,#66,#637);
#637=CONSTRUCTIVE_GEOMETRY_REPRESENTATION('coordinate systems',(#624,#628,#632),#10);
ENDSEC;
END-ISO-10303-21;
