ISO-10303-21;
HEADER;
FILE_DESCRIPTION(('no description'),'unknown implementation level');
FILE_NAME('8553561.stp','  ',('CIM GmbH Aachen'),('CADClick - KiM GmbH - www.kimweb.de'),'unknown preprocess','ACIS','unknown authorization');
FILE_SCHEMA(('automotive_design'));
ENDSEC;
DATA;
#1=MECHANICAL_DESIGN_GEOMETRIC_PRESENTATION_REPRESENTATION(' ',(#14,#15,#16,#17,#18,#19,#20,#21,#22,#23,#24,#25,#26,#27,#28,#29,#30,#31,#32,#33,#34,#35,#36,#37,#38,#39,#40,#41,#42,#43,#44,#45,#46,#47,#48,#49,#50,#51,#52,#53,#54,#55,#56,#57,#58,#59,#60,#61),#10);
#2=PRODUCT_DEFINITION_CONTEXT('',#62,'design');
#3=APPLICATION_PROTOCOL_DEFINITION('INTERNATIONAL STANDARD','automotive_design',1994,#62);
#4=PRODUCT_CATEGORY_RELATIONSHIP('NONE','NONE',#63,#64);
#5=SHAPE_DEFINITION_REPRESENTATION(#65,#66);
#6=PRODUCT_DEFINITION_CONTEXT('',#67,'design');
#7=APPLICATION_PROTOCOL_DEFINITION('INTERNATIONAL STANDARD','automotive_design',1994,#67);
#8=PRODUCT_CATEGORY_RELATIONSHIP('NONE','NONE',#68,#69);
#9=SHAPE_DEFINITION_REPRESENTATION(#70,#71);
#10= (GEOMETRIC_REPRESENTATION_CONTEXT(3)GLOBAL_UNCERTAINTY_ASSIGNED_CONTEXT((#74))GLOBAL_UNIT_ASSIGNED_CONTEXT((#76,#77,#78))REPRESENTATION_CONTEXT('NONE','WORKSPACE'));
#14=STYLED_ITEM('',(#80),#81);
#15=STYLED_ITEM('',(#82),#83);
#16=STYLED_ITEM('',(#84),#85);
#17=STYLED_ITEM('',(#86),#87);
#18=STYLED_ITEM('',(#88),#89);
#19=STYLED_ITEM('',(#90),#91);
#20=STYLED_ITEM('',(#92),#93);
#21=STYLED_ITEM('',(#94),#95);
#22=STYLED_ITEM('',(#96),#97);
#23=STYLED_ITEM('',(#98),#99);
#24=STYLED_ITEM('',(#100),#101);
#25=STYLED_ITEM('',(#102),#103);
#26=STYLED_ITEM('',(#104),#105);
#27=STYLED_ITEM('',(#106),#107);
#28=STYLED_ITEM('',(#108),#109);
#29=STYLED_ITEM('',(#110),#111);
#30=STYLED_ITEM('',(#112),#113);
#31=STYLED_ITEM('',(#114),#115);
#32=STYLED_ITEM('',(#116),#117);
#33=STYLED_ITEM('',(#118),#119);
#34=STYLED_ITEM('',(#120),#121);
#35=STYLED_ITEM('',(#122),#123);
#36=STYLED_ITEM('',(#124),#125);
#37=STYLED_ITEM('',(#126),#127);
#38=STYLED_ITEM('',(#128),#129);
#39=STYLED_ITEM('',(#130),#131);
#40=STYLED_ITEM('',(#132),#133);
#41=STYLED_ITEM('',(#134),#135);
#42=STYLED_ITEM('',(#136),#137);
#43=STYLED_ITEM('',(#138),#139);
#44=STYLED_ITEM('',(#140),#141);
#45=STYLED_ITEM('',(#142),#143);
#46=STYLED_ITEM('',(#144),#145);
#47=STYLED_ITEM('',(#146),#147);
#48=STYLED_ITEM('',(#148),#149);
#49=STYLED_ITEM('',(#150),#151);
#50=STYLED_ITEM('',(#152),#153);
#51=STYLED_ITEM('',(#154),#155);
#52=STYLED_ITEM('',(#156),#157);
#53=STYLED_ITEM('',(#158),#159);
#54=STYLED_ITEM('',(#160),#161);
#55=STYLED_ITEM('',(#162),#163);
#56=STYLED_ITEM('',(#164),#165);
#57=STYLED_ITEM('',(#166),#167);
#58=STYLED_ITEM('',(#168),#169);
#59=STYLED_ITEM('',(#170),#171);
#60=STYLED_ITEM('',(#172),#173);
#61=STYLED_ITEM('',(#174),#175);
#62=APPLICATION_CONTEXT(' ');
#63=PRODUCT_CATEGORY('part','NONE');
#64=PRODUCT_RELATED_PRODUCT_CATEGORY('detail',' ',(#176));
#65=PRODUCT_DEFINITION_SHAPE('NONE','NONE',#177);
#66=ADVANCED_BREP_SHAPE_REPRESENTATION('1',(#111,#178),#10);
#67=APPLICATION_CONTEXT(' ');
#68=PRODUCT_CATEGORY('part','NONE');
#69=PRODUCT_RELATED_PRODUCT_CATEGORY('detail',' ',(#179));
#70=PRODUCT_DEFINITION_SHAPE('NONE','NONE',#180);
#71=ADVANCED_BREP_SHAPE_REPRESENTATION('2',(#109,#181),#10);
#74=UNCERTAINTY_MEASURE_WITH_UNIT(LENGTH_MEASURE(1.0E-006),#76,'','');
#76= (CONVERSION_BASED_UNIT('MILLIMETRE',#184)LENGTH_UNIT()NAMED_UNIT(#187));
#77= (NAMED_UNIT(#189)PLANE_ANGLE_UNIT()SI_UNIT($,.RADIAN.));
#78= (NAMED_UNIT(#189)SOLID_ANGLE_UNIT()SI_UNIT($,.STERADIAN.));
#80=PRESENTATION_STYLE_ASSIGNMENT((#195));
#81=ADVANCED_FACE('',(#196),#197,.T.);
#82=PRESENTATION_STYLE_ASSIGNMENT((#198));
#83=EDGE_CURVE('',#105,#145,#199,.T.);
#84=PRESENTATION_STYLE_ASSIGNMENT((#200));
#85=ADVANCED_FACE('',(#201),#202,.T.);
#86=PRESENTATION_STYLE_ASSIGNMENT((#203));
#87=ADVANCED_FACE('',(#204),#205,.T.);
#88=PRESENTATION_STYLE_ASSIGNMENT((#206));
#89=EDGE_CURVE('',#131,#157,#207,.T.);
#90=PRESENTATION_STYLE_ASSIGNMENT((#208));
#91=ADVANCED_FACE('',(#209),#210,.T.);
#92=PRESENTATION_STYLE_ASSIGNMENT((#211));
#93=VERTEX_POINT('',#212);
#94=PRESENTATION_STYLE_ASSIGNMENT((#213));
#95=ADVANCED_FACE('',(#214),#215,.T.);
#96=PRESENTATION_STYLE_ASSIGNMENT((#216));
#97=EDGE_CURVE('',#113,#169,#217,.T.);
#98=PRESENTATION_STYLE_ASSIGNMENT((#218));
#99=EDGE_CURVE('',#131,#119,#219,.T.);
#100=PRESENTATION_STYLE_ASSIGNMENT((#220));
#101=EDGE_CURVE('',#165,#93,#221,.T.);
#102=PRESENTATION_STYLE_ASSIGNMENT((#222));
#103=EDGE_CURVE('',#93,#133,#223,.T.);
#104=PRESENTATION_STYLE_ASSIGNMENT((#224));
#105=VERTEX_POINT('',#225);
#106=PRESENTATION_STYLE_ASSIGNMENT((#226));
#107=EDGE_CURVE('',#153,#113,#227,.T.);
#108=PRESENTATION_STYLE_ASSIGNMENT((#228));
#109=MANIFOLD_SOLID_BREP('2',#229);
#110=PRESENTATION_STYLE_ASSIGNMENT((#230));
#111=MANIFOLD_SOLID_BREP('1',#231);
#112=PRESENTATION_STYLE_ASSIGNMENT((#232));
#113=VERTEX_POINT('',#233);
#114=PRESENTATION_STYLE_ASSIGNMENT((#234));
#115=EDGE_CURVE('',#153,#157,#235,.T.);
#116=PRESENTATION_STYLE_ASSIGNMENT((#236));
#117=ADVANCED_FACE('',(#237),#238,.T.);
#118=PRESENTATION_STYLE_ASSIGNMENT((#239));
#119=VERTEX_POINT('',#240);
#120=PRESENTATION_STYLE_ASSIGNMENT((#241));
#121=EDGE_CURVE('',#133,#145,#242,.T.);
#122=PRESENTATION_STYLE_ASSIGNMENT((#243));
#123=EDGE_CURVE('',#155,#105,#244,.T.);
#124=PRESENTATION_STYLE_ASSIGNMENT((#245));
#125=ADVANCED_FACE('',(#246),#247,.T.);
#126=PRESENTATION_STYLE_ASSIGNMENT((#248));
#127=VERTEX_POINT('',#249);
#128=PRESENTATION_STYLE_ASSIGNMENT((#250));
#129=EDGE_CURVE('',#155,#127,#251,.T.);
#130=PRESENTATION_STYLE_ASSIGNMENT((#252));
#131=VERTEX_POINT('',#253);
#132=PRESENTATION_STYLE_ASSIGNMENT((#254));
#133=VERTEX_POINT('',#255);
#134=PRESENTATION_STYLE_ASSIGNMENT((#256));
#135=EDGE_CURVE('',#119,#113,#257,.T.);
#136=PRESENTATION_STYLE_ASSIGNMENT((#258));
#137=EDGE_CURVE('',#169,#131,#259,.T.);
#138=PRESENTATION_STYLE_ASSIGNMENT((#260));
#139=EDGE_CURVE('',#141,#165,#261,.T.);
#140=PRESENTATION_STYLE_ASSIGNMENT((#262));
#141=VERTEX_POINT('',#263);
#142=PRESENTATION_STYLE_ASSIGNMENT((#264));
#143=EDGE_CURVE('',#127,#155,#265,.T.);
#144=PRESENTATION_STYLE_ASSIGNMENT((#266));
#145=VERTEX_POINT('',#267);
#146=PRESENTATION_STYLE_ASSIGNMENT((#268));
#147=ADVANCED_FACE('',(#269),#270,.T.);
#148=PRESENTATION_STYLE_ASSIGNMENT((#271));
#149=ADVANCED_FACE('',(#272),#273,.T.);
#150=PRESENTATION_STYLE_ASSIGNMENT((#274));
#151=ADVANCED_FACE('',(#275),#276,.T.);
#152=PRESENTATION_STYLE_ASSIGNMENT((#277));
#153=VERTEX_POINT('',#278);
#154=PRESENTATION_STYLE_ASSIGNMENT((#279));
#155=VERTEX_POINT('',#280);
#156=PRESENTATION_STYLE_ASSIGNMENT((#281));
#157=VERTEX_POINT('',#282);
#158=PRESENTATION_STYLE_ASSIGNMENT((#283));
#159=EDGE_CURVE('',#133,#93,#284,.T.);
#160=PRESENTATION_STYLE_ASSIGNMENT((#285));
#161=EDGE_CURVE('',#169,#119,#286,.T.);
#162=PRESENTATION_STYLE_ASSIGNMENT((#287));
#163=EDGE_CURVE('',#141,#127,#288,.T.);
#164=PRESENTATION_STYLE_ASSIGNMENT((#289));
#165=VERTEX_POINT('',#290);
#166=PRESENTATION_STYLE_ASSIGNMENT((#291));
#167=EDGE_CURVE('',#145,#141,#292,.T.);
#168=PRESENTATION_STYLE_ASSIGNMENT((#293));
#169=VERTEX_POINT('',#294);
#170=PRESENTATION_STYLE_ASSIGNMENT((#295));
#171=EDGE_CURVE('',#157,#153,#296,.T.);
#172=PRESENTATION_STYLE_ASSIGNMENT((#297));
#173=ADVANCED_FACE('',(#298),#299,.T.);
#174=PRESENTATION_STYLE_ASSIGNMENT((#300));
#175=EDGE_CURVE('',#165,#105,#301,.T.);
#176=PRODUCT('1','1','PART-1-DESC',(#302));
#177=PRODUCT_DEFINITION('NONE','NONE',#303,#2);
#178=AXIS2_PLACEMENT_3D('',#304,#305,#306);
#179=PRODUCT('2','2','PART-2-DESC',(#307));
#180=PRODUCT_DEFINITION('NONE','NONE',#308,#6);
#181=AXIS2_PLACEMENT_3D('',#309,#310,#311);
#184=LENGTH_MEASURE_WITH_UNIT(LENGTH_MEASURE(1.0),#312);
#187=DIMENSIONAL_EXPONENTS(1.0,0.0,0.0,0.0,0.0,0.0,0.0);
#189=DIMENSIONAL_EXPONENTS(0.0,0.0,0.0,0.0,0.0,0.0,0.0);
#195=SURFACE_STYLE_USAGE(.BOTH.,#313);
#196=FACE_OUTER_BOUND('',#314,.T.);
#197=PLANE('',#315);
#198=CURVE_STYLE('',#316,POSITIVE_LENGTH_MEASURE(1.0E-006),#317);
#199=CIRCLE('',#318,3.0);
#200=SURFACE_STYLE_USAGE(.BOTH.,#319);
#201=FACE_OUTER_BOUND('',#320,.T.);
#202=CYLINDRICAL_SURFACE('',#321,3.0);
#203=SURFACE_STYLE_USAGE(.BOTH.,#322);
#204=FACE_OUTER_BOUND('',#323,.T.);
#205=SPHERICAL_SURFACE('',#324,3.0);
#206=CURVE_STYLE('',#325,POSITIVE_LENGTH_MEASURE(1.0E-006),#326);
#207=LINE('',#327,#328);
#208=SURFACE_STYLE_USAGE(.BOTH.,#329);
#209=FACE_OUTER_BOUND('',#330,.T.);
#210=CYLINDRICAL_SURFACE('',#331,3.0);
#211=POINT_STYLE(' ',#332,POSITIVE_LENGTH_MEASURE(1.0E-006),#333);
#212=CARTESIAN_POINT('',(-3.0,0.0,-68.0));
#213=SURFACE_STYLE_USAGE(.BOTH.,#334);
#214=FACE_OUTER_BOUND('',#335,.T.);
#215=PLANE('',#336);
#216=CURVE_STYLE('',#337,POSITIVE_LENGTH_MEASURE(1.0E-006),#338);
#217=CIRCLE('',#339,3.0);
#218=CURVE_STYLE('',#340,POSITIVE_LENGTH_MEASURE(1.0E-006),#341);
#219=CIRCLE('',#342,3.0);
#220=CURVE_STYLE('',#343,POSITIVE_LENGTH_MEASURE(1.0E-006),#344);
#221=LINE('',#345,#346);
#222=CURVE_STYLE('',#347,POSITIVE_LENGTH_MEASURE(1.0E-006),#348);
#223=CIRCLE('',#349,3.0);
#224=POINT_STYLE(' ',#350,POSITIVE_LENGTH_MEASURE(1.0E-006),#351);
#225=CARTESIAN_POINT('',(0.0,3.0,-0.399999999999999));
#226=CURVE_STYLE('',#352,POSITIVE_LENGTH_MEASURE(1.0E-006),#353);
#227=LINE('',#354,#355);
#228=SURFACE_STYLE_USAGE(.BOTH.,#356);
#229=CLOSED_SHELL('',(#85,#147,#87,#95,#149));
#230=SURFACE_STYLE_USAGE(.BOTH.,#357);
#231=CLOSED_SHELL('',(#91,#125,#81,#117,#173,#151));
#232=POINT_STYLE(' ',#358,POSITIVE_LENGTH_MEASURE(1.0E-006),#359);
#233=CARTESIAN_POINT('',(1.5,2.59807621135332,-77.0));
#234=CURVE_STYLE('',#360,POSITIVE_LENGTH_MEASURE(1.0E-006),#361);
#235=CIRCLE('',#362,3.0);
#236=SURFACE_STYLE_USAGE(.BOTH.,#363);
#237=FACE_OUTER_BOUND('',#364,.T.);
#238=CONICAL_SURFACE('',#365,2.8,0.78539816339745);
#239=POINT_STYLE(' ',#366,POSITIVE_LENGTH_MEASURE(1.0E-006),#367);
#240=CARTESIAN_POINT('',(0.0,3.0,-77.0));
#241=CURVE_STYLE('',#368,POSITIVE_LENGTH_MEASURE(1.0E-006),#369);
#242=LINE('',#370,#371);
#243=CURVE_STYLE('',#372,POSITIVE_LENGTH_MEASURE(1.0E-006),#373);
#244=LINE('',#374,#375);
#245=SURFACE_STYLE_USAGE(.BOTH.,#376);
#246=FACE_OUTER_BOUND('',#377,.T.);
#247=CONICAL_SURFACE('',#378,2.8,0.78539816339745);
#248=POINT_STYLE(' ',#379,POSITIVE_LENGTH_MEASURE(1.0E-006),#380);
#249=CARTESIAN_POINT('',(3.18397651993818E-016,-2.6,0.0));
#250=CURVE_STYLE('',#381,POSITIVE_LENGTH_MEASURE(1.0E-006),#382);
#251=CIRCLE('',#383,2.6);
#252=POINT_STYLE(' ',#384,POSITIVE_LENGTH_MEASURE(1.0E-006),#385);
#253=CARTESIAN_POINT('',(-1.5,-2.59807621135332,-77.0));
#254=POINT_STYLE(' ',#386,POSITIVE_LENGTH_MEASURE(1.0E-006),#387);
#255=CARTESIAN_POINT('',(3.0,3.67381906146713E-016,-68.0));
#256=CURVE_STYLE('',#388,POSITIVE_LENGTH_MEASURE(1.0E-006),#389);
#257=CIRCLE('',#390,3.0);
#258=CURVE_STYLE('',#391,POSITIVE_LENGTH_MEASURE(1.0E-006),#392);
#259=CIRCLE('',#393,3.0);
#260=CURVE_STYLE('',#394,POSITIVE_LENGTH_MEASURE(1.0E-006),#395);
#261=CIRCLE('',#396,3.0);
#262=POINT_STYLE(' ',#397,POSITIVE_LENGTH_MEASURE(1.0E-006),#398);
#263=CARTESIAN_POINT('',(3.67381906146713E-016,-3.0,-0.399999999999999));
#264=CURVE_STYLE('',#399,POSITIVE_LENGTH_MEASURE(1.0E-006),#400);
#265=CIRCLE('',#401,2.6);
#266=POINT_STYLE(' ',#402,POSITIVE_LENGTH_MEASURE(1.0E-006),#403);
#267=CARTESIAN_POINT('',(3.0,3.67381906146713E-016,-0.399999999999999));
#268=SURFACE_STYLE_USAGE(.BOTH.,#404);
#269=FACE_OUTER_BOUND('',#405,.T.);
#270=SPHERICAL_SURFACE('',#406,3.0);
#271=SURFACE_STYLE_USAGE(.BOTH.,#407);
#272=FACE_OUTER_BOUND('',#408,.T.);
#273=CYLINDRICAL_SURFACE('',#409,3.0);
#274=SURFACE_STYLE_USAGE(.BOTH.,#410);
#275=FACE_OUTER_BOUND('',#411,.T.);
#276=PLANE('',#412);
#277=POINT_STYLE(' ',#413,POSITIVE_LENGTH_MEASURE(1.0E-006),#414);
#278=CARTESIAN_POINT('',(1.5,2.59807621135332,-68.0));
#279=POINT_STYLE(' ',#415,POSITIVE_LENGTH_MEASURE(1.0E-006),#416);
#280=CARTESIAN_POINT('',(0.0,2.6,0.0));
#281=POINT_STYLE(' ',#417,POSITIVE_LENGTH_MEASURE(1.0E-006),#418);
#282=CARTESIAN_POINT('',(-1.5,-2.59807621135332,-68.0));
#283=CURVE_STYLE('',#419,POSITIVE_LENGTH_MEASURE(1.0E-006),#420);
#284=CIRCLE('',#421,3.0);
#285=CURVE_STYLE('',#422,POSITIVE_LENGTH_MEASURE(1.0E-006),#423);
#286=CIRCLE('',#424,3.0);
#287=CURVE_STYLE('',#425,POSITIVE_LENGTH_MEASURE(1.0E-006),#426);
#288=LINE('',#427,#428);
#289=POINT_STYLE(' ',#429,POSITIVE_LENGTH_MEASURE(1.0E-006),#430);
#290=CARTESIAN_POINT('',(-3.0,-3.67381906146713E-016,-0.399999999999999));
#291=CURVE_STYLE('',#431,POSITIVE_LENGTH_MEASURE(1.0E-006),#432);
#292=CIRCLE('',#433,3.0);
#293=POINT_STYLE(' ',#434,POSITIVE_LENGTH_MEASURE(1.0E-006),#435);
#294=CARTESIAN_POINT('',(0.0,-3.0,-77.0));
#295=CURVE_STYLE('',#436,POSITIVE_LENGTH_MEASURE(1.0E-006),#437);
#296=CIRCLE('',#438,3.0);
#297=SURFACE_STYLE_USAGE(.BOTH.,#439);
#298=FACE_OUTER_BOUND('',#440,.T.);
#299=CYLINDRICAL_SURFACE('',#441,3.0);
#300=CURVE_STYLE('',#442,POSITIVE_LENGTH_MEASURE(1.0E-006),#443);
#301=CIRCLE('',#444,3.0);
#302=PRODUCT_CONTEXT('',#62,'mechanical');
#303=PRODUCT_DEFINITION_FORMATION_WITH_SPECIFIED_SOURCE(' ','NONE',#176,.NOT_KNOWN.);
#304=CARTESIAN_POINT('',(0.0,0.0,0.0));
#305=DIRECTION('',(0.0,0.0,1.0));
#306=DIRECTION('',(1.0,0.0,0.0));
#307=PRODUCT_CONTEXT('',#67,'mechanical');
#308=PRODUCT_DEFINITION_FORMATION_WITH_SPECIFIED_SOURCE(' ','NONE',#179,.NOT_KNOWN.);
#309=CARTESIAN_POINT('',(0.0,0.0,0.0));
#310=DIRECTION('',(0.0,0.0,1.0));
#311=DIRECTION('',(1.0,0.0,0.0));
#312= (NAMED_UNIT(#187)LENGTH_UNIT()SI_UNIT(.MILLI.,.METRE.));
#313=SURFACE_SIDE_STYLE('',(#446));
#314=EDGE_LOOP('',(#447,#448));
#315=AXIS2_PLACEMENT_3D('',#449,#450,#451);
#316=DRAUGHTING_PRE_DEFINED_CURVE_FONT('continuous');
#317=COLOUR_RGB('',0.498039215803146,0.498039215803146,0.498039215803146);
#318=AXIS2_PLACEMENT_3D('',#452,#453,#454);
#319=SURFACE_SIDE_STYLE('',(#455));
#320=EDGE_LOOP('',(#456,#457,#458,#459,#460));
#321=AXIS2_PLACEMENT_3D('',#461,#462,#463);
#322=SURFACE_SIDE_STYLE('',(#464));
#323=EDGE_LOOP('',(#465,#466,#467));
#324=AXIS2_PLACEMENT_3D('',#468,#469,#470);
#325=DRAUGHTING_PRE_DEFINED_CURVE_FONT('continuous');
#326=COLOUR_RGB('',0.800000011920929,0.800000011920929,0.800000011920929);
#327=CARTESIAN_POINT('',(-1.5,-2.59807621135332,-72.5));
#328=VECTOR('',#471,1.0);
#329=SURFACE_SIDE_STYLE('',(#472));
#330=EDGE_LOOP('',(#473,#474,#475,#476,#477));
#331=AXIS2_PLACEMENT_3D('',#478,#479,#480);
#332=PRE_DEFINED_MARKER('');
#333=COLOUR_RGB('',0.498039215803146,0.498039215803146,0.498039215803146);
#334=SURFACE_SIDE_STYLE('',(#481));
#335=EDGE_LOOP('',(#482,#483));
#336=AXIS2_PLACEMENT_3D('',#484,#485,#486);
#337=DRAUGHTING_PRE_DEFINED_CURVE_FONT('continuous');
#338=COLOUR_RGB('',0.800000011920929,0.800000011920929,0.800000011920929);
#339=AXIS2_PLACEMENT_3D('',#487,#488,#489);
#340=DRAUGHTING_PRE_DEFINED_CURVE_FONT('continuous');
#341=COLOUR_RGB('',0.800000011920929,0.800000011920929,0.800000011920929);
#342=AXIS2_PLACEMENT_3D('',#490,#491,#492);
#343=DRAUGHTING_PRE_DEFINED_CURVE_FONT('continuous');
#344=COLOUR_RGB('',0.498039215803146,0.498039215803146,0.498039215803146);
#345=CARTESIAN_POINT('',(-3.0,-3.67381906146713E-016,-52.0));
#346=VECTOR('',#493,1.0);
#347=DRAUGHTING_PRE_DEFINED_CURVE_FONT('continuous');
#348=COLOUR_RGB('',0.498039215803146,0.498039215803146,0.498039215803146);
#349=AXIS2_PLACEMENT_3D('',#494,#495,#496);
#350=PRE_DEFINED_MARKER('');
#351=COLOUR_RGB('',0.498039215803146,0.498039215803146,0.498039215803146);
#352=DRAUGHTING_PRE_DEFINED_CURVE_FONT('continuous');
#353=COLOUR_RGB('',0.800000011920929,0.800000011920929,0.800000011920929);
#354=CARTESIAN_POINT('',(1.5,2.59807621135332,-72.5));
#355=VECTOR('',#497,1.0);
#356=SURFACE_SIDE_STYLE('',(#498));
#357=SURFACE_SIDE_STYLE('',(#499));
#358=PRE_DEFINED_MARKER('');
#359=COLOUR_RGB('',0.800000011920929,0.800000011920929,0.800000011920929);
#360=DRAUGHTING_PRE_DEFINED_CURVE_FONT('continuous');
#361=COLOUR_RGB('',0.800000011920929,0.800000011920929,0.800000011920929);
#362=AXIS2_PLACEMENT_3D('',#500,#501,#502);
#363=SURFACE_SIDE_STYLE('',(#503));
#364=EDGE_LOOP('',(#504,#505,#506,#507,#508));
#365=AXIS2_PLACEMENT_3D('',#509,#510,#511);
#366=PRE_DEFINED_MARKER('');
#367=COLOUR_RGB('',0.800000011920929,0.800000011920929,0.800000011920929);
#368=DRAUGHTING_PRE_DEFINED_CURVE_FONT('continuous');
#369=COLOUR_RGB('',0.498039215803146,0.498039215803146,0.498039215803146);
#370=CARTESIAN_POINT('',(3.0,3.67381906146713E-016,-52.0));
#371=VECTOR('',#512,1.0);
#372=DRAUGHTING_PRE_DEFINED_CURVE_FONT('continuous');
#373=COLOUR_RGB('',0.498039215803146,0.498039215803146,0.498039215803146);
#374=CARTESIAN_POINT('',(-3.42889779070266E-016,2.8,-0.199999999999996));
#375=VECTOR('',#513,1.0);
#376=SURFACE_SIDE_STYLE('',(#514));
#377=EDGE_LOOP('',(#515,#516,#517,#518,#519));
#378=AXIS2_PLACEMENT_3D('',#520,#521,#522);
#379=PRE_DEFINED_MARKER('');
#380=COLOUR_RGB('',0.498039215803146,0.498039215803146,0.498039215803146);
#381=DRAUGHTING_PRE_DEFINED_CURVE_FONT('continuous');
#382=COLOUR_RGB('',0.498039215803146,0.498039215803146,0.498039215803146);
#383=AXIS2_PLACEMENT_3D('',#523,#524,#525);
#384=PRE_DEFINED_MARKER('');
#385=COLOUR_RGB('',0.800000011920929,0.800000011920929,0.800000011920929);
#386=PRE_DEFINED_MARKER('');
#387=COLOUR_RGB('',0.498039215803146,0.498039215803146,0.498039215803146);
#388=DRAUGHTING_PRE_DEFINED_CURVE_FONT('continuous');
#389=COLOUR_RGB('',0.800000011920929,0.800000011920929,0.800000011920929);
#390=AXIS2_PLACEMENT_3D('',#526,#527,#528);
#391=DRAUGHTING_PRE_DEFINED_CURVE_FONT('continuous');
#392=COLOUR_RGB('',0.800000011920929,0.800000011920929,0.800000011920929);
#393=AXIS2_PLACEMENT_3D('',#529,#530,#531);
#394=DRAUGHTING_PRE_DEFINED_CURVE_FONT('continuous');
#395=COLOUR_RGB('',0.498039215803146,0.498039215803146,0.498039215803146);
#396=AXIS2_PLACEMENT_3D('',#532,#533,#534);
#397=PRE_DEFINED_MARKER('');
#398=COLOUR_RGB('',0.498039215803146,0.498039215803146,0.498039215803146);
#399=DRAUGHTING_PRE_DEFINED_CURVE_FONT('continuous');
#400=COLOUR_RGB('',0.498039215803146,0.498039215803146,0.498039215803146);
#401=AXIS2_PLACEMENT_3D('',#535,#536,#537);
#402=PRE_DEFINED_MARKER('');
#403=COLOUR_RGB('',0.498039215803146,0.498039215803146,0.498039215803146);
#404=SURFACE_SIDE_STYLE('',(#538));
#405=EDGE_LOOP('',(#539,#540,#541));
#406=AXIS2_PLACEMENT_3D('',#542,#543,#544);
#407=SURFACE_SIDE_STYLE('',(#545));
#408=EDGE_LOOP('',(#546,#547,#548,#549,#550));
#409=AXIS2_PLACEMENT_3D('',#551,#552,#553);
#410=SURFACE_SIDE_STYLE('',(#554));
#411=EDGE_LOOP('',(#555,#556));
#412=AXIS2_PLACEMENT_3D('',#557,#558,#559);
#413=PRE_DEFINED_MARKER('');
#414=COLOUR_RGB('',0.800000011920929,0.800000011920929,0.800000011920929);
#415=PRE_DEFINED_MARKER('');
#416=COLOUR_RGB('',0.498039215803146,0.498039215803146,0.498039215803146);
#417=PRE_DEFINED_MARKER('');
#418=COLOUR_RGB('',0.800000011920929,0.800000011920929,0.800000011920929);
#419=DRAUGHTING_PRE_DEFINED_CURVE_FONT('continuous');
#420=COLOUR_RGB('',0.498039215803146,0.498039215803146,0.498039215803146);
#421=AXIS2_PLACEMENT_3D('',#560,#561,#562);
#422=DRAUGHTING_PRE_DEFINED_CURVE_FONT('continuous');
#423=COLOUR_RGB('',0.800000011920929,0.800000011920929,0.800000011920929);
#424=AXIS2_PLACEMENT_3D('',#563,#564,#565);
#425=DRAUGHTING_PRE_DEFINED_CURVE_FONT('continuous');
#426=COLOUR_RGB('',0.498039215803146,0.498039215803146,0.498039215803146);
#427=CARTESIAN_POINT('',(3.42889779070266E-016,-2.8,-0.199999999999996));
#428=VECTOR('',#566,1.0);
#429=PRE_DEFINED_MARKER('');
#430=COLOUR_RGB('',0.498039215803146,0.498039215803146,0.498039215803146);
#431=DRAUGHTING_PRE_DEFINED_CURVE_FONT('continuous');
#432=COLOUR_RGB('',0.498039215803146,0.498039215803146,0.498039215803146);
#433=AXIS2_PLACEMENT_3D('',#567,#568,#569);
#434=PRE_DEFINED_MARKER('');
#435=COLOUR_RGB('',0.800000011920929,0.800000011920929,0.800000011920929);
#436=DRAUGHTING_PRE_DEFINED_CURVE_FONT('continuous');
#437=COLOUR_RGB('',0.800000011920929,0.800000011920929,0.800000011920929);
#438=AXIS2_PLACEMENT_3D('',#570,#571,#572);
#439=SURFACE_SIDE_STYLE('',(#573));
#440=EDGE_LOOP('',(#574,#575,#576,#577,#578));
#441=AXIS2_PLACEMENT_3D('',#579,#580,#581);
#442=DRAUGHTING_PRE_DEFINED_CURVE_FONT('continuous');
#443=COLOUR_RGB('',0.498039215803146,0.498039215803146,0.498039215803146);
#444=AXIS2_PLACEMENT_3D('',#582,#583,#584);
#446=SURFACE_STYLE_FILL_AREA(#585);
#447=ORIENTED_EDGE('',*,*,#129,.F.);
#448=ORIENTED_EDGE('',*,*,#143,.F.);
#449=CARTESIAN_POINT('',(0.0,1.3,0.0));
#450=DIRECTION('',(-0.0,0.0,1.0));
#451=DIRECTION('',(0.0,-1.0,0.0));
#452=CARTESIAN_POINT('',(0.0,0.0,-0.399999999999999));
#453=DIRECTION('',(0.0,0.0,-1.0));
#454=DIRECTION('',(0.0,1.0,0.0));
#455=SURFACE_STYLE_FILL_AREA(#586);
#456=ORIENTED_EDGE('',*,*,#107,.F.);
#457=ORIENTED_EDGE('',*,*,#115,.T.);
#458=ORIENTED_EDGE('',*,*,#89,.F.);
#459=ORIENTED_EDGE('',*,*,#137,.F.);
#460=ORIENTED_EDGE('',*,*,#97,.F.);
#461=CARTESIAN_POINT('',(0.0,0.0,-72.5));
#462=DIRECTION('',(-0.0,-0.0,1.0));
#463=DIRECTION('',(0.5,0.866025403784439,0.0));
#464=SURFACE_STYLE_FILL_AREA(#587);
#465=ORIENTED_EDGE('',*,*,#161,.T.);
#466=ORIENTED_EDGE('',*,*,#135,.T.);
#467=ORIENTED_EDGE('',*,*,#97,.T.);
#468=CARTESIAN_POINT('',(0.0,0.0,-77.0));
#469=DIRECTION('',(0.0,1.0,0.0));
#470=DIRECTION('',(0.0,0.0,-1.0));
#471=DIRECTION('',(-0.0,-0.0,1.0));
#472=SURFACE_STYLE_FILL_AREA(#588);
#473=ORIENTED_EDGE('',*,*,#101,.F.);
#474=ORIENTED_EDGE('',*,*,#175,.T.);
#475=ORIENTED_EDGE('',*,*,#83,.T.);
#476=ORIENTED_EDGE('',*,*,#121,.F.);
#477=ORIENTED_EDGE('',*,*,#103,.F.);
#478=CARTESIAN_POINT('',(0.0,0.0,-52.0));
#479=DIRECTION('',(-0.0,-0.0,1.0));
#480=DIRECTION('',(-1.0,0.0,0.0));
#481=SURFACE_STYLE_FILL_AREA(#589);
#482=ORIENTED_EDGE('',*,*,#115,.F.);
#483=ORIENTED_EDGE('',*,*,#171,.F.);
#484=CARTESIAN_POINT('',(0.75,1.29903810567666,-68.0));
#485=DIRECTION('',(0.0,0.0,1.0));
#486=DIRECTION('',(-0.5,-0.866025403784439,0.0));
#487=CARTESIAN_POINT('',(0.0,0.0,-77.0));
#488=DIRECTION('',(0.0,0.0,-1.0));
#489=DIRECTION('',(0.5,0.866025403784439,0.0));
#490=CARTESIAN_POINT('',(0.0,0.0,-77.0));
#491=DIRECTION('',(0.0,0.0,-1.0));
#492=DIRECTION('',(0.5,0.866025403784439,0.0));
#493=DIRECTION('',(0.0,0.0,-1.0));
#494=CARTESIAN_POINT('',(0.0,0.0,-68.0));
#495=DIRECTION('',(0.0,0.0,-1.0));
#496=DIRECTION('',(-1.0,0.0,0.0));
#497=DIRECTION('',(0.0,0.0,-1.0));
#498=SURFACE_STYLE_FILL_AREA(#590);
#499=SURFACE_STYLE_FILL_AREA(#591);
#500=CARTESIAN_POINT('',(0.0,0.0,-68.0));
#501=DIRECTION('',(0.0,0.0,-1.0));
#502=DIRECTION('',(0.5,0.866025403784439,0.0));
#503=SURFACE_STYLE_FILL_AREA(#592);
#504=ORIENTED_EDGE('',*,*,#123,.T.);
#505=ORIENTED_EDGE('',*,*,#175,.F.);
#506=ORIENTED_EDGE('',*,*,#139,.F.);
#507=ORIENTED_EDGE('',*,*,#163,.T.);
#508=ORIENTED_EDGE('',*,*,#143,.T.);
#509=CARTESIAN_POINT('',(0.0,0.0,-0.199999999999996));
#510=DIRECTION('',(0.0,-0.0,-1.0));
#511=DIRECTION('',(0.0,1.0,0.0));
#512=DIRECTION('',(-0.0,-0.0,1.0));
#513=DIRECTION('',(-8.65927457071937E-017,0.707106781186549,-0.707106781186546));
#514=SURFACE_STYLE_FILL_AREA(#593);
#515=ORIENTED_EDGE('',*,*,#123,.F.);
#516=ORIENTED_EDGE('',*,*,#129,.T.);
#517=ORIENTED_EDGE('',*,*,#163,.F.);
#518=ORIENTED_EDGE('',*,*,#167,.F.);
#519=ORIENTED_EDGE('',*,*,#83,.F.);
#520=CARTESIAN_POINT('',(0.0,0.0,-0.199999999999996));
#521=DIRECTION('',(0.0,-0.0,-1.0));
#522=DIRECTION('',(0.0,1.0,0.0));
#523=CARTESIAN_POINT('',(0.0,0.0,0.0));
#524=DIRECTION('',(0.0,0.0,-1.0));
#525=DIRECTION('',(0.0,1.0,0.0));
#526=CARTESIAN_POINT('',(0.0,0.0,-77.0));
#527=DIRECTION('',(0.0,0.0,-1.0));
#528=DIRECTION('',(0.5,0.866025403784439,0.0));
#529=CARTESIAN_POINT('',(0.0,0.0,-77.0));
#530=DIRECTION('',(0.0,0.0,-1.0));
#531=DIRECTION('',(0.5,0.866025403784439,0.0));
#532=CARTESIAN_POINT('',(0.0,0.0,-0.399999999999999));
#533=DIRECTION('',(0.0,0.0,-1.0));
#534=DIRECTION('',(0.0,1.0,0.0));
#535=CARTESIAN_POINT('',(0.0,0.0,0.0));
#536=DIRECTION('',(0.0,0.0,-1.0));
#537=DIRECTION('',(0.0,1.0,0.0));
#538=SURFACE_STYLE_FILL_AREA(#594);
#539=ORIENTED_EDGE('',*,*,#161,.F.);
#540=ORIENTED_EDGE('',*,*,#137,.T.);
#541=ORIENTED_EDGE('',*,*,#99,.T.);
#542=CARTESIAN_POINT('',(0.0,0.0,-77.0));
#543=DIRECTION('',(0.0,1.0,0.0));
#544=DIRECTION('',(0.0,0.0,-1.0));
#545=SURFACE_STYLE_FILL_AREA(#595);
#546=ORIENTED_EDGE('',*,*,#107,.T.);
#547=ORIENTED_EDGE('',*,*,#135,.F.);
#548=ORIENTED_EDGE('',*,*,#99,.F.);
#549=ORIENTED_EDGE('',*,*,#89,.T.);
#550=ORIENTED_EDGE('',*,*,#171,.T.);
#551=CARTESIAN_POINT('',(0.0,0.0,-72.5));
#552=DIRECTION('',(-0.0,-0.0,1.0));
#553=DIRECTION('',(0.5,0.866025403784439,0.0));
#554=SURFACE_STYLE_FILL_AREA(#596);
#555=ORIENTED_EDGE('',*,*,#103,.T.);
#556=ORIENTED_EDGE('',*,*,#159,.T.);
#557=CARTESIAN_POINT('',(-1.5,0.0,-68.0));
#558=DIRECTION('',(0.0,0.0,-1.0));
#559=DIRECTION('',(-1.0,0.0,0.0));
#560=CARTESIAN_POINT('',(0.0,0.0,-68.0));
#561=DIRECTION('',(0.0,0.0,-1.0));
#562=DIRECTION('',(-1.0,0.0,0.0));
#563=CARTESIAN_POINT('',(0.0,0.0,-77.0));
#564=DIRECTION('',(1.0,0.0,1.22460635382238E-016));
#565=DIRECTION('',(-1.22460635382238E-016,0.0,1.0));
#566=DIRECTION('',(-8.65927457071937E-017,0.707106781186549,0.707106781186546));
#567=CARTESIAN_POINT('',(0.0,0.0,-0.399999999999999));
#568=DIRECTION('',(0.0,0.0,-1.0));
#569=DIRECTION('',(0.0,1.0,0.0));
#570=CARTESIAN_POINT('',(0.0,0.0,-68.0));
#571=DIRECTION('',(0.0,0.0,-1.0));
#572=DIRECTION('',(0.5,0.866025403784439,0.0));
#573=SURFACE_STYLE_FILL_AREA(#597);
#574=ORIENTED_EDGE('',*,*,#101,.T.);
#575=ORIENTED_EDGE('',*,*,#159,.F.);
#576=ORIENTED_EDGE('',*,*,#121,.T.);
#577=ORIENTED_EDGE('',*,*,#167,.T.);
#578=ORIENTED_EDGE('',*,*,#139,.T.);
#579=CARTESIAN_POINT('',(0.0,0.0,-52.0));
#580=DIRECTION('',(-0.0,-0.0,1.0));
#581=DIRECTION('',(-1.0,0.0,0.0));
#582=CARTESIAN_POINT('',(0.0,0.0,-0.399999999999999));
#583=DIRECTION('',(0.0,0.0,-1.0));
#584=DIRECTION('',(0.0,1.0,0.0));
#585=FILL_AREA_STYLE('',(#598));
#586=FILL_AREA_STYLE('',(#599));
#587=FILL_AREA_STYLE('',(#600));
#588=FILL_AREA_STYLE('',(#601));
#589=FILL_AREA_STYLE('',(#602));
#590=FILL_AREA_STYLE('',(#603));
#591=FILL_AREA_STYLE('',(#604));
#592=FILL_AREA_STYLE('',(#605));
#593=FILL_AREA_STYLE('',(#606));
#594=FILL_AREA_STYLE('',(#607));
#595=FILL_AREA_STYLE('',(#608));
#596=FILL_AREA_STYLE('',(#609));
#597=FILL_AREA_STYLE('',(#610));
#598=FILL_AREA_STYLE_COLOUR('',#611);
#599=FILL_AREA_STYLE_COLOUR('',#612);
#600=FILL_AREA_STYLE_COLOUR('',#613);
#601=FILL_AREA_STYLE_COLOUR('',#614);
#602=FILL_AREA_STYLE_COLOUR('',#615);
#603=FILL_AREA_STYLE_COLOUR('',#616);
#604=FILL_AREA_STYLE_COLOUR('',#617);
#605=FILL_AREA_STYLE_COLOUR('',#618);
#606=FILL_AREA_STYLE_COLOUR('',#619);
#607=FILL_AREA_STYLE_COLOUR('',#620);
#608=FILL_AREA_STYLE_COLOUR('',#621);
#609=FILL_AREA_STYLE_COLOUR('',#622);
#610=FILL_AREA_STYLE_COLOUR('',#623);
#611=COLOUR_RGB('',0.498039215803146,0.498039215803146,0.498039215803146);
#612=COLOUR_RGB('',0.800000011920929,0.800000011920929,0.800000011920929);
#613=COLOUR_RGB('',0.800000011920929,0.800000011920929,0.800000011920929);
#614=COLOUR_RGB('',0.498039215803146,0.498039215803146,0.498039215803146);
#615=COLOUR_RGB('',0.800000011920929,0.800000011920929,0.800000011920929);
#616=COLOUR_RGB('',0.800000011920929,0.800000011920929,0.800000011920929);
#617=COLOUR_RGB('',0.498039215803146,0.498039215803146,0.498039215803146);
#618=COLOUR_RGB('',0.498039215803146,0.498039215803146,0.498039215803146);
#619=COLOUR_RGB('',0.498039215803146,0.498039215803146,0.498039215803146);
#620=COLOUR_RGB('',0.800000011920929,0.800000011920929,0.800000011920929);
#621=COLOUR_RGB('',0.800000011920929,0.800000011920929,0.800000011920929);
#622=COLOUR_RGB('',0.498039215803146,0.498039215803146,0.498039215803146);
#623=COLOUR_RGB('',0.498039215803146,0.498039215803146,0.498039215803146);
#624=AXIS2_PLACEMENT_3D('PCS',#625,#626,#627);
#625=CARTESIAN_POINT('',(0.0,0.0,0.0));
#626=DIRECTION('',(0.0,0.0,1.0));
#627=DIRECTION('',(1.0,0.0,0.0));
#628=AXIS2_PLACEMENT_3D('MCS',#629,#630,#631);
#629=CARTESIAN_POINT('',(0.0,0.0,-36.0));
#630=DIRECTION('',(0.0,0.0,1.0));
#631=DIRECTION('',(1.0,0.0,0.0));
#632=AXIS2_PLACEMENT_3D('CIP',#633,#634,#635);
#633=CARTESIAN_POINT('',(0.0,0.0,-80.0));
#634=DIRECTION('',(0.0,0.0,1.0));
#635=DIRECTION('',(1.0,0.0,0.0));
#636=CONSTRUCTIVE_GEOMETRY_REPRESENTATION_RELATIONSHIP('coordinate systems',$,#66,#637);
#637=CONSTRUCTIVE_GEOMETRY_REPRESENTATION('coordinate systems',(#624,#628,#632),#10);
ENDSEC;
END-ISO-10303-21;
