ISO-10303-21;
HEADER;
FILE_DESCRIPTION(('no description'),'unknown implementation level');
FILE_NAME('8553581.stp','  ',('CIM GmbH Aachen'),('CADClick - KiM GmbH - www.kimweb.de'),'unknown preprocess','ACIS','unknown authorization');
FILE_SCHEMA(('automotive_design'));
ENDSEC;
DATA;
#1=MECHANICAL_DESIGN_GEOMETRIC_PRESENTATION_REPRESENTATION(' ',(#14,#15,#16,#17,#18,#19,#20,#21,#22,#23,#24,#25,#26,#27,#28,#29,#30,#31,#32,#33,#34,#35,#36,#37,#38,#39,#40,#41,#42,#43,#44,#45,#46,#47,#48,#49,#50,#51,#52,#53,#54,#55,#56,#57,#58,#59,#60,#61),#10);
#2=PRODUCT_DEFINITION_CONTEXT('',#62,'design');
#3=APPLICATION_PROTOCOL_DEFINITION('INTERNATIONAL STANDARD','automotive_design',1994,#62);
#4=PRODUCT_CATEGORY_RELATIONSHIP('NONE','NONE',#63,#64);
#5=SHAPE_DEFINITION_REPRESENTATION(#65,#66);
#6=PRODUCT_DEFINITION_CONTEXT('',#67,'design');
#7=APPLICATION_PROTOCOL_DEFINITION('INTERNATIONAL STANDARD','automotive_design',1994,#67);
#8=PRODUCT_CATEGORY_RELATIONSHIP('NONE','NONE',#68,#69);
#9=SHAPE_DEFINITION_REPRESENTATION(#70,#71);
#10= (GEOMETRIC_REPRESENTATION_CONTEXT(3)GLOBAL_UNCERTAINTY_ASSIGNED_CONTEXT((#74))GLOBAL_UNIT_ASSIGNED_CONTEXT((#76,#77,#78))REPRESENTATION_CONTEXT('NONE','WORKSPACE'));
#14=STYLED_ITEM('',(#80),#81);
#15=STYLED_ITEM('',(#82),#83);
#16=STYLED_ITEM('',(#84),#85);
#17=STYLED_ITEM('',(#86),#87);
#18=STYLED_ITEM('',(#88),#89);
#19=STYLED_ITEM('',(#90),#91);
#20=STYLED_ITEM('',(#92),#93);
#21=STYLED_ITEM('',(#94),#95);
#22=STYLED_ITEM('',(#96),#97);
#23=STYLED_ITEM('',(#98),#99);
#24=STYLED_ITEM('',(#100),#101);
#25=STYLED_ITEM('',(#102),#103);
#26=STYLED_ITEM('',(#104),#105);
#27=STYLED_ITEM('',(#106),#107);
#28=STYLED_ITEM('',(#108),#109);
#29=STYLED_ITEM('',(#110),#111);
#30=STYLED_ITEM('',(#112),#113);
#31=STYLED_ITEM('',(#114),#115);
#32=STYLED_ITEM('',(#116),#117);
#33=STYLED_ITEM('',(#118),#119);
#34=STYLED_ITEM('',(#120),#121);
#35=STYLED_ITEM('',(#122),#123);
#36=STYLED_ITEM('',(#124),#125);
#37=STYLED_ITEM('',(#126),#127);
#38=STYLED_ITEM('',(#128),#129);
#39=STYLED_ITEM('',(#130),#131);
#40=STYLED_ITEM('',(#132),#133);
#41=STYLED_ITEM('',(#134),#135);
#42=STYLED_ITEM('',(#136),#137);
#43=STYLED_ITEM('',(#138),#139);
#44=STYLED_ITEM('',(#140),#141);
#45=STYLED_ITEM('',(#142),#143);
#46=STYLED_ITEM('',(#144),#145);
#47=STYLED_ITEM('',(#146),#147);
#48=STYLED_ITEM('',(#148),#149);
#49=STYLED_ITEM('',(#150),#151);
#50=STYLED_ITEM('',(#152),#153);
#51=STYLED_ITEM('',(#154),#155);
#52=STYLED_ITEM('',(#156),#157);
#53=STYLED_ITEM('',(#158),#159);
#54=STYLED_ITEM('',(#160),#161);
#55=STYLED_ITEM('',(#162),#163);
#56=STYLED_ITEM('',(#164),#165);
#57=STYLED_ITEM('',(#166),#167);
#58=STYLED_ITEM('',(#168),#169);
#59=STYLED_ITEM('',(#170),#171);
#60=STYLED_ITEM('',(#172),#173);
#61=STYLED_ITEM('',(#174),#175);
#62=APPLICATION_CONTEXT(' ');
#63=PRODUCT_CATEGORY('part','NONE');
#64=PRODUCT_RELATED_PRODUCT_CATEGORY('detail',' ',(#176));
#65=PRODUCT_DEFINITION_SHAPE('NONE','NONE',#177);
#66=ADVANCED_BREP_SHAPE_REPRESENTATION('1',(#117,#178),#10);
#67=APPLICATION_CONTEXT(' ');
#68=PRODUCT_CATEGORY('part','NONE');
#69=PRODUCT_RELATED_PRODUCT_CATEGORY('detail',' ',(#179));
#70=PRODUCT_DEFINITION_SHAPE('NONE','NONE',#180);
#71=ADVANCED_BREP_SHAPE_REPRESENTATION('2',(#97,#181),#10);
#74=UNCERTAINTY_MEASURE_WITH_UNIT(LENGTH_MEASURE(1.0E-006),#76,'','');
#76= (CONVERSION_BASED_UNIT('MILLIMETRE',#184)LENGTH_UNIT()NAMED_UNIT(#187));
#77= (NAMED_UNIT(#189)PLANE_ANGLE_UNIT()SI_UNIT($,.RADIAN.));
#78= (NAMED_UNIT(#189)SOLID_ANGLE_UNIT()SI_UNIT($,.STERADIAN.));
#80=PRESENTATION_STYLE_ASSIGNMENT((#195));
#81=ADVANCED_FACE('',(#196),#197,.T.);
#82=PRESENTATION_STYLE_ASSIGNMENT((#198));
#83=VERTEX_POINT('',#199);
#84=PRESENTATION_STYLE_ASSIGNMENT((#200));
#85=EDGE_CURVE('',#133,#161,#201,.T.);
#86=PRESENTATION_STYLE_ASSIGNMENT((#202));
#87=ADVANCED_FACE('',(#203),#204,.T.);
#88=PRESENTATION_STYLE_ASSIGNMENT((#205));
#89=VERTEX_POINT('',#206);
#90=PRESENTATION_STYLE_ASSIGNMENT((#207));
#91=EDGE_CURVE('',#89,#109,#208,.T.);
#92=PRESENTATION_STYLE_ASSIGNMENT((#209));
#93=EDGE_CURVE('',#115,#133,#210,.T.);
#94=PRESENTATION_STYLE_ASSIGNMENT((#211));
#95=ADVANCED_FACE('',(#212),#213,.T.);
#96=PRESENTATION_STYLE_ASSIGNMENT((#214));
#97=MANIFOLD_SOLID_BREP('2',#215);
#98=PRESENTATION_STYLE_ASSIGNMENT((#216));
#99=EDGE_CURVE('',#109,#89,#217,.T.);
#100=PRESENTATION_STYLE_ASSIGNMENT((#218));
#101=EDGE_CURVE('',#83,#161,#219,.T.);
#102=PRESENTATION_STYLE_ASSIGNMENT((#220));
#103=VERTEX_POINT('',#221);
#104=PRESENTATION_STYLE_ASSIGNMENT((#222));
#105=ADVANCED_FACE('',(#223),#224,.T.);
#106=PRESENTATION_STYLE_ASSIGNMENT((#225));
#107=EDGE_CURVE('',#103,#143,#226,.T.);
#108=PRESENTATION_STYLE_ASSIGNMENT((#227));
#109=VERTEX_POINT('',#228);
#110=PRESENTATION_STYLE_ASSIGNMENT((#229));
#111=EDGE_CURVE('',#157,#127,#230,.T.);
#112=PRESENTATION_STYLE_ASSIGNMENT((#231));
#113=EDGE_CURVE('',#127,#121,#232,.T.);
#114=PRESENTATION_STYLE_ASSIGNMENT((#233));
#115=VERTEX_POINT('',#234);
#116=PRESENTATION_STYLE_ASSIGNMENT((#235));
#117=MANIFOLD_SOLID_BREP('1',#236);
#118=PRESENTATION_STYLE_ASSIGNMENT((#237));
#119=EDGE_CURVE('',#153,#83,#238,.T.);
#120=PRESENTATION_STYLE_ASSIGNMENT((#239));
#121=VERTEX_POINT('',#240);
#122=PRESENTATION_STYLE_ASSIGNMENT((#241));
#123=EDGE_CURVE('',#103,#145,#242,.T.);
#124=PRESENTATION_STYLE_ASSIGNMENT((#243));
#125=VERTEX_POINT('',#244);
#126=PRESENTATION_STYLE_ASSIGNMENT((#245));
#127=VERTEX_POINT('',#246);
#128=PRESENTATION_STYLE_ASSIGNMENT((#247));
#129=ADVANCED_FACE('',(#248),#249,.T.);
#130=PRESENTATION_STYLE_ASSIGNMENT((#250));
#131=EDGE_CURVE('',#143,#115,#251,.T.);
#132=PRESENTATION_STYLE_ASSIGNMENT((#252));
#133=VERTEX_POINT('',#253);
#134=PRESENTATION_STYLE_ASSIGNMENT((#254));
#135=ADVANCED_FACE('',(#255),#256,.T.);
#136=PRESENTATION_STYLE_ASSIGNMENT((#257));
#137=ADVANCED_FACE('',(#258),#259,.T.);
#138=PRESENTATION_STYLE_ASSIGNMENT((#260));
#139=ADVANCED_FACE('',(#261),#262,.T.);
#140=PRESENTATION_STYLE_ASSIGNMENT((#263));
#141=EDGE_CURVE('',#145,#153,#264,.T.);
#142=PRESENTATION_STYLE_ASSIGNMENT((#265));
#143=VERTEX_POINT('',#266);
#144=PRESENTATION_STYLE_ASSIGNMENT((#267));
#145=VERTEX_POINT('',#268);
#146=PRESENTATION_STYLE_ASSIGNMENT((#269));
#147=EDGE_CURVE('',#121,#157,#270,.T.);
#148=PRESENTATION_STYLE_ASSIGNMENT((#271));
#149=EDGE_CURVE('',#109,#157,#272,.T.);
#150=PRESENTATION_STYLE_ASSIGNMENT((#273));
#151=EDGE_CURVE('',#133,#115,#274,.T.);
#152=PRESENTATION_STYLE_ASSIGNMENT((#275));
#153=VERTEX_POINT('',#276);
#154=PRESENTATION_STYLE_ASSIGNMENT((#277));
#155=ADVANCED_FACE('',(#278),#279,.T.);
#156=PRESENTATION_STYLE_ASSIGNMENT((#280));
#157=VERTEX_POINT('',#281);
#158=PRESENTATION_STYLE_ASSIGNMENT((#282));
#159=EDGE_CURVE('',#143,#83,#283,.T.);
#160=PRESENTATION_STYLE_ASSIGNMENT((#284));
#161=VERTEX_POINT('',#285);
#162=PRESENTATION_STYLE_ASSIGNMENT((#286));
#163=ADVANCED_FACE('',(#287),#288,.T.);
#164=PRESENTATION_STYLE_ASSIGNMENT((#289));
#165=EDGE_CURVE('',#161,#103,#290,.T.);
#166=PRESENTATION_STYLE_ASSIGNMENT((#291));
#167=ADVANCED_FACE('',(#292),#293,.T.);
#168=PRESENTATION_STYLE_ASSIGNMENT((#294));
#169=EDGE_CURVE('',#125,#89,#295,.T.);
#170=PRESENTATION_STYLE_ASSIGNMENT((#296));
#171=EDGE_CURVE('',#125,#121,#297,.T.);
#172=PRESENTATION_STYLE_ASSIGNMENT((#298));
#173=EDGE_CURVE('',#127,#125,#299,.T.);
#174=PRESENTATION_STYLE_ASSIGNMENT((#300));
#175=EDGE_CURVE('',#153,#145,#301,.T.);
#176=PRODUCT('1','1','PART-1-DESC',(#302));
#177=PRODUCT_DEFINITION('NONE','NONE',#303,#2);
#178=AXIS2_PLACEMENT_3D('',#304,#305,#306);
#179=PRODUCT('2','2','PART-2-DESC',(#307));
#180=PRODUCT_DEFINITION('NONE','NONE',#308,#6);
#181=AXIS2_PLACEMENT_3D('',#309,#310,#311);
#184=LENGTH_MEASURE_WITH_UNIT(LENGTH_MEASURE(1.0),#312);
#187=DIMENSIONAL_EXPONENTS(1.0,0.0,0.0,0.0,0.0,0.0,0.0);
#189=DIMENSIONAL_EXPONENTS(0.0,0.0,0.0,0.0,0.0,0.0,0.0);
#195=SURFACE_STYLE_USAGE(.BOTH.,#313);
#196=FACE_OUTER_BOUND('',#314,.T.);
#197=CYLINDRICAL_SURFACE('',#315,4.0);
#198=POINT_STYLE(' ',#316,POSITIVE_LENGTH_MEASURE(1.0E-006),#317);
#199=CARTESIAN_POINT('',(0.0,4.0,-0.399999999999999));
#200=CURVE_STYLE('',#318,POSITIVE_LENGTH_MEASURE(1.0E-006),#319);
#201=LINE('',#320,#321);
#202=SURFACE_STYLE_USAGE(.BOTH.,#322);
#203=FACE_OUTER_BOUND('',#323,.T.);
#204=PLANE('',#324);
#205=POINT_STYLE(' ',#325,POSITIVE_LENGTH_MEASURE(1.0E-006),#326);
#206=CARTESIAN_POINT('',(-2.0,-3.46410161513776,-84.0));
#207=CURVE_STYLE('',#327,POSITIVE_LENGTH_MEASURE(1.0E-006),#328);
#208=CIRCLE('',#329,4.0);
#209=CURVE_STYLE('',#330,POSITIVE_LENGTH_MEASURE(1.0E-006),#331);
#210=CIRCLE('',#332,4.0);
#211=SURFACE_STYLE_USAGE(.BOTH.,#333);
#212=FACE_OUTER_BOUND('',#334,.T.);
#213=PLANE('',#335);
#214=SURFACE_STYLE_USAGE(.BOTH.,#336);
#215=CLOSED_SHELL('',(#167,#135,#155,#87,#137));
#216=CURVE_STYLE('',#337,POSITIVE_LENGTH_MEASURE(1.0E-006),#338);
#217=CIRCLE('',#339,4.0);
#218=CURVE_STYLE('',#340,POSITIVE_LENGTH_MEASURE(1.0E-006),#341);
#219=CIRCLE('',#342,4.0);
#220=POINT_STYLE(' ',#343,POSITIVE_LENGTH_MEASURE(1.0E-006),#344);
#221=CARTESIAN_POINT('',(4.89842541528951E-016,-4.0,-0.399999999999999));
#222=SURFACE_STYLE_USAGE(.BOTH.,#345);
#223=FACE_OUTER_BOUND('',#346,.T.);
#224=CONICAL_SURFACE('',#347,3.8,0.78539816339745);
#225=CURVE_STYLE('',#348,POSITIVE_LENGTH_MEASURE(1.0E-006),#349);
#226=CIRCLE('',#350,4.0);
#227=POINT_STYLE(' ',#351,POSITIVE_LENGTH_MEASURE(1.0E-006),#352);
#228=CARTESIAN_POINT('',(2.0,3.46410161513775,-84.0));
#229=CURVE_STYLE('',#353,POSITIVE_LENGTH_MEASURE(1.0E-006),#354);
#230=CIRCLE('',#355,4.0);
#231=CURVE_STYLE('',#356,POSITIVE_LENGTH_MEASURE(1.0E-006),#357);
#232=CIRCLE('',#358,4.00000000000001);
#233=POINT_STYLE(' ',#359,POSITIVE_LENGTH_MEASURE(1.0E-006),#360);
#234=CARTESIAN_POINT('',(-4.0,0.0,-84.0));
#235=SURFACE_STYLE_USAGE(.BOTH.,#361);
#236=CLOSED_SHELL('',(#163,#139,#95,#105,#81,#129));
#237=CURVE_STYLE('',#362,POSITIVE_LENGTH_MEASURE(1.0E-006),#363);
#238=LINE('',#364,#365);
#239=POINT_STYLE(' ',#366,POSITIVE_LENGTH_MEASURE(1.0E-006),#367);
#240=CARTESIAN_POINT('',(0.0,4.0,-96.0));
#241=CURVE_STYLE('',#368,POSITIVE_LENGTH_MEASURE(1.0E-006),#369);
#242=LINE('',#370,#371);
#243=POINT_STYLE(' ',#372,POSITIVE_LENGTH_MEASURE(1.0E-006),#373);
#244=CARTESIAN_POINT('',(-2.0,-3.46410161513776,-96.0));
#245=POINT_STYLE(' ',#374,POSITIVE_LENGTH_MEASURE(1.0E-006),#375);
#246=CARTESIAN_POINT('',(0.0,-4.0,-96.0));
#247=SURFACE_STYLE_USAGE(.BOTH.,#376);
#248=FACE_OUTER_BOUND('',#377,.T.);
#249=PLANE('',#378);
#250=CURVE_STYLE('',#379,POSITIVE_LENGTH_MEASURE(1.0E-006),#380);
#251=LINE('',#381,#382);
#252=POINT_STYLE(' ',#383,POSITIVE_LENGTH_MEASURE(1.0E-006),#384);
#253=CARTESIAN_POINT('',(4.0,4.89842541528951E-016,-84.0));
#254=SURFACE_STYLE_USAGE(.BOTH.,#385);
#255=FACE_OUTER_BOUND('',#386,.T.);
#256=SPHERICAL_SURFACE('',#387,4.00000000000001);
#257=SURFACE_STYLE_USAGE(.BOTH.,#388);
#258=FACE_OUTER_BOUND('',#389,.T.);
#259=CYLINDRICAL_SURFACE('',#390,4.0);
#260=SURFACE_STYLE_USAGE(.BOTH.,#391);
#261=FACE_OUTER_BOUND('',#392,.T.);
#262=CONICAL_SURFACE('',#393,3.8,0.78539816339745);
#263=CURVE_STYLE('',#394,POSITIVE_LENGTH_MEASURE(1.0E-006),#395);
#264=CIRCLE('',#396,3.6);
#265=POINT_STYLE(' ',#397,POSITIVE_LENGTH_MEASURE(1.0E-006),#398);
#266=CARTESIAN_POINT('',(-4.0,-4.89842541528951E-016,-0.399999999999999));
#267=POINT_STYLE(' ',#399,POSITIVE_LENGTH_MEASURE(1.0E-006),#400);
#268=CARTESIAN_POINT('',(4.40858287376056E-016,-3.6,0.0));
#269=CURVE_STYLE('',#401,POSITIVE_LENGTH_MEASURE(1.0E-006),#402);
#270=CIRCLE('',#403,4.0);
#271=CURVE_STYLE('',#404,POSITIVE_LENGTH_MEASURE(1.0E-006),#405);
#272=LINE('',#406,#407);
#273=CURVE_STYLE('',#408,POSITIVE_LENGTH_MEASURE(1.0E-006),#409);
#274=CIRCLE('',#410,4.0);
#275=POINT_STYLE(' ',#411,POSITIVE_LENGTH_MEASURE(1.0E-006),#412);
#276=CARTESIAN_POINT('',(0.0,3.6,0.0));
#277=SURFACE_STYLE_USAGE(.BOTH.,#413);
#278=FACE_OUTER_BOUND('',#414,.T.);
#279=SPHERICAL_SURFACE('',#415,4.00000000000001);
#280=POINT_STYLE(' ',#416,POSITIVE_LENGTH_MEASURE(1.0E-006),#417);
#281=CARTESIAN_POINT('',(2.0,3.46410161513775,-96.0));
#282=CURVE_STYLE('',#418,POSITIVE_LENGTH_MEASURE(1.0E-006),#419);
#283=CIRCLE('',#420,4.0);
#284=POINT_STYLE(' ',#421,POSITIVE_LENGTH_MEASURE(1.0E-006),#422);
#285=CARTESIAN_POINT('',(4.0,4.89842541528951E-016,-0.399999999999999));
#286=SURFACE_STYLE_USAGE(.BOTH.,#423);
#287=FACE_OUTER_BOUND('',#424,.T.);
#288=CYLINDRICAL_SURFACE('',#425,4.0);
#289=CURVE_STYLE('',#426,POSITIVE_LENGTH_MEASURE(1.0E-006),#427);
#290=CIRCLE('',#428,4.0);
#291=SURFACE_STYLE_USAGE(.BOTH.,#429);
#292=FACE_OUTER_BOUND('',#430,.T.);
#293=CYLINDRICAL_SURFACE('',#431,4.0);
#294=CURVE_STYLE('',#432,POSITIVE_LENGTH_MEASURE(1.0E-006),#433);
#295=LINE('',#434,#435);
#296=CURVE_STYLE('',#436,POSITIVE_LENGTH_MEASURE(1.0E-006),#437);
#297=CIRCLE('',#438,4.0);
#298=CURVE_STYLE('',#439,POSITIVE_LENGTH_MEASURE(1.0E-006),#440);
#299=CIRCLE('',#441,4.0);
#300=CURVE_STYLE('',#442,POSITIVE_LENGTH_MEASURE(1.0E-006),#443);
#301=CIRCLE('',#444,3.6);
#302=PRODUCT_CONTEXT('',#62,'mechanical');
#303=PRODUCT_DEFINITION_FORMATION_WITH_SPECIFIED_SOURCE(' ','NONE',#176,.NOT_KNOWN.);
#304=CARTESIAN_POINT('',(0.0,0.0,0.0));
#305=DIRECTION('',(0.0,0.0,1.0));
#306=DIRECTION('',(1.0,0.0,0.0));
#307=PRODUCT_CONTEXT('',#67,'mechanical');
#308=PRODUCT_DEFINITION_FORMATION_WITH_SPECIFIED_SOURCE(' ','NONE',#179,.NOT_KNOWN.);
#309=CARTESIAN_POINT('',(0.0,0.0,0.0));
#310=DIRECTION('',(0.0,0.0,1.0));
#311=DIRECTION('',(1.0,0.0,0.0));
#312= (NAMED_UNIT(#187)LENGTH_UNIT()SI_UNIT(.MILLI.,.METRE.));
#313=SURFACE_SIDE_STYLE('',(#446));
#314=EDGE_LOOP('',(#447,#448,#449,#450,#451));
#315=AXIS2_PLACEMENT_3D('',#452,#453,#454);
#316=PRE_DEFINED_MARKER('');
#317=COLOUR_RGB('',0.498039215803146,0.498039215803146,0.498039215803146);
#318=DRAUGHTING_PRE_DEFINED_CURVE_FONT('continuous');
#319=COLOUR_RGB('',0.498039215803146,0.498039215803146,0.498039215803146);
#320=CARTESIAN_POINT('',(4.0,4.89842541528951E-016,-60.0));
#321=VECTOR('',#455,1.0);
#322=SURFACE_SIDE_STYLE('',(#456));
#323=EDGE_LOOP('',(#457,#458));
#324=AXIS2_PLACEMENT_3D('',#459,#460,#461);
#325=PRE_DEFINED_MARKER('');
#326=COLOUR_RGB('',0.800000011920929,0.800000011920929,0.800000011920929);
#327=DRAUGHTING_PRE_DEFINED_CURVE_FONT('continuous');
#328=COLOUR_RGB('',0.800000011920929,0.800000011920929,0.800000011920929);
#329=AXIS2_PLACEMENT_3D('',#462,#463,#464);
#330=DRAUGHTING_PRE_DEFINED_CURVE_FONT('continuous');
#331=COLOUR_RGB('',0.498039215803146,0.498039215803146,0.498039215803146);
#332=AXIS2_PLACEMENT_3D('',#465,#466,#467);
#333=SURFACE_SIDE_STYLE('',(#468));
#334=EDGE_LOOP('',(#469,#470));
#335=AXIS2_PLACEMENT_3D('',#471,#472,#473);
#336=SURFACE_SIDE_STYLE('',(#474));
#337=DRAUGHTING_PRE_DEFINED_CURVE_FONT('continuous');
#338=COLOUR_RGB('',0.800000011920929,0.800000011920929,0.800000011920929);
#339=AXIS2_PLACEMENT_3D('',#475,#476,#477);
#340=DRAUGHTING_PRE_DEFINED_CURVE_FONT('continuous');
#341=COLOUR_RGB('',0.498039215803146,0.498039215803146,0.498039215803146);
#342=AXIS2_PLACEMENT_3D('',#478,#479,#480);
#343=PRE_DEFINED_MARKER('');
#344=COLOUR_RGB('',0.498039215803146,0.498039215803146,0.498039215803146);
#345=SURFACE_SIDE_STYLE('',(#481));
#346=EDGE_LOOP('',(#482,#483,#484,#485,#486));
#347=AXIS2_PLACEMENT_3D('',#487,#488,#489);
#348=DRAUGHTING_PRE_DEFINED_CURVE_FONT('continuous');
#349=COLOUR_RGB('',0.498039215803146,0.498039215803146,0.498039215803146);
#350=AXIS2_PLACEMENT_3D('',#490,#491,#492);
#351=PRE_DEFINED_MARKER('');
#352=COLOUR_RGB('',0.800000011920929,0.800000011920929,0.800000011920929);
#353=DRAUGHTING_PRE_DEFINED_CURVE_FONT('continuous');
#354=COLOUR_RGB('',0.800000011920929,0.800000011920929,0.800000011920929);
#355=AXIS2_PLACEMENT_3D('',#493,#494,#495);
#356=DRAUGHTING_PRE_DEFINED_CURVE_FONT('continuous');
#357=COLOUR_RGB('',0.800000011920929,0.800000011920929,0.800000011920929);
#358=AXIS2_PLACEMENT_3D('',#496,#497,#498);
#359=PRE_DEFINED_MARKER('');
#360=COLOUR_RGB('',0.498039215803146,0.498039215803146,0.498039215803146);
#361=SURFACE_SIDE_STYLE('',(#499));
#362=DRAUGHTING_PRE_DEFINED_CURVE_FONT('continuous');
#363=COLOUR_RGB('',0.498039215803146,0.498039215803146,0.498039215803146);
#364=CARTESIAN_POINT('',(-4.65350414452503E-016,3.8,-0.199999999999996));
#365=VECTOR('',#500,1.0);
#366=PRE_DEFINED_MARKER('');
#367=COLOUR_RGB('',0.800000011920929,0.800000011920929,0.800000011920929);
#368=DRAUGHTING_PRE_DEFINED_CURVE_FONT('continuous');
#369=COLOUR_RGB('',0.498039215803146,0.498039215803146,0.498039215803146);
#370=CARTESIAN_POINT('',(4.65350414452503E-016,-3.8,-0.199999999999996));
#371=VECTOR('',#501,1.0);
#372=PRE_DEFINED_MARKER('');
#373=COLOUR_RGB('',0.800000011920929,0.800000011920929,0.800000011920929);
#374=PRE_DEFINED_MARKER('');
#375=COLOUR_RGB('',0.800000011920929,0.800000011920929,0.800000011920929);
#376=SURFACE_SIDE_STYLE('',(#502));
#377=EDGE_LOOP('',(#503,#504));
#378=AXIS2_PLACEMENT_3D('',#505,#506,#507);
#379=DRAUGHTING_PRE_DEFINED_CURVE_FONT('continuous');
#380=COLOUR_RGB('',0.498039215803146,0.498039215803146,0.498039215803146);
#381=CARTESIAN_POINT('',(-4.0,-4.89842541528951E-016,-60.0));
#382=VECTOR('',#508,1.0);
#383=PRE_DEFINED_MARKER('');
#384=COLOUR_RGB('',0.498039215803146,0.498039215803146,0.498039215803146);
#385=SURFACE_SIDE_STYLE('',(#509));
#386=EDGE_LOOP('',(#510,#511,#512));
#387=AXIS2_PLACEMENT_3D('',#513,#514,#515);
#388=SURFACE_SIDE_STYLE('',(#516));
#389=EDGE_LOOP('',(#517,#518,#519,#520,#521));
#390=AXIS2_PLACEMENT_3D('',#522,#523,#524);
#391=SURFACE_SIDE_STYLE('',(#525));
#392=EDGE_LOOP('',(#526,#527,#528,#529,#530));
#393=AXIS2_PLACEMENT_3D('',#531,#532,#533);
#394=DRAUGHTING_PRE_DEFINED_CURVE_FONT('continuous');
#395=COLOUR_RGB('',0.498039215803146,0.498039215803146,0.498039215803146);
#396=AXIS2_PLACEMENT_3D('',#534,#535,#536);
#397=PRE_DEFINED_MARKER('');
#398=COLOUR_RGB('',0.498039215803146,0.498039215803146,0.498039215803146);
#399=PRE_DEFINED_MARKER('');
#400=COLOUR_RGB('',0.498039215803146,0.498039215803146,0.498039215803146);
#401=DRAUGHTING_PRE_DEFINED_CURVE_FONT('continuous');
#402=COLOUR_RGB('',0.800000011920929,0.800000011920929,0.800000011920929);
#403=AXIS2_PLACEMENT_3D('',#537,#538,#539);
#404=DRAUGHTING_PRE_DEFINED_CURVE_FONT('continuous');
#405=COLOUR_RGB('',0.800000011920929,0.800000011920929,0.800000011920929);
#406=CARTESIAN_POINT('',(2.0,3.46410161513776,-90.0));
#407=VECTOR('',#540,1.0);
#408=DRAUGHTING_PRE_DEFINED_CURVE_FONT('continuous');
#409=COLOUR_RGB('',0.498039215803146,0.498039215803146,0.498039215803146);
#410=AXIS2_PLACEMENT_3D('',#541,#542,#543);
#411=PRE_DEFINED_MARKER('');
#412=COLOUR_RGB('',0.498039215803146,0.498039215803146,0.498039215803146);
#413=SURFACE_SIDE_STYLE('',(#544));
#414=EDGE_LOOP('',(#545,#546,#547));
#415=AXIS2_PLACEMENT_3D('',#548,#549,#550);
#416=PRE_DEFINED_MARKER('');
#417=COLOUR_RGB('',0.800000011920929,0.800000011920929,0.800000011920929);
#418=DRAUGHTING_PRE_DEFINED_CURVE_FONT('continuous');
#419=COLOUR_RGB('',0.498039215803146,0.498039215803146,0.498039215803146);
#420=AXIS2_PLACEMENT_3D('',#551,#552,#553);
#421=PRE_DEFINED_MARKER('');
#422=COLOUR_RGB('',0.498039215803146,0.498039215803146,0.498039215803146);
#423=SURFACE_SIDE_STYLE('',(#554));
#424=EDGE_LOOP('',(#555,#556,#557,#558,#559));
#425=AXIS2_PLACEMENT_3D('',#560,#561,#562);
#426=DRAUGHTING_PRE_DEFINED_CURVE_FONT('continuous');
#427=COLOUR_RGB('',0.498039215803146,0.498039215803146,0.498039215803146);
#428=AXIS2_PLACEMENT_3D('',#563,#564,#565);
#429=SURFACE_SIDE_STYLE('',(#566));
#430=EDGE_LOOP('',(#567,#568,#569,#570,#571));
#431=AXIS2_PLACEMENT_3D('',#572,#573,#574);
#432=DRAUGHTING_PRE_DEFINED_CURVE_FONT('continuous');
#433=COLOUR_RGB('',0.800000011920929,0.800000011920929,0.800000011920929);
#434=CARTESIAN_POINT('',(-2.0,-3.46410161513776,-90.0));
#435=VECTOR('',#575,1.0);
#436=DRAUGHTING_PRE_DEFINED_CURVE_FONT('continuous');
#437=COLOUR_RGB('',0.800000011920929,0.800000011920929,0.800000011920929);
#438=AXIS2_PLACEMENT_3D('',#576,#577,#578);
#439=DRAUGHTING_PRE_DEFINED_CURVE_FONT('continuous');
#440=COLOUR_RGB('',0.800000011920929,0.800000011920929,0.800000011920929);
#441=AXIS2_PLACEMENT_3D('',#579,#580,#581);
#442=DRAUGHTING_PRE_DEFINED_CURVE_FONT('continuous');
#443=COLOUR_RGB('',0.498039215803146,0.498039215803146,0.498039215803146);
#444=AXIS2_PLACEMENT_3D('',#582,#583,#584);
#446=SURFACE_STYLE_FILL_AREA(#585);
#447=ORIENTED_EDGE('',*,*,#131,.T.);
#448=ORIENTED_EDGE('',*,*,#151,.F.);
#449=ORIENTED_EDGE('',*,*,#85,.T.);
#450=ORIENTED_EDGE('',*,*,#165,.T.);
#451=ORIENTED_EDGE('',*,*,#107,.T.);
#452=CARTESIAN_POINT('',(0.0,0.0,-60.0));
#453=DIRECTION('',(-0.0,-0.0,1.0));
#454=DIRECTION('',(-1.0,0.0,0.0));
#455=DIRECTION('',(-0.0,-0.0,1.0));
#456=SURFACE_STYLE_FILL_AREA(#586);
#457=ORIENTED_EDGE('',*,*,#99,.F.);
#458=ORIENTED_EDGE('',*,*,#91,.F.);
#459=CARTESIAN_POINT('',(1.0,1.73205080756888,-84.0));
#460=DIRECTION('',(0.0,0.0,1.0));
#461=DIRECTION('',(-0.5,-0.866025403784439,0.0));
#462=CARTESIAN_POINT('',(0.0,0.0,-84.0));
#463=DIRECTION('',(0.0,0.0,-1.0));
#464=DIRECTION('',(0.5,0.866025403784439,0.0));
#465=CARTESIAN_POINT('',(0.0,0.0,-84.0));
#466=DIRECTION('',(0.0,0.0,-1.0));
#467=DIRECTION('',(-1.0,0.0,0.0));
#468=SURFACE_STYLE_FILL_AREA(#587);
#469=ORIENTED_EDGE('',*,*,#175,.F.);
#470=ORIENTED_EDGE('',*,*,#141,.F.);
#471=CARTESIAN_POINT('',(0.0,1.8,0.0));
#472=DIRECTION('',(-0.0,0.0,1.0));
#473=DIRECTION('',(0.0,-1.0,0.0));
#474=SURFACE_STYLE_FILL_AREA(#588);
#475=CARTESIAN_POINT('',(0.0,0.0,-84.0));
#476=DIRECTION('',(0.0,0.0,-1.0));
#477=DIRECTION('',(0.5,0.866025403784439,0.0));
#478=CARTESIAN_POINT('',(0.0,0.0,-0.399999999999999));
#479=DIRECTION('',(0.0,0.0,-1.0));
#480=DIRECTION('',(0.0,1.0,0.0));
#481=SURFACE_STYLE_FILL_AREA(#589);
#482=ORIENTED_EDGE('',*,*,#119,.T.);
#483=ORIENTED_EDGE('',*,*,#159,.F.);
#484=ORIENTED_EDGE('',*,*,#107,.F.);
#485=ORIENTED_EDGE('',*,*,#123,.T.);
#486=ORIENTED_EDGE('',*,*,#141,.T.);
#487=CARTESIAN_POINT('',(0.0,0.0,-0.199999999999996));
#488=DIRECTION('',(0.0,-0.0,-1.0));
#489=DIRECTION('',(0.0,1.0,0.0));
#490=CARTESIAN_POINT('',(0.0,0.0,-0.399999999999999));
#491=DIRECTION('',(0.0,0.0,-1.0));
#492=DIRECTION('',(0.0,1.0,0.0));
#493=CARTESIAN_POINT('',(0.0,0.0,-96.0));
#494=DIRECTION('',(0.0,0.0,-1.0));
#495=DIRECTION('',(0.5,0.866025403784439,0.0));
#496=CARTESIAN_POINT('',(0.0,0.0,-96.0));
#497=DIRECTION('',(1.0,0.0,1.22460635382238E-016));
#498=DIRECTION('',(-1.22460635382238E-016,0.0,1.0));
#499=SURFACE_STYLE_FILL_AREA(#590);
#500=DIRECTION('',(-8.65927457071937E-017,0.707106781186549,-0.707106781186546));
#501=DIRECTION('',(-8.65927457071937E-017,0.707106781186549,0.707106781186546));
#502=SURFACE_STYLE_FILL_AREA(#591);
#503=ORIENTED_EDGE('',*,*,#93,.T.);
#504=ORIENTED_EDGE('',*,*,#151,.T.);
#505=CARTESIAN_POINT('',(-2.0,0.0,-84.0));
#506=DIRECTION('',(0.0,0.0,-1.0));
#507=DIRECTION('',(-1.0,0.0,0.0));
#508=DIRECTION('',(0.0,0.0,-1.0));
#509=SURFACE_STYLE_FILL_AREA(#592);
#510=ORIENTED_EDGE('',*,*,#113,.F.);
#511=ORIENTED_EDGE('',*,*,#173,.T.);
#512=ORIENTED_EDGE('',*,*,#171,.T.);
#513=CARTESIAN_POINT('',(0.0,0.0,-96.0));
#514=DIRECTION('',(0.0,1.0,0.0));
#515=DIRECTION('',(0.0,0.0,-1.0));
#516=SURFACE_STYLE_FILL_AREA(#593);
#517=ORIENTED_EDGE('',*,*,#149,.T.);
#518=ORIENTED_EDGE('',*,*,#147,.F.);
#519=ORIENTED_EDGE('',*,*,#171,.F.);
#520=ORIENTED_EDGE('',*,*,#169,.T.);
#521=ORIENTED_EDGE('',*,*,#91,.T.);
#522=CARTESIAN_POINT('',(0.0,0.0,-90.0));
#523=DIRECTION('',(-0.0,-0.0,1.0));
#524=DIRECTION('',(0.5,0.866025403784439,0.0));
#525=SURFACE_STYLE_FILL_AREA(#594);
#526=ORIENTED_EDGE('',*,*,#119,.F.);
#527=ORIENTED_EDGE('',*,*,#175,.T.);
#528=ORIENTED_EDGE('',*,*,#123,.F.);
#529=ORIENTED_EDGE('',*,*,#165,.F.);
#530=ORIENTED_EDGE('',*,*,#101,.F.);
#531=CARTESIAN_POINT('',(0.0,0.0,-0.199999999999996));
#532=DIRECTION('',(0.0,-0.0,-1.0));
#533=DIRECTION('',(0.0,1.0,0.0));
#534=CARTESIAN_POINT('',(0.0,0.0,0.0));
#535=DIRECTION('',(0.0,0.0,-1.0));
#536=DIRECTION('',(0.0,1.0,0.0));
#537=CARTESIAN_POINT('',(0.0,0.0,-96.0));
#538=DIRECTION('',(0.0,0.0,-1.0));
#539=DIRECTION('',(0.5,0.866025403784439,0.0));
#540=DIRECTION('',(0.0,0.0,-1.0));
#541=CARTESIAN_POINT('',(0.0,0.0,-84.0));
#542=DIRECTION('',(0.0,0.0,-1.0));
#543=DIRECTION('',(-1.0,0.0,0.0));
#544=SURFACE_STYLE_FILL_AREA(#595);
#545=ORIENTED_EDGE('',*,*,#113,.T.);
#546=ORIENTED_EDGE('',*,*,#147,.T.);
#547=ORIENTED_EDGE('',*,*,#111,.T.);
#548=CARTESIAN_POINT('',(0.0,0.0,-96.0));
#549=DIRECTION('',(0.0,1.0,0.0));
#550=DIRECTION('',(0.0,0.0,-1.0));
#551=CARTESIAN_POINT('',(0.0,0.0,-0.399999999999999));
#552=DIRECTION('',(0.0,0.0,-1.0));
#553=DIRECTION('',(0.0,1.0,0.0));
#554=SURFACE_STYLE_FILL_AREA(#596);
#555=ORIENTED_EDGE('',*,*,#131,.F.);
#556=ORIENTED_EDGE('',*,*,#159,.T.);
#557=ORIENTED_EDGE('',*,*,#101,.T.);
#558=ORIENTED_EDGE('',*,*,#85,.F.);
#559=ORIENTED_EDGE('',*,*,#93,.F.);
#560=CARTESIAN_POINT('',(0.0,0.0,-60.0));
#561=DIRECTION('',(-0.0,-0.0,1.0));
#562=DIRECTION('',(-1.0,0.0,0.0));
#563=CARTESIAN_POINT('',(0.0,0.0,-0.399999999999999));
#564=DIRECTION('',(0.0,0.0,-1.0));
#565=DIRECTION('',(0.0,1.0,0.0));
#566=SURFACE_STYLE_FILL_AREA(#597);
#567=ORIENTED_EDGE('',*,*,#149,.F.);
#568=ORIENTED_EDGE('',*,*,#99,.T.);
#569=ORIENTED_EDGE('',*,*,#169,.F.);
#570=ORIENTED_EDGE('',*,*,#173,.F.);
#571=ORIENTED_EDGE('',*,*,#111,.F.);
#572=CARTESIAN_POINT('',(0.0,0.0,-90.0));
#573=DIRECTION('',(-0.0,-0.0,1.0));
#574=DIRECTION('',(0.5,0.866025403784439,0.0));
#575=DIRECTION('',(-0.0,-0.0,1.0));
#576=CARTESIAN_POINT('',(0.0,0.0,-96.0));
#577=DIRECTION('',(0.0,0.0,-1.0));
#578=DIRECTION('',(0.5,0.866025403784439,0.0));
#579=CARTESIAN_POINT('',(0.0,0.0,-96.0));
#580=DIRECTION('',(0.0,0.0,-1.0));
#581=DIRECTION('',(0.5,0.866025403784439,0.0));
#582=CARTESIAN_POINT('',(0.0,0.0,0.0));
#583=DIRECTION('',(0.0,0.0,-1.0));
#584=DIRECTION('',(0.0,1.0,0.0));
#585=FILL_AREA_STYLE('',(#598));
#586=FILL_AREA_STYLE('',(#599));
#587=FILL_AREA_STYLE('',(#600));
#588=FILL_AREA_STYLE('',(#601));
#589=FILL_AREA_STYLE('',(#602));
#590=FILL_AREA_STYLE('',(#603));
#591=FILL_AREA_STYLE('',(#604));
#592=FILL_AREA_STYLE('',(#605));
#593=FILL_AREA_STYLE('',(#606));
#594=FILL_AREA_STYLE('',(#607));
#595=FILL_AREA_STYLE('',(#608));
#596=FILL_AREA_STYLE('',(#609));
#597=FILL_AREA_STYLE('',(#610));
#598=FILL_AREA_STYLE_COLOUR('',#611);
#599=FILL_AREA_STYLE_COLOUR('',#612);
#600=FILL_AREA_STYLE_COLOUR('',#613);
#601=FILL_AREA_STYLE_COLOUR('',#614);
#602=FILL_AREA_STYLE_COLOUR('',#615);
#603=FILL_AREA_STYLE_COLOUR('',#616);
#604=FILL_AREA_STYLE_COLOUR('',#617);
#605=FILL_AREA_STYLE_COLOUR('',#618);
#606=FILL_AREA_STYLE_COLOUR('',#619);
#607=FILL_AREA_STYLE_COLOUR('',#620);
#608=FILL_AREA_STYLE_COLOUR('',#621);
#609=FILL_AREA_STYLE_COLOUR('',#622);
#610=FILL_AREA_STYLE_COLOUR('',#623);
#611=COLOUR_RGB('',0.498039215803146,0.498039215803146,0.498039215803146);
#612=COLOUR_RGB('',0.800000011920929,0.800000011920929,0.800000011920929);
#613=COLOUR_RGB('',0.498039215803146,0.498039215803146,0.498039215803146);
#614=COLOUR_RGB('',0.800000011920929,0.800000011920929,0.800000011920929);
#615=COLOUR_RGB('',0.498039215803146,0.498039215803146,0.498039215803146);
#616=COLOUR_RGB('',0.498039215803146,0.498039215803146,0.498039215803146);
#617=COLOUR_RGB('',0.498039215803146,0.498039215803146,0.498039215803146);
#618=COLOUR_RGB('',0.800000011920929,0.800000011920929,0.800000011920929);
#619=COLOUR_RGB('',0.800000011920929,0.800000011920929,0.800000011920929);
#620=COLOUR_RGB('',0.498039215803146,0.498039215803146,0.498039215803146);
#621=COLOUR_RGB('',0.800000011920929,0.800000011920929,0.800000011920929);
#622=COLOUR_RGB('',0.498039215803146,0.498039215803146,0.498039215803146);
#623=COLOUR_RGB('',0.800000011920929,0.800000011920929,0.800000011920929);
#624=AXIS2_PLACEMENT_3D('PCS',#625,#626,#627);
#625=CARTESIAN_POINT('',(0.0,0.0,0.0));
#626=DIRECTION('',(0.0,0.0,1.0));
#627=DIRECTION('',(1.0,0.0,0.0));
#628=AXIS2_PLACEMENT_3D('MCS',#629,#630,#631);
#629=CARTESIAN_POINT('',(0.0,0.0,-36.0));
#630=DIRECTION('',(0.0,0.0,1.0));
#631=DIRECTION('',(1.0,0.0,0.0));
#632=AXIS2_PLACEMENT_3D('CIP',#633,#634,#635);
#633=CARTESIAN_POINT('',(0.0,0.0,-100.0));
#634=DIRECTION('',(0.0,0.0,1.0));
#635=DIRECTION('',(1.0,0.0,0.0));
#636=CONSTRUCTIVE_GEOMETRY_REPRESENTATION_RELATIONSHIP('coordinate systems',$,#66,#637);
#637=CONSTRUCTIVE_GEOMETRY_REPRESENTATION('coordinate systems',(#624,#628,#632),#10);
ENDSEC;
END-ISO-10303-21;
