ISO-10303-21;
HEADER;
FILE_DESCRIPTION(('no description'),'unknown implementation level');
FILE_NAME('solidpI0YLqfEGKFQl8DRnRASt9_KCFw_1.STP','  ',('CIMSOURCE GmbH'),('CADClick - KiM GmbH - www.kimweb.de'),'unknown preprocess','ACIS','unknown authorization');
FILE_SCHEMA(('automotive_design'));
ENDSEC;
DATA;
#1=MECHANICAL_DESIGN_GEOMETRIC_PRESENTATION_REPRESENTATION(' ',(#14,#15,#16,#17,#18,#19,#20,#21,#22,#23,#24,#25,#26,#27,#28,#29,#30,#31,#32,#33,#34,#35,#36,#37,#38,#39,#40,#41,#42,#43,#44,#45,#46,#47,#48,#49,#50,#51,#52,#53,#54,#55),#10);
#2=PRODUCT_DEFINITION_CONTEXT('',#56,'design');
#3=APPLICATION_PROTOCOL_DEFINITION('INTERNATIONAL STANDARD','automotive_design',1994,#56);
#4=PRODUCT_CATEGORY_RELATIONSHIP('NONE','NONE',#57,#58);
#5=SHAPE_DEFINITION_REPRESENTATION(#59,#60);
#6=PRODUCT_DEFINITION_CONTEXT('',#61,'design');
#7=APPLICATION_PROTOCOL_DEFINITION('INTERNATIONAL STANDARD','automotive_design',1994,#61);
#8=PRODUCT_CATEGORY_RELATIONSHIP('NONE','NONE',#62,#63);
#9=SHAPE_DEFINITION_REPRESENTATION(#64,#65);
#10= (GEOMETRIC_REPRESENTATION_CONTEXT(3)GLOBAL_UNCERTAINTY_ASSIGNED_CONTEXT((#68))GLOBAL_UNIT_ASSIGNED_CONTEXT((#70,#71,#72))REPRESENTATION_CONTEXT('NONE','WORKSPACE'));
#14=STYLED_ITEM('',(#74),#75);
#15=STYLED_ITEM('',(#76),#77);
#16=STYLED_ITEM('',(#78),#79);
#17=STYLED_ITEM('',(#80),#81);
#18=STYLED_ITEM('',(#82),#83);
#19=STYLED_ITEM('',(#84),#85);
#20=STYLED_ITEM('',(#86),#87);
#21=STYLED_ITEM('',(#88),#89);
#22=STYLED_ITEM('',(#90),#91);
#23=STYLED_ITEM('',(#92),#93);
#24=STYLED_ITEM('',(#94),#95);
#25=STYLED_ITEM('',(#96),#97);
#26=STYLED_ITEM('',(#98),#99);
#27=STYLED_ITEM('',(#100),#101);
#28=STYLED_ITEM('',(#102),#103);
#29=STYLED_ITEM('',(#104),#105);
#30=STYLED_ITEM('',(#106),#107);
#31=STYLED_ITEM('',(#108),#109);
#32=STYLED_ITEM('',(#110),#111);
#33=STYLED_ITEM('',(#112),#113);
#34=STYLED_ITEM('',(#114),#115);
#35=STYLED_ITEM('',(#116),#117);
#36=STYLED_ITEM('',(#118),#119);
#37=STYLED_ITEM('',(#120),#121);
#38=STYLED_ITEM('',(#122),#123);
#39=STYLED_ITEM('',(#124),#125);
#40=STYLED_ITEM('',(#126),#127);
#41=STYLED_ITEM('',(#128),#129);
#42=STYLED_ITEM('',(#130),#131);
#43=STYLED_ITEM('',(#132),#133);
#44=STYLED_ITEM('',(#134),#135);
#45=STYLED_ITEM('',(#136),#137);
#46=STYLED_ITEM('',(#138),#139);
#47=STYLED_ITEM('',(#140),#141);
#48=STYLED_ITEM('',(#142),#143);
#49=STYLED_ITEM('',(#144),#145);
#50=STYLED_ITEM('',(#146),#147);
#51=STYLED_ITEM('',(#148),#149);
#52=STYLED_ITEM('',(#150),#151);
#53=STYLED_ITEM('',(#152),#153);
#54=STYLED_ITEM('',(#154),#155);
#55=STYLED_ITEM('',(#156),#157);
#56=APPLICATION_CONTEXT(' ');
#57=PRODUCT_CATEGORY('part','NONE');
#58=PRODUCT_RELATED_PRODUCT_CATEGORY('detail',' ',(#158));
#59=PRODUCT_DEFINITION_SHAPE('NONE','NONE',#159);
#60=ADVANCED_BREP_SHAPE_REPRESENTATION('1',(#79,#160),#10);
#61=APPLICATION_CONTEXT(' ');
#62=PRODUCT_CATEGORY('part','NONE');
#63=PRODUCT_RELATED_PRODUCT_CATEGORY('detail',' ',(#161));
#64=PRODUCT_DEFINITION_SHAPE('NONE','NONE',#162);
#65=ADVANCED_BREP_SHAPE_REPRESENTATION('2',(#91,#163),#10);
#68=UNCERTAINTY_MEASURE_WITH_UNIT(LENGTH_MEASURE(1.0E-006),#70,'','');
#70= (CONVERSION_BASED_UNIT('MILLIMETRE',#166)LENGTH_UNIT()NAMED_UNIT(#169));
#71= (NAMED_UNIT(#171)PLANE_ANGLE_UNIT()SI_UNIT($,.RADIAN.));
#72= (NAMED_UNIT(#171)SOLID_ANGLE_UNIT()SI_UNIT($,.STERADIAN.));
#74=PRESENTATION_STYLE_ASSIGNMENT((#177));
#75=VERTEX_POINT('',#178);
#76=PRESENTATION_STYLE_ASSIGNMENT((#179));
#77=EDGE_CURVE('',#109,#113,#180,.T.);
#78=PRESENTATION_STYLE_ASSIGNMENT((#181));
#79=MANIFOLD_SOLID_BREP('1',#182);
#80=PRESENTATION_STYLE_ASSIGNMENT((#183));
#81=EDGE_CURVE('',#85,#139,#184,.T.);
#82=PRESENTATION_STYLE_ASSIGNMENT((#185));
#83=VERTEX_POINT('',#186);
#84=PRESENTATION_STYLE_ASSIGNMENT((#187));
#85=VERTEX_POINT('',#188);
#86=PRESENTATION_STYLE_ASSIGNMENT((#189));
#87=EDGE_CURVE('',#113,#139,#190,.T.);
#88=PRESENTATION_STYLE_ASSIGNMENT((#191));
#89=EDGE_CURVE('',#119,#75,#192,.T.);
#90=PRESENTATION_STYLE_ASSIGNMENT((#193));
#91=MANIFOLD_SOLID_BREP('2',#194);
#92=PRESENTATION_STYLE_ASSIGNMENT((#195));
#93=ADVANCED_FACE('',(#196),#197,.T.);
#94=PRESENTATION_STYLE_ASSIGNMENT((#198));
#95=EDGE_CURVE('',#157,#153,#199,.T.);
#96=PRESENTATION_STYLE_ASSIGNMENT((#200));
#97=EDGE_CURVE('',#113,#145,#201,.T.);
#98=PRESENTATION_STYLE_ASSIGNMENT((#202));
#99=EDGE_CURVE('',#83,#107,#203,.T.);
#100=PRESENTATION_STYLE_ASSIGNMENT((#204));
#101=ADVANCED_FACE('',(#205),#206,.T.);
#102=PRESENTATION_STYLE_ASSIGNMENT((#207));
#103=EDGE_CURVE('',#119,#153,#208,.T.);
#104=PRESENTATION_STYLE_ASSIGNMENT((#209));
#105=EDGE_CURVE('',#75,#119,#210,.T.);
#106=PRESENTATION_STYLE_ASSIGNMENT((#211));
#107=VERTEX_POINT('',#212);
#108=PRESENTATION_STYLE_ASSIGNMENT((#213));
#109=VERTEX_POINT('',#214);
#110=PRESENTATION_STYLE_ASSIGNMENT((#215));
#111=ADVANCED_FACE('',(#216),#217,.T.);
#112=PRESENTATION_STYLE_ASSIGNMENT((#218));
#113=VERTEX_POINT('',#219);
#114=PRESENTATION_STYLE_ASSIGNMENT((#220));
#115=EDGE_CURVE('',#145,#109,#221,.T.);
#116=PRESENTATION_STYLE_ASSIGNMENT((#222));
#117=EDGE_CURVE('',#153,#83,#223,.T.);
#118=PRESENTATION_STYLE_ASSIGNMENT((#224));
#119=VERTEX_POINT('',#225);
#120=PRESENTATION_STYLE_ASSIGNMENT((#226));
#121=EDGE_CURVE('',#145,#113,#227,.T.);
#122=PRESENTATION_STYLE_ASSIGNMENT((#228));
#123=EDGE_CURVE('',#107,#157,#229,.T.);
#124=PRESENTATION_STYLE_ASSIGNMENT((#230));
#125=ADVANCED_FACE('',(#231),#232,.T.);
#126=PRESENTATION_STYLE_ASSIGNMENT((#233));
#127=ADVANCED_FACE('',(#234),#235,.T.);
#128=PRESENTATION_STYLE_ASSIGNMENT((#236));
#129=ADVANCED_FACE('',(#237),#238,.T.);
#130=PRESENTATION_STYLE_ASSIGNMENT((#239));
#131=EDGE_CURVE('',#153,#157,#240,.T.);
#132=PRESENTATION_STYLE_ASSIGNMENT((#241));
#133=ADVANCED_FACE('',(#242),#243,.T.);
#134=PRESENTATION_STYLE_ASSIGNMENT((#244));
#135=EDGE_CURVE('',#139,#85,#245,.T.);
#136=PRESENTATION_STYLE_ASSIGNMENT((#246));
#137=ADVANCED_FACE('',(#247),#248,.T.);
#138=PRESENTATION_STYLE_ASSIGNMENT((#249));
#139=VERTEX_POINT('',#250);
#140=PRESENTATION_STYLE_ASSIGNMENT((#251));
#141=EDGE_CURVE('',#85,#145,#252,.T.);
#142=PRESENTATION_STYLE_ASSIGNMENT((#253));
#143=ADVANCED_FACE('',(#254),#255,.T.);
#144=PRESENTATION_STYLE_ASSIGNMENT((#256));
#145=VERTEX_POINT('',#257);
#146=PRESENTATION_STYLE_ASSIGNMENT((#258));
#147=EDGE_CURVE('',#107,#83,#259,.T.);
#148=PRESENTATION_STYLE_ASSIGNMENT((#260));
#149=ADVANCED_FACE('',(#261),#262,.T.);
#150=PRESENTATION_STYLE_ASSIGNMENT((#263));
#151=EDGE_CURVE('',#157,#75,#264,.T.);
#152=PRESENTATION_STYLE_ASSIGNMENT((#265));
#153=VERTEX_POINT('',#266);
#154=PRESENTATION_STYLE_ASSIGNMENT((#267));
#155=ADVANCED_FACE('',(#268),#269,.T.);
#156=PRESENTATION_STYLE_ASSIGNMENT((#270));
#157=VERTEX_POINT('',#271);
#158=PRODUCT('1','1','PART-1-DESC',(#272));
#159=PRODUCT_DEFINITION('NONE','NONE',#273,#2);
#160=AXIS2_PLACEMENT_3D('',#274,#275,#276);
#161=PRODUCT('2','2','PART-2-DESC',(#277));
#162=PRODUCT_DEFINITION('NONE','NONE',#278,#6);
#163=AXIS2_PLACEMENT_3D('',#279,#280,#281);
#166=LENGTH_MEASURE_WITH_UNIT(LENGTH_MEASURE(1.0),#282);
#169=DIMENSIONAL_EXPONENTS(1.0,0.0,0.0,0.0,0.0,0.0,0.0);
#171=DIMENSIONAL_EXPONENTS(0.0,0.0,0.0,0.0,0.0,0.0,0.0);
#177=POINT_STYLE(' ',#283,POSITIVE_LENGTH_MEASURE(1.0E-006),#284);
#178=CARTESIAN_POINT('',(0.0,4.0,-45.0));
#179=CURVE_STYLE('',#285,POSITIVE_LENGTH_MEASURE(1.0E-006),#286);
#180=LINE('',#287,#288);
#181=SURFACE_STYLE_USAGE(.BOTH.,#289);
#182=CLOSED_SHELL('',(#93,#101,#155,#149,#125,#129));
#183=CURVE_STYLE('',#290,POSITIVE_LENGTH_MEASURE(1.0E-006),#291);
#184=CIRCLE('',#292,3.351);
#185=POINT_STYLE(' ',#293,POSITIVE_LENGTH_MEASURE(1.0E-006),#294);
#186=CARTESIAN_POINT('',(4.40858287376056E-016,-3.6,-7.105427357601E-015));
#187=POINT_STYLE(' ',#295,POSITIVE_LENGTH_MEASURE(1.0E-006),#296);
#188=CARTESIAN_POINT('',(-3.351,0.0,-68.4));
#189=CURVE_STYLE('',#297,POSITIVE_LENGTH_MEASURE(1.0E-006),#298);
#190=LINE('',#299,#300);
#191=CURVE_STYLE('',#301,POSITIVE_LENGTH_MEASURE(1.0E-006),#302);
#192=CIRCLE('',#303,4.0);
#193=SURFACE_STYLE_USAGE(.BOTH.,#304);
#194=CLOSED_SHELL('',(#111,#127,#137,#133,#143));
#195=SURFACE_STYLE_USAGE(.BOTH.,#305);
#196=FACE_OUTER_BOUND('',#306,.T.);
#197=CYLINDRICAL_SURFACE('',#307,4.0);
#198=CURVE_STYLE('',#308,POSITIVE_LENGTH_MEASURE(1.0E-006),#309);
#199=CIRCLE('',#310,4.0);
#200=CURVE_STYLE('',#311,POSITIVE_LENGTH_MEASURE(1.0E-006),#312);
#201=CIRCLE('',#313,3.35);
#202=CURVE_STYLE('',#314,POSITIVE_LENGTH_MEASURE(1.0E-006),#315);
#203=CIRCLE('',#316,3.6);
#204=SURFACE_STYLE_USAGE(.BOTH.,#317);
#205=FACE_OUTER_BOUND('',#318,.T.);
#206=CONICAL_SURFACE('',#319,3.8,0.78539816339745);
#207=CURVE_STYLE('',#320,POSITIVE_LENGTH_MEASURE(1.0E-006),#321);
#208=LINE('',#322,#323);
#209=CURVE_STYLE('',#324,POSITIVE_LENGTH_MEASURE(1.0E-006),#325);
#210=CIRCLE('',#326,4.0);
#211=POINT_STYLE(' ',#327,POSITIVE_LENGTH_MEASURE(1.0E-006),#328);
#212=CARTESIAN_POINT('',(0.0,3.6,-7.105427357601E-015));
#213=POINT_STYLE(' ',#329,POSITIVE_LENGTH_MEASURE(1.0E-006),#330);
#214=CARTESIAN_POINT('',(0.0,0.0,-175.0));
#215=SURFACE_STYLE_USAGE(.BOTH.,#331);
#216=FACE_OUTER_BOUND('',#332,.T.);
#217=CONICAL_SURFACE('',#333,1.675,1.22173047765909);
#218=POINT_STYLE(' ',#334,POSITIVE_LENGTH_MEASURE(1.0E-006),#335);
#219=CARTESIAN_POINT('',(3.35,4.10243128530496E-016,-173.78069972));
#220=CURVE_STYLE('',#336,POSITIVE_LENGTH_MEASURE(1.0E-006),#337);
#221=LINE('',#338,#339);
#222=CURVE_STYLE('',#340,POSITIVE_LENGTH_MEASURE(1.0E-006),#341);
#223=LINE('',#342,#343);
#224=POINT_STYLE(' ',#344,POSITIVE_LENGTH_MEASURE(1.0E-006),#345);
#225=CARTESIAN_POINT('',(4.89842541528951E-016,-4.0,-45.0));
#226=CURVE_STYLE('',#346,POSITIVE_LENGTH_MEASURE(1.0E-006),#347);
#227=CIRCLE('',#348,3.35);
#228=CURVE_STYLE('',#349,POSITIVE_LENGTH_MEASURE(1.0E-006),#350);
#229=LINE('',#351,#352);
#230=SURFACE_STYLE_USAGE(.BOTH.,#353);
#231=FACE_OUTER_BOUND('',#354,.T.);
#232=CONICAL_SURFACE('',#355,3.8,0.78539816339745);
#233=SURFACE_STYLE_USAGE(.BOTH.,#356);
#234=FACE_OUTER_BOUND('',#357,.T.);
#235=CONICAL_SURFACE('',#358,3.3505,9.48940368233374E-006);
#236=SURFACE_STYLE_USAGE(.BOTH.,#359);
#237=FACE_OUTER_BOUND('',#360,.T.);
#238=CYLINDRICAL_SURFACE('',#361,4.0);
#239=CURVE_STYLE('',#362,POSITIVE_LENGTH_MEASURE(1.0E-006),#363);
#240=CIRCLE('',#364,4.0);
#241=SURFACE_STYLE_USAGE(.BOTH.,#365);
#242=FACE_OUTER_BOUND('',#366,.T.);
#243=CONICAL_SURFACE('',#367,3.3505,9.48940368233374E-006);
#244=CURVE_STYLE('',#368,POSITIVE_LENGTH_MEASURE(1.0E-006),#369);
#245=CIRCLE('',#370,3.351);
#246=SURFACE_STYLE_USAGE(.BOTH.,#371);
#247=FACE_OUTER_BOUND('',#372,.T.);
#248=PLANE('',#373);
#249=POINT_STYLE(' ',#374,POSITIVE_LENGTH_MEASURE(1.0E-006),#375);
#250=CARTESIAN_POINT('',(3.351,4.10365589165879E-016,-68.4));
#251=CURVE_STYLE('',#376,POSITIVE_LENGTH_MEASURE(1.0E-006),#377);
#252=LINE('',#378,#379);
#253=SURFACE_STYLE_USAGE(.BOTH.,#380);
#254=FACE_OUTER_BOUND('',#381,.T.);
#255=CONICAL_SURFACE('',#382,1.675,1.22173047765909);
#256=POINT_STYLE(' ',#383,POSITIVE_LENGTH_MEASURE(1.0E-006),#384);
#257=CARTESIAN_POINT('',(-3.35,0.0,-173.78069972));
#258=CURVE_STYLE('',#385,POSITIVE_LENGTH_MEASURE(1.0E-006),#386);
#259=CIRCLE('',#387,3.6);
#260=SURFACE_STYLE_USAGE(.BOTH.,#388);
#261=FACE_OUTER_BOUND('',#389,.T.);
#262=PLANE('',#390);
#263=CURVE_STYLE('',#391,POSITIVE_LENGTH_MEASURE(1.0E-006),#392);
#264=LINE('',#393,#394);
#265=POINT_STYLE(' ',#395,POSITIVE_LENGTH_MEASURE(1.0E-006),#396);
#266=CARTESIAN_POINT('',(4.89842541528951E-016,-4.0,-0.400000000000006));
#267=SURFACE_STYLE_USAGE(.BOTH.,#397);
#268=FACE_OUTER_BOUND('',#398,.T.);
#269=PLANE('',#399);
#270=POINT_STYLE(' ',#400,POSITIVE_LENGTH_MEASURE(1.0E-006),#401);
#271=CARTESIAN_POINT('',(0.0,4.0,-0.400000000000006));
#272=PRODUCT_CONTEXT('',#56,'mechanical');
#273=PRODUCT_DEFINITION_FORMATION_WITH_SPECIFIED_SOURCE(' ','NONE',#158,.NOT_KNOWN.);
#274=CARTESIAN_POINT('',(0.0,0.0,0.0));
#275=DIRECTION('',(0.0,0.0,1.0));
#276=DIRECTION('',(1.0,0.0,0.0));
#277=PRODUCT_CONTEXT('',#61,'mechanical');
#278=PRODUCT_DEFINITION_FORMATION_WITH_SPECIFIED_SOURCE(' ','NONE',#161,.NOT_KNOWN.);
#279=CARTESIAN_POINT('',(0.0,0.0,0.0));
#280=DIRECTION('',(0.0,0.0,1.0));
#281=DIRECTION('',(1.0,0.0,0.0));
#282= (NAMED_UNIT(#169)LENGTH_UNIT()SI_UNIT(.MILLI.,.METRE.));
#283=PRE_DEFINED_MARKER('');
#284=COLOUR_RGB('',0.498039215803146,0.498039215803146,0.498039215803146);
#285=DRAUGHTING_PRE_DEFINED_CURVE_FONT('continuous');
#286=COLOUR_RGB('',0.800000011920929,0.800000011920929,0.800000011920929);
#287=CARTESIAN_POINT('',(1.675,2.05121564265248E-016,-174.39034986));
#288=VECTOR('',#403,1.0);
#289=SURFACE_SIDE_STYLE('',(#404));
#290=DRAUGHTING_PRE_DEFINED_CURVE_FONT('continuous');
#291=COLOUR_RGB('',0.800000011920929,0.800000011920929,0.800000011920929);
#292=AXIS2_PLACEMENT_3D('',#405,#406,#407);
#293=PRE_DEFINED_MARKER('');
#294=COLOUR_RGB('',0.498039215803146,0.498039215803146,0.498039215803146);
#295=PRE_DEFINED_MARKER('');
#296=COLOUR_RGB('',0.800000011920929,0.800000011920929,0.800000011920929);
#297=DRAUGHTING_PRE_DEFINED_CURVE_FONT('continuous');
#298=COLOUR_RGB('',0.800000011920929,0.800000011920929,0.800000011920929);
#299=CARTESIAN_POINT('',(3.3505,4.10304358848187E-016,-121.09034986));
#300=VECTOR('',#408,1.0);
#301=DRAUGHTING_PRE_DEFINED_CURVE_FONT('continuous');
#302=COLOUR_RGB('',0.498039215803146,0.498039215803146,0.498039215803146);
#303=AXIS2_PLACEMENT_3D('',#409,#410,#411);
#304=SURFACE_SIDE_STYLE('',(#412));
#305=SURFACE_SIDE_STYLE('',(#413));
#306=EDGE_LOOP('',(#414,#415,#416,#417));
#307=AXIS2_PLACEMENT_3D('',#418,#419,#420);
#308=DRAUGHTING_PRE_DEFINED_CURVE_FONT('continuous');
#309=COLOUR_RGB('',0.498039215803146,0.498039215803146,0.498039215803146);
#310=AXIS2_PLACEMENT_3D('',#421,#422,#423);
#311=DRAUGHTING_PRE_DEFINED_CURVE_FONT('continuous');
#312=COLOUR_RGB('',0.800000011920929,0.800000011920929,0.800000011920929);
#313=AXIS2_PLACEMENT_3D('',#424,#425,#426);
#314=DRAUGHTING_PRE_DEFINED_CURVE_FONT('continuous');
#315=COLOUR_RGB('',0.498039215803146,0.498039215803146,0.498039215803146);
#316=AXIS2_PLACEMENT_3D('',#427,#428,#429);
#317=SURFACE_SIDE_STYLE('',(#430));
#318=EDGE_LOOP('',(#431,#432,#433,#434));
#319=AXIS2_PLACEMENT_3D('',#435,#436,#437);
#320=DRAUGHTING_PRE_DEFINED_CURVE_FONT('continuous');
#321=COLOUR_RGB('',0.498039215803146,0.498039215803146,0.498039215803146);
#322=CARTESIAN_POINT('',(4.89842541528951E-016,-4.0,-22.7));
#323=VECTOR('',#438,1.0);
#324=DRAUGHTING_PRE_DEFINED_CURVE_FONT('continuous');
#325=COLOUR_RGB('',0.498039215803146,0.498039215803146,0.498039215803146);
#326=AXIS2_PLACEMENT_3D('',#439,#440,#441);
#327=PRE_DEFINED_MARKER('');
#328=COLOUR_RGB('',0.498039215803146,0.498039215803146,0.498039215803146);
#329=PRE_DEFINED_MARKER('');
#330=COLOUR_RGB('',0.800000011920929,0.800000011920929,0.800000011920929);
#331=SURFACE_SIDE_STYLE('',(#442));
#332=EDGE_LOOP('',(#443,#444,#445));
#333=AXIS2_PLACEMENT_3D('',#446,#447,#448);
#334=PRE_DEFINED_MARKER('');
#335=COLOUR_RGB('',0.800000011920929,0.800000011920929,0.800000011920929);
#336=DRAUGHTING_PRE_DEFINED_CURVE_FONT('continuous');
#337=COLOUR_RGB('',0.800000011920929,0.800000011920929,0.800000011920929);
#338=CARTESIAN_POINT('',(-1.675,-2.05121564265248E-016,-174.39034986));
#339=VECTOR('',#449,1.0);
#340=DRAUGHTING_PRE_DEFINED_CURVE_FONT('continuous');
#341=COLOUR_RGB('',0.498039215803146,0.498039215803146,0.498039215803146);
#342=CARTESIAN_POINT('',(4.65350414452503E-016,-3.8,-0.200000000000003));
#343=VECTOR('',#450,1.0);
#344=PRE_DEFINED_MARKER('');
#345=COLOUR_RGB('',0.498039215803146,0.498039215803146,0.498039215803146);
#346=DRAUGHTING_PRE_DEFINED_CURVE_FONT('continuous');
#347=COLOUR_RGB('',0.800000011920929,0.800000011920929,0.800000011920929);
#348=AXIS2_PLACEMENT_3D('',#451,#452,#453);
#349=DRAUGHTING_PRE_DEFINED_CURVE_FONT('continuous');
#350=COLOUR_RGB('',0.498039215803146,0.498039215803146,0.498039215803146);
#351=CARTESIAN_POINT('',(-4.65350414452503E-016,3.8,-0.200000000000003));
#352=VECTOR('',#454,1.0);
#353=SURFACE_SIDE_STYLE('',(#455));
#354=EDGE_LOOP('',(#456,#457,#458,#459));
#355=AXIS2_PLACEMENT_3D('',#460,#461,#462);
#356=SURFACE_SIDE_STYLE('',(#463));
#357=EDGE_LOOP('',(#464,#465,#466,#467));
#358=AXIS2_PLACEMENT_3D('',#468,#469,#470);
#359=SURFACE_SIDE_STYLE('',(#471));
#360=EDGE_LOOP('',(#472,#473,#474,#475));
#361=AXIS2_PLACEMENT_3D('',#476,#477,#478);
#362=DRAUGHTING_PRE_DEFINED_CURVE_FONT('continuous');
#363=COLOUR_RGB('',0.498039215803146,0.498039215803146,0.498039215803146);
#364=AXIS2_PLACEMENT_3D('',#479,#480,#481);
#365=SURFACE_SIDE_STYLE('',(#482));
#366=EDGE_LOOP('',(#483,#484,#485,#486));
#367=AXIS2_PLACEMENT_3D('',#487,#488,#489);
#368=DRAUGHTING_PRE_DEFINED_CURVE_FONT('continuous');
#369=COLOUR_RGB('',0.800000011920929,0.800000011920929,0.800000011920929);
#370=AXIS2_PLACEMENT_3D('',#490,#491,#492);
#371=SURFACE_SIDE_STYLE('',(#493));
#372=EDGE_LOOP('',(#494,#495));
#373=AXIS2_PLACEMENT_3D('',#496,#497,#498);
#374=PRE_DEFINED_MARKER('');
#375=COLOUR_RGB('',0.800000011920929,0.800000011920929,0.800000011920929);
#376=DRAUGHTING_PRE_DEFINED_CURVE_FONT('continuous');
#377=COLOUR_RGB('',0.800000011920929,0.800000011920929,0.800000011920929);
#378=CARTESIAN_POINT('',(-3.3505,-4.10304358848188E-016,-121.09034986));
#379=VECTOR('',#499,1.0);
#380=SURFACE_SIDE_STYLE('',(#500));
#381=EDGE_LOOP('',(#501,#502,#503));
#382=AXIS2_PLACEMENT_3D('',#504,#505,#506);
#383=PRE_DEFINED_MARKER('');
#384=COLOUR_RGB('',0.800000011920929,0.800000011920929,0.800000011920929);
#385=DRAUGHTING_PRE_DEFINED_CURVE_FONT('continuous');
#386=COLOUR_RGB('',0.498039215803146,0.498039215803146,0.498039215803146);
#387=AXIS2_PLACEMENT_3D('',#507,#508,#509);
#388=SURFACE_SIDE_STYLE('',(#510));
#389=EDGE_LOOP('',(#511,#512));
#390=AXIS2_PLACEMENT_3D('',#513,#514,#515);
#391=DRAUGHTING_PRE_DEFINED_CURVE_FONT('continuous');
#392=COLOUR_RGB('',0.498039215803146,0.498039215803146,0.498039215803146);
#393=CARTESIAN_POINT('',(-4.89842541528951E-016,4.0,-22.7));
#394=VECTOR('',#516,1.0);
#395=PRE_DEFINED_MARKER('');
#396=COLOUR_RGB('',0.498039215803146,0.498039215803146,0.498039215803146);
#397=SURFACE_SIDE_STYLE('',(#517));
#398=EDGE_LOOP('',(#518,#519));
#399=AXIS2_PLACEMENT_3D('',#520,#521,#522);
#400=PRE_DEFINED_MARKER('');
#401=COLOUR_RGB('',0.498039215803146,0.498039215803146,0.498039215803146);
#403=DIRECTION('',(0.9396926212179,1.15075355458344E-016,0.342020142138782));
#404=SURFACE_STYLE_FILL_AREA(#523);
#405=CARTESIAN_POINT('',(0.0,0.0,-68.4));
#406=DIRECTION('',(0.0,0.0,-1.0));
#407=DIRECTION('',(-1.0,0.0,0.0));
#408=DIRECTION('',(9.48940368219132E-006,1.1620784043197E-021,0.999999999954976));
#409=CARTESIAN_POINT('',(0.0,0.0,-45.0));
#410=DIRECTION('',(0.0,0.0,-1.0));
#411=DIRECTION('',(0.0,1.0,0.0));
#412=SURFACE_STYLE_FILL_AREA(#524);
#413=SURFACE_STYLE_FILL_AREA(#525);
#414=ORIENTED_EDGE('',*,*,#151,.F.);
#415=ORIENTED_EDGE('',*,*,#95,.T.);
#416=ORIENTED_EDGE('',*,*,#103,.F.);
#417=ORIENTED_EDGE('',*,*,#105,.F.);
#418=CARTESIAN_POINT('',(0.0,0.0,-22.7));
#419=DIRECTION('',(-0.0,-0.0,1.0));
#420=DIRECTION('',(0.0,1.0,0.0));
#421=CARTESIAN_POINT('',(0.0,0.0,-0.400000000000006));
#422=DIRECTION('',(0.0,0.0,-1.0));
#423=DIRECTION('',(0.0,1.0,0.0));
#424=CARTESIAN_POINT('',(0.0,0.0,-173.78069972));
#425=DIRECTION('',(0.0,0.0,-1.0));
#426=DIRECTION('',(-1.0,0.0,0.0));
#427=CARTESIAN_POINT('',(0.0,0.0,-7.105427357601E-015));
#428=DIRECTION('',(0.0,0.0,-1.0));
#429=DIRECTION('',(0.0,1.0,0.0));
#430=SURFACE_STYLE_FILL_AREA(#526);
#431=ORIENTED_EDGE('',*,*,#123,.F.);
#432=ORIENTED_EDGE('',*,*,#147,.T.);
#433=ORIENTED_EDGE('',*,*,#117,.F.);
#434=ORIENTED_EDGE('',*,*,#95,.F.);
#435=CARTESIAN_POINT('',(0.0,0.0,-0.200000000000003));
#436=DIRECTION('',(0.0,-0.0,-1.0));
#437=DIRECTION('',(0.0,1.0,0.0));
#438=DIRECTION('',(-0.0,-0.0,1.0));
#439=CARTESIAN_POINT('',(0.0,0.0,-45.0));
#440=DIRECTION('',(0.0,0.0,-1.0));
#441=DIRECTION('',(0.0,1.0,0.0));
#442=SURFACE_STYLE_FILL_AREA(#527);
#443=ORIENTED_EDGE('',*,*,#77,.F.);
#444=ORIENTED_EDGE('',*,*,#115,.F.);
#445=ORIENTED_EDGE('',*,*,#121,.T.);
#446=CARTESIAN_POINT('',(0.0,0.0,-174.39034986));
#447=DIRECTION('',(-0.0,-0.0,1.0));
#448=DIRECTION('',(-1.0,0.0,0.0));
#449=DIRECTION('',(0.9396926212179,1.15075355458344E-016,-0.342020142138782));
#450=DIRECTION('',(-8.65927457071937E-017,0.707106781186549,0.707106781186546));
#451=CARTESIAN_POINT('',(0.0,0.0,-173.78069972));
#452=DIRECTION('',(0.0,0.0,-1.0));
#453=DIRECTION('',(-1.0,0.0,0.0));
#454=DIRECTION('',(-8.65927457071937E-017,0.707106781186549,-0.707106781186546));
#455=SURFACE_STYLE_FILL_AREA(#528);
#456=ORIENTED_EDGE('',*,*,#123,.T.);
#457=ORIENTED_EDGE('',*,*,#131,.F.);
#458=ORIENTED_EDGE('',*,*,#117,.T.);
#459=ORIENTED_EDGE('',*,*,#99,.T.);
#460=CARTESIAN_POINT('',(0.0,0.0,-0.200000000000003));
#461=DIRECTION('',(0.0,-0.0,-1.0));
#462=DIRECTION('',(0.0,1.0,0.0));
#463=SURFACE_STYLE_FILL_AREA(#529);
#464=ORIENTED_EDGE('',*,*,#141,.F.);
#465=ORIENTED_EDGE('',*,*,#81,.T.);
#466=ORIENTED_EDGE('',*,*,#87,.F.);
#467=ORIENTED_EDGE('',*,*,#121,.F.);
#468=CARTESIAN_POINT('',(0.0,0.0,-121.09034986));
#469=DIRECTION('',(-0.0,-0.0,1.0));
#470=DIRECTION('',(-1.0,0.0,0.0));
#471=SURFACE_STYLE_FILL_AREA(#530);
#472=ORIENTED_EDGE('',*,*,#151,.T.);
#473=ORIENTED_EDGE('',*,*,#89,.F.);
#474=ORIENTED_EDGE('',*,*,#103,.T.);
#475=ORIENTED_EDGE('',*,*,#131,.T.);
#476=CARTESIAN_POINT('',(0.0,0.0,-22.7));
#477=DIRECTION('',(-0.0,-0.0,1.0));
#478=DIRECTION('',(0.0,1.0,0.0));
#479=CARTESIAN_POINT('',(0.0,0.0,-0.400000000000006));
#480=DIRECTION('',(0.0,0.0,-1.0));
#481=DIRECTION('',(0.0,1.0,0.0));
#482=SURFACE_STYLE_FILL_AREA(#531);
#483=ORIENTED_EDGE('',*,*,#141,.T.);
#484=ORIENTED_EDGE('',*,*,#97,.F.);
#485=ORIENTED_EDGE('',*,*,#87,.T.);
#486=ORIENTED_EDGE('',*,*,#135,.T.);
#487=CARTESIAN_POINT('',(0.0,0.0,-121.09034986));
#488=DIRECTION('',(-0.0,-0.0,1.0));
#489=DIRECTION('',(-1.0,0.0,0.0));
#490=CARTESIAN_POINT('',(0.0,0.0,-68.4));
#491=DIRECTION('',(0.0,0.0,-1.0));
#492=DIRECTION('',(-1.0,0.0,0.0));
#493=SURFACE_STYLE_FILL_AREA(#532);
#494=ORIENTED_EDGE('',*,*,#81,.F.);
#495=ORIENTED_EDGE('',*,*,#135,.F.);
#496=CARTESIAN_POINT('',(-1.6755,0.0,-68.4));
#497=DIRECTION('',(0.0,0.0,1.0));
#498=DIRECTION('',(1.0,0.0,0.0));
#499=DIRECTION('',(9.48940368219132E-006,1.1620784043197E-021,-0.999999999954976));
#500=SURFACE_STYLE_FILL_AREA(#533);
#501=ORIENTED_EDGE('',*,*,#77,.T.);
#502=ORIENTED_EDGE('',*,*,#97,.T.);
#503=ORIENTED_EDGE('',*,*,#115,.T.);
#504=CARTESIAN_POINT('',(0.0,0.0,-174.39034986));
#505=DIRECTION('',(-0.0,-0.0,1.0));
#506=DIRECTION('',(-1.0,0.0,0.0));
#507=CARTESIAN_POINT('',(0.0,0.0,-7.105427357601E-015));
#508=DIRECTION('',(0.0,0.0,-1.0));
#509=DIRECTION('',(0.0,1.0,0.0));
#510=SURFACE_STYLE_FILL_AREA(#534);
#511=ORIENTED_EDGE('',*,*,#147,.F.);
#512=ORIENTED_EDGE('',*,*,#99,.F.);
#513=CARTESIAN_POINT('',(0.0,1.8,-7.105427357601E-015));
#514=DIRECTION('',(-0.0,0.0,1.0));
#515=DIRECTION('',(0.0,-1.0,0.0));
#516=DIRECTION('',(0.0,0.0,-1.0));
#517=SURFACE_STYLE_FILL_AREA(#535);
#518=ORIENTED_EDGE('',*,*,#105,.T.);
#519=ORIENTED_EDGE('',*,*,#89,.T.);
#520=CARTESIAN_POINT('',(0.0,2.0,-45.0));
#521=DIRECTION('',(0.0,0.0,-1.0));
#522=DIRECTION('',(0.0,1.0,0.0));
#523=FILL_AREA_STYLE('',(#536));
#524=FILL_AREA_STYLE('',(#537));
#525=FILL_AREA_STYLE('',(#538));
#526=FILL_AREA_STYLE('',(#539));
#527=FILL_AREA_STYLE('',(#540));
#528=FILL_AREA_STYLE('',(#541));
#529=FILL_AREA_STYLE('',(#542));
#530=FILL_AREA_STYLE('',(#543));
#531=FILL_AREA_STYLE('',(#544));
#532=FILL_AREA_STYLE('',(#545));
#533=FILL_AREA_STYLE('',(#546));
#534=FILL_AREA_STYLE('',(#547));
#535=FILL_AREA_STYLE('',(#548));
#536=FILL_AREA_STYLE_COLOUR('',#549);
#537=FILL_AREA_STYLE_COLOUR('',#550);
#538=FILL_AREA_STYLE_COLOUR('',#551);
#539=FILL_AREA_STYLE_COLOUR('',#552);
#540=FILL_AREA_STYLE_COLOUR('',#553);
#541=FILL_AREA_STYLE_COLOUR('',#554);
#542=FILL_AREA_STYLE_COLOUR('',#555);
#543=FILL_AREA_STYLE_COLOUR('',#556);
#544=FILL_AREA_STYLE_COLOUR('',#557);
#545=FILL_AREA_STYLE_COLOUR('',#558);
#546=FILL_AREA_STYLE_COLOUR('',#559);
#547=FILL_AREA_STYLE_COLOUR('',#560);
#548=FILL_AREA_STYLE_COLOUR('',#561);
#549=COLOUR_RGB('',0.498039215803146,0.498039215803146,0.498039215803146);
#550=COLOUR_RGB('',0.800000011920929,0.800000011920929,0.800000011920929);
#551=COLOUR_RGB('',0.498039215803146,0.498039215803146,0.498039215803146);
#552=COLOUR_RGB('',0.498039215803146,0.498039215803146,0.498039215803146);
#553=COLOUR_RGB('',0.800000011920929,0.800000011920929,0.800000011920929);
#554=COLOUR_RGB('',0.498039215803146,0.498039215803146,0.498039215803146);
#555=COLOUR_RGB('',0.800000011920929,0.800000011920929,0.800000011920929);
#556=COLOUR_RGB('',0.498039215803146,0.498039215803146,0.498039215803146);
#557=COLOUR_RGB('',0.800000011920929,0.800000011920929,0.800000011920929);
#558=COLOUR_RGB('',0.800000011920929,0.800000011920929,0.800000011920929);
#559=COLOUR_RGB('',0.800000011920929,0.800000011920929,0.800000011920929);
#560=COLOUR_RGB('',0.498039215803146,0.498039215803146,0.498039215803146);
#561=COLOUR_RGB('',0.498039215803146,0.498039215803146,0.498039215803146);
#562=AXIS2_PLACEMENT_3D('PCS',#563,#564,#565);
#563=CARTESIAN_POINT('',(0.0,0.0,0.0));
#564=DIRECTION('',(0.0,0.0,1.0));
#565=DIRECTION('',(1.0,0.0,0.0));
#566=AXIS2_PLACEMENT_3D('CIP',#567,#568,#569);
#567=CARTESIAN_POINT('',(0.0,0.0,-175.0));
#568=DIRECTION('',(0.0,0.0,1.0));
#569=DIRECTION('',(1.0,0.0,0.0));
#570=AXIS2_PLACEMENT_3D('CRP',#571,#572,#573);
#571=CARTESIAN_POINT('',(-3.35,0.0,-173.78069972));
#572=DIRECTION('',(0.0,0.0,1.0));
#573=DIRECTION('',(1.0,0.0,0.0));
#574=AXIS2_PLACEMENT_3D('MCS',#575,#576,#577);
#575=CARTESIAN_POINT('',(0.0,0.0,-46.4));
#576=DIRECTION('',(0.0,0.0,1.0));
#577=DIRECTION('',(1.0,0.0,0.0));
#578=CONSTRUCTIVE_GEOMETRY_REPRESENTATION_RELATIONSHIP('coordinate systems',$,#60,#579);
#579=CONSTRUCTIVE_GEOMETRY_REPRESENTATION('coordinate systems',(#562,#566,#570,#574),#10);
ENDSEC;
END-ISO-10303-21;
