ISO-10303-21;
HEADER;
FILE_DESCRIPTION(('no description'),'unknown implementation level');
FILE_NAME('EP01160400.stp','  ',('CIM GmbH Aachen'),('CADClick - KiM GmbH - www.kimweb.de'),'unknown preprocess','ACIS','unknown authorization');
FILE_SCHEMA(('automotive_design'));
ENDSEC;
DATA;
#1=MECHANICAL_DESIGN_GEOMETRIC_PRESENTATION_REPRESENTATION(' ',(#14,#15,#16,#17,#18,#19,#20,#21,#22,#23,#24,#25,#26,#27,#28,#29,#30,#31,#32,#33,#34,#35,#36,#37,#38,#39,#40,#41,#42,#43,#44,#45,#46,#47,#48,#49,#50,#51,#52,#53,#54,#55,#56,#57,#58,#59,#60,#61),#10);
#2=PRODUCT_DEFINITION_CONTEXT('',#62,'design');
#3=APPLICATION_PROTOCOL_DEFINITION('INTERNATIONAL STANDARD','automotive_design',1994,#62);
#4=PRODUCT_CATEGORY_RELATIONSHIP('NONE','NONE',#63,#64);
#5=SHAPE_DEFINITION_REPRESENTATION(#65,#66);
#6=PRODUCT_DEFINITION_CONTEXT('',#67,'design');
#7=APPLICATION_PROTOCOL_DEFINITION('INTERNATIONAL STANDARD','automotive_design',1994,#67);
#8=PRODUCT_CATEGORY_RELATIONSHIP('NONE','NONE',#68,#69);
#9=SHAPE_DEFINITION_REPRESENTATION(#70,#71);
#10= (GEOMETRIC_REPRESENTATION_CONTEXT(3)GLOBAL_UNCERTAINTY_ASSIGNED_CONTEXT((#74))GLOBAL_UNIT_ASSIGNED_CONTEXT((#76,#77,#78))REPRESENTATION_CONTEXT('NONE','WORKSPACE'));
#14=STYLED_ITEM('',(#80),#81);
#15=STYLED_ITEM('',(#82),#83);
#16=STYLED_ITEM('',(#84),#85);
#17=STYLED_ITEM('',(#86),#87);
#18=STYLED_ITEM('',(#88),#89);
#19=STYLED_ITEM('',(#90),#91);
#20=STYLED_ITEM('',(#92),#93);
#21=STYLED_ITEM('',(#94),#95);
#22=STYLED_ITEM('',(#96),#97);
#23=STYLED_ITEM('',(#98),#99);
#24=STYLED_ITEM('',(#100),#101);
#25=STYLED_ITEM('',(#102),#103);
#26=STYLED_ITEM('',(#104),#105);
#27=STYLED_ITEM('',(#106),#107);
#28=STYLED_ITEM('',(#108),#109);
#29=STYLED_ITEM('',(#110),#111);
#30=STYLED_ITEM('',(#112),#113);
#31=STYLED_ITEM('',(#114),#115);
#32=STYLED_ITEM('',(#116),#117);
#33=STYLED_ITEM('',(#118),#119);
#34=STYLED_ITEM('',(#120),#121);
#35=STYLED_ITEM('',(#122),#123);
#36=STYLED_ITEM('',(#124),#125);
#37=STYLED_ITEM('',(#126),#127);
#38=STYLED_ITEM('',(#128),#129);
#39=STYLED_ITEM('',(#130),#131);
#40=STYLED_ITEM('',(#132),#133);
#41=STYLED_ITEM('',(#134),#135);
#42=STYLED_ITEM('',(#136),#137);
#43=STYLED_ITEM('',(#138),#139);
#44=STYLED_ITEM('',(#140),#141);
#45=STYLED_ITEM('',(#142),#143);
#46=STYLED_ITEM('',(#144),#145);
#47=STYLED_ITEM('',(#146),#147);
#48=STYLED_ITEM('',(#148),#149);
#49=STYLED_ITEM('',(#150),#151);
#50=STYLED_ITEM('',(#152),#153);
#51=STYLED_ITEM('',(#154),#155);
#52=STYLED_ITEM('',(#156),#157);
#53=STYLED_ITEM('',(#158),#159);
#54=STYLED_ITEM('',(#160),#161);
#55=STYLED_ITEM('',(#162),#163);
#56=STYLED_ITEM('',(#164),#165);
#57=STYLED_ITEM('',(#166),#167);
#58=STYLED_ITEM('',(#168),#169);
#59=STYLED_ITEM('',(#170),#171);
#60=STYLED_ITEM('',(#172),#173);
#61=STYLED_ITEM('',(#174),#175);
#62=APPLICATION_CONTEXT(' ');
#63=PRODUCT_CATEGORY('part','NONE');
#64=PRODUCT_RELATED_PRODUCT_CATEGORY('detail',' ',(#176));
#65=PRODUCT_DEFINITION_SHAPE('NONE','NONE',#177);
#66=ADVANCED_BREP_SHAPE_REPRESENTATION('1',(#173,#178),#10);
#67=APPLICATION_CONTEXT(' ');
#68=PRODUCT_CATEGORY('part','NONE');
#69=PRODUCT_RELATED_PRODUCT_CATEGORY('detail',' ',(#179));
#70=PRODUCT_DEFINITION_SHAPE('NONE','NONE',#180);
#71=ADVANCED_BREP_SHAPE_REPRESENTATION('2',(#141,#181),#10);
#74=UNCERTAINTY_MEASURE_WITH_UNIT(LENGTH_MEASURE(1.0E-006),#76,'','');
#76= (CONVERSION_BASED_UNIT('MILLIMETRE',#184)LENGTH_UNIT()NAMED_UNIT(#187));
#77= (NAMED_UNIT(#189)PLANE_ANGLE_UNIT()SI_UNIT($,.RADIAN.));
#78= (NAMED_UNIT(#189)SOLID_ANGLE_UNIT()SI_UNIT($,.STERADIAN.));
#80=PRESENTATION_STYLE_ASSIGNMENT((#195));
#81=ADVANCED_FACE('',(#196),#197,.T.);
#82=PRESENTATION_STYLE_ASSIGNMENT((#198));
#83=EDGE_CURVE('',#147,#131,#199,.T.);
#84=PRESENTATION_STYLE_ASSIGNMENT((#200));
#85=VERTEX_POINT('',#201);
#86=PRESENTATION_STYLE_ASSIGNMENT((#202));
#87=EDGE_CURVE('',#85,#151,#203,.T.);
#88=PRESENTATION_STYLE_ASSIGNMENT((#204));
#89=VERTEX_POINT('',#205);
#90=PRESENTATION_STYLE_ASSIGNMENT((#206));
#91=ADVANCED_FACE('',(#207),#208,.T.);
#92=PRESENTATION_STYLE_ASSIGNMENT((#209));
#93=EDGE_CURVE('',#119,#125,#210,.T.);
#94=PRESENTATION_STYLE_ASSIGNMENT((#211));
#95=ADVANCED_FACE('',(#212),#213,.T.);
#96=PRESENTATION_STYLE_ASSIGNMENT((#214));
#97=EDGE_CURVE('',#89,#133,#215,.T.);
#98=PRESENTATION_STYLE_ASSIGNMENT((#216));
#99=EDGE_CURVE('',#85,#89,#217,.T.);
#100=PRESENTATION_STYLE_ASSIGNMENT((#218));
#101=VERTEX_POINT('',#219);
#102=PRESENTATION_STYLE_ASSIGNMENT((#220));
#103=EDGE_CURVE('',#161,#153,#221,.T.);
#104=PRESENTATION_STYLE_ASSIGNMENT((#222));
#105=EDGE_CURVE('',#169,#161,#223,.T.);
#106=PRESENTATION_STYLE_ASSIGNMENT((#224));
#107=ADVANCED_FACE('',(#225),#226,.T.);
#108=PRESENTATION_STYLE_ASSIGNMENT((#227));
#109=EDGE_CURVE('',#131,#89,#228,.T.);
#110=PRESENTATION_STYLE_ASSIGNMENT((#229));
#111=ADVANCED_FACE('',(#230),#231,.T.);
#112=PRESENTATION_STYLE_ASSIGNMENT((#232));
#113=VERTEX_POINT('',#233);
#114=PRESENTATION_STYLE_ASSIGNMENT((#234));
#115=EDGE_CURVE('',#151,#85,#235,.T.);
#116=PRESENTATION_STYLE_ASSIGNMENT((#236));
#117=EDGE_CURVE('',#133,#135,#237,.T.);
#118=PRESENTATION_STYLE_ASSIGNMENT((#238));
#119=VERTEX_POINT('',#239);
#120=PRESENTATION_STYLE_ASSIGNMENT((#240));
#121=EDGE_CURVE('',#161,#113,#241,.T.);
#122=PRESENTATION_STYLE_ASSIGNMENT((#242));
#123=ADVANCED_FACE('',(#243),#244,.T.);
#124=PRESENTATION_STYLE_ASSIGNMENT((#245));
#125=VERTEX_POINT('',#246);
#126=PRESENTATION_STYLE_ASSIGNMENT((#247));
#127=EDGE_CURVE('',#153,#125,#248,.T.);
#128=PRESENTATION_STYLE_ASSIGNMENT((#249));
#129=ADVANCED_FACE('',(#250),#251,.T.);
#130=PRESENTATION_STYLE_ASSIGNMENT((#252));
#131=VERTEX_POINT('',#253);
#132=PRESENTATION_STYLE_ASSIGNMENT((#254));
#133=VERTEX_POINT('',#255);
#134=PRESENTATION_STYLE_ASSIGNMENT((#256));
#135=VERTEX_POINT('',#257);
#136=PRESENTATION_STYLE_ASSIGNMENT((#258));
#137=EDGE_CURVE('',#133,#101,#259,.T.);
#138=PRESENTATION_STYLE_ASSIGNMENT((#260));
#139=ADVANCED_FACE('',(#261),#262,.T.);
#140=PRESENTATION_STYLE_ASSIGNMENT((#263));
#141=MANIFOLD_SOLID_BREP('2',#264);
#142=PRESENTATION_STYLE_ASSIGNMENT((#265));
#143=ADVANCED_FACE('',(#266),#267,.T.);
#144=PRESENTATION_STYLE_ASSIGNMENT((#268));
#145=EDGE_CURVE('',#147,#101,#269,.T.);
#146=PRESENTATION_STYLE_ASSIGNMENT((#270));
#147=VERTEX_POINT('',#271);
#148=PRESENTATION_STYLE_ASSIGNMENT((#272));
#149=EDGE_CURVE('',#101,#147,#273,.T.);
#150=PRESENTATION_STYLE_ASSIGNMENT((#274));
#151=VERTEX_POINT('',#275);
#152=PRESENTATION_STYLE_ASSIGNMENT((#276));
#153=VERTEX_POINT('',#277);
#154=PRESENTATION_STYLE_ASSIGNMENT((#278));
#155=EDGE_CURVE('',#113,#169,#279,.T.);
#156=PRESENTATION_STYLE_ASSIGNMENT((#280));
#157=EDGE_CURVE('',#153,#113,#281,.T.);
#158=PRESENTATION_STYLE_ASSIGNMENT((#282));
#159=EDGE_CURVE('',#125,#119,#283,.T.);
#160=PRESENTATION_STYLE_ASSIGNMENT((#284));
#161=VERTEX_POINT('',#285);
#162=PRESENTATION_STYLE_ASSIGNMENT((#286));
#163=EDGE_CURVE('',#135,#131,#287,.T.);
#164=PRESENTATION_STYLE_ASSIGNMENT((#288));
#165=EDGE_CURVE('',#119,#169,#289,.T.);
#166=PRESENTATION_STYLE_ASSIGNMENT((#290));
#167=EDGE_CURVE('',#135,#151,#291,.T.);
#168=PRESENTATION_STYLE_ASSIGNMENT((#292));
#169=VERTEX_POINT('',#293);
#170=PRESENTATION_STYLE_ASSIGNMENT((#294));
#171=ADVANCED_FACE('',(#295),#296,.T.);
#172=PRESENTATION_STYLE_ASSIGNMENT((#297));
#173=MANIFOLD_SOLID_BREP('1',#298);
#174=PRESENTATION_STYLE_ASSIGNMENT((#299));
#175=ADVANCED_FACE('',(#300),#301,.T.);
#176=PRODUCT('1','1','PART-1-DESC',(#302));
#177=PRODUCT_DEFINITION('NONE','NONE',#303,#2);
#178=AXIS2_PLACEMENT_3D('',#304,#305,#306);
#179=PRODUCT('2','2','PART-2-DESC',(#307));
#180=PRODUCT_DEFINITION('NONE','NONE',#308,#6);
#181=AXIS2_PLACEMENT_3D('',#309,#310,#311);
#184=LENGTH_MEASURE_WITH_UNIT(LENGTH_MEASURE(1.0),#312);
#187=DIMENSIONAL_EXPONENTS(1.0,0.0,0.0,0.0,0.0,0.0,0.0);
#189=DIMENSIONAL_EXPONENTS(0.0,0.0,0.0,0.0,0.0,0.0,0.0);
#195=SURFACE_STYLE_USAGE(.BOTH.,#313);
#196=FACE_OUTER_BOUND('',#314,.T.);
#197=CONICAL_SURFACE('',#315,1.85,0.785398163397447);
#198=CURVE_STYLE('',#316,POSITIVE_LENGTH_MEASURE(1.0E-006),#317);
#199=LINE('',#318,#319);
#200=POINT_STYLE(' ',#320,POSITIVE_LENGTH_MEASURE(1.0E-006),#321);
#201=CARTESIAN_POINT('',(2.0,2.44921270764475E-016,-45.0));
#202=CURVE_STYLE('',#322,POSITIVE_LENGTH_MEASURE(1.0E-006),#323);
#203=CIRCLE('',#324,2.0);
#204=POINT_STYLE(' ',#325,POSITIVE_LENGTH_MEASURE(1.0E-006),#326);
#205=CARTESIAN_POINT('',(2.0,2.44921270764475E-016,-0.300000000000001));
#206=SURFACE_STYLE_USAGE(.BOTH.,#327);
#207=FACE_OUTER_BOUND('',#328,.T.);
#208=PLANE('',#329);
#209=CURVE_STYLE('',#330,POSITIVE_LENGTH_MEASURE(1.0E-006),#331);
#210=CIRCLE('',#332,2.0);
#211=SURFACE_STYLE_USAGE(.BOTH.,#333);
#212=FACE_OUTER_BOUND('',#334,.T.);
#213=CYLINDRICAL_SURFACE('',#335,2.0);
#214=CURVE_STYLE('',#336,POSITIVE_LENGTH_MEASURE(1.0E-006),#337);
#215=CIRCLE('',#338,2.0);
#216=CURVE_STYLE('',#339,POSITIVE_LENGTH_MEASURE(1.0E-006),#340);
#217=LINE('',#341,#342);
#218=POINT_STYLE(' ',#343,POSITIVE_LENGTH_MEASURE(1.0E-006),#344);
#219=CARTESIAN_POINT('',(2.08183080149804E-016,-1.7,0.0));
#220=CURVE_STYLE('',#345,POSITIVE_LENGTH_MEASURE(1.0E-006),#346);
#221=CIRCLE('',#347,2.0);
#222=CURVE_STYLE('',#348,POSITIVE_LENGTH_MEASURE(1.0E-006),#349);
#223=CIRCLE('',#350,2.0);
#224=SURFACE_STYLE_USAGE(.BOTH.,#351);
#225=FACE_OUTER_BOUND('',#352,.T.);
#226=CYLINDRICAL_SURFACE('',#353,2.0);
#227=CURVE_STYLE('',#354,POSITIVE_LENGTH_MEASURE(1.0E-006),#355);
#228=CIRCLE('',#356,2.0);
#229=SURFACE_STYLE_USAGE(.BOTH.,#357);
#230=FACE_OUTER_BOUND('',#358,.T.);
#231=SPHERICAL_SURFACE('',#359,2.0);
#232=POINT_STYLE(' ',#360,POSITIVE_LENGTH_MEASURE(1.0E-006),#361);
#233=CARTESIAN_POINT('',(0.0,2.0,-48.0));
#234=CURVE_STYLE('',#362,POSITIVE_LENGTH_MEASURE(1.0E-006),#363);
#235=CIRCLE('',#364,2.0);
#236=CURVE_STYLE('',#365,POSITIVE_LENGTH_MEASURE(1.0E-006),#366);
#237=CIRCLE('',#367,2.0);
#238=POINT_STYLE(' ',#368,POSITIVE_LENGTH_MEASURE(1.0E-006),#369);
#239=CARTESIAN_POINT('',(1.0,1.73205080756888,-45.0));
#240=CURVE_STYLE('',#370,POSITIVE_LENGTH_MEASURE(1.0E-006),#371);
#241=CIRCLE('',#372,2.0);
#242=SURFACE_STYLE_USAGE(.BOTH.,#373);
#243=FACE_OUTER_BOUND('',#374,.T.);
#244=PLANE('',#375);
#245=POINT_STYLE(' ',#376,POSITIVE_LENGTH_MEASURE(1.0E-006),#377);
#246=CARTESIAN_POINT('',(-0.999999999999999,-1.73205080756888,-45.0));
#247=CURVE_STYLE('',#378,POSITIVE_LENGTH_MEASURE(1.0E-006),#379);
#248=LINE('',#380,#381);
#249=SURFACE_STYLE_USAGE(.BOTH.,#382);
#250=FACE_OUTER_BOUND('',#383,.T.);
#251=CONICAL_SURFACE('',#384,1.85,0.785398163397447);
#252=POINT_STYLE(' ',#385,POSITIVE_LENGTH_MEASURE(1.0E-006),#386);
#253=CARTESIAN_POINT('',(0.0,2.0,-0.300000000000001));
#254=POINT_STYLE(' ',#387,POSITIVE_LENGTH_MEASURE(1.0E-006),#388);
#255=CARTESIAN_POINT('',(2.44921270764475E-016,-2.0,-0.300000000000001));
#256=POINT_STYLE(' ',#389,POSITIVE_LENGTH_MEASURE(1.0E-006),#390);
#257=CARTESIAN_POINT('',(-2.0,-2.44921270764475E-016,-0.300000000000001));
#258=CURVE_STYLE('',#391,POSITIVE_LENGTH_MEASURE(1.0E-006),#392);
#259=LINE('',#393,#394);
#260=SURFACE_STYLE_USAGE(.BOTH.,#395);
#261=FACE_OUTER_BOUND('',#396,.T.);
#262=SPHERICAL_SURFACE('',#397,2.0);
#263=SURFACE_STYLE_USAGE(.BOTH.,#398);
#264=CLOSED_SHELL('',(#107,#111,#139,#91,#95));
#265=SURFACE_STYLE_USAGE(.BOTH.,#399);
#266=FACE_OUTER_BOUND('',#400,.T.);
#267=CYLINDRICAL_SURFACE('',#401,2.0);
#268=CURVE_STYLE('',#402,POSITIVE_LENGTH_MEASURE(1.0E-006),#403);
#269=CIRCLE('',#404,1.7);
#270=POINT_STYLE(' ',#405,POSITIVE_LENGTH_MEASURE(1.0E-006),#406);
#271=CARTESIAN_POINT('',(0.0,1.7,0.0));
#272=CURVE_STYLE('',#407,POSITIVE_LENGTH_MEASURE(1.0E-006),#408);
#273=CIRCLE('',#409,1.7);
#274=POINT_STYLE(' ',#410,POSITIVE_LENGTH_MEASURE(1.0E-006),#411);
#275=CARTESIAN_POINT('',(-2.0,0.0,-45.0));
#276=POINT_STYLE(' ',#412,POSITIVE_LENGTH_MEASURE(1.0E-006),#413);
#277=CARTESIAN_POINT('',(-0.999999999999999,-1.73205080756888,-48.0));
#278=CURVE_STYLE('',#414,POSITIVE_LENGTH_MEASURE(1.0E-006),#415);
#279=CIRCLE('',#416,2.0);
#280=CURVE_STYLE('',#417,POSITIVE_LENGTH_MEASURE(1.0E-006),#418);
#281=CIRCLE('',#419,2.0);
#282=CURVE_STYLE('',#420,POSITIVE_LENGTH_MEASURE(1.0E-006),#421);
#283=CIRCLE('',#422,2.0);
#284=POINT_STYLE(' ',#423,POSITIVE_LENGTH_MEASURE(1.0E-006),#424);
#285=CARTESIAN_POINT('',(0.0,-2.0,-48.0));
#286=CURVE_STYLE('',#425,POSITIVE_LENGTH_MEASURE(1.0E-006),#426);
#287=CIRCLE('',#427,2.0);
#288=CURVE_STYLE('',#428,POSITIVE_LENGTH_MEASURE(1.0E-006),#429);
#289=LINE('',#430,#431);
#290=CURVE_STYLE('',#432,POSITIVE_LENGTH_MEASURE(1.0E-006),#433);
#291=LINE('',#434,#435);
#292=POINT_STYLE(' ',#436,POSITIVE_LENGTH_MEASURE(1.0E-006),#437);
#293=CARTESIAN_POINT('',(1.0,1.73205080756888,-48.0));
#294=SURFACE_STYLE_USAGE(.BOTH.,#438);
#295=FACE_OUTER_BOUND('',#439,.T.);
#296=PLANE('',#440);
#297=SURFACE_STYLE_USAGE(.BOTH.,#441);
#298=CLOSED_SHELL('',(#143,#129,#171,#81,#175,#123));
#299=SURFACE_STYLE_USAGE(.BOTH.,#442);
#300=FACE_OUTER_BOUND('',#443,.T.);
#301=CYLINDRICAL_SURFACE('',#444,2.0);
#302=PRODUCT_CONTEXT('',#62,'mechanical');
#303=PRODUCT_DEFINITION_FORMATION_WITH_SPECIFIED_SOURCE(' ','NONE',#176,.NOT_KNOWN.);
#304=CARTESIAN_POINT('',(0.0,0.0,0.0));
#305=DIRECTION('',(0.0,0.0,1.0));
#306=DIRECTION('',(1.0,0.0,0.0));
#307=PRODUCT_CONTEXT('',#67,'mechanical');
#308=PRODUCT_DEFINITION_FORMATION_WITH_SPECIFIED_SOURCE(' ','NONE',#179,.NOT_KNOWN.);
#309=CARTESIAN_POINT('',(0.0,0.0,0.0));
#310=DIRECTION('',(0.0,0.0,1.0));
#311=DIRECTION('',(1.0,0.0,0.0));
#312= (NAMED_UNIT(#187)LENGTH_UNIT()SI_UNIT(.MILLI.,.METRE.));
#313=SURFACE_SIDE_STYLE('',(#446));
#314=EDGE_LOOP('',(#447,#448,#449,#450,#451));
#315=AXIS2_PLACEMENT_3D('',#452,#453,#454);
#316=DRAUGHTING_PRE_DEFINED_CURVE_FONT('continuous');
#317=COLOUR_RGB('',0.498039215803146,0.498039215803146,0.498039215803146);
#318=CARTESIAN_POINT('',(-2.2655217545714E-016,1.85,-0.150000000000002));
#319=VECTOR('',#455,1.0);
#320=PRE_DEFINED_MARKER('');
#321=COLOUR_RGB('',0.498039215803146,0.498039215803146,0.498039215803146);
#322=DRAUGHTING_PRE_DEFINED_CURVE_FONT('continuous');
#323=COLOUR_RGB('',0.498039215803146,0.498039215803146,0.498039215803146);
#324=AXIS2_PLACEMENT_3D('',#456,#457,#458);
#325=PRE_DEFINED_MARKER('');
#326=COLOUR_RGB('',0.498039215803146,0.498039215803146,0.498039215803146);
#327=SURFACE_SIDE_STYLE('',(#459));
#328=EDGE_LOOP('',(#460,#461));
#329=AXIS2_PLACEMENT_3D('',#462,#463,#464);
#330=DRAUGHTING_PRE_DEFINED_CURVE_FONT('continuous');
#331=COLOUR_RGB('',0.800000011920929,0.800000011920929,0.800000011920929);
#332=AXIS2_PLACEMENT_3D('',#465,#466,#467);
#333=SURFACE_SIDE_STYLE('',(#468));
#334=EDGE_LOOP('',(#469,#470,#471,#472,#473));
#335=AXIS2_PLACEMENT_3D('',#474,#475,#476);
#336=DRAUGHTING_PRE_DEFINED_CURVE_FONT('continuous');
#337=COLOUR_RGB('',0.498039215803146,0.498039215803146,0.498039215803146);
#338=AXIS2_PLACEMENT_3D('',#477,#478,#479);
#339=DRAUGHTING_PRE_DEFINED_CURVE_FONT('continuous');
#340=COLOUR_RGB('',0.498039215803146,0.498039215803146,0.498039215803146);
#341=CARTESIAN_POINT('',(2.0,2.44921270764475E-016,-41.5));
#342=VECTOR('',#480,1.0);
#343=PRE_DEFINED_MARKER('');
#344=COLOUR_RGB('',0.498039215803146,0.498039215803146,0.498039215803146);
#345=DRAUGHTING_PRE_DEFINED_CURVE_FONT('continuous');
#346=COLOUR_RGB('',0.800000011920929,0.800000011920929,0.800000011920929);
#347=AXIS2_PLACEMENT_3D('',#481,#482,#483);
#348=DRAUGHTING_PRE_DEFINED_CURVE_FONT('continuous');
#349=COLOUR_RGB('',0.800000011920929,0.800000011920929,0.800000011920929);
#350=AXIS2_PLACEMENT_3D('',#484,#485,#486);
#351=SURFACE_SIDE_STYLE('',(#487));
#352=EDGE_LOOP('',(#488,#489,#490,#491,#492));
#353=AXIS2_PLACEMENT_3D('',#493,#494,#495);
#354=DRAUGHTING_PRE_DEFINED_CURVE_FONT('continuous');
#355=COLOUR_RGB('',0.498039215803146,0.498039215803146,0.498039215803146);
#356=AXIS2_PLACEMENT_3D('',#496,#497,#498);
#357=SURFACE_SIDE_STYLE('',(#499));
#358=EDGE_LOOP('',(#500,#501,#502));
#359=AXIS2_PLACEMENT_3D('',#503,#504,#505);
#360=PRE_DEFINED_MARKER('');
#361=COLOUR_RGB('',0.800000011920929,0.800000011920929,0.800000011920929);
#362=DRAUGHTING_PRE_DEFINED_CURVE_FONT('continuous');
#363=COLOUR_RGB('',0.498039215803146,0.498039215803146,0.498039215803146);
#364=AXIS2_PLACEMENT_3D('',#506,#507,#508);
#365=DRAUGHTING_PRE_DEFINED_CURVE_FONT('continuous');
#366=COLOUR_RGB('',0.498039215803146,0.498039215803146,0.498039215803146);
#367=AXIS2_PLACEMENT_3D('',#509,#510,#511);
#368=PRE_DEFINED_MARKER('');
#369=COLOUR_RGB('',0.800000011920929,0.800000011920929,0.800000011920929);
#370=DRAUGHTING_PRE_DEFINED_CURVE_FONT('continuous');
#371=COLOUR_RGB('',0.800000011920929,0.800000011920929,0.800000011920929);
#372=AXIS2_PLACEMENT_3D('',#512,#513,#514);
#373=SURFACE_SIDE_STYLE('',(#515));
#374=EDGE_LOOP('',(#516,#517));
#375=AXIS2_PLACEMENT_3D('',#518,#519,#520);
#376=PRE_DEFINED_MARKER('');
#377=COLOUR_RGB('',0.800000011920929,0.800000011920929,0.800000011920929);
#378=DRAUGHTING_PRE_DEFINED_CURVE_FONT('continuous');
#379=COLOUR_RGB('',0.800000011920929,0.800000011920929,0.800000011920929);
#380=CARTESIAN_POINT('',(-0.999999999999999,-1.73205080756888,-46.5));
#381=VECTOR('',#521,1.0);
#382=SURFACE_SIDE_STYLE('',(#522));
#383=EDGE_LOOP('',(#523,#524,#525,#526,#527));
#384=AXIS2_PLACEMENT_3D('',#528,#529,#530);
#385=PRE_DEFINED_MARKER('');
#386=COLOUR_RGB('',0.498039215803146,0.498039215803146,0.498039215803146);
#387=PRE_DEFINED_MARKER('');
#388=COLOUR_RGB('',0.498039215803146,0.498039215803146,0.498039215803146);
#389=PRE_DEFINED_MARKER('');
#390=COLOUR_RGB('',0.498039215803146,0.498039215803146,0.498039215803146);
#391=DRAUGHTING_PRE_DEFINED_CURVE_FONT('continuous');
#392=COLOUR_RGB('',0.498039215803146,0.498039215803146,0.498039215803146);
#393=CARTESIAN_POINT('',(2.2655217545714E-016,-1.85,-0.150000000000002));
#394=VECTOR('',#531,1.0);
#395=SURFACE_SIDE_STYLE('',(#532));
#396=EDGE_LOOP('',(#533,#534,#535));
#397=AXIS2_PLACEMENT_3D('',#536,#537,#538);
#398=SURFACE_SIDE_STYLE('',(#539));
#399=SURFACE_SIDE_STYLE('',(#540));
#400=EDGE_LOOP('',(#541,#542,#543,#544,#545));
#401=AXIS2_PLACEMENT_3D('',#546,#547,#548);
#402=DRAUGHTING_PRE_DEFINED_CURVE_FONT('continuous');
#403=COLOUR_RGB('',0.498039215803146,0.498039215803146,0.498039215803146);
#404=AXIS2_PLACEMENT_3D('',#549,#550,#551);
#405=PRE_DEFINED_MARKER('');
#406=COLOUR_RGB('',0.498039215803146,0.498039215803146,0.498039215803146);
#407=DRAUGHTING_PRE_DEFINED_CURVE_FONT('continuous');
#408=COLOUR_RGB('',0.498039215803146,0.498039215803146,0.498039215803146);
#409=AXIS2_PLACEMENT_3D('',#552,#553,#554);
#410=PRE_DEFINED_MARKER('');
#411=COLOUR_RGB('',0.498039215803146,0.498039215803146,0.498039215803146);
#412=PRE_DEFINED_MARKER('');
#413=COLOUR_RGB('',0.800000011920929,0.800000011920929,0.800000011920929);
#414=DRAUGHTING_PRE_DEFINED_CURVE_FONT('continuous');
#415=COLOUR_RGB('',0.800000011920929,0.800000011920929,0.800000011920929);
#416=AXIS2_PLACEMENT_3D('',#555,#556,#557);
#417=DRAUGHTING_PRE_DEFINED_CURVE_FONT('continuous');
#418=COLOUR_RGB('',0.800000011920929,0.800000011920929,0.800000011920929);
#419=AXIS2_PLACEMENT_3D('',#558,#559,#560);
#420=DRAUGHTING_PRE_DEFINED_CURVE_FONT('continuous');
#421=COLOUR_RGB('',0.800000011920929,0.800000011920929,0.800000011920929);
#422=AXIS2_PLACEMENT_3D('',#561,#562,#563);
#423=PRE_DEFINED_MARKER('');
#424=COLOUR_RGB('',0.800000011920929,0.800000011920929,0.800000011920929);
#425=DRAUGHTING_PRE_DEFINED_CURVE_FONT('continuous');
#426=COLOUR_RGB('',0.498039215803146,0.498039215803146,0.498039215803146);
#427=AXIS2_PLACEMENT_3D('',#564,#565,#566);
#428=DRAUGHTING_PRE_DEFINED_CURVE_FONT('continuous');
#429=COLOUR_RGB('',0.800000011920929,0.800000011920929,0.800000011920929);
#430=CARTESIAN_POINT('',(0.999999999999999,1.73205080756888,-46.5));
#431=VECTOR('',#567,1.0);
#432=DRAUGHTING_PRE_DEFINED_CURVE_FONT('continuous');
#433=COLOUR_RGB('',0.498039215803146,0.498039215803146,0.498039215803146);
#434=CARTESIAN_POINT('',(-2.0,-2.44921270764475E-016,-41.5));
#435=VECTOR('',#568,1.0);
#436=PRE_DEFINED_MARKER('');
#437=COLOUR_RGB('',0.800000011920929,0.800000011920929,0.800000011920929);
#438=SURFACE_SIDE_STYLE('',(#569));
#439=EDGE_LOOP('',(#570,#571));
#440=AXIS2_PLACEMENT_3D('',#572,#573,#574);
#441=SURFACE_SIDE_STYLE('',(#575));
#442=SURFACE_SIDE_STYLE('',(#576));
#443=EDGE_LOOP('',(#577,#578,#579,#580,#581));
#444=AXIS2_PLACEMENT_3D('',#582,#583,#584);
#446=SURFACE_STYLE_FILL_AREA(#585);
#447=ORIENTED_EDGE('',*,*,#83,.T.);
#448=ORIENTED_EDGE('',*,*,#163,.F.);
#449=ORIENTED_EDGE('',*,*,#117,.F.);
#450=ORIENTED_EDGE('',*,*,#137,.T.);
#451=ORIENTED_EDGE('',*,*,#149,.T.);
#452=CARTESIAN_POINT('',(0.0,0.0,-0.150000000000002));
#453=DIRECTION('',(0.0,-0.0,-1.0));
#454=DIRECTION('',(0.0,1.0,0.0));
#455=DIRECTION('',(-8.65927457071934E-017,0.707106781186546,-0.707106781186549));
#456=CARTESIAN_POINT('',(0.0,0.0,-45.0));
#457=DIRECTION('',(0.0,0.0,-1.0));
#458=DIRECTION('',(-1.0,0.0,0.0));
#459=SURFACE_STYLE_FILL_AREA(#586);
#460=ORIENTED_EDGE('',*,*,#93,.F.);
#461=ORIENTED_EDGE('',*,*,#159,.F.);
#462=CARTESIAN_POINT('',(0.5,0.866025403784439,-45.0));
#463=DIRECTION('',(0.0,0.0,1.0));
#464=DIRECTION('',(-0.5,-0.866025403784439,0.0));
#465=CARTESIAN_POINT('',(0.0,0.0,-45.0));
#466=DIRECTION('',(0.0,0.0,-1.0));
#467=DIRECTION('',(0.5,0.866025403784439,0.0));
#468=SURFACE_STYLE_FILL_AREA(#587);
#469=ORIENTED_EDGE('',*,*,#165,.T.);
#470=ORIENTED_EDGE('',*,*,#155,.F.);
#471=ORIENTED_EDGE('',*,*,#157,.F.);
#472=ORIENTED_EDGE('',*,*,#127,.T.);
#473=ORIENTED_EDGE('',*,*,#159,.T.);
#474=CARTESIAN_POINT('',(0.0,0.0,-46.5));
#475=DIRECTION('',(-0.0,-0.0,1.0));
#476=DIRECTION('',(0.5,0.866025403784439,0.0));
#477=CARTESIAN_POINT('',(0.0,0.0,-0.300000000000001));
#478=DIRECTION('',(0.0,0.0,-1.0));
#479=DIRECTION('',(0.0,1.0,0.0));
#480=DIRECTION('',(-0.0,-0.0,1.0));
#481=CARTESIAN_POINT('',(0.0,0.0,-48.0));
#482=DIRECTION('',(0.0,0.0,-1.0));
#483=DIRECTION('',(0.5,0.866025403784439,0.0));
#484=CARTESIAN_POINT('',(0.0,0.0,-48.0));
#485=DIRECTION('',(0.0,0.0,-1.0));
#486=DIRECTION('',(0.5,0.866025403784439,0.0));
#487=SURFACE_STYLE_FILL_AREA(#588);
#488=ORIENTED_EDGE('',*,*,#165,.F.);
#489=ORIENTED_EDGE('',*,*,#93,.T.);
#490=ORIENTED_EDGE('',*,*,#127,.F.);
#491=ORIENTED_EDGE('',*,*,#103,.F.);
#492=ORIENTED_EDGE('',*,*,#105,.F.);
#493=CARTESIAN_POINT('',(0.0,0.0,-46.5));
#494=DIRECTION('',(-0.0,-0.0,1.0));
#495=DIRECTION('',(0.5,0.866025403784439,0.0));
#496=CARTESIAN_POINT('',(0.0,0.0,-0.300000000000001));
#497=DIRECTION('',(0.0,0.0,-1.0));
#498=DIRECTION('',(0.0,1.0,0.0));
#499=SURFACE_STYLE_FILL_AREA(#589);
#500=ORIENTED_EDGE('',*,*,#121,.F.);
#501=ORIENTED_EDGE('',*,*,#103,.T.);
#502=ORIENTED_EDGE('',*,*,#157,.T.);
#503=CARTESIAN_POINT('',(0.0,0.0,-48.0));
#504=DIRECTION('',(0.0,1.0,0.0));
#505=DIRECTION('',(0.0,0.0,-1.0));
#506=CARTESIAN_POINT('',(0.0,0.0,-45.0));
#507=DIRECTION('',(0.0,0.0,-1.0));
#508=DIRECTION('',(-1.0,0.0,0.0));
#509=CARTESIAN_POINT('',(0.0,0.0,-0.300000000000001));
#510=DIRECTION('',(0.0,0.0,-1.0));
#511=DIRECTION('',(0.0,1.0,0.0));
#512=CARTESIAN_POINT('',(0.0,0.0,-48.0));
#513=DIRECTION('',(1.0,0.0,1.22460635382238E-016));
#514=DIRECTION('',(-1.22460635382238E-016,0.0,1.0));
#515=SURFACE_STYLE_FILL_AREA(#590);
#516=ORIENTED_EDGE('',*,*,#115,.T.);
#517=ORIENTED_EDGE('',*,*,#87,.T.);
#518=CARTESIAN_POINT('',(-1.0,0.0,-45.0));
#519=DIRECTION('',(0.0,0.0,-1.0));
#520=DIRECTION('',(-1.0,0.0,0.0));
#521=DIRECTION('',(-0.0,-0.0,1.0));
#522=SURFACE_STYLE_FILL_AREA(#591);
#523=ORIENTED_EDGE('',*,*,#83,.F.);
#524=ORIENTED_EDGE('',*,*,#145,.T.);
#525=ORIENTED_EDGE('',*,*,#137,.F.);
#526=ORIENTED_EDGE('',*,*,#97,.F.);
#527=ORIENTED_EDGE('',*,*,#109,.F.);
#528=CARTESIAN_POINT('',(0.0,0.0,-0.150000000000002));
#529=DIRECTION('',(0.0,-0.0,-1.0));
#530=DIRECTION('',(0.0,1.0,0.0));
#531=DIRECTION('',(-8.65927457071934E-017,0.707106781186546,0.707106781186549));
#532=SURFACE_STYLE_FILL_AREA(#592);
#533=ORIENTED_EDGE('',*,*,#121,.T.);
#534=ORIENTED_EDGE('',*,*,#155,.T.);
#535=ORIENTED_EDGE('',*,*,#105,.T.);
#536=CARTESIAN_POINT('',(0.0,0.0,-48.0));
#537=DIRECTION('',(0.0,1.0,0.0));
#538=DIRECTION('',(0.0,0.0,-1.0));
#539=SURFACE_STYLE_FILL_AREA(#593);
#540=SURFACE_STYLE_FILL_AREA(#594);
#541=ORIENTED_EDGE('',*,*,#167,.F.);
#542=ORIENTED_EDGE('',*,*,#163,.T.);
#543=ORIENTED_EDGE('',*,*,#109,.T.);
#544=ORIENTED_EDGE('',*,*,#99,.F.);
#545=ORIENTED_EDGE('',*,*,#115,.F.);
#546=CARTESIAN_POINT('',(0.0,0.0,-41.5));
#547=DIRECTION('',(-0.0,-0.0,1.0));
#548=DIRECTION('',(-1.0,0.0,0.0));
#549=CARTESIAN_POINT('',(0.0,0.0,0.0));
#550=DIRECTION('',(0.0,0.0,-1.0));
#551=DIRECTION('',(0.0,1.0,0.0));
#552=CARTESIAN_POINT('',(0.0,0.0,0.0));
#553=DIRECTION('',(0.0,0.0,-1.0));
#554=DIRECTION('',(0.0,1.0,0.0));
#555=CARTESIAN_POINT('',(0.0,0.0,-48.0));
#556=DIRECTION('',(0.0,0.0,-1.0));
#557=DIRECTION('',(0.5,0.866025403784439,0.0));
#558=CARTESIAN_POINT('',(0.0,0.0,-48.0));
#559=DIRECTION('',(0.0,0.0,-1.0));
#560=DIRECTION('',(0.5,0.866025403784439,0.0));
#561=CARTESIAN_POINT('',(0.0,0.0,-45.0));
#562=DIRECTION('',(0.0,0.0,-1.0));
#563=DIRECTION('',(0.5,0.866025403784439,0.0));
#564=CARTESIAN_POINT('',(0.0,0.0,-0.300000000000001));
#565=DIRECTION('',(0.0,0.0,-1.0));
#566=DIRECTION('',(0.0,1.0,0.0));
#567=DIRECTION('',(0.0,0.0,-1.0));
#568=DIRECTION('',(0.0,0.0,-1.0));
#569=SURFACE_STYLE_FILL_AREA(#595);
#570=ORIENTED_EDGE('',*,*,#145,.F.);
#571=ORIENTED_EDGE('',*,*,#149,.F.);
#572=CARTESIAN_POINT('',(0.0,0.85,0.0));
#573=DIRECTION('',(-0.0,0.0,1.0));
#574=DIRECTION('',(0.0,-1.0,0.0));
#575=SURFACE_STYLE_FILL_AREA(#596);
#576=SURFACE_STYLE_FILL_AREA(#597);
#577=ORIENTED_EDGE('',*,*,#167,.T.);
#578=ORIENTED_EDGE('',*,*,#87,.F.);
#579=ORIENTED_EDGE('',*,*,#99,.T.);
#580=ORIENTED_EDGE('',*,*,#97,.T.);
#581=ORIENTED_EDGE('',*,*,#117,.T.);
#582=CARTESIAN_POINT('',(0.0,0.0,-41.5));
#583=DIRECTION('',(-0.0,-0.0,1.0));
#584=DIRECTION('',(-1.0,0.0,0.0));
#585=FILL_AREA_STYLE('',(#598));
#586=FILL_AREA_STYLE('',(#599));
#587=FILL_AREA_STYLE('',(#600));
#588=FILL_AREA_STYLE('',(#601));
#589=FILL_AREA_STYLE('',(#602));
#590=FILL_AREA_STYLE('',(#603));
#591=FILL_AREA_STYLE('',(#604));
#592=FILL_AREA_STYLE('',(#605));
#593=FILL_AREA_STYLE('',(#606));
#594=FILL_AREA_STYLE('',(#607));
#595=FILL_AREA_STYLE('',(#608));
#596=FILL_AREA_STYLE('',(#609));
#597=FILL_AREA_STYLE('',(#610));
#598=FILL_AREA_STYLE_COLOUR('',#611);
#599=FILL_AREA_STYLE_COLOUR('',#612);
#600=FILL_AREA_STYLE_COLOUR('',#613);
#601=FILL_AREA_STYLE_COLOUR('',#614);
#602=FILL_AREA_STYLE_COLOUR('',#615);
#603=FILL_AREA_STYLE_COLOUR('',#616);
#604=FILL_AREA_STYLE_COLOUR('',#617);
#605=FILL_AREA_STYLE_COLOUR('',#618);
#606=FILL_AREA_STYLE_COLOUR('',#619);
#607=FILL_AREA_STYLE_COLOUR('',#620);
#608=FILL_AREA_STYLE_COLOUR('',#621);
#609=FILL_AREA_STYLE_COLOUR('',#622);
#610=FILL_AREA_STYLE_COLOUR('',#623);
#611=COLOUR_RGB('',0.498039215803146,0.498039215803146,0.498039215803146);
#612=COLOUR_RGB('',0.800000011920929,0.800000011920929,0.800000011920929);
#613=COLOUR_RGB('',0.800000011920929,0.800000011920929,0.800000011920929);
#614=COLOUR_RGB('',0.800000011920929,0.800000011920929,0.800000011920929);
#615=COLOUR_RGB('',0.800000011920929,0.800000011920929,0.800000011920929);
#616=COLOUR_RGB('',0.498039215803146,0.498039215803146,0.498039215803146);
#617=COLOUR_RGB('',0.498039215803146,0.498039215803146,0.498039215803146);
#618=COLOUR_RGB('',0.800000011920929,0.800000011920929,0.800000011920929);
#619=COLOUR_RGB('',0.800000011920929,0.800000011920929,0.800000011920929);
#620=COLOUR_RGB('',0.498039215803146,0.498039215803146,0.498039215803146);
#621=COLOUR_RGB('',0.498039215803146,0.498039215803146,0.498039215803146);
#622=COLOUR_RGB('',0.498039215803146,0.498039215803146,0.498039215803146);
#623=COLOUR_RGB('',0.498039215803146,0.498039215803146,0.498039215803146);
#624=AXIS2_PLACEMENT_3D('PCS',#625,#626,#627);
#625=CARTESIAN_POINT('',(0.0,0.0,0.0));
#626=DIRECTION('',(0.0,0.0,1.0));
#627=DIRECTION('',(1.0,0.0,0.0));
#628=AXIS2_PLACEMENT_3D('MCS',#629,#630,#631);
#629=CARTESIAN_POINT('',(0.0,0.0,-28.0));
#630=DIRECTION('',(0.0,0.0,1.0));
#631=DIRECTION('',(1.0,0.0,0.0));
#632=AXIS2_PLACEMENT_3D('CIP',#633,#634,#635);
#633=CARTESIAN_POINT('',(0.0,0.0,-50.0));
#634=DIRECTION('',(0.0,0.0,1.0));
#635=DIRECTION('',(1.0,0.0,0.0));
#636=CONSTRUCTIVE_GEOMETRY_REPRESENTATION_RELATIONSHIP('coordinate systems',$,#66,#637);
#637=CONSTRUCTIVE_GEOMETRY_REPRESENTATION('coordinate systems',(#624,#628,#632),#10);
ENDSEC;
END-ISO-10303-21;
