ISO-10303-21;
HEADER;
FILE_DESCRIPTION(('no description'),'unknown implementation level');
FILE_NAME('EP01160800.stp','  ',('CIM GmbH Aachen'),('CADClick - KiM GmbH - www.kimweb.de'),'unknown preprocess','ACIS','unknown authorization');
FILE_SCHEMA(('automotive_design'));
ENDSEC;
DATA;
#1=MECHANICAL_DESIGN_GEOMETRIC_PRESENTATION_REPRESENTATION(' ',(#14,#15,#16,#17,#18,#19,#20,#21,#22,#23,#24,#25,#26,#27,#28,#29,#30,#31,#32,#33,#34,#35,#36,#37,#38,#39,#40,#41,#42,#43,#44,#45,#46,#47,#48,#49,#50,#51,#52,#53,#54,#55,#56,#57,#58,#59,#60,#61),#10);
#2=PRODUCT_DEFINITION_CONTEXT('',#62,'design');
#3=APPLICATION_PROTOCOL_DEFINITION('INTERNATIONAL STANDARD','automotive_design',1994,#62);
#4=PRODUCT_CATEGORY_RELATIONSHIP('NONE','NONE',#63,#64);
#5=SHAPE_DEFINITION_REPRESENTATION(#65,#66);
#6=PRODUCT_DEFINITION_CONTEXT('',#67,'design');
#7=APPLICATION_PROTOCOL_DEFINITION('INTERNATIONAL STANDARD','automotive_design',1994,#67);
#8=PRODUCT_CATEGORY_RELATIONSHIP('NONE','NONE',#68,#69);
#9=SHAPE_DEFINITION_REPRESENTATION(#70,#71);
#10= (GEOMETRIC_REPRESENTATION_CONTEXT(3)GLOBAL_UNCERTAINTY_ASSIGNED_CONTEXT((#74))GLOBAL_UNIT_ASSIGNED_CONTEXT((#76,#77,#78))REPRESENTATION_CONTEXT('NONE','WORKSPACE'));
#14=STYLED_ITEM('',(#80),#81);
#15=STYLED_ITEM('',(#82),#83);
#16=STYLED_ITEM('',(#84),#85);
#17=STYLED_ITEM('',(#86),#87);
#18=STYLED_ITEM('',(#88),#89);
#19=STYLED_ITEM('',(#90),#91);
#20=STYLED_ITEM('',(#92),#93);
#21=STYLED_ITEM('',(#94),#95);
#22=STYLED_ITEM('',(#96),#97);
#23=STYLED_ITEM('',(#98),#99);
#24=STYLED_ITEM('',(#100),#101);
#25=STYLED_ITEM('',(#102),#103);
#26=STYLED_ITEM('',(#104),#105);
#27=STYLED_ITEM('',(#106),#107);
#28=STYLED_ITEM('',(#108),#109);
#29=STYLED_ITEM('',(#110),#111);
#30=STYLED_ITEM('',(#112),#113);
#31=STYLED_ITEM('',(#114),#115);
#32=STYLED_ITEM('',(#116),#117);
#33=STYLED_ITEM('',(#118),#119);
#34=STYLED_ITEM('',(#120),#121);
#35=STYLED_ITEM('',(#122),#123);
#36=STYLED_ITEM('',(#124),#125);
#37=STYLED_ITEM('',(#126),#127);
#38=STYLED_ITEM('',(#128),#129);
#39=STYLED_ITEM('',(#130),#131);
#40=STYLED_ITEM('',(#132),#133);
#41=STYLED_ITEM('',(#134),#135);
#42=STYLED_ITEM('',(#136),#137);
#43=STYLED_ITEM('',(#138),#139);
#44=STYLED_ITEM('',(#140),#141);
#45=STYLED_ITEM('',(#142),#143);
#46=STYLED_ITEM('',(#144),#145);
#47=STYLED_ITEM('',(#146),#147);
#48=STYLED_ITEM('',(#148),#149);
#49=STYLED_ITEM('',(#150),#151);
#50=STYLED_ITEM('',(#152),#153);
#51=STYLED_ITEM('',(#154),#155);
#52=STYLED_ITEM('',(#156),#157);
#53=STYLED_ITEM('',(#158),#159);
#54=STYLED_ITEM('',(#160),#161);
#55=STYLED_ITEM('',(#162),#163);
#56=STYLED_ITEM('',(#164),#165);
#57=STYLED_ITEM('',(#166),#167);
#58=STYLED_ITEM('',(#168),#169);
#59=STYLED_ITEM('',(#170),#171);
#60=STYLED_ITEM('',(#172),#173);
#61=STYLED_ITEM('',(#174),#175);
#62=APPLICATION_CONTEXT(' ');
#63=PRODUCT_CATEGORY('part','NONE');
#64=PRODUCT_RELATED_PRODUCT_CATEGORY('detail',' ',(#176));
#65=PRODUCT_DEFINITION_SHAPE('NONE','NONE',#177);
#66=ADVANCED_BREP_SHAPE_REPRESENTATION('1',(#91,#178),#10);
#67=APPLICATION_CONTEXT(' ');
#68=PRODUCT_CATEGORY('part','NONE');
#69=PRODUCT_RELATED_PRODUCT_CATEGORY('detail',' ',(#179));
#70=PRODUCT_DEFINITION_SHAPE('NONE','NONE',#180);
#71=ADVANCED_BREP_SHAPE_REPRESENTATION('2',(#173,#181),#10);
#74=UNCERTAINTY_MEASURE_WITH_UNIT(LENGTH_MEASURE(1.0E-006),#76,'','');
#76= (CONVERSION_BASED_UNIT('MILLIMETRE',#184)LENGTH_UNIT()NAMED_UNIT(#187));
#77= (NAMED_UNIT(#189)PLANE_ANGLE_UNIT()SI_UNIT($,.RADIAN.));
#78= (NAMED_UNIT(#189)SOLID_ANGLE_UNIT()SI_UNIT($,.STERADIAN.));
#80=PRESENTATION_STYLE_ASSIGNMENT((#195));
#81=ADVANCED_FACE('',(#196),#197,.T.);
#82=PRESENTATION_STYLE_ASSIGNMENT((#198));
#83=VERTEX_POINT('',#199);
#84=PRESENTATION_STYLE_ASSIGNMENT((#200));
#85=EDGE_CURVE('',#157,#155,#201,.T.);
#86=PRESENTATION_STYLE_ASSIGNMENT((#202));
#87=VERTEX_POINT('',#203);
#88=PRESENTATION_STYLE_ASSIGNMENT((#204));
#89=ADVANCED_FACE('',(#205),#206,.T.);
#90=PRESENTATION_STYLE_ASSIGNMENT((#207));
#91=MANIFOLD_SOLID_BREP('1',#208);
#92=PRESENTATION_STYLE_ASSIGNMENT((#209));
#93=VERTEX_POINT('',#210);
#94=PRESENTATION_STYLE_ASSIGNMENT((#211));
#95=EDGE_CURVE('',#155,#93,#212,.T.);
#96=PRESENTATION_STYLE_ASSIGNMENT((#213));
#97=VERTEX_POINT('',#214);
#98=PRESENTATION_STYLE_ASSIGNMENT((#215));
#99=EDGE_CURVE('',#167,#97,#216,.T.);
#100=PRESENTATION_STYLE_ASSIGNMENT((#217));
#101=VERTEX_POINT('',#218);
#102=PRESENTATION_STYLE_ASSIGNMENT((#219));
#103=EDGE_CURVE('',#93,#109,#220,.T.);
#104=PRESENTATION_STYLE_ASSIGNMENT((#221));
#105=ADVANCED_FACE('',(#222),#223,.T.);
#106=PRESENTATION_STYLE_ASSIGNMENT((#224));
#107=EDGE_CURVE('',#83,#87,#225,.T.);
#108=PRESENTATION_STYLE_ASSIGNMENT((#226));
#109=VERTEX_POINT('',#227);
#110=PRESENTATION_STYLE_ASSIGNMENT((#228));
#111=ADVANCED_FACE('',(#229),#230,.T.);
#112=PRESENTATION_STYLE_ASSIGNMENT((#231));
#113=EDGE_CURVE('',#131,#169,#232,.T.);
#114=PRESENTATION_STYLE_ASSIGNMENT((#233));
#115=EDGE_CURVE('',#101,#145,#234,.T.);
#116=PRESENTATION_STYLE_ASSIGNMENT((#235));
#117=EDGE_CURVE('',#135,#125,#236,.T.);
#118=PRESENTATION_STYLE_ASSIGNMENT((#237));
#119=EDGE_CURVE('',#125,#169,#238,.T.);
#120=PRESENTATION_STYLE_ASSIGNMENT((#239));
#121=EDGE_CURVE('',#145,#131,#240,.T.);
#122=PRESENTATION_STYLE_ASSIGNMENT((#241));
#123=ADVANCED_FACE('',(#242),#243,.T.);
#124=PRESENTATION_STYLE_ASSIGNMENT((#244));
#125=VERTEX_POINT('',#245);
#126=PRESENTATION_STYLE_ASSIGNMENT((#246));
#127=ADVANCED_FACE('',(#247),#248,.T.);
#128=PRESENTATION_STYLE_ASSIGNMENT((#249));
#129=ADVANCED_FACE('',(#250),#251,.T.);
#130=PRESENTATION_STYLE_ASSIGNMENT((#252));
#131=VERTEX_POINT('',#253);
#132=PRESENTATION_STYLE_ASSIGNMENT((#254));
#133=EDGE_CURVE('',#167,#155,#255,.T.);
#134=PRESENTATION_STYLE_ASSIGNMENT((#256));
#135=VERTEX_POINT('',#257);
#136=PRESENTATION_STYLE_ASSIGNMENT((#258));
#137=EDGE_CURVE('',#87,#83,#259,.T.);
#138=PRESENTATION_STYLE_ASSIGNMENT((#260));
#139=EDGE_CURVE('',#109,#97,#261,.T.);
#140=PRESENTATION_STYLE_ASSIGNMENT((#262));
#141=EDGE_CURVE('',#87,#93,#263,.T.);
#142=PRESENTATION_STYLE_ASSIGNMENT((#264));
#143=EDGE_CURVE('',#135,#101,#265,.T.);
#144=PRESENTATION_STYLE_ASSIGNMENT((#266));
#145=VERTEX_POINT('',#267);
#146=PRESENTATION_STYLE_ASSIGNMENT((#268));
#147=EDGE_CURVE('',#131,#145,#269,.T.);
#148=PRESENTATION_STYLE_ASSIGNMENT((#270));
#149=EDGE_CURVE('',#97,#167,#271,.T.);
#150=PRESENTATION_STYLE_ASSIGNMENT((#272));
#151=EDGE_CURVE('',#109,#157,#273,.T.);
#152=PRESENTATION_STYLE_ASSIGNMENT((#274));
#153=ADVANCED_FACE('',(#275),#276,.T.);
#154=PRESENTATION_STYLE_ASSIGNMENT((#277));
#155=VERTEX_POINT('',#278);
#156=PRESENTATION_STYLE_ASSIGNMENT((#279));
#157=VERTEX_POINT('',#280);
#158=PRESENTATION_STYLE_ASSIGNMENT((#281));
#159=ADVANCED_FACE('',(#282),#283,.T.);
#160=PRESENTATION_STYLE_ASSIGNMENT((#284));
#161=ADVANCED_FACE('',(#285),#286,.T.);
#162=PRESENTATION_STYLE_ASSIGNMENT((#287));
#163=ADVANCED_FACE('',(#288),#289,.T.);
#164=PRESENTATION_STYLE_ASSIGNMENT((#290));
#165=EDGE_CURVE('',#157,#83,#291,.T.);
#166=PRESENTATION_STYLE_ASSIGNMENT((#292));
#167=VERTEX_POINT('',#293);
#168=PRESENTATION_STYLE_ASSIGNMENT((#294));
#169=VERTEX_POINT('',#295);
#170=PRESENTATION_STYLE_ASSIGNMENT((#296));
#171=EDGE_CURVE('',#169,#135,#297,.T.);
#172=PRESENTATION_STYLE_ASSIGNMENT((#298));
#173=MANIFOLD_SOLID_BREP('2',#299);
#174=PRESENTATION_STYLE_ASSIGNMENT((#300));
#175=EDGE_CURVE('',#101,#125,#301,.T.);
#176=PRODUCT('1','1','PART-1-DESC',(#302));
#177=PRODUCT_DEFINITION('NONE','NONE',#303,#2);
#178=AXIS2_PLACEMENT_3D('',#304,#305,#306);
#179=PRODUCT('2','2','PART-2-DESC',(#307));
#180=PRODUCT_DEFINITION('NONE','NONE',#308,#6);
#181=AXIS2_PLACEMENT_3D('',#309,#310,#311);
#184=LENGTH_MEASURE_WITH_UNIT(LENGTH_MEASURE(1.0),#312);
#187=DIMENSIONAL_EXPONENTS(1.0,0.0,0.0,0.0,0.0,0.0,0.0);
#189=DIMENSIONAL_EXPONENTS(0.0,0.0,0.0,0.0,0.0,0.0,0.0);
#195=SURFACE_STYLE_USAGE(.BOTH.,#313);
#196=FACE_OUTER_BOUND('',#314,.T.);
#197=CYLINDRICAL_SURFACE('',#315,4.0);
#198=POINT_STYLE(' ',#316,POSITIVE_LENGTH_MEASURE(1.0E-006),#317);
#199=CARTESIAN_POINT('',(-4.0,0.0,-54.0));
#200=CURVE_STYLE('',#318,POSITIVE_LENGTH_MEASURE(1.0E-006),#319);
#201=CIRCLE('',#320,4.0);
#202=POINT_STYLE(' ',#321,POSITIVE_LENGTH_MEASURE(1.0E-006),#322);
#203=CARTESIAN_POINT('',(4.0,4.89842541528951E-016,-54.0));
#204=SURFACE_STYLE_USAGE(.BOTH.,#323);
#205=FACE_OUTER_BOUND('',#324,.T.);
#206=CONICAL_SURFACE('',#325,3.8,0.78539816339745);
#207=SURFACE_STYLE_USAGE(.BOTH.,#326);
#208=CLOSED_SHELL('',(#127,#161,#159,#89,#163,#105));
#209=POINT_STYLE(' ',#327,POSITIVE_LENGTH_MEASURE(1.0E-006),#328);
#210=CARTESIAN_POINT('',(4.0,4.89842541528951E-016,-0.399999999999999));
#211=CURVE_STYLE('',#329,POSITIVE_LENGTH_MEASURE(1.0E-006),#330);
#212=CIRCLE('',#331,4.0);
#213=POINT_STYLE(' ',#332,POSITIVE_LENGTH_MEASURE(1.0E-006),#333);
#214=CARTESIAN_POINT('',(4.40858287376056E-016,-3.6,0.0));
#215=CURVE_STYLE('',#334,POSITIVE_LENGTH_MEASURE(1.0E-006),#335);
#216=CIRCLE('',#336,3.6);
#217=POINT_STYLE(' ',#337,POSITIVE_LENGTH_MEASURE(1.0E-006),#338);
#218=CARTESIAN_POINT('',(-2.0,-3.46410161513776,-59.0));
#219=CURVE_STYLE('',#339,POSITIVE_LENGTH_MEASURE(1.0E-006),#340);
#220=CIRCLE('',#341,4.0);
#221=SURFACE_STYLE_USAGE(.BOTH.,#342);
#222=FACE_OUTER_BOUND('',#343,.T.);
#223=PLANE('',#344);
#224=CURVE_STYLE('',#345,POSITIVE_LENGTH_MEASURE(1.0E-006),#346);
#225=CIRCLE('',#347,4.0);
#226=POINT_STYLE(' ',#348,POSITIVE_LENGTH_MEASURE(1.0E-006),#349);
#227=CARTESIAN_POINT('',(4.89842541528951E-016,-4.0,-0.399999999999999));
#228=SURFACE_STYLE_USAGE(.BOTH.,#350);
#229=FACE_OUTER_BOUND('',#351,.T.);
#230=CYLINDRICAL_SURFACE('',#352,4.0);
#231=CURVE_STYLE('',#353,POSITIVE_LENGTH_MEASURE(1.0E-006),#354);
#232=LINE('',#355,#356);
#233=CURVE_STYLE('',#357,POSITIVE_LENGTH_MEASURE(1.0E-006),#358);
#234=LINE('',#359,#360);
#235=CURVE_STYLE('',#361,POSITIVE_LENGTH_MEASURE(1.0E-006),#362);
#236=CIRCLE('',#363,4.00000000000001);
#237=CURVE_STYLE('',#364,POSITIVE_LENGTH_MEASURE(1.0E-006),#365);
#238=CIRCLE('',#366,4.0);
#239=CURVE_STYLE('',#367,POSITIVE_LENGTH_MEASURE(1.0E-006),#368);
#240=CIRCLE('',#369,4.0);
#241=SURFACE_STYLE_USAGE(.BOTH.,#370);
#242=FACE_OUTER_BOUND('',#371,.T.);
#243=PLANE('',#372);
#244=POINT_STYLE(' ',#373,POSITIVE_LENGTH_MEASURE(1.0E-006),#374);
#245=CARTESIAN_POINT('',(0.0,4.0,-59.0));
#246=SURFACE_STYLE_USAGE(.BOTH.,#375);
#247=FACE_OUTER_BOUND('',#376,.T.);
#248=CYLINDRICAL_SURFACE('',#377,4.0);
#249=SURFACE_STYLE_USAGE(.BOTH.,#378);
#250=FACE_OUTER_BOUND('',#379,.T.);
#251=SPHERICAL_SURFACE('',#380,4.00000000000001);
#252=POINT_STYLE(' ',#381,POSITIVE_LENGTH_MEASURE(1.0E-006),#382);
#253=CARTESIAN_POINT('',(2.0,3.46410161513775,-54.0));
#254=CURVE_STYLE('',#383,POSITIVE_LENGTH_MEASURE(1.0E-006),#384);
#255=LINE('',#385,#386);
#256=POINT_STYLE(' ',#387,POSITIVE_LENGTH_MEASURE(1.0E-006),#388);
#257=CARTESIAN_POINT('',(0.0,-4.0,-59.0));
#258=CURVE_STYLE('',#389,POSITIVE_LENGTH_MEASURE(1.0E-006),#390);
#259=CIRCLE('',#391,4.0);
#260=CURVE_STYLE('',#392,POSITIVE_LENGTH_MEASURE(1.0E-006),#393);
#261=LINE('',#394,#395);
#262=CURVE_STYLE('',#396,POSITIVE_LENGTH_MEASURE(1.0E-006),#397);
#263=LINE('',#398,#399);
#264=CURVE_STYLE('',#400,POSITIVE_LENGTH_MEASURE(1.0E-006),#401);
#265=CIRCLE('',#402,4.0);
#266=POINT_STYLE(' ',#403,POSITIVE_LENGTH_MEASURE(1.0E-006),#404);
#267=CARTESIAN_POINT('',(-2.0,-3.46410161513776,-54.0));
#268=CURVE_STYLE('',#405,POSITIVE_LENGTH_MEASURE(1.0E-006),#406);
#269=CIRCLE('',#407,4.0);
#270=CURVE_STYLE('',#408,POSITIVE_LENGTH_MEASURE(1.0E-006),#409);
#271=CIRCLE('',#410,3.6);
#272=CURVE_STYLE('',#411,POSITIVE_LENGTH_MEASURE(1.0E-006),#412);
#273=CIRCLE('',#413,4.0);
#274=SURFACE_STYLE_USAGE(.BOTH.,#414);
#275=FACE_OUTER_BOUND('',#415,.T.);
#276=SPHERICAL_SURFACE('',#416,4.00000000000001);
#277=POINT_STYLE(' ',#417,POSITIVE_LENGTH_MEASURE(1.0E-006),#418);
#278=CARTESIAN_POINT('',(0.0,4.0,-0.399999999999999));
#279=POINT_STYLE(' ',#419,POSITIVE_LENGTH_MEASURE(1.0E-006),#420);
#280=CARTESIAN_POINT('',(-4.0,-4.89842541528951E-016,-0.399999999999999));
#281=SURFACE_STYLE_USAGE(.BOTH.,#421);
#282=FACE_OUTER_BOUND('',#422,.T.);
#283=PLANE('',#423);
#284=SURFACE_STYLE_USAGE(.BOTH.,#424);
#285=FACE_OUTER_BOUND('',#425,.T.);
#286=CONICAL_SURFACE('',#426,3.8,0.78539816339745);
#287=SURFACE_STYLE_USAGE(.BOTH.,#427);
#288=FACE_OUTER_BOUND('',#428,.T.);
#289=CYLINDRICAL_SURFACE('',#429,4.0);
#290=CURVE_STYLE('',#430,POSITIVE_LENGTH_MEASURE(1.0E-006),#431);
#291=LINE('',#432,#433);
#292=POINT_STYLE(' ',#434,POSITIVE_LENGTH_MEASURE(1.0E-006),#435);
#293=CARTESIAN_POINT('',(0.0,3.6,0.0));
#294=POINT_STYLE(' ',#436,POSITIVE_LENGTH_MEASURE(1.0E-006),#437);
#295=CARTESIAN_POINT('',(2.0,3.46410161513775,-59.0));
#296=CURVE_STYLE('',#438,POSITIVE_LENGTH_MEASURE(1.0E-006),#439);
#297=CIRCLE('',#440,4.0);
#298=SURFACE_STYLE_USAGE(.BOTH.,#441);
#299=CLOSED_SHELL('',(#81,#129,#153,#123,#111));
#300=CURVE_STYLE('',#442,POSITIVE_LENGTH_MEASURE(1.0E-006),#443);
#301=CIRCLE('',#444,4.0);
#302=PRODUCT_CONTEXT('',#62,'mechanical');
#303=PRODUCT_DEFINITION_FORMATION_WITH_SPECIFIED_SOURCE(' ','NONE',#176,.NOT_KNOWN.);
#304=CARTESIAN_POINT('',(0.0,0.0,0.0));
#305=DIRECTION('',(0.0,0.0,1.0));
#306=DIRECTION('',(1.0,0.0,0.0));
#307=PRODUCT_CONTEXT('',#67,'mechanical');
#308=PRODUCT_DEFINITION_FORMATION_WITH_SPECIFIED_SOURCE(' ','NONE',#179,.NOT_KNOWN.);
#309=CARTESIAN_POINT('',(0.0,0.0,0.0));
#310=DIRECTION('',(0.0,0.0,1.0));
#311=DIRECTION('',(1.0,0.0,0.0));
#312= (NAMED_UNIT(#187)LENGTH_UNIT()SI_UNIT(.MILLI.,.METRE.));
#313=SURFACE_SIDE_STYLE('',(#446));
#314=EDGE_LOOP('',(#447,#448,#449,#450,#451));
#315=AXIS2_PLACEMENT_3D('',#452,#453,#454);
#316=PRE_DEFINED_MARKER('');
#317=COLOUR_RGB('',0.498039215803146,0.498039215803146,0.498039215803146);
#318=DRAUGHTING_PRE_DEFINED_CURVE_FONT('continuous');
#319=COLOUR_RGB('',0.498039215803146,0.498039215803146,0.498039215803146);
#320=AXIS2_PLACEMENT_3D('',#455,#456,#457);
#321=PRE_DEFINED_MARKER('');
#322=COLOUR_RGB('',0.498039215803146,0.498039215803146,0.498039215803146);
#323=SURFACE_SIDE_STYLE('',(#458));
#324=EDGE_LOOP('',(#459,#460,#461,#462,#463));
#325=AXIS2_PLACEMENT_3D('',#464,#465,#466);
#326=SURFACE_SIDE_STYLE('',(#467));
#327=PRE_DEFINED_MARKER('');
#328=COLOUR_RGB('',0.498039215803146,0.498039215803146,0.498039215803146);
#329=DRAUGHTING_PRE_DEFINED_CURVE_FONT('continuous');
#330=COLOUR_RGB('',0.498039215803146,0.498039215803146,0.498039215803146);
#331=AXIS2_PLACEMENT_3D('',#468,#469,#470);
#332=PRE_DEFINED_MARKER('');
#333=COLOUR_RGB('',0.498039215803146,0.498039215803146,0.498039215803146);
#334=DRAUGHTING_PRE_DEFINED_CURVE_FONT('continuous');
#335=COLOUR_RGB('',0.498039215803146,0.498039215803146,0.498039215803146);
#336=AXIS2_PLACEMENT_3D('',#471,#472,#473);
#337=PRE_DEFINED_MARKER('');
#338=COLOUR_RGB('',0.800000011920929,0.800000011920929,0.800000011920929);
#339=DRAUGHTING_PRE_DEFINED_CURVE_FONT('continuous');
#340=COLOUR_RGB('',0.498039215803146,0.498039215803146,0.498039215803146);
#341=AXIS2_PLACEMENT_3D('',#474,#475,#476);
#342=SURFACE_SIDE_STYLE('',(#477));
#343=EDGE_LOOP('',(#478,#479));
#344=AXIS2_PLACEMENT_3D('',#480,#481,#482);
#345=DRAUGHTING_PRE_DEFINED_CURVE_FONT('continuous');
#346=COLOUR_RGB('',0.498039215803146,0.498039215803146,0.498039215803146);
#347=AXIS2_PLACEMENT_3D('',#483,#484,#485);
#348=PRE_DEFINED_MARKER('');
#349=COLOUR_RGB('',0.498039215803146,0.498039215803146,0.498039215803146);
#350=SURFACE_SIDE_STYLE('',(#486));
#351=EDGE_LOOP('',(#487,#488,#489,#490,#491));
#352=AXIS2_PLACEMENT_3D('',#492,#493,#494);
#353=DRAUGHTING_PRE_DEFINED_CURVE_FONT('continuous');
#354=COLOUR_RGB('',0.800000011920929,0.800000011920929,0.800000011920929);
#355=CARTESIAN_POINT('',(2.0,3.46410161513776,-56.5));
#356=VECTOR('',#495,1.0);
#357=DRAUGHTING_PRE_DEFINED_CURVE_FONT('continuous');
#358=COLOUR_RGB('',0.800000011920929,0.800000011920929,0.800000011920929);
#359=CARTESIAN_POINT('',(-2.0,-3.46410161513776,-56.5));
#360=VECTOR('',#496,1.0);
#361=DRAUGHTING_PRE_DEFINED_CURVE_FONT('continuous');
#362=COLOUR_RGB('',0.800000011920929,0.800000011920929,0.800000011920929);
#363=AXIS2_PLACEMENT_3D('',#497,#498,#499);
#364=DRAUGHTING_PRE_DEFINED_CURVE_FONT('continuous');
#365=COLOUR_RGB('',0.800000011920929,0.800000011920929,0.800000011920929);
#366=AXIS2_PLACEMENT_3D('',#500,#501,#502);
#367=DRAUGHTING_PRE_DEFINED_CURVE_FONT('continuous');
#368=COLOUR_RGB('',0.800000011920929,0.800000011920929,0.800000011920929);
#369=AXIS2_PLACEMENT_3D('',#503,#504,#505);
#370=SURFACE_SIDE_STYLE('',(#506));
#371=EDGE_LOOP('',(#507,#508));
#372=AXIS2_PLACEMENT_3D('',#509,#510,#511);
#373=PRE_DEFINED_MARKER('');
#374=COLOUR_RGB('',0.800000011920929,0.800000011920929,0.800000011920929);
#375=SURFACE_SIDE_STYLE('',(#512));
#376=EDGE_LOOP('',(#513,#514,#515,#516,#517));
#377=AXIS2_PLACEMENT_3D('',#518,#519,#520);
#378=SURFACE_SIDE_STYLE('',(#521));
#379=EDGE_LOOP('',(#522,#523,#524));
#380=AXIS2_PLACEMENT_3D('',#525,#526,#527);
#381=PRE_DEFINED_MARKER('');
#382=COLOUR_RGB('',0.800000011920929,0.800000011920929,0.800000011920929);
#383=DRAUGHTING_PRE_DEFINED_CURVE_FONT('continuous');
#384=COLOUR_RGB('',0.498039215803146,0.498039215803146,0.498039215803146);
#385=CARTESIAN_POINT('',(-4.65350414452503E-016,3.8,-0.199999999999996));
#386=VECTOR('',#528,1.0);
#387=PRE_DEFINED_MARKER('');
#388=COLOUR_RGB('',0.800000011920929,0.800000011920929,0.800000011920929);
#389=DRAUGHTING_PRE_DEFINED_CURVE_FONT('continuous');
#390=COLOUR_RGB('',0.498039215803146,0.498039215803146,0.498039215803146);
#391=AXIS2_PLACEMENT_3D('',#529,#530,#531);
#392=DRAUGHTING_PRE_DEFINED_CURVE_FONT('continuous');
#393=COLOUR_RGB('',0.498039215803146,0.498039215803146,0.498039215803146);
#394=CARTESIAN_POINT('',(4.65350414452503E-016,-3.8,-0.199999999999996));
#395=VECTOR('',#532,1.0);
#396=DRAUGHTING_PRE_DEFINED_CURVE_FONT('continuous');
#397=COLOUR_RGB('',0.498039215803146,0.498039215803146,0.498039215803146);
#398=CARTESIAN_POINT('',(4.0,4.89842541528951E-016,-46.5));
#399=VECTOR('',#533,1.0);
#400=DRAUGHTING_PRE_DEFINED_CURVE_FONT('continuous');
#401=COLOUR_RGB('',0.800000011920929,0.800000011920929,0.800000011920929);
#402=AXIS2_PLACEMENT_3D('',#534,#535,#536);
#403=PRE_DEFINED_MARKER('');
#404=COLOUR_RGB('',0.800000011920929,0.800000011920929,0.800000011920929);
#405=DRAUGHTING_PRE_DEFINED_CURVE_FONT('continuous');
#406=COLOUR_RGB('',0.800000011920929,0.800000011920929,0.800000011920929);
#407=AXIS2_PLACEMENT_3D('',#537,#538,#539);
#408=DRAUGHTING_PRE_DEFINED_CURVE_FONT('continuous');
#409=COLOUR_RGB('',0.498039215803146,0.498039215803146,0.498039215803146);
#410=AXIS2_PLACEMENT_3D('',#540,#541,#542);
#411=DRAUGHTING_PRE_DEFINED_CURVE_FONT('continuous');
#412=COLOUR_RGB('',0.498039215803146,0.498039215803146,0.498039215803146);
#413=AXIS2_PLACEMENT_3D('',#543,#544,#545);
#414=SURFACE_SIDE_STYLE('',(#546));
#415=EDGE_LOOP('',(#547,#548,#549));
#416=AXIS2_PLACEMENT_3D('',#550,#551,#552);
#417=PRE_DEFINED_MARKER('');
#418=COLOUR_RGB('',0.498039215803146,0.498039215803146,0.498039215803146);
#419=PRE_DEFINED_MARKER('');
#420=COLOUR_RGB('',0.498039215803146,0.498039215803146,0.498039215803146);
#421=SURFACE_SIDE_STYLE('',(#553));
#422=EDGE_LOOP('',(#554,#555));
#423=AXIS2_PLACEMENT_3D('',#556,#557,#558);
#424=SURFACE_SIDE_STYLE('',(#559));
#425=EDGE_LOOP('',(#560,#561,#562,#563,#564));
#426=AXIS2_PLACEMENT_3D('',#565,#566,#567);
#427=SURFACE_SIDE_STYLE('',(#568));
#428=EDGE_LOOP('',(#569,#570,#571,#572,#573));
#429=AXIS2_PLACEMENT_3D('',#574,#575,#576);
#430=DRAUGHTING_PRE_DEFINED_CURVE_FONT('continuous');
#431=COLOUR_RGB('',0.498039215803146,0.498039215803146,0.498039215803146);
#432=CARTESIAN_POINT('',(-4.0,-4.89842541528951E-016,-46.5));
#433=VECTOR('',#577,1.0);
#434=PRE_DEFINED_MARKER('');
#435=COLOUR_RGB('',0.498039215803146,0.498039215803146,0.498039215803146);
#436=PRE_DEFINED_MARKER('');
#437=COLOUR_RGB('',0.800000011920929,0.800000011920929,0.800000011920929);
#438=DRAUGHTING_PRE_DEFINED_CURVE_FONT('continuous');
#439=COLOUR_RGB('',0.800000011920929,0.800000011920929,0.800000011920929);
#440=AXIS2_PLACEMENT_3D('',#578,#579,#580);
#441=SURFACE_SIDE_STYLE('',(#581));
#442=DRAUGHTING_PRE_DEFINED_CURVE_FONT('continuous');
#443=COLOUR_RGB('',0.800000011920929,0.800000011920929,0.800000011920929);
#444=AXIS2_PLACEMENT_3D('',#582,#583,#584);
#446=SURFACE_STYLE_FILL_AREA(#585);
#447=ORIENTED_EDGE('',*,*,#113,.F.);
#448=ORIENTED_EDGE('',*,*,#147,.T.);
#449=ORIENTED_EDGE('',*,*,#115,.F.);
#450=ORIENTED_EDGE('',*,*,#143,.F.);
#451=ORIENTED_EDGE('',*,*,#171,.F.);
#452=CARTESIAN_POINT('',(0.0,0.0,-56.5));
#453=DIRECTION('',(-0.0,-0.0,1.0));
#454=DIRECTION('',(0.5,0.866025403784439,0.0));
#455=CARTESIAN_POINT('',(0.0,0.0,-0.399999999999999));
#456=DIRECTION('',(0.0,0.0,-1.0));
#457=DIRECTION('',(0.0,1.0,0.0));
#458=SURFACE_STYLE_FILL_AREA(#586);
#459=ORIENTED_EDGE('',*,*,#133,.T.);
#460=ORIENTED_EDGE('',*,*,#85,.F.);
#461=ORIENTED_EDGE('',*,*,#151,.F.);
#462=ORIENTED_EDGE('',*,*,#139,.T.);
#463=ORIENTED_EDGE('',*,*,#149,.T.);
#464=CARTESIAN_POINT('',(0.0,0.0,-0.199999999999996));
#465=DIRECTION('',(0.0,-0.0,-1.0));
#466=DIRECTION('',(0.0,1.0,0.0));
#467=SURFACE_STYLE_FILL_AREA(#587);
#468=CARTESIAN_POINT('',(0.0,0.0,-0.399999999999999));
#469=DIRECTION('',(0.0,0.0,-1.0));
#470=DIRECTION('',(0.0,1.0,0.0));
#471=CARTESIAN_POINT('',(0.0,0.0,0.0));
#472=DIRECTION('',(0.0,0.0,-1.0));
#473=DIRECTION('',(0.0,1.0,0.0));
#474=CARTESIAN_POINT('',(0.0,0.0,-0.399999999999999));
#475=DIRECTION('',(0.0,0.0,-1.0));
#476=DIRECTION('',(0.0,1.0,0.0));
#477=SURFACE_STYLE_FILL_AREA(#588);
#478=ORIENTED_EDGE('',*,*,#107,.T.);
#479=ORIENTED_EDGE('',*,*,#137,.T.);
#480=CARTESIAN_POINT('',(-2.0,0.0,-54.0));
#481=DIRECTION('',(0.0,0.0,-1.0));
#482=DIRECTION('',(-1.0,0.0,0.0));
#483=CARTESIAN_POINT('',(0.0,0.0,-54.0));
#484=DIRECTION('',(0.0,0.0,-1.0));
#485=DIRECTION('',(-1.0,0.0,0.0));
#486=SURFACE_STYLE_FILL_AREA(#589);
#487=ORIENTED_EDGE('',*,*,#113,.T.);
#488=ORIENTED_EDGE('',*,*,#119,.F.);
#489=ORIENTED_EDGE('',*,*,#175,.F.);
#490=ORIENTED_EDGE('',*,*,#115,.T.);
#491=ORIENTED_EDGE('',*,*,#121,.T.);
#492=CARTESIAN_POINT('',(0.0,0.0,-56.5));
#493=DIRECTION('',(-0.0,-0.0,1.0));
#494=DIRECTION('',(0.5,0.866025403784439,0.0));
#495=DIRECTION('',(0.0,0.0,-1.0));
#496=DIRECTION('',(-0.0,-0.0,1.0));
#497=CARTESIAN_POINT('',(0.0,0.0,-59.0));
#498=DIRECTION('',(1.0,0.0,1.22460635382238E-016));
#499=DIRECTION('',(-1.22460635382238E-016,0.0,1.0));
#500=CARTESIAN_POINT('',(0.0,0.0,-59.0));
#501=DIRECTION('',(0.0,0.0,-1.0));
#502=DIRECTION('',(0.5,0.866025403784439,0.0));
#503=CARTESIAN_POINT('',(0.0,0.0,-54.0));
#504=DIRECTION('',(0.0,0.0,-1.0));
#505=DIRECTION('',(0.5,0.866025403784439,0.0));
#506=SURFACE_STYLE_FILL_AREA(#590);
#507=ORIENTED_EDGE('',*,*,#147,.F.);
#508=ORIENTED_EDGE('',*,*,#121,.F.);
#509=CARTESIAN_POINT('',(1.0,1.73205080756888,-54.0));
#510=DIRECTION('',(0.0,0.0,1.0));
#511=DIRECTION('',(-0.5,-0.866025403784439,0.0));
#512=SURFACE_STYLE_FILL_AREA(#591);
#513=ORIENTED_EDGE('',*,*,#165,.F.);
#514=ORIENTED_EDGE('',*,*,#85,.T.);
#515=ORIENTED_EDGE('',*,*,#95,.T.);
#516=ORIENTED_EDGE('',*,*,#141,.F.);
#517=ORIENTED_EDGE('',*,*,#107,.F.);
#518=CARTESIAN_POINT('',(0.0,0.0,-46.5));
#519=DIRECTION('',(-0.0,-0.0,1.0));
#520=DIRECTION('',(-1.0,0.0,0.0));
#521=SURFACE_STYLE_FILL_AREA(#592);
#522=ORIENTED_EDGE('',*,*,#117,.F.);
#523=ORIENTED_EDGE('',*,*,#143,.T.);
#524=ORIENTED_EDGE('',*,*,#175,.T.);
#525=CARTESIAN_POINT('',(0.0,0.0,-59.0));
#526=DIRECTION('',(0.0,1.0,0.0));
#527=DIRECTION('',(0.0,0.0,-1.0));
#528=DIRECTION('',(-8.65927457071937E-017,0.707106781186549,-0.707106781186546));
#529=CARTESIAN_POINT('',(0.0,0.0,-54.0));
#530=DIRECTION('',(0.0,0.0,-1.0));
#531=DIRECTION('',(-1.0,0.0,0.0));
#532=DIRECTION('',(-8.65927457071937E-017,0.707106781186549,0.707106781186546));
#533=DIRECTION('',(-0.0,-0.0,1.0));
#534=CARTESIAN_POINT('',(0.0,0.0,-59.0));
#535=DIRECTION('',(0.0,0.0,-1.0));
#536=DIRECTION('',(0.5,0.866025403784439,0.0));
#537=CARTESIAN_POINT('',(0.0,0.0,-54.0));
#538=DIRECTION('',(0.0,0.0,-1.0));
#539=DIRECTION('',(0.5,0.866025403784439,0.0));
#540=CARTESIAN_POINT('',(0.0,0.0,0.0));
#541=DIRECTION('',(0.0,0.0,-1.0));
#542=DIRECTION('',(0.0,1.0,0.0));
#543=CARTESIAN_POINT('',(0.0,0.0,-0.399999999999999));
#544=DIRECTION('',(0.0,0.0,-1.0));
#545=DIRECTION('',(0.0,1.0,0.0));
#546=SURFACE_STYLE_FILL_AREA(#593);
#547=ORIENTED_EDGE('',*,*,#117,.T.);
#548=ORIENTED_EDGE('',*,*,#119,.T.);
#549=ORIENTED_EDGE('',*,*,#171,.T.);
#550=CARTESIAN_POINT('',(0.0,0.0,-59.0));
#551=DIRECTION('',(0.0,1.0,0.0));
#552=DIRECTION('',(0.0,0.0,-1.0));
#553=SURFACE_STYLE_FILL_AREA(#594);
#554=ORIENTED_EDGE('',*,*,#99,.F.);
#555=ORIENTED_EDGE('',*,*,#149,.F.);
#556=CARTESIAN_POINT('',(0.0,1.8,0.0));
#557=DIRECTION('',(-0.0,0.0,1.0));
#558=DIRECTION('',(0.0,-1.0,0.0));
#559=SURFACE_STYLE_FILL_AREA(#595);
#560=ORIENTED_EDGE('',*,*,#133,.F.);
#561=ORIENTED_EDGE('',*,*,#99,.T.);
#562=ORIENTED_EDGE('',*,*,#139,.F.);
#563=ORIENTED_EDGE('',*,*,#103,.F.);
#564=ORIENTED_EDGE('',*,*,#95,.F.);
#565=CARTESIAN_POINT('',(0.0,0.0,-0.199999999999996));
#566=DIRECTION('',(0.0,-0.0,-1.0));
#567=DIRECTION('',(0.0,1.0,0.0));
#568=SURFACE_STYLE_FILL_AREA(#596);
#569=ORIENTED_EDGE('',*,*,#165,.T.);
#570=ORIENTED_EDGE('',*,*,#137,.F.);
#571=ORIENTED_EDGE('',*,*,#141,.T.);
#572=ORIENTED_EDGE('',*,*,#103,.T.);
#573=ORIENTED_EDGE('',*,*,#151,.T.);
#574=CARTESIAN_POINT('',(0.0,0.0,-46.5));
#575=DIRECTION('',(-0.0,-0.0,1.0));
#576=DIRECTION('',(-1.0,0.0,0.0));
#577=DIRECTION('',(0.0,0.0,-1.0));
#578=CARTESIAN_POINT('',(0.0,0.0,-59.0));
#579=DIRECTION('',(0.0,0.0,-1.0));
#580=DIRECTION('',(0.5,0.866025403784439,0.0));
#581=SURFACE_STYLE_FILL_AREA(#597);
#582=CARTESIAN_POINT('',(0.0,0.0,-59.0));
#583=DIRECTION('',(0.0,0.0,-1.0));
#584=DIRECTION('',(0.5,0.866025403784439,0.0));
#585=FILL_AREA_STYLE('',(#598));
#586=FILL_AREA_STYLE('',(#599));
#587=FILL_AREA_STYLE('',(#600));
#588=FILL_AREA_STYLE('',(#601));
#589=FILL_AREA_STYLE('',(#602));
#590=FILL_AREA_STYLE('',(#603));
#591=FILL_AREA_STYLE('',(#604));
#592=FILL_AREA_STYLE('',(#605));
#593=FILL_AREA_STYLE('',(#606));
#594=FILL_AREA_STYLE('',(#607));
#595=FILL_AREA_STYLE('',(#608));
#596=FILL_AREA_STYLE('',(#609));
#597=FILL_AREA_STYLE('',(#610));
#598=FILL_AREA_STYLE_COLOUR('',#611);
#599=FILL_AREA_STYLE_COLOUR('',#612);
#600=FILL_AREA_STYLE_COLOUR('',#613);
#601=FILL_AREA_STYLE_COLOUR('',#614);
#602=FILL_AREA_STYLE_COLOUR('',#615);
#603=FILL_AREA_STYLE_COLOUR('',#616);
#604=FILL_AREA_STYLE_COLOUR('',#617);
#605=FILL_AREA_STYLE_COLOUR('',#618);
#606=FILL_AREA_STYLE_COLOUR('',#619);
#607=FILL_AREA_STYLE_COLOUR('',#620);
#608=FILL_AREA_STYLE_COLOUR('',#621);
#609=FILL_AREA_STYLE_COLOUR('',#622);
#610=FILL_AREA_STYLE_COLOUR('',#623);
#611=COLOUR_RGB('',0.800000011920929,0.800000011920929,0.800000011920929);
#612=COLOUR_RGB('',0.498039215803146,0.498039215803146,0.498039215803146);
#613=COLOUR_RGB('',0.498039215803146,0.498039215803146,0.498039215803146);
#614=COLOUR_RGB('',0.498039215803146,0.498039215803146,0.498039215803146);
#615=COLOUR_RGB('',0.800000011920929,0.800000011920929,0.800000011920929);
#616=COLOUR_RGB('',0.800000011920929,0.800000011920929,0.800000011920929);
#617=COLOUR_RGB('',0.498039215803146,0.498039215803146,0.498039215803146);
#618=COLOUR_RGB('',0.800000011920929,0.800000011920929,0.800000011920929);
#619=COLOUR_RGB('',0.800000011920929,0.800000011920929,0.800000011920929);
#620=COLOUR_RGB('',0.498039215803146,0.498039215803146,0.498039215803146);
#621=COLOUR_RGB('',0.498039215803146,0.498039215803146,0.498039215803146);
#622=COLOUR_RGB('',0.498039215803146,0.498039215803146,0.498039215803146);
#623=COLOUR_RGB('',0.800000011920929,0.800000011920929,0.800000011920929);
#624=AXIS2_PLACEMENT_3D('PCS',#625,#626,#627);
#625=CARTESIAN_POINT('',(0.0,0.0,0.0));
#626=DIRECTION('',(0.0,0.0,1.0));
#627=DIRECTION('',(1.0,0.0,0.0));
#628=AXIS2_PLACEMENT_3D('MCS',#629,#630,#631);
#629=CARTESIAN_POINT('',(0.0,0.0,-36.0));
#630=DIRECTION('',(0.0,0.0,1.0));
#631=DIRECTION('',(1.0,0.0,0.0));
#632=AXIS2_PLACEMENT_3D('CIP',#633,#634,#635);
#633=CARTESIAN_POINT('',(0.0,0.0,-63.0));
#634=DIRECTION('',(0.0,0.0,1.0));
#635=DIRECTION('',(1.0,0.0,0.0));
#636=CONSTRUCTIVE_GEOMETRY_REPRESENTATION_RELATIONSHIP('coordinate systems',$,#66,#637);
#637=CONSTRUCTIVE_GEOMETRY_REPRESENTATION('coordinate systems',(#624,#628,#632),#10);
ENDSEC;
END-ISO-10303-21;
