ISO-10303-21;
HEADER;
FILE_DESCRIPTION(('no description'),'unknown implementation level');
FILE_NAME('EP01161000.stp','  ',('CIM GmbH Aachen'),('CADClick - KiM GmbH - www.kimweb.de'),'unknown preprocess','ACIS','unknown authorization');
FILE_SCHEMA(('automotive_design'));
ENDSEC;
DATA;
#1=MECHANICAL_DESIGN_GEOMETRIC_PRESENTATION_REPRESENTATION(' ',(#14,#15,#16,#17,#18,#19,#20,#21,#22,#23,#24,#25,#26,#27,#28,#29,#30,#31,#32,#33,#34,#35,#36,#37,#38,#39,#40,#41,#42,#43,#44,#45,#46,#47,#48,#49,#50,#51,#52,#53,#54,#55,#56,#57,#58,#59,#60,#61),#10);
#2=PRODUCT_DEFINITION_CONTEXT('',#62,'design');
#3=APPLICATION_PROTOCOL_DEFINITION('INTERNATIONAL STANDARD','automotive_design',1994,#62);
#4=PRODUCT_CATEGORY_RELATIONSHIP('NONE','NONE',#63,#64);
#5=SHAPE_DEFINITION_REPRESENTATION(#65,#66);
#6=PRODUCT_DEFINITION_CONTEXT('',#67,'design');
#7=APPLICATION_PROTOCOL_DEFINITION('INTERNATIONAL STANDARD','automotive_design',1994,#67);
#8=PRODUCT_CATEGORY_RELATIONSHIP('NONE','NONE',#68,#69);
#9=SHAPE_DEFINITION_REPRESENTATION(#70,#71);
#10= (GEOMETRIC_REPRESENTATION_CONTEXT(3)GLOBAL_UNCERTAINTY_ASSIGNED_CONTEXT((#74))GLOBAL_UNIT_ASSIGNED_CONTEXT((#76,#77,#78))REPRESENTATION_CONTEXT('NONE','WORKSPACE'));
#14=STYLED_ITEM('',(#80),#81);
#15=STYLED_ITEM('',(#82),#83);
#16=STYLED_ITEM('',(#84),#85);
#17=STYLED_ITEM('',(#86),#87);
#18=STYLED_ITEM('',(#88),#89);
#19=STYLED_ITEM('',(#90),#91);
#20=STYLED_ITEM('',(#92),#93);
#21=STYLED_ITEM('',(#94),#95);
#22=STYLED_ITEM('',(#96),#97);
#23=STYLED_ITEM('',(#98),#99);
#24=STYLED_ITEM('',(#100),#101);
#25=STYLED_ITEM('',(#102),#103);
#26=STYLED_ITEM('',(#104),#105);
#27=STYLED_ITEM('',(#106),#107);
#28=STYLED_ITEM('',(#108),#109);
#29=STYLED_ITEM('',(#110),#111);
#30=STYLED_ITEM('',(#112),#113);
#31=STYLED_ITEM('',(#114),#115);
#32=STYLED_ITEM('',(#116),#117);
#33=STYLED_ITEM('',(#118),#119);
#34=STYLED_ITEM('',(#120),#121);
#35=STYLED_ITEM('',(#122),#123);
#36=STYLED_ITEM('',(#124),#125);
#37=STYLED_ITEM('',(#126),#127);
#38=STYLED_ITEM('',(#128),#129);
#39=STYLED_ITEM('',(#130),#131);
#40=STYLED_ITEM('',(#132),#133);
#41=STYLED_ITEM('',(#134),#135);
#42=STYLED_ITEM('',(#136),#137);
#43=STYLED_ITEM('',(#138),#139);
#44=STYLED_ITEM('',(#140),#141);
#45=STYLED_ITEM('',(#142),#143);
#46=STYLED_ITEM('',(#144),#145);
#47=STYLED_ITEM('',(#146),#147);
#48=STYLED_ITEM('',(#148),#149);
#49=STYLED_ITEM('',(#150),#151);
#50=STYLED_ITEM('',(#152),#153);
#51=STYLED_ITEM('',(#154),#155);
#52=STYLED_ITEM('',(#156),#157);
#53=STYLED_ITEM('',(#158),#159);
#54=STYLED_ITEM('',(#160),#161);
#55=STYLED_ITEM('',(#162),#163);
#56=STYLED_ITEM('',(#164),#165);
#57=STYLED_ITEM('',(#166),#167);
#58=STYLED_ITEM('',(#168),#169);
#59=STYLED_ITEM('',(#170),#171);
#60=STYLED_ITEM('',(#172),#173);
#61=STYLED_ITEM('',(#174),#175);
#62=APPLICATION_CONTEXT(' ');
#63=PRODUCT_CATEGORY('part','NONE');
#64=PRODUCT_RELATED_PRODUCT_CATEGORY('detail',' ',(#176));
#65=PRODUCT_DEFINITION_SHAPE('NONE','NONE',#177);
#66=ADVANCED_BREP_SHAPE_REPRESENTATION('1',(#141,#178),#10);
#67=APPLICATION_CONTEXT(' ');
#68=PRODUCT_CATEGORY('part','NONE');
#69=PRODUCT_RELATED_PRODUCT_CATEGORY('detail',' ',(#179));
#70=PRODUCT_DEFINITION_SHAPE('NONE','NONE',#180);
#71=ADVANCED_BREP_SHAPE_REPRESENTATION('2',(#175,#181),#10);
#74=UNCERTAINTY_MEASURE_WITH_UNIT(LENGTH_MEASURE(1.0E-006),#76,'','');
#76= (CONVERSION_BASED_UNIT('MILLIMETRE',#184)LENGTH_UNIT()NAMED_UNIT(#187));
#77= (NAMED_UNIT(#189)PLANE_ANGLE_UNIT()SI_UNIT($,.RADIAN.));
#78= (NAMED_UNIT(#189)SOLID_ANGLE_UNIT()SI_UNIT($,.STERADIAN.));
#80=PRESENTATION_STYLE_ASSIGNMENT((#195));
#81=ADVANCED_FACE('',(#196),#197,.T.);
#82=PRESENTATION_STYLE_ASSIGNMENT((#198));
#83=VERTEX_POINT('',#199);
#84=PRESENTATION_STYLE_ASSIGNMENT((#200));
#85=EDGE_CURVE('',#121,#97,#201,.T.);
#86=PRESENTATION_STYLE_ASSIGNMENT((#202));
#87=EDGE_CURVE('',#139,#151,#203,.T.);
#88=PRESENTATION_STYLE_ASSIGNMENT((#204));
#89=EDGE_CURVE('',#83,#97,#205,.T.);
#90=PRESENTATION_STYLE_ASSIGNMENT((#206));
#91=ADVANCED_FACE('',(#207),#208,.T.);
#92=PRESENTATION_STYLE_ASSIGNMENT((#209));
#93=ADVANCED_FACE('',(#210),#211,.T.);
#94=PRESENTATION_STYLE_ASSIGNMENT((#212));
#95=EDGE_CURVE('',#131,#153,#213,.T.);
#96=PRESENTATION_STYLE_ASSIGNMENT((#214));
#97=VERTEX_POINT('',#215);
#98=PRESENTATION_STYLE_ASSIGNMENT((#216));
#99=ADVANCED_FACE('',(#217),#218,.T.);
#100=PRESENTATION_STYLE_ASSIGNMENT((#219));
#101=ADVANCED_FACE('',(#220),#221,.T.);
#102=PRESENTATION_STYLE_ASSIGNMENT((#222));
#103=EDGE_CURVE('',#133,#119,#223,.T.);
#104=PRESENTATION_STYLE_ASSIGNMENT((#224));
#105=EDGE_CURVE('',#131,#161,#225,.T.);
#106=PRESENTATION_STYLE_ASSIGNMENT((#226));
#107=ADVANCED_FACE('',(#227),#228,.T.);
#108=PRESENTATION_STYLE_ASSIGNMENT((#229));
#109=ADVANCED_FACE('',(#230),#231,.T.);
#110=PRESENTATION_STYLE_ASSIGNMENT((#232));
#111=VERTEX_POINT('',#233);
#112=PRESENTATION_STYLE_ASSIGNMENT((#234));
#113=ADVANCED_FACE('',(#235),#236,.T.);
#114=PRESENTATION_STYLE_ASSIGNMENT((#237));
#115=EDGE_CURVE('',#173,#143,#238,.T.);
#116=PRESENTATION_STYLE_ASSIGNMENT((#239));
#117=VERTEX_POINT('',#240);
#118=PRESENTATION_STYLE_ASSIGNMENT((#241));
#119=VERTEX_POINT('',#242);
#120=PRESENTATION_STYLE_ASSIGNMENT((#243));
#121=VERTEX_POINT('',#244);
#122=PRESENTATION_STYLE_ASSIGNMENT((#245));
#123=EDGE_CURVE('',#111,#173,#246,.T.);
#124=PRESENTATION_STYLE_ASSIGNMENT((#247));
#125=EDGE_CURVE('',#111,#121,#248,.T.);
#126=PRESENTATION_STYLE_ASSIGNMENT((#249));
#127=EDGE_CURVE('',#117,#139,#250,.T.);
#128=PRESENTATION_STYLE_ASSIGNMENT((#251));
#129=ADVANCED_FACE('',(#252),#253,.T.);
#130=PRESENTATION_STYLE_ASSIGNMENT((#254));
#131=VERTEX_POINT('',#255);
#132=PRESENTATION_STYLE_ASSIGNMENT((#256));
#133=VERTEX_POINT('',#257);
#134=PRESENTATION_STYLE_ASSIGNMENT((#258));
#135=EDGE_CURVE('',#119,#117,#259,.T.);
#136=PRESENTATION_STYLE_ASSIGNMENT((#260));
#137=EDGE_CURVE('',#161,#117,#261,.T.);
#138=PRESENTATION_STYLE_ASSIGNMENT((#262));
#139=VERTEX_POINT('',#263);
#140=PRESENTATION_STYLE_ASSIGNMENT((#264));
#141=MANIFOLD_SOLID_BREP('1',#265);
#142=PRESENTATION_STYLE_ASSIGNMENT((#266));
#143=VERTEX_POINT('',#267);
#144=PRESENTATION_STYLE_ASSIGNMENT((#268));
#145=ADVANCED_FACE('',(#269),#270,.T.);
#146=PRESENTATION_STYLE_ASSIGNMENT((#271));
#147=EDGE_CURVE('',#83,#143,#272,.T.);
#148=PRESENTATION_STYLE_ASSIGNMENT((#273));
#149=EDGE_CURVE('',#153,#131,#274,.T.);
#150=PRESENTATION_STYLE_ASSIGNMENT((#275));
#151=VERTEX_POINT('',#276);
#152=PRESENTATION_STYLE_ASSIGNMENT((#277));
#153=VERTEX_POINT('',#278);
#154=PRESENTATION_STYLE_ASSIGNMENT((#279));
#155=EDGE_CURVE('',#97,#111,#280,.T.);
#156=PRESENTATION_STYLE_ASSIGNMENT((#281));
#157=EDGE_CURVE('',#151,#133,#282,.T.);
#158=PRESENTATION_STYLE_ASSIGNMENT((#283));
#159=ADVANCED_FACE('',(#284),#285,.T.);
#160=PRESENTATION_STYLE_ASSIGNMENT((#286));
#161=VERTEX_POINT('',#287);
#162=PRESENTATION_STYLE_ASSIGNMENT((#288));
#163=EDGE_CURVE('',#143,#83,#289,.T.);
#164=PRESENTATION_STYLE_ASSIGNMENT((#290));
#165=EDGE_CURVE('',#119,#133,#291,.T.);
#166=PRESENTATION_STYLE_ASSIGNMENT((#292));
#167=EDGE_CURVE('',#139,#153,#293,.T.);
#168=PRESENTATION_STYLE_ASSIGNMENT((#294));
#169=EDGE_CURVE('',#151,#161,#295,.T.);
#170=PRESENTATION_STYLE_ASSIGNMENT((#296));
#171=EDGE_CURVE('',#173,#121,#297,.T.);
#172=PRESENTATION_STYLE_ASSIGNMENT((#298));
#173=VERTEX_POINT('',#299);
#174=PRESENTATION_STYLE_ASSIGNMENT((#300));
#175=MANIFOLD_SOLID_BREP('2',#301);
#176=PRODUCT('1','1','PART-1-DESC',(#302));
#177=PRODUCT_DEFINITION('NONE','NONE',#303,#2);
#178=AXIS2_PLACEMENT_3D('',#304,#305,#306);
#179=PRODUCT('2','2','PART-2-DESC',(#307));
#180=PRODUCT_DEFINITION('NONE','NONE',#308,#6);
#181=AXIS2_PLACEMENT_3D('',#309,#310,#311);
#184=LENGTH_MEASURE_WITH_UNIT(LENGTH_MEASURE(1.0),#312);
#187=DIMENSIONAL_EXPONENTS(1.0,0.0,0.0,0.0,0.0,0.0,0.0);
#189=DIMENSIONAL_EXPONENTS(0.0,0.0,0.0,0.0,0.0,0.0,0.0);
#195=SURFACE_STYLE_USAGE(.BOTH.,#313);
#196=FACE_OUTER_BOUND('',#314,.T.);
#197=CYLINDRICAL_SURFACE('',#315,5.0);
#198=POINT_STYLE(' ',#316,POSITIVE_LENGTH_MEASURE(1.0E-006),#317);
#199=CARTESIAN_POINT('',(2.5,4.33012701892219,-61.0));
#200=CURVE_STYLE('',#318,POSITIVE_LENGTH_MEASURE(1.0E-006),#319);
#201=CIRCLE('',#320,5.0);
#202=CURVE_STYLE('',#321,POSITIVE_LENGTH_MEASURE(1.0E-006),#322);
#203=CIRCLE('',#323,5.0);
#204=CURVE_STYLE('',#324,POSITIVE_LENGTH_MEASURE(1.0E-006),#325);
#205=LINE('',#326,#327);
#206=SURFACE_STYLE_USAGE(.BOTH.,#328);
#207=FACE_OUTER_BOUND('',#329,.T.);
#208=CYLINDRICAL_SURFACE('',#330,5.0);
#209=SURFACE_STYLE_USAGE(.BOTH.,#331);
#210=FACE_OUTER_BOUND('',#332,.T.);
#211=CONICAL_SURFACE('',#333,4.75,0.785398163397448);
#212=CURVE_STYLE('',#334,POSITIVE_LENGTH_MEASURE(1.0E-006),#335);
#213=CIRCLE('',#336,4.5);
#214=POINT_STYLE(' ',#337,POSITIVE_LENGTH_MEASURE(1.0E-006),#338);
#215=CARTESIAN_POINT('',(2.5,4.33012701892219,-67.0));
#216=SURFACE_STYLE_USAGE(.BOTH.,#339);
#217=FACE_OUTER_BOUND('',#340,.T.);
#218=PLANE('',#341);
#219=SURFACE_STYLE_USAGE(.BOTH.,#342);
#220=FACE_OUTER_BOUND('',#343,.T.);
#221=CYLINDRICAL_SURFACE('',#344,5.0);
#222=CURVE_STYLE('',#345,POSITIVE_LENGTH_MEASURE(1.0E-006),#346);
#223=CIRCLE('',#347,5.0);
#224=CURVE_STYLE('',#348,POSITIVE_LENGTH_MEASURE(1.0E-006),#349);
#225=LINE('',#350,#351);
#226=SURFACE_STYLE_USAGE(.BOTH.,#352);
#227=FACE_OUTER_BOUND('',#353,.T.);
#228=CONICAL_SURFACE('',#354,4.75,0.785398163397448);
#229=SURFACE_STYLE_USAGE(.BOTH.,#355);
#230=FACE_OUTER_BOUND('',#356,.T.);
#231=PLANE('',#357);
#232=POINT_STYLE(' ',#358,POSITIVE_LENGTH_MEASURE(1.0E-006),#359);
#233=CARTESIAN_POINT('',(0.0,-5.0,-67.0));
#234=SURFACE_STYLE_USAGE(.BOTH.,#360);
#235=FACE_OUTER_BOUND('',#361,.T.);
#236=SPHERICAL_SURFACE('',#362,4.99999999999999);
#237=CURVE_STYLE('',#363,POSITIVE_LENGTH_MEASURE(1.0E-006),#364);
#238=LINE('',#365,#366);
#239=POINT_STYLE(' ',#367,POSITIVE_LENGTH_MEASURE(1.0E-006),#368);
#240=CARTESIAN_POINT('',(5.0,6.12303176911189E-016,-0.5));
#241=POINT_STYLE(' ',#369,POSITIVE_LENGTH_MEASURE(1.0E-006),#370);
#242=CARTESIAN_POINT('',(5.0,6.12303176911189E-016,-61.0));
#243=POINT_STYLE(' ',#371,POSITIVE_LENGTH_MEASURE(1.0E-006),#372);
#244=CARTESIAN_POINT('',(0.0,5.0,-67.0));
#245=CURVE_STYLE('',#373,POSITIVE_LENGTH_MEASURE(1.0E-006),#374);
#246=CIRCLE('',#375,5.0);
#247=CURVE_STYLE('',#376,POSITIVE_LENGTH_MEASURE(1.0E-006),#377);
#248=CIRCLE('',#378,4.99999999999999);
#249=CURVE_STYLE('',#379,POSITIVE_LENGTH_MEASURE(1.0E-006),#380);
#250=CIRCLE('',#381,5.0);
#251=SURFACE_STYLE_USAGE(.BOTH.,#382);
#252=FACE_OUTER_BOUND('',#383,.T.);
#253=SPHERICAL_SURFACE('',#384,4.99999999999999);
#254=POINT_STYLE(' ',#385,POSITIVE_LENGTH_MEASURE(1.0E-006),#386);
#255=CARTESIAN_POINT('',(0.0,4.5,0.0));
#256=POINT_STYLE(' ',#387,POSITIVE_LENGTH_MEASURE(1.0E-006),#388);
#257=CARTESIAN_POINT('',(-5.0,0.0,-61.0));
#258=CURVE_STYLE('',#389,POSITIVE_LENGTH_MEASURE(1.0E-006),#390);
#259=LINE('',#391,#392);
#260=CURVE_STYLE('',#393,POSITIVE_LENGTH_MEASURE(1.0E-006),#394);
#261=CIRCLE('',#395,5.0);
#262=POINT_STYLE(' ',#396,POSITIVE_LENGTH_MEASURE(1.0E-006),#397);
#263=CARTESIAN_POINT('',(6.12303176911189E-016,-5.0,-0.5));
#264=SURFACE_STYLE_USAGE(.BOTH.,#398);
#265=CLOSED_SHELL('',(#101,#107,#99,#93,#91,#159));
#266=POINT_STYLE(' ',#399,POSITIVE_LENGTH_MEASURE(1.0E-006),#400);
#267=CARTESIAN_POINT('',(-2.5,-4.33012701892219,-61.0));
#268=SURFACE_STYLE_USAGE(.BOTH.,#401);
#269=FACE_OUTER_BOUND('',#402,.T.);
#270=CYLINDRICAL_SURFACE('',#403,5.0);
#271=CURVE_STYLE('',#404,POSITIVE_LENGTH_MEASURE(1.0E-006),#405);
#272=CIRCLE('',#406,5.0);
#273=CURVE_STYLE('',#407,POSITIVE_LENGTH_MEASURE(1.0E-006),#408);
#274=CIRCLE('',#409,4.5);
#275=POINT_STYLE(' ',#410,POSITIVE_LENGTH_MEASURE(1.0E-006),#411);
#276=CARTESIAN_POINT('',(-5.0,-6.12303176911189E-016,-0.5));
#277=POINT_STYLE(' ',#412,POSITIVE_LENGTH_MEASURE(1.0E-006),#413);
#278=CARTESIAN_POINT('',(5.5107285922007E-016,-4.5,0.0));
#279=CURVE_STYLE('',#414,POSITIVE_LENGTH_MEASURE(1.0E-006),#415);
#280=CIRCLE('',#416,5.0);
#281=CURVE_STYLE('',#417,POSITIVE_LENGTH_MEASURE(1.0E-006),#418);
#282=LINE('',#419,#420);
#283=SURFACE_STYLE_USAGE(.BOTH.,#421);
#284=FACE_OUTER_BOUND('',#422,.T.);
#285=PLANE('',#423);
#286=POINT_STYLE(' ',#424,POSITIVE_LENGTH_MEASURE(1.0E-006),#425);
#287=CARTESIAN_POINT('',(0.0,5.0,-0.5));
#288=CURVE_STYLE('',#426,POSITIVE_LENGTH_MEASURE(1.0E-006),#427);
#289=CIRCLE('',#428,5.0);
#290=CURVE_STYLE('',#429,POSITIVE_LENGTH_MEASURE(1.0E-006),#430);
#291=CIRCLE('',#431,5.0);
#292=CURVE_STYLE('',#432,POSITIVE_LENGTH_MEASURE(1.0E-006),#433);
#293=LINE('',#434,#435);
#294=CURVE_STYLE('',#436,POSITIVE_LENGTH_MEASURE(1.0E-006),#437);
#295=CIRCLE('',#438,5.0);
#296=CURVE_STYLE('',#439,POSITIVE_LENGTH_MEASURE(1.0E-006),#440);
#297=CIRCLE('',#441,5.0);
#298=POINT_STYLE(' ',#442,POSITIVE_LENGTH_MEASURE(1.0E-006),#443);
#299=CARTESIAN_POINT('',(-2.5,-4.33012701892219,-67.0));
#300=SURFACE_STYLE_USAGE(.BOTH.,#444);
#301=CLOSED_SHELL('',(#145,#113,#129,#109,#81));
#302=PRODUCT_CONTEXT('',#62,'mechanical');
#303=PRODUCT_DEFINITION_FORMATION_WITH_SPECIFIED_SOURCE(' ','NONE',#176,.NOT_KNOWN.);
#304=CARTESIAN_POINT('',(0.0,0.0,0.0));
#305=DIRECTION('',(0.0,0.0,1.0));
#306=DIRECTION('',(1.0,0.0,0.0));
#307=PRODUCT_CONTEXT('',#67,'mechanical');
#308=PRODUCT_DEFINITION_FORMATION_WITH_SPECIFIED_SOURCE(' ','NONE',#179,.NOT_KNOWN.);
#309=CARTESIAN_POINT('',(0.0,0.0,0.0));
#310=DIRECTION('',(0.0,0.0,1.0));
#311=DIRECTION('',(1.0,0.0,0.0));
#312= (NAMED_UNIT(#187)LENGTH_UNIT()SI_UNIT(.MILLI.,.METRE.));
#313=SURFACE_SIDE_STYLE('',(#446));
#314=EDGE_LOOP('',(#447,#448,#449,#450,#451));
#315=AXIS2_PLACEMENT_3D('',#452,#453,#454);
#316=PRE_DEFINED_MARKER('');
#317=COLOUR_RGB('',0.800000011920929,0.800000011920929,0.800000011920929);
#318=DRAUGHTING_PRE_DEFINED_CURVE_FONT('continuous');
#319=COLOUR_RGB('',0.800000011920929,0.800000011920929,0.800000011920929);
#320=AXIS2_PLACEMENT_3D('',#455,#456,#457);
#321=DRAUGHTING_PRE_DEFINED_CURVE_FONT('continuous');
#322=COLOUR_RGB('',0.498039215803146,0.498039215803146,0.498039215803146);
#323=AXIS2_PLACEMENT_3D('',#458,#459,#460);
#324=DRAUGHTING_PRE_DEFINED_CURVE_FONT('continuous');
#325=COLOUR_RGB('',0.800000011920929,0.800000011920929,0.800000011920929);
#326=CARTESIAN_POINT('',(2.5,4.33012701892219,-64.0));
#327=VECTOR('',#461,1.0);
#328=SURFACE_SIDE_STYLE('',(#462));
#329=EDGE_LOOP('',(#463,#464,#465,#466,#467));
#330=AXIS2_PLACEMENT_3D('',#468,#469,#470);
#331=SURFACE_SIDE_STYLE('',(#471));
#332=EDGE_LOOP('',(#472,#473,#474,#475,#476));
#333=AXIS2_PLACEMENT_3D('',#477,#478,#479);
#334=DRAUGHTING_PRE_DEFINED_CURVE_FONT('continuous');
#335=COLOUR_RGB('',0.498039215803146,0.498039215803146,0.498039215803146);
#336=AXIS2_PLACEMENT_3D('',#480,#481,#482);
#337=PRE_DEFINED_MARKER('');
#338=COLOUR_RGB('',0.800000011920929,0.800000011920929,0.800000011920929);
#339=SURFACE_SIDE_STYLE('',(#483));
#340=EDGE_LOOP('',(#484,#485));
#341=AXIS2_PLACEMENT_3D('',#486,#487,#488);
#342=SURFACE_SIDE_STYLE('',(#489));
#343=EDGE_LOOP('',(#490,#491,#492,#493,#494));
#344=AXIS2_PLACEMENT_3D('',#495,#496,#497);
#345=DRAUGHTING_PRE_DEFINED_CURVE_FONT('continuous');
#346=COLOUR_RGB('',0.498039215803146,0.498039215803146,0.498039215803146);
#347=AXIS2_PLACEMENT_3D('',#498,#499,#500);
#348=DRAUGHTING_PRE_DEFINED_CURVE_FONT('continuous');
#349=COLOUR_RGB('',0.498039215803146,0.498039215803146,0.498039215803146);
#350=CARTESIAN_POINT('',(-5.81688018065629E-016,4.75,-0.25));
#351=VECTOR('',#501,1.0);
#352=SURFACE_SIDE_STYLE('',(#502));
#353=EDGE_LOOP('',(#503,#504,#505,#506,#507));
#354=AXIS2_PLACEMENT_3D('',#508,#509,#510);
#355=SURFACE_SIDE_STYLE('',(#511));
#356=EDGE_LOOP('',(#512,#513));
#357=AXIS2_PLACEMENT_3D('',#514,#515,#516);
#358=PRE_DEFINED_MARKER('');
#359=COLOUR_RGB('',0.800000011920929,0.800000011920929,0.800000011920929);
#360=SURFACE_SIDE_STYLE('',(#517));
#361=EDGE_LOOP('',(#518,#519,#520));
#362=AXIS2_PLACEMENT_3D('',#521,#522,#523);
#363=DRAUGHTING_PRE_DEFINED_CURVE_FONT('continuous');
#364=COLOUR_RGB('',0.800000011920929,0.800000011920929,0.800000011920929);
#365=CARTESIAN_POINT('',(-2.5,-4.33012701892219,-64.0));
#366=VECTOR('',#524,1.0);
#367=PRE_DEFINED_MARKER('');
#368=COLOUR_RGB('',0.498039215803146,0.498039215803146,0.498039215803146);
#369=PRE_DEFINED_MARKER('');
#370=COLOUR_RGB('',0.498039215803146,0.498039215803146,0.498039215803146);
#371=PRE_DEFINED_MARKER('');
#372=COLOUR_RGB('',0.800000011920929,0.800000011920929,0.800000011920929);
#373=DRAUGHTING_PRE_DEFINED_CURVE_FONT('continuous');
#374=COLOUR_RGB('',0.800000011920929,0.800000011920929,0.800000011920929);
#375=AXIS2_PLACEMENT_3D('',#525,#526,#527);
#376=DRAUGHTING_PRE_DEFINED_CURVE_FONT('continuous');
#377=COLOUR_RGB('',0.800000011920929,0.800000011920929,0.800000011920929);
#378=AXIS2_PLACEMENT_3D('',#528,#529,#530);
#379=DRAUGHTING_PRE_DEFINED_CURVE_FONT('continuous');
#380=COLOUR_RGB('',0.498039215803146,0.498039215803146,0.498039215803146);
#381=AXIS2_PLACEMENT_3D('',#531,#532,#533);
#382=SURFACE_SIDE_STYLE('',(#534));
#383=EDGE_LOOP('',(#535,#536,#537));
#384=AXIS2_PLACEMENT_3D('',#538,#539,#540);
#385=PRE_DEFINED_MARKER('');
#386=COLOUR_RGB('',0.498039215803146,0.498039215803146,0.498039215803146);
#387=PRE_DEFINED_MARKER('');
#388=COLOUR_RGB('',0.498039215803146,0.498039215803146,0.498039215803146);
#389=DRAUGHTING_PRE_DEFINED_CURVE_FONT('continuous');
#390=COLOUR_RGB('',0.498039215803146,0.498039215803146,0.498039215803146);
#391=CARTESIAN_POINT('',(5.0,6.12303176911189E-016,-51.5));
#392=VECTOR('',#541,1.0);
#393=DRAUGHTING_PRE_DEFINED_CURVE_FONT('continuous');
#394=COLOUR_RGB('',0.498039215803146,0.498039215803146,0.498039215803146);
#395=AXIS2_PLACEMENT_3D('',#542,#543,#544);
#396=PRE_DEFINED_MARKER('');
#397=COLOUR_RGB('',0.498039215803146,0.498039215803146,0.498039215803146);
#398=SURFACE_SIDE_STYLE('',(#545));
#399=PRE_DEFINED_MARKER('');
#400=COLOUR_RGB('',0.800000011920929,0.800000011920929,0.800000011920929);
#401=SURFACE_SIDE_STYLE('',(#546));
#402=EDGE_LOOP('',(#547,#548,#549,#550,#551));
#403=AXIS2_PLACEMENT_3D('',#552,#553,#554);
#404=DRAUGHTING_PRE_DEFINED_CURVE_FONT('continuous');
#405=COLOUR_RGB('',0.800000011920929,0.800000011920929,0.800000011920929);
#406=AXIS2_PLACEMENT_3D('',#555,#556,#557);
#407=DRAUGHTING_PRE_DEFINED_CURVE_FONT('continuous');
#408=COLOUR_RGB('',0.498039215803146,0.498039215803146,0.498039215803146);
#409=AXIS2_PLACEMENT_3D('',#558,#559,#560);
#410=PRE_DEFINED_MARKER('');
#411=COLOUR_RGB('',0.498039215803146,0.498039215803146,0.498039215803146);
#412=PRE_DEFINED_MARKER('');
#413=COLOUR_RGB('',0.498039215803146,0.498039215803146,0.498039215803146);
#414=DRAUGHTING_PRE_DEFINED_CURVE_FONT('continuous');
#415=COLOUR_RGB('',0.800000011920929,0.800000011920929,0.800000011920929);
#416=AXIS2_PLACEMENT_3D('',#561,#562,#563);
#417=DRAUGHTING_PRE_DEFINED_CURVE_FONT('continuous');
#418=COLOUR_RGB('',0.498039215803146,0.498039215803146,0.498039215803146);
#419=CARTESIAN_POINT('',(-5.0,-6.12303176911189E-016,-51.5));
#420=VECTOR('',#564,1.0);
#421=SURFACE_SIDE_STYLE('',(#565));
#422=EDGE_LOOP('',(#566,#567));
#423=AXIS2_PLACEMENT_3D('',#568,#569,#570);
#424=PRE_DEFINED_MARKER('');
#425=COLOUR_RGB('',0.498039215803146,0.498039215803146,0.498039215803146);
#426=DRAUGHTING_PRE_DEFINED_CURVE_FONT('continuous');
#427=COLOUR_RGB('',0.800000011920929,0.800000011920929,0.800000011920929);
#428=AXIS2_PLACEMENT_3D('',#571,#572,#573);
#429=DRAUGHTING_PRE_DEFINED_CURVE_FONT('continuous');
#430=COLOUR_RGB('',0.498039215803146,0.498039215803146,0.498039215803146);
#431=AXIS2_PLACEMENT_3D('',#574,#575,#576);
#432=DRAUGHTING_PRE_DEFINED_CURVE_FONT('continuous');
#433=COLOUR_RGB('',0.498039215803146,0.498039215803146,0.498039215803146);
#434=CARTESIAN_POINT('',(5.81688018065629E-016,-4.75,-0.25));
#435=VECTOR('',#577,1.0);
#436=DRAUGHTING_PRE_DEFINED_CURVE_FONT('continuous');
#437=COLOUR_RGB('',0.498039215803146,0.498039215803146,0.498039215803146);
#438=AXIS2_PLACEMENT_3D('',#578,#579,#580);
#439=DRAUGHTING_PRE_DEFINED_CURVE_FONT('continuous');
#440=COLOUR_RGB('',0.800000011920929,0.800000011920929,0.800000011920929);
#441=AXIS2_PLACEMENT_3D('',#581,#582,#583);
#442=PRE_DEFINED_MARKER('');
#443=COLOUR_RGB('',0.800000011920929,0.800000011920929,0.800000011920929);
#444=SURFACE_SIDE_STYLE('',(#584));
#446=SURFACE_STYLE_FILL_AREA(#585);
#447=ORIENTED_EDGE('',*,*,#89,.T.);
#448=ORIENTED_EDGE('',*,*,#85,.F.);
#449=ORIENTED_EDGE('',*,*,#171,.F.);
#450=ORIENTED_EDGE('',*,*,#115,.T.);
#451=ORIENTED_EDGE('',*,*,#163,.T.);
#452=CARTESIAN_POINT('',(0.0,0.0,-64.0));
#453=DIRECTION('',(-0.0,-0.0,1.0));
#454=DIRECTION('',(0.5,0.866025403784439,0.0));
#455=CARTESIAN_POINT('',(0.0,0.0,-67.0));
#456=DIRECTION('',(0.0,0.0,-1.0));
#457=DIRECTION('',(0.5,0.866025403784439,0.0));
#458=CARTESIAN_POINT('',(0.0,0.0,-0.5));
#459=DIRECTION('',(0.0,0.0,-1.0));
#460=DIRECTION('',(0.0,1.0,0.0));
#461=DIRECTION('',(0.0,0.0,-1.0));
#462=SURFACE_STYLE_FILL_AREA(#586);
#463=ORIENTED_EDGE('',*,*,#157,.T.);
#464=ORIENTED_EDGE('',*,*,#165,.F.);
#465=ORIENTED_EDGE('',*,*,#135,.T.);
#466=ORIENTED_EDGE('',*,*,#127,.T.);
#467=ORIENTED_EDGE('',*,*,#87,.T.);
#468=CARTESIAN_POINT('',(0.0,0.0,-51.5));
#469=DIRECTION('',(-0.0,-0.0,1.0));
#470=DIRECTION('',(-1.0,0.0,0.0));
#471=SURFACE_STYLE_FILL_AREA(#587);
#472=ORIENTED_EDGE('',*,*,#105,.T.);
#473=ORIENTED_EDGE('',*,*,#169,.F.);
#474=ORIENTED_EDGE('',*,*,#87,.F.);
#475=ORIENTED_EDGE('',*,*,#167,.T.);
#476=ORIENTED_EDGE('',*,*,#149,.T.);
#477=CARTESIAN_POINT('',(0.0,0.0,-0.25));
#478=DIRECTION('',(0.0,-0.0,-1.0));
#479=DIRECTION('',(0.0,1.0,0.0));
#480=CARTESIAN_POINT('',(0.0,0.0,0.0));
#481=DIRECTION('',(0.0,0.0,-1.0));
#482=DIRECTION('',(0.0,1.0,0.0));
#483=SURFACE_STYLE_FILL_AREA(#588);
#484=ORIENTED_EDGE('',*,*,#95,.F.);
#485=ORIENTED_EDGE('',*,*,#149,.F.);
#486=CARTESIAN_POINT('',(0.0,2.25,0.0));
#487=DIRECTION('',(-0.0,0.0,1.0));
#488=DIRECTION('',(0.0,-1.0,0.0));
#489=SURFACE_STYLE_FILL_AREA(#589);
#490=ORIENTED_EDGE('',*,*,#157,.F.);
#491=ORIENTED_EDGE('',*,*,#169,.T.);
#492=ORIENTED_EDGE('',*,*,#137,.T.);
#493=ORIENTED_EDGE('',*,*,#135,.F.);
#494=ORIENTED_EDGE('',*,*,#103,.F.);
#495=CARTESIAN_POINT('',(0.0,0.0,-51.5));
#496=DIRECTION('',(-0.0,-0.0,1.0));
#497=DIRECTION('',(-1.0,0.0,0.0));
#498=CARTESIAN_POINT('',(0.0,0.0,-61.0));
#499=DIRECTION('',(0.0,0.0,-1.0));
#500=DIRECTION('',(-1.0,0.0,0.0));
#501=DIRECTION('',(-8.65927457071936E-017,0.707106781186548,-0.707106781186548));
#502=SURFACE_STYLE_FILL_AREA(#590);
#503=ORIENTED_EDGE('',*,*,#105,.F.);
#504=ORIENTED_EDGE('',*,*,#95,.T.);
#505=ORIENTED_EDGE('',*,*,#167,.F.);
#506=ORIENTED_EDGE('',*,*,#127,.F.);
#507=ORIENTED_EDGE('',*,*,#137,.F.);
#508=CARTESIAN_POINT('',(0.0,0.0,-0.25));
#509=DIRECTION('',(0.0,-0.0,-1.0));
#510=DIRECTION('',(0.0,1.0,0.0));
#511=SURFACE_STYLE_FILL_AREA(#591);
#512=ORIENTED_EDGE('',*,*,#147,.F.);
#513=ORIENTED_EDGE('',*,*,#163,.F.);
#514=CARTESIAN_POINT('',(1.25,2.1650635094611,-61.0));
#515=DIRECTION('',(0.0,0.0,1.0));
#516=DIRECTION('',(-0.5,-0.866025403784439,0.0));
#517=SURFACE_STYLE_FILL_AREA(#592);
#518=ORIENTED_EDGE('',*,*,#125,.F.);
#519=ORIENTED_EDGE('',*,*,#123,.T.);
#520=ORIENTED_EDGE('',*,*,#171,.T.);
#521=CARTESIAN_POINT('',(0.0,0.0,-67.0));
#522=DIRECTION('',(0.0,1.0,0.0));
#523=DIRECTION('',(0.0,0.0,-1.0));
#524=DIRECTION('',(-0.0,-0.0,1.0));
#525=CARTESIAN_POINT('',(0.0,0.0,-67.0));
#526=DIRECTION('',(0.0,0.0,-1.0));
#527=DIRECTION('',(0.5,0.866025403784439,0.0));
#528=CARTESIAN_POINT('',(0.0,0.0,-67.0));
#529=DIRECTION('',(1.0,0.0,1.22460635382238E-016));
#530=DIRECTION('',(-1.22460635382238E-016,0.0,1.0));
#531=CARTESIAN_POINT('',(0.0,0.0,-0.5));
#532=DIRECTION('',(0.0,0.0,-1.0));
#533=DIRECTION('',(0.0,1.0,0.0));
#534=SURFACE_STYLE_FILL_AREA(#593);
#535=ORIENTED_EDGE('',*,*,#125,.T.);
#536=ORIENTED_EDGE('',*,*,#85,.T.);
#537=ORIENTED_EDGE('',*,*,#155,.T.);
#538=CARTESIAN_POINT('',(0.0,0.0,-67.0));
#539=DIRECTION('',(0.0,1.0,0.0));
#540=DIRECTION('',(0.0,0.0,-1.0));
#541=DIRECTION('',(-0.0,-0.0,1.0));
#542=CARTESIAN_POINT('',(0.0,0.0,-0.5));
#543=DIRECTION('',(0.0,0.0,-1.0));
#544=DIRECTION('',(0.0,1.0,0.0));
#545=SURFACE_STYLE_FILL_AREA(#594);
#546=SURFACE_STYLE_FILL_AREA(#595);
#547=ORIENTED_EDGE('',*,*,#89,.F.);
#548=ORIENTED_EDGE('',*,*,#147,.T.);
#549=ORIENTED_EDGE('',*,*,#115,.F.);
#550=ORIENTED_EDGE('',*,*,#123,.F.);
#551=ORIENTED_EDGE('',*,*,#155,.F.);
#552=CARTESIAN_POINT('',(0.0,0.0,-64.0));
#553=DIRECTION('',(-0.0,-0.0,1.0));
#554=DIRECTION('',(0.5,0.866025403784439,0.0));
#555=CARTESIAN_POINT('',(0.0,0.0,-61.0));
#556=DIRECTION('',(0.0,0.0,-1.0));
#557=DIRECTION('',(0.5,0.866025403784439,0.0));
#558=CARTESIAN_POINT('',(0.0,0.0,0.0));
#559=DIRECTION('',(0.0,0.0,-1.0));
#560=DIRECTION('',(0.0,1.0,0.0));
#561=CARTESIAN_POINT('',(0.0,0.0,-67.0));
#562=DIRECTION('',(0.0,0.0,-1.0));
#563=DIRECTION('',(0.5,0.866025403784439,0.0));
#564=DIRECTION('',(0.0,0.0,-1.0));
#565=SURFACE_STYLE_FILL_AREA(#596);
#566=ORIENTED_EDGE('',*,*,#103,.T.);
#567=ORIENTED_EDGE('',*,*,#165,.T.);
#568=CARTESIAN_POINT('',(-2.5,0.0,-61.0));
#569=DIRECTION('',(0.0,0.0,-1.0));
#570=DIRECTION('',(-1.0,0.0,0.0));
#571=CARTESIAN_POINT('',(0.0,0.0,-61.0));
#572=DIRECTION('',(0.0,0.0,-1.0));
#573=DIRECTION('',(0.5,0.866025403784439,0.0));
#574=CARTESIAN_POINT('',(0.0,0.0,-61.0));
#575=DIRECTION('',(0.0,0.0,-1.0));
#576=DIRECTION('',(-1.0,0.0,0.0));
#577=DIRECTION('',(-8.65927457071936E-017,0.707106781186548,0.707106781186548));
#578=CARTESIAN_POINT('',(0.0,0.0,-0.5));
#579=DIRECTION('',(0.0,0.0,-1.0));
#580=DIRECTION('',(0.0,1.0,0.0));
#581=CARTESIAN_POINT('',(0.0,0.0,-67.0));
#582=DIRECTION('',(0.0,0.0,-1.0));
#583=DIRECTION('',(0.5,0.866025403784439,0.0));
#584=SURFACE_STYLE_FILL_AREA(#597);
#585=FILL_AREA_STYLE('',(#598));
#586=FILL_AREA_STYLE('',(#599));
#587=FILL_AREA_STYLE('',(#600));
#588=FILL_AREA_STYLE('',(#601));
#589=FILL_AREA_STYLE('',(#602));
#590=FILL_AREA_STYLE('',(#603));
#591=FILL_AREA_STYLE('',(#604));
#592=FILL_AREA_STYLE('',(#605));
#593=FILL_AREA_STYLE('',(#606));
#594=FILL_AREA_STYLE('',(#607));
#595=FILL_AREA_STYLE('',(#608));
#596=FILL_AREA_STYLE('',(#609));
#597=FILL_AREA_STYLE('',(#610));
#598=FILL_AREA_STYLE_COLOUR('',#611);
#599=FILL_AREA_STYLE_COLOUR('',#612);
#600=FILL_AREA_STYLE_COLOUR('',#613);
#601=FILL_AREA_STYLE_COLOUR('',#614);
#602=FILL_AREA_STYLE_COLOUR('',#615);
#603=FILL_AREA_STYLE_COLOUR('',#616);
#604=FILL_AREA_STYLE_COLOUR('',#617);
#605=FILL_AREA_STYLE_COLOUR('',#618);
#606=FILL_AREA_STYLE_COLOUR('',#619);
#607=FILL_AREA_STYLE_COLOUR('',#620);
#608=FILL_AREA_STYLE_COLOUR('',#621);
#609=FILL_AREA_STYLE_COLOUR('',#622);
#610=FILL_AREA_STYLE_COLOUR('',#623);
#611=COLOUR_RGB('',0.800000011920929,0.800000011920929,0.800000011920929);
#612=COLOUR_RGB('',0.498039215803146,0.498039215803146,0.498039215803146);
#613=COLOUR_RGB('',0.498039215803146,0.498039215803146,0.498039215803146);
#614=COLOUR_RGB('',0.498039215803146,0.498039215803146,0.498039215803146);
#615=COLOUR_RGB('',0.498039215803146,0.498039215803146,0.498039215803146);
#616=COLOUR_RGB('',0.498039215803146,0.498039215803146,0.498039215803146);
#617=COLOUR_RGB('',0.800000011920929,0.800000011920929,0.800000011920929);
#618=COLOUR_RGB('',0.800000011920929,0.800000011920929,0.800000011920929);
#619=COLOUR_RGB('',0.800000011920929,0.800000011920929,0.800000011920929);
#620=COLOUR_RGB('',0.498039215803146,0.498039215803146,0.498039215803146);
#621=COLOUR_RGB('',0.800000011920929,0.800000011920929,0.800000011920929);
#622=COLOUR_RGB('',0.498039215803146,0.498039215803146,0.498039215803146);
#623=COLOUR_RGB('',0.800000011920929,0.800000011920929,0.800000011920929);
#624=AXIS2_PLACEMENT_3D('PCS',#625,#626,#627);
#625=CARTESIAN_POINT('',(0.0,0.0,0.0));
#626=DIRECTION('',(0.0,0.0,1.0));
#627=DIRECTION('',(1.0,0.0,0.0));
#628=AXIS2_PLACEMENT_3D('MCS',#629,#630,#631);
#629=CARTESIAN_POINT('',(0.0,0.0,-40.0));
#630=DIRECTION('',(0.0,0.0,1.0));
#631=DIRECTION('',(1.0,0.0,0.0));
#632=AXIS2_PLACEMENT_3D('CIP',#633,#634,#635);
#633=CARTESIAN_POINT('',(0.0,0.0,-72.0));
#634=DIRECTION('',(0.0,0.0,1.0));
#635=DIRECTION('',(1.0,0.0,0.0));
#636=CONSTRUCTIVE_GEOMETRY_REPRESENTATION_RELATIONSHIP('coordinate systems',$,#66,#637);
#637=CONSTRUCTIVE_GEOMETRY_REPRESENTATION('coordinate systems',(#624,#628,#632),#10);
ENDSEC;
END-ISO-10303-21;
